  0
SECTION
  2
HEADER
  9
$ACADVER
  1
AC1014
  9
$ACADMAINTVER
 70
     9
  9
$DWGCODEPAGE
  3
ANSI_1252
  9
$INSBASE
 10
0.0
 20
0.0
 30
0.0
  9
$EXTMIN
 10
-0.0000000000000016
 20
0.0000200000000024
 30
0.0
  9
$EXTMAX
 10
142.0
 20
162.99998
 30
0.0
  9
$LIMMIN
 10
0.0
 20
0.0
  9
$LIMMAX
 10
12.0
 20
9.0
  9
$ORTHOMODE
 70
     0
  9
$REGENMODE
 70
     1
  9
$FILLMODE
 70
     1
  9
$QTEXTMODE
 70
     0
  9
$MIRRTEXT
 70
     1
  9
$DRAGMODE
 70
     2
  9
$LTSCALE
 40
1.0
  9
$OSMODE
 70
    37
  9
$ATTMODE
 70
     1
  9
$TEXTSIZE
 40
0.2
  9
$TRACEWID
 40
0.05
  9
$TEXTSTYLE
  7
STANDARD
  9
$CLAYER
  8
0
  9
$CELTYPE
  6
CONTINUOUS
  9
$CECOLOR
 62
   256
  9
$CELTSCALE
 40
1.0
  9
$DELOBJ
 70
     1
  9
$DISPSILH
 70
     0
  9
$DIMSCALE
 40
1.0
  9
$DIMASZ
 40
0.18
  9
$DIMEXO
 40
0.0625
  9
$DIMDLI
 40
0.38
  9
$DIMRND
 40
0.0
  9
$DIMDLE
 40
0.0
  9
$DIMEXE
 40
0.18
  9
$DIMTP
 40
0.0
  9
$DIMTM
 40
0.0
  9
$DIMTXT
 40
0.18
  9
$DIMCEN
 40
0.09
  9
$DIMTSZ
 40
0.0
  9
$DIMTOL
 70
     0
  9
$DIMLIM
 70
     0
  9
$DIMTIH
 70
     1
  9
$DIMTOH
 70
     1
  9
$DIMSE1
 70
     0
  9
$DIMSE2
 70
     0
  9
$DIMTAD
 70
     0
  9
$DIMZIN
 70
     0
  9
$DIMBLK
  1

  9
$DIMASO
 70
     1
  9
$DIMSHO
 70
     1
  9
$DIMPOST
  1

  9
$DIMAPOST
  1

  9
$DIMALT
 70
     0
  9
$DIMALTD
 70
     2
  9
$DIMALTF
 40
25.4
  9
$DIMLFAC
 40
1.0
  9
$DIMTOFL
 70
     0
  9
$DIMTVP
 40
0.0
  9
$DIMTIX
 70
     0
  9
$DIMSOXD
 70
     0
  9
$DIMSAH
 70
     0
  9
$DIMBLK1
  1

  9
$DIMBLK2
  1

  9
$DIMSTYLE
  2
STANDARD
  9
$DIMCLRD
 70
     0
  9
$DIMCLRE
 70
     0
  9
$DIMCLRT
 70
     0
  9
$DIMTFAC
 40
1.0
  9
$DIMGAP
 40
0.09
  9
$DIMJUST
 70
     0
  9
$DIMSD1
 70
     0
  9
$DIMSD2
 70
     0
  9
$DIMTOLJ
 70
     1
  9
$DIMTZIN
 70
     0
  9
$DIMALTZ
 70
     0
  9
$DIMALTTZ
 70
     0
  9
$DIMFIT
 70
     3
  9
$DIMUPT
 70
     0
  9
$DIMUNIT
 70
     2
  9
$DIMDEC
 70
     4
  9
$DIMTDEC
 70
     4
  9
$DIMALTU
 70
     2
  9
$DIMALTTD
 70
     2
  9
$DIMTXSTY
  7
STANDARD
  9
$DIMAUNIT
 70
     0
  9
$LUNITS
 70
     2
  9
$LUPREC
 70
     4
  9
$SKETCHINC
 40
0.1
  9
$FILLETRAD
 40
0.0
  9
$AUNITS
 70
     0
  9
$AUPREC
 70
     0
  9
$MENU
  1
.
  9
$ELEVATION
 40
0.0
  9
$PELEVATION
 40
0.0
  9
$THICKNESS
 40
0.0
  9
$LIMCHECK
 70
     0
  9
$BLIPMODE
 70
     0
  9
$CHAMFERA
 40
0.0
  9
$CHAMFERB
 40
0.0
  9
$CHAMFERC
 40
0.0
  9
$CHAMFERD
 40
0.0
  9
$SKPOLY
 70
     0
  9
$TDCREATE
 40
2454690.652320775
  9
$TDUPDATE
 40
2454690.654530879
  9
$TDINDWG
 40
0.0022101042
  9
$TDUSRTIMER
 40
0.0022101042
  9
$USRTIMER
 70
     1
  9
$ANGBASE
 50
0.0
  9
$ANGDIR
 70
     0
  9
$PDMODE
 70
     0
  9
$PDSIZE
 40
0.0
  9
$PLINEWID
 40
0.0
  9
$COORDS
 70
     1
  9
$SPLFRAME
 70
     0
  9
$SPLINETYPE
 70
     6
  9
$SPLINESEGS
 70
     8
  9
$ATTDIA
 70
     0
  9
$ATTREQ
 70
     1
  9
$HANDLING
 70
 22529
  9
$HANDSEED
  5
1CA
  9
$SURFTAB1
 70
     6
  9
$SURFTAB2
 70
     6
  9
$SURFTYPE
 70
     6
  9
$SURFU
 70
     6
  9
$SURFV
 70
     6
  9
$UCSNAME
  2

  9
$UCSORG
 10
0.0
 20
0.0
 30
0.0
  9
$UCSXDIR
 10
1.0
 20
0.0
 30
0.0
  9
$UCSYDIR
 10
0.0
 20
1.0
 30
0.0
  9
$PUCSNAME
  2

  9
$PUCSORG
 10
0.0
 20
0.0
 30
0.0
  9
$PUCSXDIR
 10
1.0
 20
0.0
 30
0.0
  9
$PUCSYDIR
 10
0.0
 20
1.0
 30
0.0
  9
$USERI1
 70
     0
  9
$USERI2
 70
     0
  9
$USERI3
 70
     0
  9
$USERI4
 70
     0
  9
$USERI5
 70
     0
  9
$USERR1
 40
0.0
  9
$USERR2
 40
0.0
  9
$USERR3
 40
0.0
  9
$USERR4
 40
0.0
  9
$USERR5
 40
0.0
  9
$WORLDVIEW
 70
     1
  9
$SHADEDGE
 70
     3
  9
$SHADEDIF
 70
    70
  9
$TILEMODE
 70
     1
  9
$MAXACTVP
 70
    64
  9
$PINSBASE
 10
0.0
 20
0.0
 30
0.0
  9
$PLIMCHECK
 70
     0
  9
$PEXTMIN
 10
1.000000000000000E+20
 20
1.000000000000000E+20
 30
1.000000000000000E+20
  9
$PEXTMAX
 10
-1.000000000000000E+20
 20
-1.000000000000000E+20
 30
-1.000000000000000E+20
  9
$PLIMMIN
 10
0.0
 20
0.0
  9
$PLIMMAX
 10
12.0
 20
9.0
  9
$UNITMODE
 70
     0
  9
$VISRETAIN
 70
     1
  9
$PLINEGEN
 70
     0
  9
$PSLTSCALE
 70
     1
  9
$TREEDEPTH
 70
  3020
  9
$PICKSTYLE
 70
     1
  9
$CMLSTYLE
  2
STANDARD
  9
$CMLJUST
 70
     0
  9
$CMLSCALE
 40
1.0
  9
$PROXYGRAPHICS
 70
     1
  9
$MEASUREMENT
 70
     0
  0
ENDSEC
  0
SECTION
  2
CLASSES
  0
CLASS
  1
ACDBDICTIONARYWDFLT
  2
AcDbDictionaryWithDefault
  3
AutoCAD 2000
 90
        0
280
     0
281
     0
  0
CLASS
  1
ACDBPLACEHOLDER
  2
AcDbPlaceHolder
  3
AutoCAD 2000
 90
        0
280
     0
281
     0
  0
CLASS
  1
LAYOUT
  2
AcDbLayout
  3
AutoCAD 2000
 90
        0
280
     0
281
     0
  0
CLASS
  1
DICTIONARYVAR
  2
AcDbDictionaryVar
  3
AutoCAD 2000
 90
        0
280
     0
281
     0
  0
CLASS
  1
LONG_TRANSACTION
  2
AcDbLongTransaction
  3
AutoCAD 2000
 90
        0
280
     0
281
     0
  0
CLASS
  1
LWPOLYLINE
  2
AcDbPolyline
  3
AutoCAD 2000
 90
        0
280
     0
281
     1
  0
CLASS
  1
HATCH
  2
AcDbHatch
  3
AutoCAD 2000
 90
        0
280
     0
281
     1
  0
CLASS
  1
XRECORD
  2
AcDbXrecord
  3
AutoCAD 2000
 90
        0
280
     0
281
     0
  0
ENDSEC
  0
SECTION
  2
TABLES
  0
TABLE
  2
VPORT
  5
8
330
0
100
AcDbSymbolTable
 70
     2
  0
VPORT
  5
1A5
330
8
100
AcDbSymbolTableRecord
100
AcDbViewportTableRecord
  2
*ACTIVE
 70
     0
 10
0.0
 20
0.0
 11
1.0
 21
1.0
 12
71.0
 22
81.5
 13
0.0
 23
0.0
 14
1.0
 24
1.0
 15
0.0
 25
0.0
 16
0.0
 26
0.0
 36
1.0
 17
0.0
 27
0.0
 37
0.0
 40
164.2505990792838
 41
2.043533930857874
 42
50.0
 43
0.0
 44
0.0
 50
0.0
 51
0.0
 71
     0
 72
   100
 73
     1
 74
     3
 75
     0
 76
     0
 77
     0
 78
     0
  0
ENDTAB
  0
TABLE
  2
LTYPE
  5
5
330
0
100
AcDbSymbolTable
 70
     1
  0
LTYPE
  5
13
330
5
100
AcDbSymbolTableRecord
100
AcDbLinetypeTableRecord
  2
BYBLOCK
 70
     0
  3

 72
    65
 73
     0
 40
0.0
  0
LTYPE
  5
14
330
5
100
AcDbSymbolTableRecord
100
AcDbLinetypeTableRecord
  2
BYLAYER
 70
     0
  3

 72
    65
 73
     0
 40
0.0
  0
LTYPE
  5
15
330
5
100
AcDbSymbolTableRecord
100
AcDbLinetypeTableRecord
  2
CONTINUOUS
 70
     0
  3
Solid line
 72
    65
 73
     0
 40
0.0
  0
ENDTAB
  0
TABLE
  2
LAYER
  5
2
330
0
100
AcDbSymbolTable
 70
     1
  0
LAYER
  5
10
330
2
100
AcDbSymbolTableRecord
100
AcDbLayerTableRecord
  2
0
 70
     0
 62
     7
  6
CONTINUOUS
  0
ENDTAB
  0
TABLE
  2
STYLE
  5
3
330
0
100
AcDbSymbolTable
 70
     1
  0
STYLE
  5
11
330
3
100
AcDbSymbolTableRecord
100
AcDbTextStyleTableRecord
  2
STANDARD
 70
     0
 40
0.0
 41
1.0
 50
0.0
 71
     0
 42
0.2
  3
txt
  4

  0
ENDTAB
  0
TABLE
  2
VIEW
  5
6
330
0
100
AcDbSymbolTable
 70
     0
  0
ENDTAB
  0
TABLE
  2
UCS
  5
7
330
0
100
AcDbSymbolTable
 70
     0
  0
ENDTAB
  0
TABLE
  2
APPID
  5
9
330
0
100
AcDbSymbolTable
 70
     1
  0
APPID
  5
12
330
9
100
AcDbSymbolTableRecord
100
AcDbRegAppTableRecord
  2
ACAD
 70
     0
  0
ENDTAB
  0
TABLE
  2
DIMSTYLE
  5
A
330
0
100
AcDbSymbolTable
 70
     1
  0
DIMSTYLE
105
19D
330
A
100
AcDbSymbolTableRecord
100
AcDbDimStyleTableRecord
  2
STANDARD
 70
     0
  3

  4

  5

  6

  7

 40
1.0
 41
0.18
 42
0.0625
 43
0.38
 44
0.18
 45
0.0
 46
0.0
 47
0.0
 48
0.0
140
0.18
141
0.09
142
0.0
143
25.4
144
1.0
145
0.0
146
1.0
147
0.09
 71
     0
 72
     0
 73
     1
 74
     1
 75
     0
 76
     0
 77
     0
 78
     0
170
     0
171
     2
172
     0
173
     0
174
     0
175
     0
176
     0
177
     0
178
     0
270
     2
271
     4
272
     4
273
     2
274
     2
340
11
275
     0
280
     0
281
     0
282
     0
283
     1
284
     0
285
     0
286
     0
287
     3
288
     0
  0
ENDTAB
  0
TABLE
  2
BLOCK_RECORD
  5
1
330
0
100
AcDbSymbolTable
 70
     0
  0
BLOCK_RECORD
  5
1E
102
{ACAD_XDICTIONARY
360
1C8
102
}
330
1
100
AcDbSymbolTableRecord
100
AcDbBlockTableRecord
  2
*MODEL_SPACE
  0
BLOCK_RECORD
  5
1A
102
{ACAD_XDICTIONARY
360
1C6
102
}
330
1
100
AcDbSymbolTableRecord
100
AcDbBlockTableRecord
  2
*PAPER_SPACE
  0
ENDTAB
  0
ENDSEC
  0
SECTION
  2
BLOCKS
  0
BLOCK
  5
1F
330
1E
100
AcDbEntity
  8
0
100
AcDbBlockBegin
  2
*MODEL_SPACE
 70
     0
 10
0.0
 20
0.0
 30
0.0
  3
*MODEL_SPACE
  1

  0
ENDBLK
  5
20
330
1E
100
AcDbEntity
  8
0
100
AcDbBlockEnd
  0
BLOCK
  5
1B
330
1A
100
AcDbEntity
 67
     1
  8
0
100
AcDbBlockBegin
  2
*PAPER_SPACE
 70
     0
 10
0.0
 20
0.0
 30
0.0
  3
*PAPER_SPACE
  1

  0
ENDBLK
  5
1C
330
1A
100
AcDbEntity
 67
     1
  8
0
100
AcDbBlockEnd
  0
ENDSEC
  0
SECTION
  2
ENTITIES
  0
LINE
  5
22
330
1E
100
AcDbEntity
  8
0
100
AcDbLine
 10
34.5
 20
8.81432
 30
0.0
 11
34.5
 21
2.7418
 31
0.0
  0
LINE
  5
23
330
1E
100
AcDbEntity
  8
0
100
AcDbLine
 10
34.5
 20
8.81432
 30
0.0
 11
34.5
 21
17.66718
 31
0.0
  0
LINE
  5
24
330
1E
100
AcDbEntity
  8
0
100
AcDbLine
 10
34.5
 20
2.7418
 30
0.0
 11
34.5
 21
0.0000200000000026
 31
0.0
  0
LINE
  5
25
330
1E
100
AcDbEntity
  8
0
100
AcDbLine
 10
34.5
 20
2.7418
 30
0.0
 11
34.5
 21
8.81432
 31
0.0
  0
LINE
  5
26
330
1E
100
AcDbEntity
  8
0
100
AcDbLine
 10
34.5
 20
0.0000200000000024
 30
0.0
 11
34.5
 21
0.467430000000003
 31
0.0
  0
LINE
  5
27
330
1E
100
AcDbEntity
  8
0
100
AcDbLine
 10
34.5
 20
0.0000200000000024
 30
0.0
 11
134.4999999999999
 21
0.0000200000000024
 31
0.0
  0
LINE
  5
28
330
1E
100
AcDbEntity
  8
0
100
AcDbLine
 10
34.5
 20
0.0000200000000024
 30
0.0
 11
34.5
 21
2.7418
 31
0.0
  0
LINE
  5
29
330
1E
100
AcDbEntity
  8
0
100
AcDbLine
 10
34.5
 20
28.63398
 30
0.0
 11
34.5
 21
17.66718
 31
0.0
  0
LINE
  5
2A
330
1E
100
AcDbEntity
  8
0
100
AcDbLine
 10
34.5
 20
28.63398
 30
0.0
 11
34.5
 21
41.02538
 31
0.0
  0
LINE
  5
2B
330
1E
100
AcDbEntity
  8
0
100
AcDbLine
 10
34.5
 20
17.66718
 30
0.0
 11
34.5
 21
8.81432
 31
0.0
  0
LINE
  5
2C
330
1E
100
AcDbEntity
  8
0
100
AcDbLine
 10
34.5
 20
17.66718
 30
0.0
 11
34.5
 21
28.63398
 31
0.0
  0
LINE
  5
2D
330
1E
100
AcDbEntity
  8
0
100
AcDbLine
 10
34.5
 20
29.81538
 30
0.0
 11
34.5
 21
30.93417999999999
 31
0.0
  0
LINE
  5
2E
330
1E
100
AcDbEntity
  8
0
100
AcDbLine
 10
34.5
 20
29.81538
 30
0.0
 11
34.5
 21
30.01167999999999
 31
0.0
  0
LINE
  5
2F
330
1E
100
AcDbEntity
  8
0
100
AcDbLine
 10
34.5
 20
30.93417999999999
 30
0.0
 11
34.5
 21
33.37358
 31
0.0
  0
LINE
  5
30
330
1E
100
AcDbEntity
  8
0
100
AcDbLine
 10
34.5
 20
30.93417999999999
 30
0.0
 11
34.5
 21
29.81538
 31
0.0
  0
LINE
  5
31
330
1E
100
AcDbEntity
  8
0
100
AcDbLine
 10
34.5
 20
30.01167999999999
 30
0.0
 11
34.5
 21
31.58668
 31
0.0
  0
LINE
  5
32
330
1E
100
AcDbEntity
  8
0
100
AcDbLine
 10
34.5
 20
30.01167999999999
 30
0.0
 11
34.5
 21
29.81538
 31
0.0
  0
LINE
  5
33
330
1E
100
AcDbEntity
  8
0
100
AcDbLine
 10
34.5
 20
21.07387999999999
 30
0.0
 11
34.5
 21
32.70508
 31
0.0
  0
LINE
  5
34
330
1E
100
AcDbEntity
  8
0
100
AcDbLine
 10
34.5
 20
21.07387999999999
 30
0.0
 11
34.5
 21
11.38948
 31
0.0
  0
LINE
  5
35
330
1E
100
AcDbEntity
  8
0
100
AcDbLine
 10
34.5
 20
11.38948
 30
0.0
 11
34.5
 21
21.07387999999999
 31
0.0
  0
LINE
  5
36
330
1E
100
AcDbEntity
  8
0
100
AcDbLine
 10
34.5
 20
11.38948
 30
0.0
 11
34.5
 21
4.48014
 31
0.0
  0
LINE
  5
37
330
1E
100
AcDbEntity
  8
0
100
AcDbLine
 10
34.5
 20
4.48014
 30
0.0
 11
34.5
 21
11.38948
 31
0.0
  0
LINE
  5
38
330
1E
100
AcDbEntity
  8
0
100
AcDbLine
 10
34.5
 20
4.48014
 30
0.0
 11
34.5
 21
0.467430000000003
 31
0.0
  0
LINE
  5
39
330
1E
100
AcDbEntity
  8
0
100
AcDbLine
 10
34.5
 20
36.85557999999999
 30
0.0
 11
34.5
 21
41.33388
 31
0.0
  0
LINE
  5
3A
330
1E
100
AcDbEntity
  8
0
100
AcDbLine
 10
34.5
 20
36.85557999999999
 30
0.0
 11
34.5
 21
33.37358
 31
0.0
  0
LINE
  5
3B
330
1E
100
AcDbEntity
  8
0
100
AcDbLine
 10
34.5
 20
33.37358
 30
0.0
 11
34.5
 21
36.85557999999999
 31
0.0
  0
LINE
  5
3C
330
1E
100
AcDbEntity
  8
0
100
AcDbLine
 10
34.5
 20
33.37358
 30
0.0
 11
34.5
 21
30.93417999999999
 31
0.0
  0
LINE
  5
3D
330
1E
100
AcDbEntity
  8
0
100
AcDbLine
 10
34.5
 20
32.70508
 30
0.0
 11
34.5
 21
45.37367999999999
 31
0.0
  0
LINE
  5
3E
330
1E
100
AcDbEntity
  8
0
100
AcDbLine
 10
34.5
 20
32.70508
 30
0.0
 11
34.5
 21
21.07387999999999
 31
0.0
  0
LINE
  5
3F
330
1E
100
AcDbEntity
  8
0
100
AcDbLine
 10
34.5
 20
46.23488
 30
0.0
 11
34.5
 21
41.33388
 31
0.0
  0
LINE
  5
40
330
1E
100
AcDbEntity
  8
0
100
AcDbLine
 10
34.5
 20
46.23488
 30
0.0
 11
34.5
 21
51.37888
 31
0.0
  0
LINE
  5
41
330
1E
100
AcDbEntity
  8
0
100
AcDbLine
 10
34.5
 20
41.33388
 30
0.0
 11
34.5
 21
46.23488
 31
0.0
  0
LINE
  5
42
330
1E
100
AcDbEntity
  8
0
100
AcDbLine
 10
34.5
 20
41.33388
 30
0.0
 11
34.5
 21
36.85557999999999
 31
0.0
  0
LINE
  5
43
330
1E
100
AcDbEntity
  8
0
100
AcDbLine
 10
34.5
 20
41.02538
 30
0.0
 11
34.5
 21
28.63398
 31
0.0
  0
LINE
  5
44
330
1E
100
AcDbEntity
  8
0
100
AcDbLine
 10
34.5
 20
41.02538
 30
0.0
 11
34.5
 21
51.74718
 31
0.0
  0
LINE
  5
45
330
1E
100
AcDbEntity
  8
0
100
AcDbLine
 10
34.5
 20
45.37367999999999
 30
0.0
 11
34.5
 21
58.39018000000001
 31
0.0
  0
LINE
  5
46
330
1E
100
AcDbEntity
  8
0
100
AcDbLine
 10
34.5
 20
45.37367999999999
 30
0.0
 11
34.5
 21
32.70508
 31
0.0
  0
LINE
  5
47
330
1E
100
AcDbEntity
  8
0
100
AcDbLine
 10
12.6
 20
54.99698000000001
 30
0.0
 11
18.6
 21
52.53498
 31
0.0
  0
LINE
  5
48
330
1E
100
AcDbEntity
  8
0
100
AcDbLine
 10
18.6
 20
52.53498
 30
0.0
 11
25.0
 21
51.74718
 31
0.0
  0
LINE
  5
49
330
1E
100
AcDbEntity
  8
0
100
AcDbLine
 10
25.0
 20
51.74718
 30
0.0
 11
34.5
 21
51.74718
 31
0.0
  0
LINE
  5
4A
330
1E
100
AcDbEntity
  8
0
100
AcDbLine
 10
25.0
 20
51.74718
 30
0.0
 11
34.5
 21
51.74718
 31
0.0
  0
LINE
  5
4B
330
1E
100
AcDbEntity
  8
0
100
AcDbLine
 10
34.5
 20
51.74718
 30
0.0
 11
34.5
 21
41.02538
 31
0.0
  0
LINE
  5
4C
330
1E
100
AcDbEntity
  8
0
100
AcDbLine
 10
34.5
 20
51.74718
 30
0.0
 11
34.5
 21
51.37888
 31
0.0
  0
LINE
  5
4D
330
1E
100
AcDbEntity
  8
0
100
AcDbLine
 10
34.5
 20
51.37888
 30
0.0
 11
34.5
 21
51.74718
 31
0.0
  0
LINE
  5
4E
330
1E
100
AcDbEntity
  8
0
100
AcDbLine
 10
34.5
 20
51.37888
 30
0.0
 11
34.5
 21
46.23488
 31
0.0
  0
LINE
  5
4F
330
1E
100
AcDbEntity
  8
0
100
AcDbLine
 10
34.5
 20
58.08178
 30
0.0
 11
34.5
 21
53.18078
 31
0.0
  0
LINE
  5
50
330
1E
100
AcDbEntity
  8
0
100
AcDbLine
 10
34.5
 20
58.08178
 30
0.0
 11
34.5
 21
59.34558
 31
0.0
  0
LINE
  5
51
330
1E
100
AcDbEntity
  8
0
100
AcDbLine
 10
0.8999999999999978
 20
69.98318000000001
 30
0.0
 11
3.399999999999999
 21
64.07438
 31
0.0
  0
LINE
  5
52
330
1E
100
AcDbEntity
  8
0
100
AcDbLine
 10
3.399999999999999
 20
64.07438
 30
0.0
 11
7.299999999999999
 21
58.95338
 31
0.0
  0
LINE
  5
53
330
1E
100
AcDbEntity
  8
0
100
AcDbLine
 10
0.8999999999999978
 20
69.98318000000001
 30
0.0
 11
3.399999999999999
 21
64.07438
 31
0.0
  0
LINE
  5
54
330
1E
100
AcDbEntity
  8
0
100
AcDbLine
 10
14.0
 20
97.55778000000001
 30
0.0
 11
14.0
 21
118.7309799999999
 31
0.0
  0
LINE
  5
55
330
1E
100
AcDbEntity
  8
0
100
AcDbLine
 10
14.0
 20
97.55778000000001
 30
0.0
 11
14.0
 21
76.38448000000001
 31
0.0
  0
LINE
  5
56
330
1E
100
AcDbEntity
  8
0
100
AcDbLine
 10
-0.0000000000000016
 20
76.38448000000001
 30
0.0
 11
0.8999999999999978
 21
69.98318000000001
 31
0.0
  0
LINE
  5
57
330
1E
100
AcDbEntity
  8
0
100
AcDbLine
 10
-0.0000000000000016
 20
76.38448000000001
 30
0.0
 11
-0.0000000000000016
 21
97.55778000000001
 31
0.0
  0
LINE
  5
58
330
1E
100
AcDbEntity
  8
0
100
AcDbLine
 10
19.39999999999999
 20
67.14438
 30
0.0
 11
22.0
 21
65.96258
 31
0.0
  0
LINE
  5
59
330
1E
100
AcDbEntity
  8
0
100
AcDbLine
 10
22.0
 20
65.96258
 30
0.0
 11
25.0
 21
65.56868
 31
0.0
  0
LINE
  5
5A
330
1E
100
AcDbEntity
  8
0
100
AcDbLine
 10
27.7
 20
61.78448
 30
0.0
 11
29.6
 21
60.00018
 31
0.0
  0
LINE
  5
5B
330
1E
100
AcDbEntity
  8
0
100
AcDbLine
 10
27.0
 20
63.91058000000001
 30
0.0
 11
27.0
 21
64.30998000000001
 31
0.0
  0
LINE
  5
5C
330
1E
100
AcDbEntity
  8
0
100
AcDbLine
 10
27.0
 20
63.91058000000001
 30
0.0
 11
27.7
 21
61.78448
 31
0.0
  0
LINE
  5
5D
330
1E
100
AcDbEntity
  8
0
100
AcDbLine
 10
27.0
 20
63.91058000000001
 30
0.0
 11
27.0
 21
76.84678000000001
 31
0.0
  0
LINE
  5
5E
330
1E
100
AcDbEntity
  8
0
100
AcDbLine
 10
29.6
 20
60.00018
 30
0.0
 11
31.89999999999999
 21
59.34558
 31
0.0
  0
LINE
  5
5F
330
1E
100
AcDbEntity
  8
0
100
AcDbLine
 10
31.89999999999999
 20
59.34558
 30
0.0
 11
31.89999999999999
 21
59.71018
 31
0.0
  0
LINE
  5
60
330
1E
100
AcDbEntity
  8
0
100
AcDbLine
 10
31.89999999999999
 20
59.34558
 30
0.0
 11
84.50000000000001
 21
59.34558
 31
0.0
  0
LINE
  5
61
330
1E
100
AcDbEntity
  8
0
100
AcDbLine
 10
31.89999999999999
 20
59.71018
 30
0.0
 11
84.50000000000001
 21
59.71018
 31
0.0
  0
LINE
  5
62
330
1E
100
AcDbEntity
  8
0
100
AcDbLine
 10
29.6
 20
60.36478
 30
0.0
 11
31.89999999999999
 21
59.71018
 31
0.0
  0
LINE
  5
63
330
1E
100
AcDbEntity
  8
0
100
AcDbLine
 10
27.7
 20
62.14918
 30
0.0
 11
29.6
 21
60.36478
 31
0.0
  0
LINE
  5
64
330
1E
100
AcDbEntity
  8
0
100
AcDbLine
 10
27.0
 20
64.30998000000001
 30
0.0
 11
27.7
 21
62.14918
 31
0.0
  0
LINE
  5
65
330
1E
100
AcDbEntity
  8
0
100
AcDbLine
 10
27.0
 20
64.30998000000001
 30
0.0
 11
27.0
 21
77.19408
 31
0.0
  0
LINE
  5
66
330
1E
100
AcDbEntity
  8
0
100
AcDbLine
 10
27.0
 20
64.30998000000001
 30
0.0
 11
27.0
 21
63.91058000000001
 31
0.0
  0
LINE
  5
67
330
1E
100
AcDbEntity
  8
0
100
AcDbLine
 10
25.0
 20
65.56868
 30
0.0
 11
27.0
 21
65.56868
 31
0.0
  0
LINE
  5
68
330
1E
100
AcDbEntity
  8
0
100
AcDbLine
 10
17.0
 20
68.81858000000001
 30
0.0
 11
17.19999999999999
 21
68.70298000000001
 31
0.0
  0
LINE
  5
69
330
1E
100
AcDbEntity
  8
0
100
AcDbLine
 10
17.0
 20
68.81858000000001
 30
0.0
 11
19.39999999999999
 21
67.14438
 31
0.0
  0
LINE
  5
6A
330
1E
100
AcDbEntity
  8
0
100
AcDbLine
 10
15.5
 20
70.96798000000001
 30
0.0
 11
17.19999999999999
 21
68.70298000000001
 31
0.0
  0
LINE
  5
6B
330
1E
100
AcDbEntity
  8
0
100
AcDbLine
 10
27.0
 20
76.84678000000001
 30
0.0
 11
27.0
 21
63.91058000000001
 31
0.0
  0
LINE
  5
6C
330
1E
100
AcDbEntity
  8
0
100
AcDbLine
 10
27.0
 20
76.84678000000001
 30
0.0
 11
27.0
 21
99.60298000000001
 31
0.0
  0
LINE
  5
6D
330
1E
100
AcDbEntity
  8
0
100
AcDbLine
 10
27.0
 20
77.19408
 30
0.0
 11
27.0
 21
64.30998000000001
 31
0.0
  0
LINE
  5
6E
330
1E
100
AcDbEntity
  8
0
100
AcDbLine
 10
27.0
 20
77.19408
 30
0.0
 11
27.0
 21
99.95098
 31
0.0
  0
LINE
  5
6F
330
1E
100
AcDbEntity
  8
0
100
AcDbLine
 10
14.4
 20
73.52848
 30
0.0
 11
15.5
 21
70.96798000000001
 31
0.0
  0
LINE
  5
70
330
1E
100
AcDbEntity
  8
0
100
AcDbLine
 10
14.0
 20
76.38448000000001
 30
0.0
 11
14.0
 21
97.55778000000001
 31
0.0
  0
LINE
  5
71
330
1E
100
AcDbEntity
  8
0
100
AcDbLine
 10
14.0
 20
76.38448000000001
 30
0.0
 11
14.4
 21
73.52848
 31
0.0
  0
LINE
  5
72
330
1E
100
AcDbEntity
  8
0
100
AcDbLine
 10
27.0
 20
99.60298000000001
 30
0.0
 11
27.0
 21
76.84678000000001
 31
0.0
  0
LINE
  5
73
330
1E
100
AcDbEntity
  8
0
100
AcDbLine
 10
27.0
 20
99.60298000000001
 30
0.0
 11
27.0
 21
113.2879799999999
 31
0.0
  0
LINE
  5
74
330
1E
100
AcDbEntity
  8
0
100
AcDbLine
 10
27.0
 20
113.2879799999999
 30
0.0
 11
27.0
 21
99.60298000000001
 31
0.0
  0
LINE
  5
75
330
1E
100
AcDbEntity
  8
0
100
AcDbLine
 10
27.0
 20
113.2879799999999
 30
0.0
 11
27.0
 21
115.04898
 31
0.0
  0
LINE
  5
76
330
1E
100
AcDbEntity
  8
0
100
AcDbLine
 10
27.0
 20
99.95098
 30
0.0
 11
27.0
 21
77.19408
 31
0.0
  0
LINE
  5
77
330
1E
100
AcDbEntity
  8
0
100
AcDbLine
 10
27.0
 20
99.95098
 30
0.0
 11
27.0
 21
113.63498
 31
0.0
  0
LINE
  5
78
330
1E
100
AcDbEntity
  8
0
100
AcDbLine
 10
27.0
 20
115.04898
 30
0.0
 11
27.0
 21
113.2879799999999
 31
0.0
  0
LINE
  5
79
330
1E
100
AcDbEntity
  8
0
100
AcDbLine
 10
27.0
 20
115.04898
 30
0.0
 11
27.0
 21
119.7299799999999
 31
0.0
  0
LINE
  5
7A
330
1E
100
AcDbEntity
  8
0
100
AcDbLine
 10
27.0
 20
113.63498
 30
0.0
 11
27.0
 21
99.95098
 31
0.0
  0
LINE
  5
7B
330
1E
100
AcDbEntity
  8
0
100
AcDbLine
 10
27.0
 20
113.63498
 30
0.0
 11
27.0
 21
115.39598
 31
0.0
  0
LINE
  5
7C
330
1E
100
AcDbEntity
  8
0
100
AcDbLine
 10
27.0
 20
115.39598
 30
0.0
 11
27.0
 21
113.63498
 31
0.0
  0
LINE
  5
7D
330
1E
100
AcDbEntity
  8
0
100
AcDbLine
 10
27.0
 20
115.39598
 30
0.0
 11
27.0
 21
120.0769799999999
 31
0.0
  0
LINE
  5
7E
330
1E
100
AcDbEntity
  8
0
100
AcDbLine
 10
27.0
 20
119.7299799999999
 30
0.0
 11
27.0
 21
115.04898
 31
0.0
  0
LINE
  5
7F
330
1E
100
AcDbEntity
  8
0
100
AcDbLine
 10
27.0
 20
119.7299799999999
 30
0.0
 11
27.0
 21
126.09098
 31
0.0
  0
LINE
  5
80
330
1E
100
AcDbEntity
  8
0
100
AcDbLine
 10
27.0
 20
120.0769799999999
 30
0.0
 11
27.0
 21
115.39598
 31
0.0
  0
LINE
  5
81
330
1E
100
AcDbEntity
  8
0
100
AcDbLine
 10
27.0
 20
120.0769799999999
 30
0.0
 11
27.0
 21
126.43898
 31
0.0
  0
LINE
  5
82
330
1E
100
AcDbEntity
  8
0
100
AcDbLine
 10
0.8999999999999978
 20
125.13198
 30
0.0
 11
3.399999999999999
 21
131.0409799999999
 31
0.0
  0
LINE
  5
83
330
1E
100
AcDbEntity
  8
0
100
AcDbLine
 10
17.19999999999999
 20
126.41298
 30
0.0
 11
19.39999999999999
 21
127.97098
 31
0.0
  0
LINE
  5
84
330
1E
100
AcDbEntity
  8
0
100
AcDbLine
 10
27.0
 20
126.09098
 30
0.0
 11
27.0
 21
119.7299799999999
 31
0.0
  0
LINE
  5
85
330
1E
100
AcDbEntity
  8
0
100
AcDbLine
 10
27.0
 20
126.09098
 30
0.0
 11
27.0
 21
141.5949799999999
 31
0.0
  0
LINE
  5
86
330
1E
100
AcDbEntity
  8
0
100
AcDbLine
 10
27.0
 20
126.43898
 30
0.0
 11
27.0
 21
120.0769799999999
 31
0.0
  0
LINE
  5
87
330
1E
100
AcDbEntity
  8
0
100
AcDbLine
 10
27.0
 20
126.43898
 30
0.0
 11
27.0
 21
142.8929799999999
 31
0.0
  0
LINE
  5
88
330
1E
100
AcDbEntity
  8
0
100
AcDbLine
 10
27.0
 20
126.55198
 30
0.0
 11
27.0
 21
127.02198
 31
0.0
  0
LINE
  5
89
330
1E
100
AcDbEntity
  8
0
100
AcDbLine
 10
27.0
 20
126.55198
 30
0.0
 11
27.0
 21
126.60998
 31
0.0
  0
LINE
  5
8A
330
1E
100
AcDbEntity
  8
0
100
AcDbLine
 10
27.0
 20
128.50998
 30
0.0
 11
27.0
 21
128.96798
 31
0.0
  0
LINE
  5
8B
330
1E
100
AcDbEntity
  8
0
100
AcDbLine
 10
27.0
 20
128.50998
 30
0.0
 11
27.0
 21
128.57898
 31
0.0
  0
LINE
  5
8C
330
1E
100
AcDbEntity
  8
0
100
AcDbLine
 10
27.0
 20
128.57898
 30
0.0
 11
27.0
 21
128.50998
 31
0.0
  0
LINE
  5
8D
330
1E
100
AcDbEntity
  8
0
100
AcDbLine
 10
27.0
 20
128.57898
 30
0.0
 11
27.0
 21
129.23898
 31
0.0
  0
LINE
  5
8E
330
1E
100
AcDbEntity
  8
0
100
AcDbLine
 10
27.0
 20
128.23298
 30
0.0
 11
27.0
 21
129.54698
 31
0.0
  0
LINE
  5
8F
330
1E
100
AcDbEntity
  8
0
100
AcDbLine
 10
27.0
 20
128.23298
 30
0.0
 11
27.0
 21
127.02198
 31
0.0
  0
LINE
  5
90
330
1E
100
AcDbEntity
  8
0
100
AcDbLine
 10
27.0
 20
127.02198
 30
0.0
 11
27.0
 21
128.23298
 31
0.0
  0
LINE
  5
91
330
1E
100
AcDbEntity
  8
0
100
AcDbLine
 10
27.0
 20
127.02198
 30
0.0
 11
27.0
 21
126.55198
 31
0.0
  0
LINE
  5
92
330
1E
100
AcDbEntity
  8
0
100
AcDbLine
 10
27.0
 20
126.60998
 30
0.0
 11
27.0
 21
126.55198
 31
0.0
  0
LINE
  5
93
330
1E
100
AcDbEntity
  8
0
100
AcDbLine
 10
27.0
 20
126.60998
 30
0.0
 11
27.0
 21
127.45498
 31
0.0
  0
LINE
  5
94
330
1E
100
AcDbEntity
  8
0
100
AcDbLine
 10
27.0
 20
127.45498
 30
0.0
 11
27.0
 21
126.60998
 31
0.0
  0
LINE
  5
95
330
1E
100
AcDbEntity
  8
0
100
AcDbLine
 10
27.0
 20
127.45498
 30
0.0
 11
27.0
 21
128.75798
 31
0.0
  0
LINE
  5
96
330
1E
100
AcDbEntity
  8
0
100
AcDbLine
 10
27.0
 20
129.54698
 30
0.0
 11
27.0
 21
128.23298
 31
0.0
  0
LINE
  5
97
330
1E
100
AcDbEntity
  8
0
100
AcDbLine
 10
27.0
 20
129.54698
 30
0.0
 11
27.0
 21
128.96798
 31
0.0
  0
LINE
  5
98
330
1E
100
AcDbEntity
  8
0
100
AcDbLine
 10
27.0
 20
128.96798
 30
0.0
 11
27.0
 21
129.54698
 31
0.0
  0
LINE
  5
99
330
1E
100
AcDbEntity
  8
0
100
AcDbLine
 10
27.0
 20
128.96798
 30
0.0
 11
27.0
 21
128.50998
 31
0.0
  0
LINE
  5
9A
330
1E
100
AcDbEntity
  8
0
100
AcDbLine
 10
27.0
 20
129.23898
 30
0.0
 11
27.0
 21
128.57898
 31
0.0
  0
LINE
  5
9B
330
1E
100
AcDbEntity
  8
0
100
AcDbLine
 10
27.0
 20
129.23898
 30
0.0
 11
27.0
 21
130.35698
 31
0.0
  0
LINE
  5
9C
330
1E
100
AcDbEntity
  8
0
100
AcDbLine
 10
27.0
 20
128.75798
 30
0.0
 11
27.0
 21
127.45498
 31
0.0
  0
LINE
  5
9D
330
1E
100
AcDbEntity
  8
0
100
AcDbLine
 10
27.0
 20
128.75798
 30
0.0
 11
27.0
 21
130.6989799999999
 31
0.0
  0
LINE
  5
9E
330
1E
100
AcDbEntity
  8
0
100
AcDbLine
 10
22.08763619137849
 20
129.1644895531339
 30
0.0
 11
25.0
 21
129.54698
 31
0.0
  0
LINE
  5
9F
330
1E
100
AcDbEntity
  8
0
100
AcDbLine
 10
27.0
 20
130.35698
 30
0.0
 11
27.0
 21
129.23898
 31
0.0
  0
LINE
  5
A0
330
1E
100
AcDbEntity
  8
0
100
AcDbLine
 10
27.0
 20
130.35698
 30
0.0
 11
27.0
 21
131.91498
 31
0.0
  0
LINE
  5
A1
330
1E
100
AcDbEntity
  8
0
100
AcDbLine
 10
27.0
 20
131.91498
 30
0.0
 11
27.0
 21
130.35698
 31
0.0
  0
LINE
  5
A2
330
1E
100
AcDbEntity
  8
0
100
AcDbLine
 10
27.0
 20
131.91498
 30
0.0
 11
27.0
 21
133.71698
 31
0.0
  0
LINE
  5
A3
330
1E
100
AcDbEntity
  8
0
100
AcDbLine
 10
27.0
 20
130.6989799999999
 30
0.0
 11
27.0
 21
128.75798
 31
0.0
  0
LINE
  5
A4
330
1E
100
AcDbEntity
  8
0
100
AcDbLine
 10
27.0
 20
130.6989799999999
 30
0.0
 11
27.0
 21
133.04398
 31
0.0
  0
LINE
  5
A5
330
1E
100
AcDbEntity
  8
0
100
AcDbLine
 10
27.0
 20
133.71698
 30
0.0
 11
27.0
 21
131.91498
 31
0.0
  0
LINE
  5
A6
330
1E
100
AcDbEntity
  8
0
100
AcDbLine
 10
27.0
 20
133.71698
 30
0.0
 11
27.0
 21
135.72698
 31
0.0
  0
LINE
  5
A7
330
1E
100
AcDbEntity
  8
0
100
AcDbLine
 10
27.0
 20
135.72698
 30
0.0
 11
27.0
 21
133.71698
 31
0.0
  0
LINE
  5
A8
330
1E
100
AcDbEntity
  8
0
100
AcDbLine
 10
27.0
 20
133.04398
 30
0.0
 11
27.0
 21
130.6989799999999
 31
0.0
  0
LINE
  5
A9
330
1E
100
AcDbEntity
  8
0
100
AcDbLine
 10
27.0
 20
133.04398
 30
0.0
 11
27.0
 21
135.56398
 31
0.0
  0
LINE
  5
AA
330
1E
100
AcDbEntity
  8
0
100
AcDbLine
 10
27.0
 20
135.56398
 30
0.0
 11
27.0
 21
133.04398
 31
0.0
  0
LINE
  5
AB
330
1E
100
AcDbEntity
  8
0
100
AcDbLine
 10
27.0
 20
135.56398
 30
0.0
 11
27.0
 21
135.72698
 31
0.0
  0
LINE
  5
AC
330
1E
100
AcDbEntity
  8
0
100
AcDbLine
 10
25.0
 20
129.54698
 30
0.0
 11
27.0
 21
129.54698
 31
0.0
  0
LINE
  5
AD
330
1E
100
AcDbEntity
  8
0
100
AcDbLine
 10
15.5
 20
124.14798
 30
0.0
 11
17.19999999999999
 21
126.41298
 31
0.0
  0
LINE
  5
AE
330
1E
100
AcDbEntity
  8
0
100
AcDbLine
 10
7.5
 20
136.27798
 30
0.0
 11
12.6
 21
140.11898
 31
0.0
  0
LINE
  5
AF
330
1E
100
AcDbEntity
  8
0
100
AcDbLine
 10
12.6
 20
140.11898
 30
0.0
 11
18.6
 21
142.58098
 31
0.0
  0
LINE
  5
B0
330
1E
100
AcDbEntity
  8
0
100
AcDbLine
 10
18.6
 20
142.58098
 30
0.0
 11
25.0
 21
143.3689799999999
 31
0.0
  0
LINE
  5
B1
330
1E
100
AcDbEntity
  8
0
100
AcDbLine
 10
27.0
 20
141.5949799999999
 30
0.0
 11
27.0
 21
126.09098
 31
0.0
  0
LINE
  5
B2
330
1E
100
AcDbEntity
  8
0
100
AcDbLine
 10
27.0
 20
141.5949799999999
 30
0.0
 11
27.0
 21
142.94498
 31
0.0
  0
LINE
  5
B3
330
1E
100
AcDbEntity
  8
0
100
AcDbLine
 10
27.0
 20
142.94498
 30
0.0
 11
27.0
 21
141.5949799999999
 31
0.0
  0
LINE
  5
B4
330
1E
100
AcDbEntity
  8
0
100
AcDbLine
 10
27.0
 20
142.94498
 30
0.0
 11
27.0
 21
143.9479799999999
 31
0.0
  0
LINE
  5
B5
330
1E
100
AcDbEntity
  8
0
100
AcDbLine
 10
27.0
 20
142.8929799999999
 30
0.0
 11
27.0
 21
126.43898
 31
0.0
  0
LINE
  5
B6
330
1E
100
AcDbEntity
  8
0
100
AcDbLine
 10
27.0
 20
142.8929799999999
 30
0.0
 11
27.0
 21
144.68298
 31
0.0
  0
LINE
  5
B7
330
1E
100
AcDbEntity
  8
0
100
AcDbLine
 10
27.0
 20
143.9479799999999
 30
0.0
 11
27.0
 21
142.94498
 31
0.0
  0
LINE
  5
B8
330
1E
100
AcDbEntity
  8
0
100
AcDbLine
 10
27.0
 20
143.9479799999999
 30
0.0
 11
27.0
 21
144.4049799999999
 31
0.0
  0
LINE
  5
B9
330
1E
100
AcDbEntity
  8
0
100
AcDbLine
 10
27.0
 20
144.4049799999999
 30
0.0
 11
27.0
 21
143.9479799999999
 31
0.0
  0
LINE
  5
BA
330
1E
100
AcDbEntity
  8
0
100
AcDbLine
 10
27.0
 20
144.4049799999999
 30
0.0
 11
27.0
 21
144.33598
 31
0.0
  0
LINE
  5
BB
330
1E
100
AcDbEntity
  8
0
100
AcDbLine
 10
27.0
 20
144.33598
 30
0.0
 11
27.0
 21
144.4049799999999
 31
0.0
  0
LINE
  5
BC
330
1E
100
AcDbEntity
  8
0
100
AcDbLine
 10
27.0
 20
144.33598
 30
0.0
 11
27.0
 21
143.67598
 31
0.0
  0
LINE
  5
BD
330
1E
100
AcDbEntity
  8
0
100
AcDbLine
 10
27.0
 20
143.67598
 30
0.0
 11
27.0
 21
144.33598
 31
0.0
  0
LINE
  5
BE
330
1E
100
AcDbEntity
  8
0
100
AcDbLine
 10
27.0
 20
143.67598
 30
0.0
 11
27.0
 21
143.3689799999999
 31
0.0
  0
LINE
  5
BF
330
1E
100
AcDbEntity
  8
0
100
AcDbLine
 10
27.0
 20
144.68298
 30
0.0
 11
27.0
 21
142.8929799999999
 31
0.0
  0
LINE
  5
C0
330
1E
100
AcDbEntity
  8
0
100
AcDbLine
 10
27.0
 20
144.68298
 30
0.0
 11
27.0
 21
145.89398
 31
0.0
  0
LINE
  5
C1
330
1E
100
AcDbEntity
  8
0
100
AcDbLine
 10
27.0
 20
145.89398
 30
0.0
 11
27.0
 21
144.68298
 31
0.0
  0
LINE
  5
C2
330
1E
100
AcDbEntity
  8
0
100
AcDbLine
 10
27.0
 20
145.89398
 30
0.0
 11
27.0
 21
146.3629799999999
 31
0.0
  0
LINE
  5
C3
330
1E
100
AcDbEntity
  8
0
100
AcDbLine
 10
27.0
 20
146.3629799999999
 30
0.0
 11
74.0
 21
146.3629799999999
 31
0.0
  0
LINE
  5
C4
330
1E
100
AcDbEntity
  8
0
100
AcDbLine
 10
27.0
 20
146.30598
 30
0.0
 11
27.0
 21
146.3629799999999
 31
0.0
  0
LINE
  5
C5
330
1E
100
AcDbEntity
  8
0
100
AcDbLine
 10
27.0
 20
146.30598
 30
0.0
 11
27.0
 21
145.4599799999999
 31
0.0
  0
LINE
  5
C6
330
1E
100
AcDbEntity
  8
0
100
AcDbLine
 10
27.0
 20
146.3629799999999
 30
0.0
 11
74.0
 21
146.3629799999999
 31
0.0
  0
LINE
  5
C7
330
1E
100
AcDbEntity
  8
0
100
AcDbLine
 10
27.0
 20
146.3629799999999
 30
0.0
 11
27.0
 21
145.89398
 31
0.0
  0
LINE
  5
C8
330
1E
100
AcDbEntity
  8
0
100
AcDbLine
 10
27.0
 20
146.3629799999999
 30
0.0
 11
27.0
 21
146.30598
 31
0.0
  0
LINE
  5
C9
330
1E
100
AcDbEntity
  8
0
100
AcDbLine
 10
27.0
 20
145.4599799999999
 30
0.0
 11
27.0
 21
146.30598
 31
0.0
  0
LINE
  5
CA
330
1E
100
AcDbEntity
  8
0
100
AcDbLine
 10
27.0
 20
145.4599799999999
 30
0.0
 11
27.0
 21
144.15698
 31
0.0
  0
LINE
  5
CB
330
1E
100
AcDbEntity
  8
0
100
AcDbLine
 10
27.0
 20
144.15698
 30
0.0
 11
27.0
 21
145.4599799999999
 31
0.0
  0
LINE
  5
CC
330
1E
100
AcDbEntity
  8
0
100
AcDbLine
 10
27.0
 20
144.15698
 30
0.0
 11
27.0
 21
143.3689799999999
 31
0.0
  0
LINE
  5
CD
330
1E
100
AcDbEntity
  8
0
100
AcDbLine
 10
27.0
 20
143.3689799999999
 30
0.0
 11
27.0
 21
144.15698
 31
0.0
  0
LINE
  5
CE
330
1E
100
AcDbEntity
  8
0
100
AcDbLine
 10
27.0
 20
143.3689799999999
 30
0.0
 11
27.0
 21
143.67598
 31
0.0
  0
LINE
  5
CF
330
1E
100
AcDbEntity
  8
0
100
AcDbLine
 10
25.0
 20
143.3689799999999
 30
0.0
 11
27.0
 21
143.3689799999999
 31
0.0
  0
LINE
  5
D0
330
1E
100
AcDbEntity
  8
0
100
AcDbLine
 10
7.299999999999999
 20
136.1619799999999
 30
0.0
 11
7.5
 21
136.27798
 31
0.0
  0
LINE
  5
D1
330
1E
100
AcDbEntity
  8
0
100
AcDbLine
 10
3.399999999999999
 20
131.0409799999999
 30
0.0
 11
7.299999999999999
 21
136.1619799999999
 31
0.0
  0
LINE
  5
D2
330
1E
100
AcDbEntity
  8
0
100
AcDbLine
 10
14.4
 20
121.58698
 30
0.0
 11
15.5
 21
124.14798
 31
0.0
  0
LINE
  5
D3
330
1E
100
AcDbEntity
  8
0
100
AcDbLine
 10
0.8999999999999978
 20
125.13198
 30
0.0
 11
3.399999999999999
 21
131.0409799999999
 31
0.0
  0
LINE
  5
D4
330
1E
100
AcDbEntity
  8
0
100
AcDbLine
 10
14.0
 20
118.7309799999999
 30
0.0
 11
14.4
 21
121.58698
 31
0.0
  0
LINE
  5
D5
330
1E
100
AcDbEntity
  8
0
100
AcDbLine
 10
14.0
 20
118.7309799999999
 30
0.0
 11
14.0
 21
97.55778000000001
 31
0.0
  0
LINE
  5
D6
330
1E
100
AcDbEntity
  8
0
100
AcDbLine
 10
-0.0000000000000016
 20
118.7309799999999
 30
0.0
 11
-0.0000000000000016
 21
97.55778000000001
 31
0.0
  0
LINE
  5
D7
330
1E
100
AcDbEntity
  8
0
100
AcDbLine
 10
-0.0000000000000016
 20
118.7309799999999
 30
0.0
 11
0.8999999999999978
 21
125.13198
 31
0.0
  0
LINE
  5
D8
330
1E
100
AcDbEntity
  8
0
100
AcDbLine
 10
-0.0000000000000016
 20
97.55778000000001
 30
0.0
 11
-0.0000000000000016
 21
76.38448000000001
 31
0.0
  0
LINE
  5
D9
330
1E
100
AcDbEntity
  8
0
100
AcDbLine
 10
-0.0000000000000016
 20
97.55778000000001
 30
0.0
 11
-0.0000000000000016
 21
118.7309799999999
 31
0.0
  0
LINE
  5
DA
330
1E
100
AcDbEntity
  8
0
100
AcDbLine
 10
34.5
 20
59.34558
 30
0.0
 11
34.5
 21
58.08178
 31
0.0
  0
LINE
  5
DB
330
1E
100
AcDbEntity
  8
0
100
AcDbLine
 10
34.5
 20
59.34558
 30
0.0
 11
34.5
 21
58.39018000000001
 31
0.0
  0
LINE
  5
DC
330
1E
100
AcDbEntity
  8
0
100
AcDbLine
 10
34.5
 20
58.39018000000001
 30
0.0
 11
34.5
 21
45.37367999999999
 31
0.0
  0
LINE
  5
DD
330
1E
100
AcDbEntity
  8
0
100
AcDbLine
 10
34.5
 20
58.39018000000001
 30
0.0
 11
34.5
 21
59.34558
 31
0.0
  0
LINE
  5
DE
330
1E
100
AcDbEntity
  8
0
100
AcDbLine
 10
34.5
 20
53.18078
 30
0.0
 11
34.5
 21
48.03668
 31
0.0
  0
LINE
  5
DF
330
1E
100
AcDbEntity
  8
0
100
AcDbLine
 10
34.5
 20
53.18078
 30
0.0
 11
34.5
 21
58.08178
 31
0.0
  0
LINE
  5
E0
330
1E
100
AcDbEntity
  8
0
100
AcDbLine
 10
34.5
 20
48.03668
 30
0.0
 11
34.5
 21
42.86388
 31
0.0
  0
LINE
  5
E1
330
1E
100
AcDbEntity
  8
0
100
AcDbLine
 10
34.5
 20
48.03668
 30
0.0
 11
34.5
 21
53.18078
 31
0.0
  0
LINE
  5
E2
330
1E
100
AcDbEntity
  8
0
100
AcDbLine
 10
34.5
 20
42.86388
 30
0.0
 11
34.5
 21
38.27047999999999
 31
0.0
  0
LINE
  5
E3
330
1E
100
AcDbEntity
  8
0
100
AcDbLine
 10
34.5
 20
42.86388
 30
0.0
 11
34.5
 21
48.03668
 31
0.0
  0
LINE
  5
E4
330
1E
100
AcDbEntity
  8
0
100
AcDbLine
 10
34.5
 20
38.27047999999999
 30
0.0
 11
34.5
 21
34.40708
 31
0.0
  0
LINE
  5
E5
330
1E
100
AcDbEntity
  8
0
100
AcDbLine
 10
34.5
 20
38.27047999999999
 30
0.0
 11
34.5
 21
42.86388
 31
0.0
  0
LINE
  5
E6
330
1E
100
AcDbEntity
  8
0
100
AcDbLine
 10
34.5
 20
34.40708
 30
0.0
 11
34.5
 21
31.58668
 31
0.0
  0
LINE
  5
E7
330
1E
100
AcDbEntity
  8
0
100
AcDbLine
 10
34.5
 20
34.40708
 30
0.0
 11
34.5
 21
38.27047999999999
 31
0.0
  0
LINE
  5
E8
330
1E
100
AcDbEntity
  8
0
100
AcDbLine
 10
34.5
 20
31.58668
 30
0.0
 11
34.5
 21
30.01167999999999
 31
0.0
  0
LINE
  5
E9
330
1E
100
AcDbEntity
  8
0
100
AcDbLine
 10
34.5
 20
31.58668
 30
0.0
 11
34.5
 21
34.40708
 31
0.0
  0
LINE
  5
EA
330
1E
100
AcDbEntity
  8
0
100
AcDbLine
 10
34.5
 20
0.0000200000000024
 30
0.0
 11
134.4999999999999
 21
0.0000200000000024
 31
0.0
  0
LINE
  5
EB
330
1E
100
AcDbEntity
  8
0
100
AcDbLine
 10
134.4999999999999
 20
0.0000200000000024
 30
0.0
 11
134.4999999999999
 21
0.467430000000003
 31
0.0
  0
LINE
  5
EC
330
1E
100
AcDbEntity
  8
0
100
AcDbLine
 10
134.4999999999999
 20
51.74718
 30
0.0
 11
135.0
 21
51.74718
 31
0.0
  0
LINE
  5
ED
330
1E
100
AcDbEntity
  8
0
100
AcDbLine
 10
74.0
 20
142.8929799999999
 30
0.0
 11
74.0
 21
144.68298
 31
0.0
  0
LINE
  5
EE
330
1E
100
AcDbEntity
  8
0
100
AcDbLine
 10
74.0
 20
142.8929799999999
 30
0.0
 11
75.0
 21
139.47098
 31
0.0
  0
LINE
  5
EF
330
1E
100
AcDbEntity
  8
0
100
AcDbLine
 10
75.7610840800408
 20
138.918901317324
 30
0.0
 11
76.4286
 21
140.6429799999999
 31
0.0
  0
LINE
  5
F0
330
1E
100
AcDbEntity
  8
0
100
AcDbLine
 10
75.17527853049479
 20
139.343835650572
 30
0.0
 11
75.8571
 21
140.99998
 31
0.0
  0
LINE
  5
F1
330
1E
100
AcDbEntity
  8
0
100
AcDbLine
 10
84.50000000000001
 20
136.44098
 30
0.0
 11
87.79999999999999
 21
136.5719799999999
 31
0.0
  0
LINE
  5
F2
330
1E
100
AcDbEntity
  8
0
100
AcDbLine
 10
84.50000000000001
 20
59.34558
 30
0.0
 11
137.0999999999999
 21
59.34558
 31
0.0
  0
LINE
  5
F3
330
1E
100
AcDbEntity
  8
0
100
AcDbLine
 10
87.79999999999999
 20
136.5719799999999
 30
0.0
 11
91.4
 21
137.58498
 31
0.0
  0
LINE
  5
F4
330
1E
100
AcDbEntity
  8
0
100
AcDbLine
 10
84.50000000000001
 20
59.71018
 30
0.0
 11
137.0999999999999
 21
59.71018
 31
0.0
  0
LINE
  5
F5
330
1E
100
AcDbEntity
  8
0
100
AcDbLine
 10
91.4
 20
137.58498
 30
0.0
 11
94.0
 21
139.47098
 31
0.0
  0
LINE
  5
F6
330
1E
100
AcDbEntity
  8
0
100
AcDbLine
 10
94.0
 20
139.47098
 30
0.0
 11
95.0
 21
142.8929799999999
 31
0.0
  0
LINE
  5
F7
330
1E
100
AcDbEntity
  8
0
100
AcDbLine
 10
81.2
 20
136.5719799999999
 30
0.0
 11
84.50000000000001
 21
136.44098
 31
0.0
  0
LINE
  5
F8
330
1E
100
AcDbEntity
  8
0
100
AcDbLine
 10
77.59999999999999
 20
137.58498
 30
0.0
 11
81.2
 21
136.5719799999999
 31
0.0
  0
LINE
  5
F9
330
1E
100
AcDbEntity
  8
0
100
AcDbLine
 10
76.4286
 20
140.6429799999999
 30
0.0
 11
77.92860000000001
 21
142.5709799999999
 31
0.0
  0
LINE
  5
FA
330
1E
100
AcDbEntity
  8
0
100
AcDbLine
 10
75.8571
 20
140.99998
 30
0.0
 11
77.4286
 21
143.0709799999999
 31
0.0
  0
LINE
  5
FB
330
1E
100
AcDbEntity
  8
0
100
AcDbLine
 10
92.57139999999999
 20
140.6429799999999
 30
0.0
 11
93.2389159199592
 21
138.918901317324
 31
0.0
  0
LINE
  5
FC
330
1E
100
AcDbEntity
  8
0
100
AcDbLine
 10
77.92860000000001
 20
142.5709799999999
 30
0.0
 11
79.8571
 21
144.07098
 31
0.0
  0
LINE
  5
FD
330
1E
100
AcDbEntity
  8
0
100
AcDbLine
 10
77.4286
 20
143.0709799999999
 30
0.0
 11
79.5
 21
144.6429799999999
 31
0.0
  0
LINE
  5
FE
330
1E
100
AcDbEntity
  8
0
100
AcDbLine
 10
91.07139999999999
 20
142.5709799999999
 30
0.0
 11
92.57139999999999
 21
140.6429799999999
 31
0.0
  0
LINE
  5
FF
330
1E
100
AcDbEntity
  8
0
100
AcDbLine
 10
91.5714
 20
143.0709799999999
 30
0.0
 11
93.14289999999999
 21
140.99998
 31
0.0
  0
LINE
  5
100
330
1E
100
AcDbEntity
  8
0
100
AcDbLine
 10
93.14289999999999
 20
140.99998
 30
0.0
 11
93.82472146950519
 21
139.343835650572
 31
0.0
  0
LINE
  5
101
330
1E
100
AcDbEntity
  8
0
100
AcDbLine
 10
95.0
 20
142.94498
 30
0.0
 11
95.0
 21
143.9479799999999
 31
0.0
  0
LINE
  5
102
330
1E
100
AcDbEntity
  8
0
100
AcDbLine
 10
79.8571
 20
144.07098
 30
0.0
 11
82.0714
 21
144.92898
 31
0.0
  0
LINE
  5
103
330
1E
100
AcDbEntity
  8
0
100
AcDbLine
 10
89.14289999999999
 20
144.07098
 30
0.0
 11
91.07139999999999
 21
142.5709799999999
 31
0.0
  0
LINE
  5
104
330
1E
100
AcDbEntity
  8
0
100
AcDbLine
 10
95.0
 20
143.9479799999999
 30
0.0
 11
95.0
 21
144.4049799999999
 31
0.0
  0
LINE
  5
105
330
1E
100
AcDbEntity
  8
0
100
AcDbLine
 10
95.0
 20
143.67598
 30
0.0
 11
95.0
 21
142.8929799999999
 31
0.0
  0
LINE
  5
106
330
1E
100
AcDbEntity
  8
0
100
AcDbLine
 10
79.5
 20
144.6429799999999
 30
0.0
 11
81.92860000000001
 21
145.6429799999999
 31
0.0
  0
LINE
  5
107
330
1E
100
AcDbEntity
  8
0
100
AcDbLine
 10
82.0714
 20
144.92898
 30
0.0
 11
84.50000000000001
 21
145.2859799999999
 31
0.0
  0
LINE
  5
108
330
1E
100
AcDbEntity
  8
0
100
AcDbLine
 10
81.92860000000001
 20
145.6429799999999
 30
0.0
 11
84.50000000000001
 21
145.99998
 31
0.0
  0
LINE
  5
109
330
1E
100
AcDbEntity
  8
0
100
AcDbLine
 10
84.50000000000001
 20
145.2859799999999
 30
0.0
 11
86.92860000000001
 21
144.92898
 31
0.0
  0
LINE
  5
10A
330
1E
100
AcDbEntity
  8
0
100
AcDbLine
 10
86.92860000000001
 20
144.92898
 30
0.0
 11
89.14289999999999
 21
144.07098
 31
0.0
  0
LINE
  5
10B
330
1E
100
AcDbEntity
  8
0
100
AcDbLine
 10
87.0714
 20
145.6429799999999
 30
0.0
 11
89.50000000000001
 21
144.6429799999999
 31
0.0
  0
LINE
  5
10C
330
1E
100
AcDbEntity
  8
0
100
AcDbLine
 10
89.50000000000001
 20
144.6429799999999
 30
0.0
 11
91.5714
 21
143.0709799999999
 31
0.0
  0
LINE
  5
10D
330
1E
100
AcDbEntity
  8
0
100
AcDbLine
 10
95.0
 20
144.4049799999999
 30
0.0
 11
95.0
 21
144.33598
 31
0.0
  0
LINE
  5
10E
330
1E
100
AcDbEntity
  8
0
100
AcDbLine
 10
95.0
 20
144.33598
 30
0.0
 11
95.0
 21
143.67598
 31
0.0
  0
LINE
  5
10F
330
1E
100
AcDbEntity
  8
0
100
AcDbLine
 10
95.0
 20
144.68298
 30
0.0
 11
95.0
 21
142.8929799999999
 31
0.0
  0
LINE
  5
110
330
1E
100
AcDbEntity
  8
0
100
AcDbLine
 10
95.0
 20
145.89398
 30
0.0
 11
95.0
 21
144.68298
 31
0.0
  0
LINE
  5
111
330
1E
100
AcDbEntity
  8
0
100
AcDbLine
 10
95.0
 20
145.4599799999999
 30
0.0
 11
95.0
 21
146.30598
 31
0.0
  0
LINE
  5
112
330
1E
100
AcDbEntity
  8
0
100
AcDbLine
 10
95.0
 20
144.15698
 30
0.0
 11
95.0
 21
145.4599799999999
 31
0.0
  0
LINE
  5
113
330
1E
100
AcDbEntity
  8
0
100
AcDbLine
 10
95.0
 20
142.8929799999999
 30
0.0
 11
95.0
 21
144.15698
 31
0.0
  0
LINE
  5
114
330
1E
100
AcDbEntity
  8
0
100
AcDbLine
 10
95.0
 20
142.8929799999999
 30
0.0
 11
95.0
 21
142.94498
 31
0.0
  0
LINE
  5
115
330
1E
100
AcDbEntity
  8
0
100
AcDbLine
 10
75.0
 20
139.47098
 30
0.0
 11
77.59999999999999
 21
137.58498
 31
0.0
  0
LINE
  5
116
330
1E
100
AcDbEntity
  8
0
100
AcDbLine
 10
74.0
 20
144.68298
 30
0.0
 11
74.0
 21
145.89398
 31
0.0
  0
LINE
  5
117
330
1E
100
AcDbEntity
  8
0
100
AcDbLine
 10
84.50000000000001
 20
145.99998
 30
0.0
 11
87.0714
 21
145.6429799999999
 31
0.0
  0
LINE
  5
118
330
1E
100
AcDbEntity
  8
0
100
AcDbLine
 10
95.0
 20
146.30598
 30
0.0
 11
95.0
 21
146.3629799999999
 31
0.0
  0
LINE
  5
119
330
1E
100
AcDbEntity
  8
0
100
AcDbLine
 10
95.0
 20
146.3629799999999
 30
0.0
 11
142.0
 21
146.3629799999999
 31
0.0
  0
LINE
  5
11A
330
1E
100
AcDbEntity
  8
0
100
AcDbLine
 10
95.0
 20
146.3629799999999
 30
0.0
 11
95.0
 21
145.89398
 31
0.0
  0
LINE
  5
11B
330
1E
100
AcDbEntity
  8
0
100
AcDbLine
 10
74.0
 20
145.89398
 30
0.0
 11
74.0
 21
146.3629799999999
 31
0.0
  0
LINE
  5
11C
330
1E
100
AcDbEntity
  8
0
100
AcDbLine
 10
70.5584864864865
 20
146.3629799999999
 30
0.0
 11
72.09999999999999
 21
148.39998
 31
0.0
  0
LINE
  5
11D
330
1E
100
AcDbEntity
  8
0
100
AcDbLine
 10
70.01649999999999
 20
146.3629799999999
 30
0.0
 11
71.79999999999999
 21
148.69998
 31
0.0
  0
LINE
  5
11E
330
1E
100
AcDbEntity
  8
0
100
AcDbLine
 10
60.39179687499999
 20
146.3629799999999
 30
0.0
 11
61.5
 21
149.19998
 31
0.0
  0
LINE
  5
11F
330
1E
100
AcDbEntity
  8
0
100
AcDbLine
 10
96.90000000000001
 20
148.39998
 30
0.0
 11
98.44151351351351
 21
146.3629799999999
 31
0.0
  0
LINE
  5
120
330
1E
100
AcDbEntity
  8
0
100
AcDbLine
 10
97.2
 20
148.69998
 30
0.0
 11
98.9835
 21
146.3629799999999
 31
0.0
  0
LINE
  5
121
330
1E
100
AcDbEntity
  8
0
100
AcDbLine
 10
93.2
 20
151.19998
 30
0.0
 11
96.90000000000001
 21
148.39998
 31
0.0
  0
LINE
  5
122
330
1E
100
AcDbEntity
  8
0
100
AcDbLine
 10
107.4999999999999
 20
149.19998
 30
0.0
 11
108.608203125
 21
146.3629799999999
 31
0.0
  0
LINE
  5
123
330
1E
100
AcDbEntity
  8
0
100
AcDbLine
 10
107.9
 20
149.39998
 30
0.0
 11
109.1148
 21
146.3629799999999
 31
0.0
  0
LINE
  5
124
330
1E
100
AcDbEntity
  8
0
100
AcDbLine
 10
93.40000000000001
 20
151.59998
 30
0.0
 11
97.2
 21
148.69998
 31
0.0
  0
LINE
  5
125
330
1E
100
AcDbEntity
  8
0
100
AcDbLine
 10
75.8
 20
151.19998
 30
0.0
 11
80.0
 21
152.89998
 31
0.0
  0
LINE
  5
126
330
1E
100
AcDbEntity
  8
0
100
AcDbLine
 10
72.09999999999999
 20
148.39998
 30
0.0
 11
75.8
 21
151.19998
 31
0.0
  0
LINE
  5
127
330
1E
100
AcDbEntity
  8
0
100
AcDbLine
 10
89.0
 20
152.89998
 30
0.0
 11
93.2
 21
151.19998
 31
0.0
  0
LINE
  5
128
330
1E
100
AcDbEntity
  8
0
100
AcDbLine
 10
84.50000000000001
 20
153.49998
 30
0.0
 11
89.0
 21
152.89998
 31
0.0
  0
LINE
  5
129
330
1E
100
AcDbEntity
  8
0
100
AcDbLine
 10
84.50000000000001
 20
153.9999799999999
 30
0.0
 11
89.1
 21
153.2999799999999
 31
0.0
  0
LINE
  5
12A
330
1E
100
AcDbEntity
  8
0
100
AcDbLine
 10
89.1
 20
153.2999799999999
 30
0.0
 11
93.40000000000001
 21
151.59998
 31
0.0
  0
LINE
  5
12B
330
1E
100
AcDbEntity
  8
0
100
AcDbLine
 10
103.2
 20
154.69998
 30
0.0
 11
107.4999999999999
 21
149.19998
 31
0.0
  0
LINE
  5
12C
330
1E
100
AcDbEntity
  8
0
100
AcDbLine
 10
80.0
 20
152.89998
 30
0.0
 11
84.50000000000001
 21
153.49998
 31
0.0
  0
LINE
  5
12D
330
1E
100
AcDbEntity
  8
0
100
AcDbLine
 10
79.90000000000001
 20
153.2999799999999
 30
0.0
 11
84.50000000000001
 21
153.9999799999999
 31
0.0
  0
LINE
  5
12E
330
1E
100
AcDbEntity
  8
0
100
AcDbLine
 10
75.59999999999999
 20
151.59998
 30
0.0
 11
79.90000000000001
 21
153.2999799999999
 31
0.0
  0
LINE
  5
12F
330
1E
100
AcDbEntity
  8
0
100
AcDbLine
 10
71.79999999999999
 20
148.69998
 30
0.0
 11
75.59999999999999
 21
151.59998
 31
0.0
  0
LINE
  5
130
330
1E
100
AcDbEntity
  8
0
100
AcDbLine
 10
103.6
 20
155.09998
 30
0.0
 11
107.9
 21
149.39998
 31
0.0
  0
LINE
  5
131
330
1E
100
AcDbEntity
  8
0
100
AcDbLine
 10
65.8
 20
154.69998
 30
0.0
 11
71.29999999999999
 21
158.99998
 31
0.0
  0
LINE
  5
132
330
1E
100
AcDbEntity
  8
0
100
AcDbLine
 10
61.5
 20
149.19998
 30
0.0
 11
65.8
 21
154.69998
 31
0.0
  0
LINE
  5
133
330
1E
100
AcDbEntity
  8
0
100
AcDbLine
 10
91.3
 20
161.4999799999999
 30
0.0
 11
97.70000000000001
 21
158.99998
 31
0.0
  0
LINE
  5
134
330
1E
100
AcDbEntity
  8
0
100
AcDbLine
 10
97.70000000000001
 20
158.99998
 30
0.0
 11
103.2
 21
154.69998
 31
0.0
  0
LINE
  5
135
330
1E
100
AcDbEntity
  8
0
100
AcDbLine
 10
97.9
 20
159.3999799999999
 30
0.0
 11
103.6
 21
155.09998
 31
0.0
  0
LINE
  5
136
330
1E
100
AcDbEntity
  8
0
100
AcDbLine
 10
91.4
 20
161.9999799999999
 30
0.0
 11
97.9
 21
159.3999799999999
 31
0.0
  0
LINE
  5
137
330
1E
100
AcDbEntity
  8
0
100
AcDbLine
 10
77.7
 20
161.4999799999999
 30
0.0
 11
84.50000000000001
 21
162.4999799999999
 31
0.0
  0
LINE
  5
138
330
1E
100
AcDbEntity
  8
0
100
AcDbLine
 10
71.29999999999999
 20
158.99998
 30
0.0
 11
77.7
 21
161.4999799999999
 31
0.0
  0
LINE
  5
139
330
1E
100
AcDbEntity
  8
0
100
AcDbLine
 10
84.50000000000001
 20
162.4999799999999
 30
0.0
 11
91.3
 21
161.4999799999999
 31
0.0
  0
LINE
  5
13A
330
1E
100
AcDbEntity
  8
0
100
AcDbLine
 10
84.50000000000001
 20
162.99998
 30
0.0
 11
91.4
 21
161.9999799999999
 31
0.0
  0
LINE
  5
13B
330
1E
100
AcDbEntity
  8
0
100
AcDbLine
 10
77.59999999999999
 20
161.9999799999999
 30
0.0
 11
84.50000000000001
 21
162.99998
 31
0.0
  0
LINE
  5
13C
330
1E
100
AcDbEntity
  8
0
100
AcDbLine
 10
71.09999999999999
 20
159.3999799999999
 30
0.0
 11
77.59999999999999
 21
161.9999799999999
 31
0.0
  0
LINE
  5
13D
330
1E
100
AcDbEntity
  8
0
100
AcDbLine
 10
65.4
 20
155.09998
 30
0.0
 11
71.09999999999999
 21
159.3999799999999
 31
0.0
  0
LINE
  5
13E
330
1E
100
AcDbEntity
  8
0
100
AcDbLine
 10
61.1
 20
149.39998
 30
0.0
 11
65.4
 21
155.09998
 31
0.0
  0
LINE
  5
13F
330
1E
100
AcDbEntity
  8
0
100
AcDbLine
 10
59.8852
 20
146.3629799999999
 30
0.0
 11
61.1
 21
149.39998
 31
0.0
  0
LINE
  5
140
330
1E
100
AcDbEntity
  8
0
100
AcDbLine
 10
134.4999999999999
 20
59.34558
 30
0.0
 11
134.4999999999999
 21
58.39018000000001
 31
0.0
  0
LINE
  5
141
330
1E
100
AcDbEntity
  8
0
100
AcDbLine
 10
134.4999999999999
 20
58.39018000000001
 30
0.0
 11
134.4999999999999
 21
45.37367999999999
 31
0.0
  0
LINE
  5
142
330
1E
100
AcDbEntity
  8
0
100
AcDbLine
 10
134.4999999999999
 20
58.39018000000001
 30
0.0
 11
134.4999999999999
 21
59.34558
 31
0.0
  0
LINE
  5
143
330
1E
100
AcDbEntity
  8
0
100
AcDbLine
 10
134.4999999999999
 20
45.37367999999999
 30
0.0
 11
134.4999999999999
 21
58.39018000000001
 31
0.0
  0
LINE
  5
144
330
1E
100
AcDbEntity
  8
0
100
AcDbLine
 10
134.4999999999999
 20
45.37367999999999
 30
0.0
 11
134.4999999999999
 21
32.70508
 31
0.0
  0
LINE
  5
145
330
1E
100
AcDbEntity
  8
0
100
AcDbLine
 10
134.4999999999999
 20
32.70508
 30
0.0
 11
134.4999999999999
 21
45.37367999999999
 31
0.0
  0
LINE
  5
146
330
1E
100
AcDbEntity
  8
0
100
AcDbLine
 10
134.4999999999999
 20
32.70508
 30
0.0
 11
134.4999999999999
 21
21.07387999999999
 31
0.0
  0
LINE
  5
147
330
1E
100
AcDbEntity
  8
0
100
AcDbLine
 10
134.4999999999999
 20
21.07387999999999
 30
0.0
 11
134.4999999999999
 21
32.70508
 31
0.0
  0
LINE
  5
148
330
1E
100
AcDbEntity
  8
0
100
AcDbLine
 10
134.4999999999999
 20
21.07387999999999
 30
0.0
 11
134.4999999999999
 21
11.38948
 31
0.0
  0
LINE
  5
149
330
1E
100
AcDbEntity
  8
0
100
AcDbLine
 10
134.4999999999999
 20
11.38948
 30
0.0
 11
134.4999999999999
 21
21.07387999999999
 31
0.0
  0
LINE
  5
14A
330
1E
100
AcDbEntity
  8
0
100
AcDbLine
 10
134.4999999999999
 20
11.38948
 30
0.0
 11
134.4999999999999
 21
4.48014
 31
0.0
  0
LINE
  5
14B
330
1E
100
AcDbEntity
  8
0
100
AcDbLine
 10
135.0
 20
49.69068
 30
0.0
 11
137.0
 21
49.69068
 31
0.0
  0
LINE
  5
14C
330
1E
100
AcDbEntity
  8
0
100
AcDbLine
 10
135.0
 20
49.69068
 30
0.0
 11
135.0
 21
50.19498
 31
0.0
  0
LINE
  5
14D
330
1E
100
AcDbEntity
  8
0
100
AcDbLine
 10
135.0
 20
49.69068
 30
0.0
 11
135.0
 21
49.79468
 31
0.0
  0
LINE
  5
14E
330
1E
100
AcDbEntity
  8
0
100
AcDbLine
 10
135.0
 20
50.19498
 30
0.0
 11
135.0
 21
51.24378
 31
0.0
  0
LINE
  5
14F
330
1E
100
AcDbEntity
  8
0
100
AcDbLine
 10
135.0
 20
50.19498
 30
0.0
 11
135.0
 21
49.69068
 31
0.0
  0
LINE
  5
150
330
1E
100
AcDbEntity
  8
0
100
AcDbLine
 10
135.0
 20
49.79468
 30
0.0
 11
135.0
 21
50.48948
 31
0.0
  0
LINE
  5
151
330
1E
100
AcDbEntity
  8
0
100
AcDbLine
 10
135.0
 20
49.79468
 30
0.0
 11
135.0
 21
49.69068
 31
0.0
  0
LINE
  5
152
330
1E
100
AcDbEntity
  8
0
100
AcDbLine
 10
137.0
 20
49.69068
 30
0.0
 11
137.0
 21
49.79468
 31
0.0
  0
LINE
  5
153
330
1E
100
AcDbEntity
  8
0
100
AcDbLine
 10
137.0
 20
49.79468
 30
0.0
 11
137.0
 21
50.48948
 31
0.0
  0
LINE
  5
154
330
1E
100
AcDbEntity
  8
0
100
AcDbLine
 10
137.0
 20
49.79468
 30
0.0
 11
137.0
 21
49.69068
 31
0.0
  0
LINE
  5
155
330
1E
100
AcDbEntity
  8
0
100
AcDbLine
 10
135.0
 20
50.48948
 30
0.0
 11
135.0
 21
49.79468
 31
0.0
  0
LINE
  5
156
330
1E
100
AcDbEntity
  8
0
100
AcDbLine
 10
135.0
 20
50.48948
 30
0.0
 11
135.0
 21
51.75778
 31
0.0
  0
LINE
  5
157
330
1E
100
AcDbEntity
  8
0
100
AcDbLine
 10
135.0
 20
51.24378
 30
0.0
 11
135.0
 21
51.74718
 31
0.0
  0
LINE
  5
158
330
1E
100
AcDbEntity
  8
0
100
AcDbLine
 10
135.0
 20
51.24378
 30
0.0
 11
135.0
 21
50.19498
 31
0.0
  0
LINE
  5
159
330
1E
100
AcDbEntity
  8
0
100
AcDbLine
 10
135.0
 20
51.74718
 30
0.0
 11
135.0
 21
51.24378
 31
0.0
  0
LINE
  5
15A
330
1E
100
AcDbEntity
  8
0
100
AcDbLine
 10
135.0
 20
51.76428
 30
0.0
 11
135.0
 21
52.37227999999999
 31
0.0
  0
LINE
  5
15B
330
1E
100
AcDbEntity
  8
0
100
AcDbLine
 10
135.0
 20
53.25838
 30
0.0
 11
135.0
 21
52.37227999999999
 31
0.0
  0
LINE
  5
15C
330
1E
100
AcDbEntity
  8
0
100
AcDbLine
 10
135.0
 20
53.25838
 30
0.0
 11
135.0
 21
54.68318
 31
0.0
  0
LINE
  5
15D
330
1E
100
AcDbEntity
  8
0
100
AcDbLine
 10
135.0
 20
52.37227999999999
 30
0.0
 11
135.0
 21
51.76428
 31
0.0
  0
LINE
  5
15E
330
1E
100
AcDbEntity
  8
0
100
AcDbLine
 10
135.0
 20
52.37227999999999
 30
0.0
 11
135.0
 21
53.25838
 31
0.0
  0
LINE
  5
15F
330
1E
100
AcDbEntity
  8
0
100
AcDbLine
 10
135.0
 20
53.46648
 30
0.0
 11
135.0
 21
51.75778
 31
0.0
  0
LINE
  5
160
330
1E
100
AcDbEntity
  8
0
100
AcDbLine
 10
135.0
 20
53.46648
 30
0.0
 11
135.0
 21
55.58068000000001
 31
0.0
  0
LINE
  5
161
330
1E
100
AcDbEntity
  8
0
100
AcDbLine
 10
135.0
 20
51.75778
 30
0.0
 11
135.0
 21
50.48948
 31
0.0
  0
LINE
  5
162
330
1E
100
AcDbEntity
  8
0
100
AcDbLine
 10
135.0
 20
51.75778
 30
0.0
 11
135.0
 21
53.46648
 31
0.0
  0
LINE
  5
163
330
1E
100
AcDbEntity
  8
0
100
AcDbLine
 10
135.0
 20
56.27038
 30
0.0
 11
135.0
 21
54.68318
 31
0.0
  0
LINE
  5
164
330
1E
100
AcDbEntity
  8
0
100
AcDbLine
 10
135.0
 20
56.27038
 30
0.0
 11
135.0
 21
58.04868
 31
0.0
  0
LINE
  5
165
330
1E
100
AcDbEntity
  8
0
100
AcDbLine
 10
135.0
 20
54.68318
 30
0.0
 11
135.0
 21
53.25838
 31
0.0
  0
LINE
  5
166
330
1E
100
AcDbEntity
  8
0
100
AcDbLine
 10
135.0
 20
54.68318
 30
0.0
 11
135.0
 21
56.27038
 31
0.0
  0
LINE
  5
167
330
1E
100
AcDbEntity
  8
0
100
AcDbLine
 10
135.0
 20
57.90358000000001
 30
0.0
 11
135.0
 21
55.58068000000001
 31
0.0
  0
LINE
  5
168
330
1E
100
AcDbEntity
  8
0
100
AcDbLine
 10
135.0
 20
57.90358000000001
 30
0.0
 11
135.0
 21
59.34558
 31
0.0
  0
LINE
  5
169
330
1E
100
AcDbEntity
  8
0
100
AcDbLine
 10
135.0
 20
55.58068000000001
 30
0.0
 11
135.0
 21
53.46648
 31
0.0
  0
LINE
  5
16A
330
1E
100
AcDbEntity
  8
0
100
AcDbLine
 10
135.0
 20
55.58068000000001
 30
0.0
 11
135.0
 21
57.90358000000001
 31
0.0
  0
LINE
  5
16B
330
1E
100
AcDbEntity
  8
0
100
AcDbLine
 10
135.0
 20
58.04868
 30
0.0
 11
135.0
 21
56.27038
 31
0.0
  0
LINE
  5
16C
330
1E
100
AcDbEntity
  8
0
100
AcDbLine
 10
135.0
 20
58.04868
 30
0.0
 11
135.0
 21
59.34558
 31
0.0
  0
LINE
  5
16D
330
1E
100
AcDbEntity
  8
0
100
AcDbLine
 10
135.0
 20
59.34558
 30
0.0
 11
135.0
 21
57.90358000000001
 31
0.0
  0
LINE
  5
16E
330
1E
100
AcDbEntity
  8
0
100
AcDbLine
 10
135.0
 20
59.34558
 30
0.0
 11
135.0
 21
58.04868
 31
0.0
  0
LINE
  5
16F
330
1E
100
AcDbEntity
  8
0
100
AcDbLine
 10
137.0
 20
59.34558
 30
0.0
 11
137.0
 21
57.90358000000001
 31
0.0
  0
LINE
  5
170
330
1E
100
AcDbEntity
  8
0
100
AcDbLine
 10
137.0
 20
57.90358000000001
 30
0.0
 11
137.0
 21
55.58068000000001
 31
0.0
  0
LINE
  5
171
330
1E
100
AcDbEntity
  8
0
100
AcDbLine
 10
137.0
 20
57.90358000000001
 30
0.0
 11
137.0
 21
59.34558
 31
0.0
  0
LINE
  5
172
330
1E
100
AcDbEntity
  8
0
100
AcDbLine
 10
137.0
 20
55.58068000000001
 30
0.0
 11
137.0
 21
53.46648
 31
0.0
  0
LINE
  5
173
330
1E
100
AcDbEntity
  8
0
100
AcDbLine
 10
137.0
 20
55.58068000000001
 30
0.0
 11
137.0
 21
57.90358000000001
 31
0.0
  0
LINE
  5
174
330
1E
100
AcDbEntity
  8
0
100
AcDbLine
 10
137.0
 20
53.46648
 30
0.0
 11
137.0
 21
51.75778
 31
0.0
  0
LINE
  5
175
330
1E
100
AcDbEntity
  8
0
100
AcDbLine
 10
137.0
 20
53.46648
 30
0.0
 11
137.0
 21
55.58068000000001
 31
0.0
  0
LINE
  5
176
330
1E
100
AcDbEntity
  8
0
100
AcDbLine
 10
137.0999999999999
 20
59.34558
 30
0.0
 11
139.4
 21
60.00018
 31
0.0
  0
LINE
  5
177
330
1E
100
AcDbEntity
  8
0
100
AcDbLine
 10
139.4
 20
60.00018
 30
0.0
 11
141.3
 21
61.78448
 31
0.0
  0
LINE
  5
178
330
1E
100
AcDbEntity
  8
0
100
AcDbLine
 10
137.0999999999999
 20
59.71018
 30
0.0
 11
139.4
 21
60.36478
 31
0.0
  0
LINE
  5
179
330
1E
100
AcDbEntity
  8
0
100
AcDbLine
 10
137.0999999999999
 20
59.71018
 30
0.0
 11
137.0999999999999
 21
59.34558
 31
0.0
  0
LINE
  5
17A
330
1E
100
AcDbEntity
  8
0
100
AcDbLine
 10
141.3
 20
61.78448
 30
0.0
 11
142.0
 21
63.91058000000001
 31
0.0
  0
LINE
  5
17B
330
1E
100
AcDbEntity
  8
0
100
AcDbLine
 10
139.4
 20
60.36478
 30
0.0
 11
141.3
 21
62.14918
 31
0.0
  0
LINE
  5
17C
330
1E
100
AcDbEntity
  8
0
100
AcDbLine
 10
142.0
 20
63.91058000000001
 30
0.0
 11
142.0
 21
64.30998000000001
 31
0.0
  0
LINE
  5
17D
330
1E
100
AcDbEntity
  8
0
100
AcDbLine
 10
141.3
 20
62.14918
 30
0.0
 11
142.0
 21
64.30998000000001
 31
0.0
  0
LINE
  5
17E
330
1E
100
AcDbEntity
  8
0
100
AcDbLine
 10
142.0
 20
64.30998000000001
 30
0.0
 11
142.0
 21
77.19408
 31
0.0
  0
LINE
  5
17F
330
1E
100
AcDbEntity
  8
0
100
AcDbLine
 10
142.0
 20
64.30998000000001
 30
0.0
 11
142.0
 21
63.91058000000001
 31
0.0
  0
LINE
  5
180
330
1E
100
AcDbEntity
  8
0
100
AcDbLine
 10
142.0
 20
77.19408
 30
0.0
 11
142.0
 21
99.95098
 31
0.0
  0
LINE
  5
181
330
1E
100
AcDbEntity
  8
0
100
AcDbLine
 10
142.0
 20
77.19408
 30
0.0
 11
142.0
 21
64.30998000000001
 31
0.0
  0
LINE
  5
182
330
1E
100
AcDbEntity
  8
0
100
AcDbLine
 10
142.0
 20
99.95098
 30
0.0
 11
142.0
 21
113.63498
 31
0.0
  0
LINE
  5
183
330
1E
100
AcDbEntity
  8
0
100
AcDbLine
 10
142.0
 20
99.95098
 30
0.0
 11
142.0
 21
77.19408
 31
0.0
  0
LINE
  5
184
330
1E
100
AcDbEntity
  8
0
100
AcDbLine
 10
142.0
 20
113.63498
 30
0.0
 11
142.0
 21
115.39598
 31
0.0
  0
LINE
  5
185
330
1E
100
AcDbEntity
  8
0
100
AcDbLine
 10
142.0
 20
113.63498
 30
0.0
 11
142.0
 21
99.95098
 31
0.0
  0
LINE
  5
186
330
1E
100
AcDbEntity
  8
0
100
AcDbLine
 10
142.0
 20
115.39598
 30
0.0
 11
142.0
 21
120.0769799999999
 31
0.0
  0
LINE
  5
187
330
1E
100
AcDbEntity
  8
0
100
AcDbLine
 10
142.0
 20
115.39598
 30
0.0
 11
142.0
 21
113.63498
 31
0.0
  0
LINE
  5
188
330
1E
100
AcDbEntity
  8
0
100
AcDbLine
 10
142.0
 20
120.0769799999999
 30
0.0
 11
142.0
 21
126.43898
 31
0.0
  0
LINE
  5
189
330
1E
100
AcDbEntity
  8
0
100
AcDbLine
 10
142.0
 20
120.0769799999999
 30
0.0
 11
142.0
 21
115.39598
 31
0.0
  0
LINE
  5
18A
330
1E
100
AcDbEntity
  8
0
100
AcDbLine
 10
142.0
 20
126.43898
 30
0.0
 11
142.0
 21
142.8929799999999
 31
0.0
  0
LINE
  5
18B
330
1E
100
AcDbEntity
  8
0
100
AcDbLine
 10
142.0
 20
126.43898
 30
0.0
 11
142.0
 21
120.0769799999999
 31
0.0
  0
LINE
  5
18C
330
1E
100
AcDbEntity
  8
0
100
AcDbLine
 10
142.0
 20
142.8929799999999
 30
0.0
 11
142.0
 21
144.68298
 31
0.0
  0
LINE
  5
18D
330
1E
100
AcDbEntity
  8
0
100
AcDbLine
 10
142.0
 20
142.8929799999999
 30
0.0
 11
142.0
 21
126.43898
 31
0.0
  0
LINE
  5
18E
330
1E
100
AcDbEntity
  8
0
100
AcDbLine
 10
142.0
 20
144.68298
 30
0.0
 11
142.0
 21
145.89398
 31
0.0
  0
LINE
  5
18F
330
1E
100
AcDbEntity
  8
0
100
AcDbLine
 10
142.0
 20
144.68298
 30
0.0
 11
142.0
 21
142.8929799999999
 31
0.0
  0
LINE
  5
190
330
1E
100
AcDbEntity
  8
0
100
AcDbLine
 10
142.0
 20
146.3629799999999
 30
0.0
 11
142.0
 21
145.89398
 31
0.0
  0
LINE
  5
191
330
1E
100
AcDbEntity
  8
0
100
AcDbLine
 10
142.0
 20
145.89398
 30
0.0
 11
142.0
 21
146.3629799999999
 31
0.0
  0
LINE
  5
192
330
1E
100
AcDbEntity
  8
0
100
AcDbLine
 10
142.0
 20
145.89398
 30
0.0
 11
142.0
 21
144.68298
 31
0.0
  0
LINE
  5
193
330
1E
100
AcDbEntity
  8
0
100
AcDbLine
 10
137.0
 20
51.75778
 30
0.0
 11
137.0
 21
50.48948
 31
0.0
  0
LINE
  5
194
330
1E
100
AcDbEntity
  8
0
100
AcDbLine
 10
137.0
 20
51.75778
 30
0.0
 11
137.0
 21
53.46648
 31
0.0
  0
LINE
  5
195
330
1E
100
AcDbEntity
  8
0
100
AcDbLine
 10
137.0
 20
50.48948
 30
0.0
 11
137.0
 21
49.79468
 31
0.0
  0
LINE
  5
196
330
1E
100
AcDbEntity
  8
0
100
AcDbLine
 10
137.0
 20
50.48948
 30
0.0
 11
137.0
 21
51.75778
 31
0.0
  0
LINE
  5
197
330
1E
100
AcDbEntity
  8
0
100
AcDbLine
 10
134.4999999999999
 20
4.48014
 30
0.0
 11
134.4999999999999
 21
11.38948
 31
0.0
  0
LINE
  5
198
330
1E
100
AcDbEntity
  8
0
100
AcDbLine
 10
134.4999999999999
 20
4.48014
 30
0.0
 11
134.4999999999999
 21
0.467430000000003
 31
0.0
  0
LINE
  5
199
330
1E
100
AcDbEntity
  8
0
100
AcDbLine
 10
134.4999999999999
 20
0.467430000000003
 30
0.0
 11
134.4999999999999
 21
4.48014
 31
0.0
  0
LINE
  5
19A
330
1E
100
AcDbEntity
  8
0
100
AcDbLine
 10
134.4999999999999
 20
0.467430000000003
 30
0.0
 11
134.4999999999999
 21
0.0000200000000024
 31
0.0
  0
LINE
  5
19B
330
1E
100
AcDbEntity
  8
0
100
AcDbLine
 10
34.5
 20
0.467430000000003
 30
0.0
 11
34.5
 21
4.48014
 31
0.0
  0
LINE
  5
19C
330
1E
100
AcDbEntity
  8
0
100
AcDbLine
 10
34.5
 20
0.467430000000003
 30
0.0
 11
34.5
 21
0.0000200000000024
 31
0.0
  0
LINE
  5
1A1
330
1E
100
AcDbEntity
  8
0
100
AcDbLine
 10
7.299999999999999
 20
58.95338
 30
0.0
 11
12.6
 21
54.99698000000001
 31
0.0
  0
LINE
  5
1A2
330
1E
100
AcDbEntity
  8
0
100
AcDbLine
 10
19.39999999999999
 20
127.97098
 30
0.0
 11
22.08763619137849
 21
129.1644895531339
 31
0.0
  0
ENDSEC
  0
SECTION
  2
OBJECTS
  0
DICTIONARY
  5
C
330
0
100
AcDbDictionary
  3
ACAD_GROUP
350
D
  3
ACAD_LAYOUT
350
19
  3
ACAD_MLINESTYLE
350
16
  3
ACAD_PLOTSETTINGS
350
18
  3
ACAD_PLOTSTYLENAME
350
E
  3
ACDBHEADERROUNDTRIPXREC
350
1A6
  3
ACDBVARIABLEDICTIONARY
350
1A3
  0
DICTIONARY
  5
1C8
330
1E
100
AcDbDictionary
280
     1
  3
ACAD_LAYOUTSELFREF
360
1C9
  0
DICTIONARY
  5
1C6
330
1A
100
AcDbDictionary
280
     1
  3
ACAD_LAYOUTSELFREF
360
1C7
  0
DICTIONARY
  5
D
102
{ACAD_REACTORS
330
C
102
}
330
C
100
AcDbDictionary
  0
DICTIONARY
  5
19
102
{ACAD_REACTORS
330
C
102
}
330
C
100
AcDbDictionary
  0
DICTIONARY
  5
16
102
{ACAD_REACTORS
330
C
102
}
330
C
100
AcDbDictionary
  3
STANDARD
350
17
  0
DICTIONARY
  5
18
102
{ACAD_REACTORS
330
C
102
}
330
C
100
AcDbDictionary
  0
ACDBDICTIONARYWDFLT
  5
E
102
{ACAD_REACTORS
330
C
102
}
330
C
100
AcDbDictionary
281
     1
  3
Normal
350
F
100
AcDbDictionaryWithDefault
340
F
  0
DICTIONARY
  5
1A6
102
{ACAD_REACTORS
330
C
102
}
330
C
100
AcDbDictionary
  3
CEPSNTYPE
350
1B0
  3
FINGERPRINTGUID
350
1B1
  3
HYPERLINKBASE
350
1A9
  3
INSUNITS
350
1AF
  3
LAYOUTDICT
350
1AB
  3
LWETCUNION
350
1AE
  3
PLOTSETDICT
350
1AC
  3
PLOTSTYLNAMDICT
350
1AD
  3
PSVPSCALE
350
1B3
  3
PUCSBASE
350
1B6
  3
PUCSORGBACK
350
1BC
  3
PUCSORGBOTTOM
350
1B8
  3
PUCSORGFRONT
350
1BB
  3
PUCSORGLEFT
350
1B9
  3
PUCSORGRIGHT
350
1BA
  3
PUCSORGTOP
350
1B7
  3
PUCSORTHOREF
350
1B4
  3
PUCSORTHOVIEW
350
1B5
  3
STYLESHEET
350
1AA
  3
TSTACKALIGN
350
1A7
  3
TSTACKSIZE
350
1A8
  3
UCSBASE
350
1BF
  3
UCSORGBACK
350
1C5
  3
UCSORGBOTTOM
350
1C1
  3
UCSORGFRONT
350
1C4
  3
UCSORGLEFT
350
1C2
  3
UCSORGRIGHT
350
1C3
  3
UCSORGTOP
350
1C0
  3
UCSORTHOREF
350
1BD
  3
UCSORTHOVIEW
350
1BE
  3
VERSIONGUID
350
1B2
  0
DICTIONARY
  5
1A3
102
{ACAD_REACTORS
330
C
102
}
330
C
100
AcDbDictionary
  3
DIMASSOC
350
1A4
  0
XRECORD
  5
1C9
102
{ACAD_REACTORS
330
1C8
102
}
330
1C8
100
AcDbXrecord
340
1E
  0
XRECORD
  5
1C7
102
{ACAD_REACTORS
330
1C6
102
}
330
1C6
100
AcDbXrecord
340
1A
  0
MLINESTYLE
  5
17
102
{ACAD_REACTORS
330
16
102
}
330
16
100
AcDbMlineStyle
  2
STANDARD
 70
     0
  3

 62
   256
 51
90.0
 52
90.0
 71
     2
 49
0.5
 62
   256
  6
BYLAYER
 49
-0.5
 62
   256
  6
BYLAYER
  0
ACDBPLACEHOLDER
  5
F
102
{ACAD_REACTORS
330
E
102
}
330
E
100
AcDbPlaceHolder
280
     0
  0
XRECORD
  5
1B0
102
{ACAD_REACTORS
330
1A6
102
}
330
1A6
100
AcDbXrecord
 90
        0
  0
XRECORD
  5
1B1
102
{ACAD_REACTORS
330
1A6
102
}
330
1A6
100
AcDbXrecord
  1
{E2569424-068F-4E31-A79D-B3158BC7DD21}
  0
XRECORD
  5
1A9
102
{ACAD_REACTORS
330
1A6
102
}
330
1A6
100
AcDbXrecord
  1

  0
XRECORD
  5
1AF
102
{ACAD_REACTORS
330
1A6
102
}
330
1A6
100
AcDbXrecord
 90
        0
  0
XRECORD
  5
1AB
102
{ACAD_REACTORS
330
1A6
102
}
330
1A6
100
AcDbXrecord
340
19
  0
XRECORD
  5
1AE
102
{ACAD_REACTORS
330
1A6
102
}
330
1A6
100
AcDbXrecord
 90
    10781
  0
XRECORD
  5
1AC
102
{ACAD_REACTORS
330
1A6
102
}
330
1A6
100
AcDbXrecord
340
18
  0
XRECORD
  5
1AD
102
{ACAD_REACTORS
330
1A6
102
}
330
1A6
100
AcDbXrecord
340
E
  0
XRECORD
  5
1B3
102
{ACAD_REACTORS
330
1A6
102
}
330
1A6
100
AcDbXrecord
 40
0.0
  0
XRECORD
  5
1B6
102
{ACAD_REACTORS
330
1A6
102
}
330
1A6
100
AcDbXrecord
340
0
  0
XRECORD
  5
1BC
102
{ACAD_REACTORS
330
1A6
102
}
330
1A6
100
AcDbXrecord
 10
0.0
 20
0.0
 30
0.0
  0
XRECORD
  5
1B8
102
{ACAD_REACTORS
330
1A6
102
}
330
1A6
100
AcDbXrecord
 10
0.0
 20
0.0
 30
0.0
  0
XRECORD
  5
1BB
102
{ACAD_REACTORS
330
1A6
102
}
330
1A6
100
AcDbXrecord
 10
0.0
 20
0.0
 30
0.0
  0
XRECORD
  5
1B9
102
{ACAD_REACTORS
330
1A6
102
}
330
1A6
100
AcDbXrecord
 10
0.0
 20
0.0
 30
0.0
  0
XRECORD
  5
1BA
102
{ACAD_REACTORS
330
1A6
102
}
330
1A6
100
AcDbXrecord
 10
0.0
 20
0.0
 30
0.0
  0
XRECORD
  5
1B7
102
{ACAD_REACTORS
330
1A6
102
}
330
1A6
100
AcDbXrecord
 10
0.0
 20
0.0
 30
0.0
  0
XRECORD
  5
1B4
102
{ACAD_REACTORS
330
1A6
102
}
330
1A6
100
AcDbXrecord
340
0
  0
XRECORD
  5
1B5
102
{ACAD_REACTORS
330
1A6
102
}
330
1A6
100
AcDbXrecord
 70
     0
  0
XRECORD
  5
1AA
102
{ACAD_REACTORS
330
1A6
102
}
330
1A6
100
AcDbXrecord
  1

  0
XRECORD
  5
1A7
102
{ACAD_REACTORS
330
1A6
102
}
330
1A6
100
AcDbXrecord
 90
        1
  0
XRECORD
  5
1A8
102
{ACAD_REACTORS
330
1A6
102
}
330
1A6
100
AcDbXrecord
 90
       70
  0
XRECORD
  5
1BF
102
{ACAD_REACTORS
330
1A6
102
}
330
1A6
100
AcDbXrecord
340
0
  0
XRECORD
  5
1C5
102
{ACAD_REACTORS
330
1A6
102
}
330
1A6
100
AcDbXrecord
 10
0.0
 20
0.0
 30
0.0
  0
XRECORD
  5
1C1
102
{ACAD_REACTORS
330
1A6
102
}
330
1A6
100
AcDbXrecord
 10
0.0
 20
0.0
 30
0.0
  0
XRECORD
  5
1C4
102
{ACAD_REACTORS
330
1A6
102
}
330
1A6
100
AcDbXrecord
 10
0.0
 20
0.0
 30
0.0
  0
XRECORD
  5
1C2
102
{ACAD_REACTORS
330
1A6
102
}
330
1A6
100
AcDbXrecord
 10
0.0
 20
0.0
 30
0.0
  0
XRECORD
  5
1C3
102
{ACAD_REACTORS
330
1A6
102
}
330
1A6
100
AcDbXrecord
 10
0.0
 20
0.0
 30
0.0
  0
XRECORD
  5
1C0
102
{ACAD_REACTORS
330
1A6
102
}
330
1A6
100
AcDbXrecord
 10
0.0
 20
0.0
 30
0.0
  0
XRECORD
  5
1BD
102
{ACAD_REACTORS
330
1A6
102
}
330
1A6
100
AcDbXrecord
340
0
  0
XRECORD
  5
1BE
102
{ACAD_REACTORS
330
1A6
102
}
330
1A6
100
AcDbXrecord
 70
     1
  0
XRECORD
  5
1B2
102
{ACAD_REACTORS
330
1A6
102
}
330
1A6
100
AcDbXrecord
  1
{4C0923F3-96C0-44E1-BC05-3840F0376AA8}
  0
DICTIONARYVAR
  5
1A4
102
{ACAD_REACTORS
330
1A3
102
}
330
1A3
100
DictionaryVariables
280
     0
  1
1
  0
ENDSEC
  0
EOF
