  0
SECTION
  2
HEADER
  9
$ACADVER
  1
AC1014
  9
$ACADMAINTVER
 70
     9
  9
$DWGCODEPAGE
  3
ANSI_1252
  9
$INSBASE
 10
0.0
 20
0.0
 30
0.0
  9
$EXTMIN
 10
0.0000000000000088
 20
-0.0000000000000095
 30
0.0
  9
$EXTMAX
 10
131.0
 20
360.0
 30
0.0
  9
$LIMMIN
 10
0.0
 20
0.0
  9
$LIMMAX
 10
12.0
 20
9.0
  9
$ORTHOMODE
 70
     0
  9
$REGENMODE
 70
     1
  9
$FILLMODE
 70
     1
  9
$QTEXTMODE
 70
     0
  9
$MIRRTEXT
 70
     1
  9
$DRAGMODE
 70
     2
  9
$LTSCALE
 40
1.0
  9
$OSMODE
 70
    37
  9
$ATTMODE
 70
     1
  9
$TEXTSIZE
 40
0.2
  9
$TRACEWID
 40
0.05
  9
$TEXTSTYLE
  7
STANDARD
  9
$CLAYER
  8
0
  9
$CELTYPE
  6
CONTINUOUS
  9
$CECOLOR
 62
   256
  9
$CELTSCALE
 40
1.0
  9
$DELOBJ
 70
     1
  9
$DISPSILH
 70
     0
  9
$DIMSCALE
 40
1.0
  9
$DIMASZ
 40
0.18
  9
$DIMEXO
 40
0.0625
  9
$DIMDLI
 40
0.38
  9
$DIMRND
 40
0.0
  9
$DIMDLE
 40
0.0
  9
$DIMEXE
 40
0.18
  9
$DIMTP
 40
0.0
  9
$DIMTM
 40
0.0
  9
$DIMTXT
 40
0.18
  9
$DIMCEN
 40
0.09
  9
$DIMTSZ
 40
0.0
  9
$DIMTOL
 70
     0
  9
$DIMLIM
 70
     0
  9
$DIMTIH
 70
     1
  9
$DIMTOH
 70
     1
  9
$DIMSE1
 70
     0
  9
$DIMSE2
 70
     0
  9
$DIMTAD
 70
     0
  9
$DIMZIN
 70
     0
  9
$DIMBLK
  1

  9
$DIMASO
 70
     1
  9
$DIMSHO
 70
     1
  9
$DIMPOST
  1

  9
$DIMAPOST
  1

  9
$DIMALT
 70
     0
  9
$DIMALTD
 70
     2
  9
$DIMALTF
 40
25.4
  9
$DIMLFAC
 40
1.0
  9
$DIMTOFL
 70
     0
  9
$DIMTVP
 40
0.0
  9
$DIMTIX
 70
     0
  9
$DIMSOXD
 70
     0
  9
$DIMSAH
 70
     0
  9
$DIMBLK1
  1

  9
$DIMBLK2
  1

  9
$DIMSTYLE
  2
STANDARD
  9
$DIMCLRD
 70
     0
  9
$DIMCLRE
 70
     0
  9
$DIMCLRT
 70
     0
  9
$DIMTFAC
 40
1.0
  9
$DIMGAP
 40
0.09
  9
$DIMJUST
 70
     0
  9
$DIMSD1
 70
     0
  9
$DIMSD2
 70
     0
  9
$DIMTOLJ
 70
     1
  9
$DIMTZIN
 70
     0
  9
$DIMALTZ
 70
     0
  9
$DIMALTTZ
 70
     0
  9
$DIMFIT
 70
     3
  9
$DIMUPT
 70
     0
  9
$DIMUNIT
 70
     2
  9
$DIMDEC
 70
     4
  9
$DIMTDEC
 70
     4
  9
$DIMALTU
 70
     2
  9
$DIMALTTD
 70
     2
  9
$DIMTXSTY
  7
STANDARD
  9
$DIMAUNIT
 70
     0
  9
$LUNITS
 70
     2
  9
$LUPREC
 70
     4
  9
$SKETCHINC
 40
0.1
  9
$FILLETRAD
 40
0.0
  9
$AUNITS
 70
     0
  9
$AUPREC
 70
     0
  9
$MENU
  1
.
  9
$ELEVATION
 40
0.0
  9
$PELEVATION
 40
0.0
  9
$THICKNESS
 40
0.0
  9
$LIMCHECK
 70
     0
  9
$BLIPMODE
 70
     0
  9
$CHAMFERA
 40
0.0
  9
$CHAMFERB
 40
0.0
  9
$CHAMFERC
 40
0.0
  9
$CHAMFERD
 40
0.0
  9
$SKPOLY
 70
     0
  9
$TDCREATE
 40
2454690.652314814
  9
$TDUPDATE
 40
2454690.654654224
  9
$TDINDWG
 40
0.0023394097
  9
$TDUSRTIMER
 40
0.0023394097
  9
$USRTIMER
 70
     1
  9
$ANGBASE
 50
0.0
  9
$ANGDIR
 70
     0
  9
$PDMODE
 70
     0
  9
$PDSIZE
 40
0.0
  9
$PLINEWID
 40
0.0
  9
$COORDS
 70
     1
  9
$SPLFRAME
 70
     0
  9
$SPLINETYPE
 70
     6
  9
$SPLINESEGS
 70
     8
  9
$ATTDIA
 70
     0
  9
$ATTREQ
 70
     1
  9
$HANDLING
 70
 22529
  9
$HANDSEED
  5
1FE
  9
$SURFTAB1
 70
     6
  9
$SURFTAB2
 70
     6
  9
$SURFTYPE
 70
     6
  9
$SURFU
 70
     6
  9
$SURFV
 70
     6
  9
$UCSNAME
  2

  9
$UCSORG
 10
0.0
 20
0.0
 30
0.0
  9
$UCSXDIR
 10
1.0
 20
0.0
 30
0.0
  9
$UCSYDIR
 10
0.0
 20
1.0
 30
0.0
  9
$PUCSNAME
  2

  9
$PUCSORG
 10
0.0
 20
0.0
 30
0.0
  9
$PUCSXDIR
 10
1.0
 20
0.0
 30
0.0
  9
$PUCSYDIR
 10
0.0
 20
1.0
 30
0.0
  9
$USERI1
 70
     0
  9
$USERI2
 70
     0
  9
$USERI3
 70
     0
  9
$USERI4
 70
     0
  9
$USERI5
 70
     0
  9
$USERR1
 40
0.0
  9
$USERR2
 40
0.0
  9
$USERR3
 40
0.0
  9
$USERR4
 40
0.0
  9
$USERR5
 40
0.0
  9
$WORLDVIEW
 70
     1
  9
$SHADEDGE
 70
     3
  9
$SHADEDIF
 70
    70
  9
$TILEMODE
 70
     1
  9
$MAXACTVP
 70
    64
  9
$PINSBASE
 10
0.0
 20
0.0
 30
0.0
  9
$PLIMCHECK
 70
     0
  9
$PEXTMIN
 10
1.000000000000000E+20
 20
1.000000000000000E+20
 30
1.000000000000000E+20
  9
$PEXTMAX
 10
-1.000000000000000E+20
 20
-1.000000000000000E+20
 30
-1.000000000000000E+20
  9
$PLIMMIN
 10
0.0
 20
0.0
  9
$PLIMMAX
 10
12.0
 20
9.0
  9
$UNITMODE
 70
     0
  9
$VISRETAIN
 70
     1
  9
$PLINEGEN
 70
     0
  9
$PSLTSCALE
 70
     1
  9
$TREEDEPTH
 70
  3020
  9
$PICKSTYLE
 70
     1
  9
$CMLSTYLE
  2
STANDARD
  9
$CMLJUST
 70
     0
  9
$CMLSCALE
 40
1.0
  9
$PROXYGRAPHICS
 70
     1
  9
$MEASUREMENT
 70
     0
  0
ENDSEC
  0
SECTION
  2
CLASSES
  0
CLASS
  1
ACDBDICTIONARYWDFLT
  2
AcDbDictionaryWithDefault
  3
AutoCAD 2000
 90
        0
280
     0
281
     0
  0
CLASS
  1
ACDBPLACEHOLDER
  2
AcDbPlaceHolder
  3
AutoCAD 2000
 90
        0
280
     0
281
     0
  0
CLASS
  1
LAYOUT
  2
AcDbLayout
  3
AutoCAD 2000
 90
        0
280
     0
281
     0
  0
CLASS
  1
DICTIONARYVAR
  2
AcDbDictionaryVar
  3
AutoCAD 2000
 90
        0
280
     0
281
     0
  0
CLASS
  1
LONG_TRANSACTION
  2
AcDbLongTransaction
  3
AutoCAD 2000
 90
        0
280
     0
281
     0
  0
CLASS
  1
LWPOLYLINE
  2
AcDbPolyline
  3
AutoCAD 2000
 90
        0
280
     0
281
     1
  0
CLASS
  1
HATCH
  2
AcDbHatch
  3
AutoCAD 2000
 90
        0
280
     0
281
     1
  0
CLASS
  1
XRECORD
  2
AcDbXrecord
  3
AutoCAD 2000
 90
        0
280
     0
281
     0
  0
ENDSEC
  0
SECTION
  2
TABLES
  0
TABLE
  2
VPORT
  5
8
330
0
100
AcDbSymbolTable
 70
     2
  0
VPORT
  5
1D9
330
8
100
AcDbSymbolTableRecord
100
AcDbViewportTableRecord
  2
*ACTIVE
 70
     0
 10
0.0
 20
0.0
 11
1.0
 21
1.0
 12
65.50000000000001
 22
180.0
 13
0.0
 23
0.0
 14
1.0
 24
1.0
 15
0.0
 25
0.0
 16
0.0
 26
0.0
 36
1.0
 17
0.0
 27
0.0
 37
0.0
 40
362.7621483375959
 41
2.043533930857874
 42
50.0
 43
0.0
 44
0.0
 50
0.0
 51
0.0
 71
     0
 72
   100
 73
     1
 74
     3
 75
     0
 76
     0
 77
     0
 78
     0
  0
ENDTAB
  0
TABLE
  2
LTYPE
  5
5
330
0
100
AcDbSymbolTable
 70
     1
  0
LTYPE
  5
13
330
5
100
AcDbSymbolTableRecord
100
AcDbLinetypeTableRecord
  2
BYBLOCK
 70
     0
  3

 72
    65
 73
     0
 40
0.0
  0
LTYPE
  5
14
330
5
100
AcDbSymbolTableRecord
100
AcDbLinetypeTableRecord
  2
BYLAYER
 70
     0
  3

 72
    65
 73
     0
 40
0.0
  0
LTYPE
  5
15
330
5
100
AcDbSymbolTableRecord
100
AcDbLinetypeTableRecord
  2
CONTINUOUS
 70
     0
  3
Solid line
 72
    65
 73
     0
 40
0.0
  0
ENDTAB
  0
TABLE
  2
LAYER
  5
2
330
0
100
AcDbSymbolTable
 70
     1
  0
LAYER
  5
10
330
2
100
AcDbSymbolTableRecord
100
AcDbLayerTableRecord
  2
0
 70
     0
 62
     7
  6
CONTINUOUS
  0
ENDTAB
  0
TABLE
  2
STYLE
  5
3
330
0
100
AcDbSymbolTable
 70
     1
  0
STYLE
  5
11
330
3
100
AcDbSymbolTableRecord
100
AcDbTextStyleTableRecord
  2
STANDARD
 70
     0
 40
0.0
 41
1.0
 50
0.0
 71
     0
 42
0.2
  3
txt
  4

  0
ENDTAB
  0
TABLE
  2
VIEW
  5
6
330
0
100
AcDbSymbolTable
 70
     0
  0
ENDTAB
  0
TABLE
  2
UCS
  5
7
330
0
100
AcDbSymbolTable
 70
     0
  0
ENDTAB
  0
TABLE
  2
APPID
  5
9
330
0
100
AcDbSymbolTable
 70
     1
  0
APPID
  5
12
330
9
100
AcDbSymbolTableRecord
100
AcDbRegAppTableRecord
  2
ACAD
 70
     0
  0
ENDTAB
  0
TABLE
  2
DIMSTYLE
  5
A
330
0
100
AcDbSymbolTable
 70
     1
  0
DIMSTYLE
105
1D3
330
A
100
AcDbSymbolTableRecord
100
AcDbDimStyleTableRecord
  2
STANDARD
 70
     0
  3

  4

  5

  6

  7

 40
1.0
 41
0.18
 42
0.0625
 43
0.38
 44
0.18
 45
0.0
 46
0.0
 47
0.0
 48
0.0
140
0.18
141
0.09
142
0.0
143
25.4
144
1.0
145
0.0
146
1.0
147
0.09
 71
     0
 72
     0
 73
     1
 74
     1
 75
     0
 76
     0
 77
     0
 78
     0
170
     0
171
     2
172
     0
173
     0
174
     0
175
     0
176
     0
177
     0
178
     0
270
     2
271
     4
272
     4
273
     2
274
     2
340
11
275
     0
280
     0
281
     0
282
     0
283
     1
284
     0
285
     0
286
     0
287
     3
288
     0
  0
ENDTAB
  0
TABLE
  2
BLOCK_RECORD
  5
1
330
0
100
AcDbSymbolTable
 70
     0
  0
BLOCK_RECORD
  5
1E
102
{ACAD_XDICTIONARY
360
1FC
102
}
330
1
100
AcDbSymbolTableRecord
100
AcDbBlockTableRecord
  2
*MODEL_SPACE
  0
BLOCK_RECORD
  5
1A
102
{ACAD_XDICTIONARY
360
1FA
102
}
330
1
100
AcDbSymbolTableRecord
100
AcDbBlockTableRecord
  2
*PAPER_SPACE
  0
ENDTAB
  0
ENDSEC
  0
SECTION
  2
BLOCKS
  0
BLOCK
  5
1F
330
1E
100
AcDbEntity
  8
0
100
AcDbBlockBegin
  2
*MODEL_SPACE
 70
     0
 10
0.0
 20
0.0
 30
0.0
  3
*MODEL_SPACE
  1

  0
ENDBLK
  5
20
330
1E
100
AcDbEntity
  8
0
100
AcDbBlockEnd
  0
BLOCK
  5
1B
330
1A
100
AcDbEntity
 67
     1
  8
0
100
AcDbBlockBegin
  2
*PAPER_SPACE
 70
     0
 10
0.0
 20
0.0
 30
0.0
  3
*PAPER_SPACE
  1

  0
ENDBLK
  5
1C
330
1A
100
AcDbEntity
 67
     1
  8
0
100
AcDbBlockEnd
  0
ENDSEC
  0
SECTION
  2
ENTITIES
  0
LINE
  5
22
330
1E
100
AcDbEntity
  8
0
100
AcDbLine
 10
0.100000000000009
 20
101.6
 30
0.0
 11
0.500000000000009
 21
100.8
 31
0.0
  0
LINE
  5
23
330
1E
100
AcDbEntity
  8
0
100
AcDbLine
 10
0.500000000000009
 20
100.8
 30
0.0
 11
1.000000000000009
 21
100.0
 31
0.0
  0
LINE
  5
24
330
1E
100
AcDbEntity
  8
0
100
AcDbLine
 10
0.100000000000009
 20
101.6
 30
0.0
 11
0.500000000000009
 21
100.8
 31
0.0
  0
LINE
  5
25
330
1E
100
AcDbEntity
  8
0
100
AcDbLine
 10
0.0000000000000088
 20
102.4999999999999
 30
0.0
 11
0.100000000000009
 21
103.4
 31
0.0
  0
LINE
  5
26
330
1E
100
AcDbEntity
  8
0
100
AcDbLine
 10
0.0000000000000088
 20
102.4999999999999
 30
0.0
 11
0.100000000000009
 21
101.6
 31
0.0
  0
LINE
  5
27
330
1E
100
AcDbEntity
  8
0
100
AcDbLine
 10
0.100000000000009
 20
103.4
 30
0.0
 11
0.500000000000009
 21
104.2
 31
0.0
  0
LINE
  5
28
330
1E
100
AcDbEntity
  8
0
100
AcDbLine
 10
0.500000000000009
 20
104.2
 30
0.0
 11
1.000000000000009
 21
105.0
 31
0.0
  0
LINE
  5
29
330
1E
100
AcDbEntity
  8
0
100
AcDbLine
 10
0.100000000000009
 20
103.4
 30
0.0
 11
0.500000000000009
 21
104.2
 31
0.0
  0
LINE
  5
2A
330
1E
100
AcDbEntity
  8
0
100
AcDbLine
 10
0.0000000000000088
 20
102.4999999999999
 30
0.0
 11
0.100000000000009
 21
103.4
 31
0.0
  0
LINE
  5
2B
330
1E
100
AcDbEntity
  8
0
100
AcDbLine
 10
0.0000000000000088
 20
102.4999999999999
 30
0.0
 11
0.100000000000009
 21
101.6
 31
0.0
  0
LINE
  5
2C
330
1E
100
AcDbEntity
  8
0
100
AcDbLine
 10
2.600000000000009
 20
99.1
 30
0.0
 11
3.500000000000009
 21
99.0
 31
0.0
  0
LINE
  5
2D
330
1E
100
AcDbEntity
  8
0
100
AcDbLine
 10
1.800000000000009
 20
99.50000000000001
 30
0.0
 11
2.600000000000009
 21
99.1
 31
0.0
  0
LINE
  5
2E
330
1E
100
AcDbEntity
  8
0
100
AcDbLine
 10
1.000000000000009
 20
100.0
 30
0.0
 11
1.800000000000009
 21
99.50000000000001
 31
0.0
  0
LINE
  5
2F
330
1E
100
AcDbEntity
  8
0
100
AcDbLine
 10
2.600000000000009
 20
105.9
 30
0.0
 11
3.500000000000009
 21
106.0
 31
0.0
  0
LINE
  5
30
330
1E
100
AcDbEntity
  8
0
100
AcDbLine
 10
1.800000000000009
 20
105.4999999999999
 30
0.0
 11
2.600000000000009
 21
105.9
 31
0.0
  0
LINE
  5
31
330
1E
100
AcDbEntity
  8
0
100
AcDbLine
 10
1.000000000000009
 20
105.0
 30
0.0
 11
1.800000000000009
 21
105.4999999999999
 31
0.0
  0
LINE
  5
32
330
1E
100
AcDbEntity
  8
0
100
AcDbLine
 10
0.500000000000009
 20
108.7199999999999
 30
0.0
 11
1.987500000000009
 21
108.7199999999999
 31
0.0
  0
LINE
  5
33
330
1E
100
AcDbEntity
  8
0
100
AcDbLine
 10
1.987500000000009
 20
108.7199999999999
 30
0.0
 11
6.237500000000009
 21
108.7199999999999
 31
0.0
  0
LINE
  5
34
330
1E
100
AcDbEntity
  8
0
100
AcDbLine
 10
0.500000000000009
 20
108.7199999999999
 30
0.0
 11
0.5000000000000141
 21
187.2799999999999
 31
0.0
  0
LINE
  5
35
330
1E
100
AcDbEntity
  8
0
100
AcDbLine
 10
0.500000000000009
 20
108.7199999999999
 30
0.0
 11
2.625000000000009
 21
106.0
 31
0.0
  0
LINE
  5
36
330
1E
100
AcDbEntity
  8
0
100
AcDbLine
 10
0.500000000000009
 20
108.7199999999999
 30
0.0
 11
1.987500000000009
 21
108.7199999999999
 31
0.0
  0
LINE
  5
37
330
1E
100
AcDbEntity
  8
0
100
AcDbLine
 10
1.987500000000009
 20
187.2799999999999
 30
0.0
 11
6.237500000000009
 21
187.2799999999999
 31
0.0
  0
LINE
  5
38
330
1E
100
AcDbEntity
  8
0
100
AcDbLine
 10
1.987500000000009
 20
187.2799999999999
 30
0.0
 11
6.237500000000009
 21
187.2799999999999
 31
0.0
  0
LINE
  5
39
330
1E
100
AcDbEntity
  8
0
100
AcDbLine
 10
0.5000000000000141
 20
187.2799999999999
 30
0.0
 11
2.625000000000009
 21
190.0
 31
0.0
  0
LINE
  5
3A
330
1E
100
AcDbEntity
  8
0
100
AcDbLine
 10
0.5000000000000141
 20
187.2799999999999
 30
0.0
 11
1.987500000000009
 21
187.2799999999999
 31
0.0
  0
LINE
  5
3B
330
1E
100
AcDbEntity
  8
0
100
AcDbLine
 10
0.500000000000009
 20
108.7199999999999
 30
0.0
 11
2.625000000000009
 21
106.0
 31
0.0
  0
LINE
  5
3C
330
1E
100
AcDbEntity
  8
0
100
AcDbLine
 10
3.500000000000009
 20
99.0
 30
0.0
 11
3.800000000000009
 21
99.0
 31
0.0
  0
LINE
  5
3D
330
1E
100
AcDbEntity
  8
0
100
AcDbLine
 10
3.500000000000009
 20
99.0
 30
0.0
 11
3.650000000000009
 21
99.0166666666667
 31
0.0
  0
LINE
  5
3E
330
1E
100
AcDbEntity
  8
0
100
AcDbLine
 10
4.900000000000009
 20
99.0
 30
0.0
 11
6.500000000000009
 21
99.0
 31
0.0
  0
LINE
  5
3F
330
1E
100
AcDbEntity
  8
0
100
AcDbLine
 10
3.800000000000009
 20
99.0
 30
0.0
 11
4.750000000000009
 21
99.0
 31
0.0
  0
LINE
  5
40
330
1E
100
AcDbEntity
  8
0
100
AcDbLine
 10
3.800000000000009
 20
99.0
 30
0.0
 11
4.900000000000009
 21
99.0
 31
0.0
  0
LINE
  5
41
330
1E
100
AcDbEntity
  8
0
100
AcDbLine
 10
4.900000000000009
 20
106.0
 30
0.0
 11
6.500000000000009
 21
106.0
 31
0.0
  0
LINE
  5
42
330
1E
100
AcDbEntity
  8
0
100
AcDbLine
 10
3.800000000000009
 20
106.0
 30
0.0
 11
4.900000000000009
 21
106.0
 31
0.0
  0
LINE
  5
43
330
1E
100
AcDbEntity
  8
0
100
AcDbLine
 10
3.500000000000009
 20
106.0
 30
0.0
 11
3.800000000000009
 21
106.0
 31
0.0
  0
LINE
  5
44
330
1E
100
AcDbEntity
  8
0
100
AcDbLine
 10
3.500000000000009
 20
106.0
 30
0.0
 11
3.650000000000009
 21
105.9833333333329
 31
0.0
  0
LINE
  5
45
330
1E
100
AcDbEntity
  8
0
100
AcDbLine
 10
2.625000000000009
 20
190.0
 30
0.0
 11
4.112500000000009
 21
190.0
 31
0.0
  0
LINE
  5
46
330
1E
100
AcDbEntity
  8
0
100
AcDbLine
 10
4.112500000000009
 20
190.0
 30
0.0
 11
8.043750000000009
 21
190.0
 31
0.0
  0
LINE
  5
47
330
1E
100
AcDbEntity
  8
0
100
AcDbLine
 10
4.112500000000009
 20
106.0
 30
0.0
 11
8.043750000000009
 21
106.0
 31
0.0
  0
LINE
  5
48
330
1E
100
AcDbEntity
  8
0
100
AcDbLine
 10
2.625000000000009
 20
106.0
 30
0.0
 11
3.500000000000009
 21
106.0
 31
0.0
  0
LINE
  5
49
330
1E
100
AcDbEntity
  8
0
100
AcDbLine
 10
2.625000000000009
 20
106.0
 30
0.0
 11
4.112500000000009
 21
106.0
 31
0.0
  0
LINE
  5
4A
330
1E
100
AcDbEntity
  8
0
100
AcDbLine
 10
4.750000000000009
 20
48.96
 30
0.0
 11
6.131250000000009
 21
36.31199999999999
 31
0.0
  0
LINE
  5
4B
330
1E
100
AcDbEntity
  8
0
100
AcDbLine
 10
4.750000000000009
 20
48.96
 30
0.0
 11
4.750000000000009
 21
99.0
 31
0.0
  0
LINE
  5
4C
330
1E
100
AcDbEntity
  8
0
100
AcDbLine
 10
6.500000000000009
 20
99.0
 30
0.0
 11
8.92902000000001
 21
99.0
 31
0.0
  0
LINE
  5
4D
330
1E
100
AcDbEntity
  8
0
100
AcDbLine
 10
6.500000000000009
 20
106.0
 30
0.0
 11
8.92902000000001
 21
106.0
 31
0.0
  0
LINE
  5
4E
330
1E
100
AcDbEntity
  8
0
100
AcDbLine
 10
8.92902000000001
 20
99.0
 30
0.0
 11
11.7428
 21
99.0
 31
0.0
  0
LINE
  5
4F
330
1E
100
AcDbEntity
  8
0
100
AcDbLine
 10
11.7428
 20
99.0
 30
0.0
 11
15.1292
 21
99.0
 31
0.0
  0
LINE
  5
50
330
1E
100
AcDbEntity
  8
0
100
AcDbLine
 10
15.1292
 20
99.0
 30
0.0
 11
18.97269999999999
 21
99.0
 31
0.0
  0
LINE
  5
51
330
1E
100
AcDbEntity
  8
0
100
AcDbLine
 10
15.1292
 20
106.0
 30
0.0
 11
18.97269999999999
 21
106.0
 31
0.0
  0
LINE
  5
52
330
1E
100
AcDbEntity
  8
0
100
AcDbLine
 10
8.92902000000001
 20
106.0
 30
0.0
 11
11.7428
 21
106.0
 31
0.0
  0
LINE
  5
53
330
1E
100
AcDbEntity
  8
0
100
AcDbLine
 10
11.7428
 20
106.0
 30
0.0
 11
15.1292
 21
106.0
 31
0.0
  0
LINE
  5
54
330
1E
100
AcDbEntity
  8
0
100
AcDbLine
 10
8.043750000000009
 20
106.0
 30
0.0
 11
14.525
 21
106.0
 31
0.0
  0
LINE
  5
55
330
1E
100
AcDbEntity
  8
0
100
AcDbLine
 10
8.043750000000009
 20
190.0
 30
0.0
 11
14.525
 21
190.0
 31
0.0
  0
LINE
  5
56
330
1E
100
AcDbEntity
  8
0
100
AcDbLine
 10
6.237500000000009
 20
187.2799999999999
 30
0.0
 11
13.03749999999999
 21
187.2799999999999
 31
0.0
  0
LINE
  5
57
330
1E
100
AcDbEntity
  8
0
100
AcDbLine
 10
6.237500000000009
 20
108.7199999999999
 30
0.0
 11
13.03749999999999
 21
108.7199999999999
 31
0.0
  0
LINE
  5
58
330
1E
100
AcDbEntity
  8
0
100
AcDbLine
 10
14.525
 20
190.0
 30
0.0
 11
22.9188
 21
190.0
 31
0.0
  0
LINE
  5
59
330
1E
100
AcDbEntity
  8
0
100
AcDbLine
 10
13.03749999999999
 20
187.2799999999999
 30
0.0
 11
21.8563
 21
187.2799999999999
 31
0.0
  0
LINE
  5
5A
330
1E
100
AcDbEntity
  8
0
100
AcDbLine
 10
13.03749999999999
 20
108.7199999999999
 30
0.0
 11
21.8563
 21
108.7199999999999
 31
0.0
  0
LINE
  5
5B
330
1E
100
AcDbEntity
  8
0
100
AcDbLine
 10
14.525
 20
106.0
 30
0.0
 11
22.9188
 21
106.0
 31
0.0
  0
LINE
  5
5C
330
1E
100
AcDbEntity
  8
0
100
AcDbLine
 10
6.131250000000009
 20
36.31199999999999
 30
0.0
 11
9.95625
 21
24.616
 31
0.0
  0
LINE
  5
5D
330
1E
100
AcDbEntity
  8
0
100
AcDbLine
 10
9.95625
 20
24.616
 30
0.0
 11
16.0125
 21
14.416
 31
0.0
  0
LINE
  5
5E
330
1E
100
AcDbEntity
  8
0
100
AcDbLine
 10
18.97269999999999
 20
99.0
 30
0.0
 11
23.24969999999999
 21
99.0
 31
0.0
  0
LINE
  5
5F
330
1E
100
AcDbEntity
  8
0
100
AcDbLine
 10
18.97269999999999
 20
106.0
 30
0.0
 11
23.24969999999999
 21
106.0
 31
0.0
  0
LINE
  5
60
330
1E
100
AcDbEntity
  8
0
100
AcDbLine
 10
23.24969999999999
 20
99.0
 30
0.0
 11
27.9
 21
99.0
 31
0.0
  0
LINE
  5
61
330
1E
100
AcDbEntity
  8
0
100
AcDbLine
 10
27.9
 20
99.0
 30
0.0
 11
32.79999999999999
 21
99.0
 31
0.0
  0
LINE
  5
62
330
1E
100
AcDbEntity
  8
0
100
AcDbLine
 10
32.79999999999999
 20
99.0
 30
0.0
 11
37.79999999999999
 21
99.0
 31
0.0
  0
LINE
  5
63
330
1E
100
AcDbEntity
  8
0
100
AcDbLine
 10
27.9
 20
106.0
 30
0.0
 11
32.79999999999999
 21
106.0
 31
0.0
  0
LINE
  5
64
330
1E
100
AcDbEntity
  8
0
100
AcDbLine
 10
32.79999999999999
 20
106.0
 30
0.0
 11
37.79999999999999
 21
106.0
 31
0.0
  0
LINE
  5
65
330
1E
100
AcDbEntity
  8
0
100
AcDbLine
 10
23.24969999999999
 20
106.0
 30
0.0
 11
27.9
 21
106.0
 31
0.0
  0
LINE
  5
66
330
1E
100
AcDbEntity
  8
0
100
AcDbLine
 10
22.9188
 20
106.0
 30
0.0
 11
32.5875
 21
106.0
 31
0.0
  0
LINE
  5
67
330
1E
100
AcDbEntity
  8
0
100
AcDbLine
 10
30.0
 20
359.0
 30
0.0
 11
31.0
 21
360.0
 31
0.0
  0
LINE
  5
68
330
1E
100
AcDbEntity
  8
0
100
AcDbLine
 10
30.0
 20
359.0
 30
0.0
 11
30.0
 21
357.0
 31
0.0
  0
LINE
  5
69
330
1E
100
AcDbEntity
  8
0
100
AcDbLine
 10
30.0
 20
359.0
 30
0.0
 11
30.5
 21
359.0
 31
0.0
  0
LINE
  5
6A
330
1E
100
AcDbEntity
  8
0
100
AcDbLine
 10
31.0
 20
360.0
 30
0.0
 11
31.4
 21
360.0
 31
0.0
  0
LINE
  5
6B
330
1E
100
AcDbEntity
  8
0
100
AcDbLine
 10
31.4
 20
360.0
 30
0.0
 11
32.6
 21
360.0
 31
0.0
  0
LINE
  5
6C
330
1E
100
AcDbEntity
  8
0
100
AcDbLine
 10
30.5
 20
359.0
 30
0.0
 11
31.69999999999999
 21
359.0
 31
0.0
  0
LINE
  5
6D
330
1E
100
AcDbEntity
  8
0
100
AcDbLine
 10
30.5
 20
357.0
 30
0.0
 11
31.69999999999999
 21
357.0
 31
0.0
  0
LINE
  5
6E
330
1E
100
AcDbEntity
  8
0
100
AcDbLine
 10
30.0
 20
357.0
 30
0.0
 11
31.0
 21
356.0
 31
0.0
  0
LINE
  5
6F
330
1E
100
AcDbEntity
  8
0
100
AcDbLine
 10
30.0
 20
357.0
 30
0.0
 11
30.0
 21
359.0
 31
0.0
  0
LINE
  5
70
330
1E
100
AcDbEntity
  8
0
100
AcDbLine
 10
30.0
 20
357.0
 30
0.0
 11
30.5
 21
357.0
 31
0.0
  0
LINE
  5
71
330
1E
100
AcDbEntity
  8
0
100
AcDbLine
 10
31.0
 20
356.0
 30
0.0
 11
31.4
 21
356.0
 31
0.0
  0
LINE
  5
72
330
1E
100
AcDbEntity
  8
0
100
AcDbLine
 10
31.69999999999999
 20
359.0
 30
0.0
 11
33.79999999999999
 21
359.0
 31
0.0
  0
LINE
  5
73
330
1E
100
AcDbEntity
  8
0
100
AcDbLine
 10
31.69999999999999
 20
357.0
 30
0.0
 11
33.79999999999999
 21
357.0
 31
0.0
  0
LINE
  5
74
330
1E
100
AcDbEntity
  8
0
100
AcDbLine
 10
31.4
 20
356.0
 30
0.0
 11
32.6
 21
356.0
 31
0.0
  0
LINE
  5
75
330
1E
100
AcDbEntity
  8
0
100
AcDbLine
 10
22.9188
 20
190.0
 30
0.0
 11
32.5875
 21
190.0
 31
0.0
  0
LINE
  5
76
330
1E
100
AcDbEntity
  8
0
100
AcDbLine
 10
21.8563
 20
187.2799999999999
 30
0.0
 11
32.05619999999999
 21
187.2799999999999
 31
0.0
  0
LINE
  5
77
330
1E
100
AcDbEntity
  8
0
100
AcDbLine
 10
21.8563
 20
108.7199999999999
 30
0.0
 11
32.05619999999999
 21
108.7199999999999
 31
0.0
  0
LINE
  5
78
330
1E
100
AcDbEntity
  8
0
100
AcDbLine
 10
33.0
 20
190.0
 30
0.0
 11
33.0
 21
356.0
 31
0.0
  0
LINE
  5
79
330
1E
100
AcDbEntity
  8
0
100
AcDbLine
 10
33.0
 20
356.0
 30
0.0
 11
33.39999999999999
 21
356.0
 31
0.0
  0
LINE
  5
7A
330
1E
100
AcDbEntity
  8
0
100
AcDbLine
 10
32.6
 20
360.0
 30
0.0
 11
34.5
 21
360.0
 31
0.0
  0
LINE
  5
7B
330
1E
100
AcDbEntity
  8
0
100
AcDbLine
 10
32.6
 20
356.0
 30
0.0
 11
33.0
 21
356.0
 31
0.0
  0
LINE
  5
7C
330
1E
100
AcDbEntity
  8
0
100
AcDbLine
 10
32.6
 20
356.0
 30
0.0
 11
34.5
 21
356.0
 31
0.0
  0
LINE
  5
7D
330
1E
100
AcDbEntity
  8
0
100
AcDbLine
 10
32.5875
 20
190.0
 30
0.0
 11
43.0
 21
190.0
 31
0.0
  0
LINE
  5
7E
330
1E
100
AcDbEntity
  8
0
100
AcDbLine
 10
32.05619999999999
 20
187.2799999999999
 30
0.0
 11
43.0
 21
187.2799999999999
 31
0.0
  0
LINE
  5
7F
330
1E
100
AcDbEntity
  8
0
100
AcDbLine
 10
32.05619999999999
 20
108.7199999999999
 30
0.0
 11
43.0
 21
108.7199999999999
 31
0.0
  0
LINE
  5
80
330
1E
100
AcDbEntity
  8
0
100
AcDbLine
 10
32.5875
 20
106.0
 30
0.0
 11
43.0
 21
106.0
 31
0.0
  0
LINE
  5
81
330
1E
100
AcDbEntity
  8
0
100
AcDbLine
 10
16.0125
 20
14.416
 30
0.0
 11
23.875
 21
6.79999999999999
 31
0.0
  0
LINE
  5
82
330
1E
100
AcDbEntity
  8
0
100
AcDbLine
 10
23.875
 20
6.79999999999999
 30
0.0
 11
33.1188
 21
1.767999999999989
 31
0.0
  0
LINE
  5
83
330
1E
100
AcDbEntity
  8
0
100
AcDbLine
 10
37.79999999999999
 20
99.0
 30
0.0
 11
43.0
 21
99.0
 31
0.0
  0
LINE
  5
84
330
1E
100
AcDbEntity
  8
0
100
AcDbLine
 10
37.79999999999999
 20
106.0
 30
0.0
 11
43.0
 21
106.0
 31
0.0
  0
LINE
  5
85
330
1E
100
AcDbEntity
  8
0
100
AcDbLine
 10
48.2
 20
99.0
 30
0.0
 11
53.2
 21
99.0
 31
0.0
  0
LINE
  5
86
330
1E
100
AcDbEntity
  8
0
100
AcDbLine
 10
43.0
 20
99.0
 30
0.0
 11
48.2
 21
99.0
 31
0.0
  0
LINE
  5
87
330
1E
100
AcDbEntity
  8
0
100
AcDbLine
 10
48.2
 20
106.0
 30
0.0
 11
53.2
 21
106.0
 31
0.0
  0
LINE
  5
88
330
1E
100
AcDbEntity
  8
0
100
AcDbLine
 10
43.0
 20
-0.0000000000000094
 30
0.0
 11
52.8812
 21
1.767999999999989
 31
0.0
  0
LINE
  5
89
330
1E
100
AcDbEntity
  8
0
100
AcDbLine
 10
33.39999999999999
 20
356.0
 30
0.0
 11
34.29999999999999
 21
356.0
 31
0.0
  0
LINE
  5
8A
330
1E
100
AcDbEntity
  8
0
100
AcDbLine
 10
34.29999999999999
 20
356.0
 30
0.0
 11
35.89999999999999
 21
356.0
 31
0.0
  0
LINE
  5
8B
330
1E
100
AcDbEntity
  8
0
100
AcDbLine
 10
35.89999999999999
 20
356.0
 30
0.0
 11
38.0
 21
356.0
 31
0.0
  0
LINE
  5
8C
330
1E
100
AcDbEntity
  8
0
100
AcDbLine
 10
34.5
 20
356.0
 30
0.0
 11
37.0
 21
356.0
 31
0.0
  0
LINE
  5
8D
330
1E
100
AcDbEntity
  8
0
100
AcDbLine
 10
38.0
 20
356.0
 30
0.0
 11
40.4
 21
356.0
 31
0.0
  0
LINE
  5
8E
330
1E
100
AcDbEntity
  8
0
100
AcDbLine
 10
37.0
 20
356.0
 30
0.0
 11
39.9
 21
356.0
 31
0.0
  0
LINE
  5
8F
330
1E
100
AcDbEntity
  8
0
100
AcDbLine
 10
40.4
 20
356.0
 30
0.0
 11
43.0
 21
356.0
 31
0.0
  0
LINE
  5
90
330
1E
100
AcDbEntity
  8
0
100
AcDbLine
 10
33.79999999999999
 20
357.0
 30
0.0
 11
36.5
 21
357.0
 31
0.0
  0
LINE
  5
91
330
1E
100
AcDbEntity
  8
0
100
AcDbLine
 10
33.79999999999999
 20
359.0
 30
0.0
 11
36.5
 21
359.0
 31
0.0
  0
LINE
  5
92
330
1E
100
AcDbEntity
  8
0
100
AcDbLine
 10
34.5
 20
360.0
 30
0.0
 11
37.0
 21
360.0
 31
0.0
  0
LINE
  5
93
330
1E
100
AcDbEntity
  8
0
100
AcDbLine
 10
37.0
 20
360.0
 30
0.0
 11
39.9
 21
360.0
 31
0.0
  0
LINE
  5
94
330
1E
100
AcDbEntity
  8
0
100
AcDbLine
 10
36.5
 20
359.0
 30
0.0
 11
39.6
 21
359.0
 31
0.0
  0
LINE
  5
95
330
1E
100
AcDbEntity
  8
0
100
AcDbLine
 10
39.6
 20
359.0
 30
0.0
 11
43.0
 21
359.0
 31
0.0
  0
LINE
  5
96
330
1E
100
AcDbEntity
  8
0
100
AcDbLine
 10
36.5
 20
357.0
 30
0.0
 11
39.6
 21
357.0
 31
0.0
  0
LINE
  5
97
330
1E
100
AcDbEntity
  8
0
100
AcDbLine
 10
39.9
 20
360.0
 30
0.0
 11
43.0
 21
360.0
 31
0.0
  0
LINE
  5
98
330
1E
100
AcDbEntity
  8
0
100
AcDbLine
 10
39.6
 20
357.0
 30
0.0
 11
43.0
 21
357.0
 31
0.0
  0
LINE
  5
99
330
1E
100
AcDbEntity
  8
0
100
AcDbLine
 10
39.9
 20
356.0
 30
0.0
 11
43.0
 21
356.0
 31
0.0
  0
LINE
  5
9A
330
1E
100
AcDbEntity
  8
0
100
AcDbLine
 10
45.6
 20
356.0
 30
0.0
 11
48.0
 21
356.0
 31
0.0
  0
LINE
  5
9B
330
1E
100
AcDbEntity
  8
0
100
AcDbLine
 10
52.6
 20
356.0
 30
0.0
 11
53.0
 21
356.0
 31
0.0
  0
LINE
  5
9C
330
1E
100
AcDbEntity
  8
0
100
AcDbLine
 10
51.7
 20
356.0
 30
0.0
 11
52.6
 21
356.0
 31
0.0
  0
LINE
  5
9D
330
1E
100
AcDbEntity
  8
0
100
AcDbLine
 10
50.1
 20
356.0
 30
0.0
 11
51.7
 21
356.0
 31
0.0
  0
LINE
  5
9E
330
1E
100
AcDbEntity
  8
0
100
AcDbLine
 10
51.5
 20
356.0
 30
0.0
 11
53.39999999999999
 21
356.0
 31
0.0
  0
LINE
  5
9F
330
1E
100
AcDbEntity
  8
0
100
AcDbLine
 10
48.0
 20
356.0
 30
0.0
 11
50.1
 21
356.0
 31
0.0
  0
LINE
  5
A0
330
1E
100
AcDbEntity
  8
0
100
AcDbLine
 10
49.0
 20
356.0
 30
0.0
 11
51.5
 21
356.0
 31
0.0
  0
LINE
  5
A1
330
1E
100
AcDbEntity
  8
0
100
AcDbLine
 10
46.1
 20
356.0
 30
0.0
 11
49.0
 21
356.0
 31
0.0
  0
LINE
  5
A2
330
1E
100
AcDbEntity
  8
0
100
AcDbLine
 10
43.0
 20
360.0
 30
0.0
 11
46.1
 21
360.0
 31
0.0
  0
LINE
  5
A3
330
1E
100
AcDbEntity
  8
0
100
AcDbLine
 10
43.0
 20
359.0
 30
0.0
 11
46.39999999999999
 21
359.0
 31
0.0
  0
LINE
  5
A4
330
1E
100
AcDbEntity
  8
0
100
AcDbLine
 10
52.2
 20
357.0
 30
0.0
 11
54.29999999999999
 21
357.0
 31
0.0
  0
LINE
  5
A5
330
1E
100
AcDbEntity
  8
0
100
AcDbLine
 10
49.5
 20
357.0
 30
0.0
 11
52.2
 21
357.0
 31
0.0
  0
LINE
  5
A6
330
1E
100
AcDbEntity
  8
0
100
AcDbLine
 10
46.1
 20
360.0
 30
0.0
 11
49.0
 21
360.0
 31
0.0
  0
LINE
  5
A7
330
1E
100
AcDbEntity
  8
0
100
AcDbLine
 10
52.2
 20
359.0
 30
0.0
 11
54.29999999999999
 21
359.0
 31
0.0
  0
LINE
  5
A8
330
1E
100
AcDbEntity
  8
0
100
AcDbLine
 10
51.5
 20
360.0
 30
0.0
 11
53.39999999999999
 21
360.0
 31
0.0
  0
LINE
  5
A9
330
1E
100
AcDbEntity
  8
0
100
AcDbLine
 10
49.0
 20
360.0
 30
0.0
 11
51.5
 21
360.0
 31
0.0
  0
LINE
  5
AA
330
1E
100
AcDbEntity
  8
0
100
AcDbLine
 10
49.5
 20
359.0
 30
0.0
 11
52.2
 21
359.0
 31
0.0
  0
LINE
  5
AB
330
1E
100
AcDbEntity
  8
0
100
AcDbLine
 10
46.39999999999999
 20
359.0
 30
0.0
 11
49.5
 21
359.0
 31
0.0
  0
LINE
  5
AC
330
1E
100
AcDbEntity
  8
0
100
AcDbLine
 10
46.39999999999999
 20
357.0
 30
0.0
 11
49.5
 21
357.0
 31
0.0
  0
LINE
  5
AD
330
1E
100
AcDbEntity
  8
0
100
AcDbLine
 10
43.0
 20
357.0
 30
0.0
 11
46.39999999999999
 21
357.0
 31
0.0
  0
LINE
  5
AE
330
1E
100
AcDbEntity
  8
0
100
AcDbLine
 10
43.0
 20
356.0
 30
0.0
 11
46.1
 21
356.0
 31
0.0
  0
LINE
  5
AF
330
1E
100
AcDbEntity
  8
0
100
AcDbLine
 10
43.0
 20
356.0
 30
0.0
 11
45.6
 21
356.0
 31
0.0
  0
LINE
  5
B0
330
1E
100
AcDbEntity
  8
0
100
AcDbLine
 10
43.0
 20
190.0
 30
0.0
 11
53.4125
 21
190.0
 31
0.0
  0
LINE
  5
B1
330
1E
100
AcDbEntity
  8
0
100
AcDbLine
 10
43.0
 20
187.2799999999999
 30
0.0
 11
53.9437
 21
187.2799999999999
 31
0.0
  0
LINE
  5
B2
330
1E
100
AcDbEntity
  8
0
100
AcDbLine
 10
43.0
 20
108.7199999999999
 30
0.0
 11
53.9437
 21
108.7199999999999
 31
0.0
  0
LINE
  5
B3
330
1E
100
AcDbEntity
  8
0
100
AcDbLine
 10
43.0
 20
106.0
 30
0.0
 11
53.4125
 21
106.0
 31
0.0
  0
LINE
  5
B4
330
1E
100
AcDbEntity
  8
0
100
AcDbLine
 10
43.0
 20
106.0
 30
0.0
 11
48.2
 21
106.0
 31
0.0
  0
LINE
  5
B5
330
1E
100
AcDbEntity
  8
0
100
AcDbLine
 10
53.2
 20
99.0
 30
0.0
 11
58.1
 21
99.0
 31
0.0
  0
LINE
  5
B6
330
1E
100
AcDbEntity
  8
0
100
AcDbLine
 10
58.1
 20
99.0
 30
0.0
 11
62.7503
 21
99.0
 31
0.0
  0
LINE
  5
B7
330
1E
100
AcDbEntity
  8
0
100
AcDbLine
 10
62.7503
 20
99.0
 30
0.0
 11
67.02729999999999
 21
99.0
 31
0.0
  0
LINE
  5
B8
330
1E
100
AcDbEntity
  8
0
100
AcDbLine
 10
58.1
 20
106.0
 30
0.0
 11
62.7503
 21
106.0
 31
0.0
  0
LINE
  5
B9
330
1E
100
AcDbEntity
  8
0
100
AcDbLine
 10
62.7503
 20
106.0
 30
0.0
 11
67.02729999999999
 21
106.0
 31
0.0
  0
LINE
  5
BA
330
1E
100
AcDbEntity
  8
0
100
AcDbLine
 10
53.2
 20
106.0
 30
0.0
 11
58.1
 21
106.0
 31
0.0
  0
LINE
  5
BB
330
1E
100
AcDbEntity
  8
0
100
AcDbLine
 10
67.02729999999999
 20
99.0
 30
0.0
 11
70.8708
 21
99.0
 31
0.0
  0
LINE
  5
BC
330
1E
100
AcDbEntity
  8
0
100
AcDbLine
 10
67.02729999999999
 20
106.0
 30
0.0
 11
70.8708
 21
106.0
 31
0.0
  0
LINE
  5
BD
330
1E
100
AcDbEntity
  8
0
100
AcDbLine
 10
63.0812
 20
106.0
 30
0.0
 11
71.47499999999999
 21
106.0
 31
0.0
  0
LINE
  5
BE
330
1E
100
AcDbEntity
  8
0
100
AcDbLine
 10
53.0
 20
190.0
 30
0.0
 11
53.0
 21
356.0
 31
0.0
  0
LINE
  5
BF
330
1E
100
AcDbEntity
  8
0
100
AcDbLine
 10
53.0
 20
356.0
 30
0.0
 11
53.39999999999999
 21
356.0
 31
0.0
  0
LINE
  5
C0
330
1E
100
AcDbEntity
  8
0
100
AcDbLine
 10
53.39999999999999
 20
360.0
 30
0.0
 11
54.6
 21
360.0
 31
0.0
  0
LINE
  5
C1
330
1E
100
AcDbEntity
  8
0
100
AcDbLine
 10
53.39999999999999
 20
356.0
 30
0.0
 11
54.6
 21
356.0
 31
0.0
  0
LINE
  5
C2
330
1E
100
AcDbEntity
  8
0
100
AcDbLine
 10
53.4125
 20
190.0
 30
0.0
 11
63.0812
 21
190.0
 31
0.0
  0
LINE
  5
C3
330
1E
100
AcDbEntity
  8
0
100
AcDbLine
 10
55.0
 20
356.0
 30
0.0
 11
56.0
 21
357.0
 31
0.0
  0
LINE
  5
C4
330
1E
100
AcDbEntity
  8
0
100
AcDbLine
 10
54.29999999999999
 20
359.0
 30
0.0
 11
55.5
 21
359.0
 31
0.0
  0
LINE
  5
C5
330
1E
100
AcDbEntity
  8
0
100
AcDbLine
 10
56.0
 20
357.0
 30
0.0
 11
56.0
 21
359.0
 31
0.0
  0
LINE
  5
C6
330
1E
100
AcDbEntity
  8
0
100
AcDbLine
 10
55.0
 20
360.0
 30
0.0
 11
56.0
 21
359.0
 31
0.0
  0
LINE
  5
C7
330
1E
100
AcDbEntity
  8
0
100
AcDbLine
 10
54.6
 20
360.0
 30
0.0
 11
55.0
 21
360.0
 31
0.0
  0
LINE
  5
C8
330
1E
100
AcDbEntity
  8
0
100
AcDbLine
 10
56.0
 20
359.0
 30
0.0
 11
56.0
 21
357.0
 31
0.0
  0
LINE
  5
C9
330
1E
100
AcDbEntity
  8
0
100
AcDbLine
 10
55.5
 20
359.0
 30
0.0
 11
56.0
 21
359.0
 31
0.0
  0
LINE
  5
CA
330
1E
100
AcDbEntity
  8
0
100
AcDbLine
 10
55.5
 20
357.0
 30
0.0
 11
56.0
 21
357.0
 31
0.0
  0
LINE
  5
CB
330
1E
100
AcDbEntity
  8
0
100
AcDbLine
 10
54.29999999999999
 20
357.0
 30
0.0
 11
55.5
 21
357.0
 31
0.0
  0
LINE
  5
CC
330
1E
100
AcDbEntity
  8
0
100
AcDbLine
 10
54.6
 20
356.0
 30
0.0
 11
55.0
 21
356.0
 31
0.0
  0
LINE
  5
CD
330
1E
100
AcDbEntity
  8
0
100
AcDbLine
 10
63.0812
 20
190.0
 30
0.0
 11
71.47499999999999
 21
190.0
 31
0.0
  0
LINE
  5
CE
330
1E
100
AcDbEntity
  8
0
100
AcDbLine
 10
64.14369999999999
 20
187.2799999999999
 30
0.0
 11
72.9625
 21
187.2799999999999
 31
0.0
  0
LINE
  5
CF
330
1E
100
AcDbEntity
  8
0
100
AcDbLine
 10
53.9437
 20
187.2799999999999
 30
0.0
 11
64.14369999999999
 21
187.2799999999999
 31
0.0
  0
LINE
  5
D0
330
1E
100
AcDbEntity
  8
0
100
AcDbLine
 10
64.14369999999999
 20
108.7199999999999
 30
0.0
 11
72.9625
 21
108.7199999999999
 31
0.0
  0
LINE
  5
D1
330
1E
100
AcDbEntity
  8
0
100
AcDbLine
 10
53.9437
 20
108.7199999999999
 30
0.0
 11
64.14369999999999
 21
108.7199999999999
 31
0.0
  0
LINE
  5
D2
330
1E
100
AcDbEntity
  8
0
100
AcDbLine
 10
53.4125
 20
106.0
 30
0.0
 11
63.0812
 21
106.0
 31
0.0
  0
LINE
  5
D3
330
1E
100
AcDbEntity
  8
0
100
AcDbLine
 10
74.2572
 20
99.0
 30
0.0
 11
77.071
 21
99.0
 31
0.0
  0
LINE
  5
D4
330
1E
100
AcDbEntity
  8
0
100
AcDbLine
 10
70.8708
 20
99.0
 30
0.0
 11
74.2572
 21
99.0
 31
0.0
  0
LINE
  5
D5
330
1E
100
AcDbEntity
  8
0
100
AcDbLine
 10
77.071
 20
99.0
 30
0.0
 11
79.5
 21
99.0
 31
0.0
  0
LINE
  5
D6
330
1E
100
AcDbEntity
  8
0
100
AcDbLine
 10
77.071
 20
106.0
 30
0.0
 11
79.5
 21
106.0
 31
0.0
  0
LINE
  5
D7
330
1E
100
AcDbEntity
  8
0
100
AcDbLine
 10
74.2572
 20
106.0
 30
0.0
 11
77.071
 21
106.0
 31
0.0
  0
LINE
  5
D8
330
1E
100
AcDbEntity
  8
0
100
AcDbLine
 10
70.8708
 20
106.0
 30
0.0
 11
74.2572
 21
106.0
 31
0.0
  0
LINE
  5
D9
330
1E
100
AcDbEntity
  8
0
100
AcDbLine
 10
79.5
 20
99.0
 30
0.0
 11
81.09999999999999
 21
99.0
 31
0.0
  0
LINE
  5
DA
330
1E
100
AcDbEntity
  8
0
100
AcDbLine
 10
79.5
 20
106.0
 30
0.0
 11
81.09999999999999
 21
106.0
 31
0.0
  0
LINE
  5
DB
330
1E
100
AcDbEntity
  8
0
100
AcDbLine
 10
77.9563
 20
106.0
 30
0.0
 11
81.8875
 21
106.0
 31
0.0
  0
LINE
  5
DC
330
1E
100
AcDbEntity
  8
0
100
AcDbLine
 10
71.47499999999999
 20
190.0
 30
0.0
 11
77.9563
 21
190.0
 31
0.0
  0
LINE
  5
DD
330
1E
100
AcDbEntity
  8
0
100
AcDbLine
 10
72.9625
 20
187.2799999999999
 30
0.0
 11
79.7625
 21
187.2799999999999
 31
0.0
  0
LINE
  5
DE
330
1E
100
AcDbEntity
  8
0
100
AcDbLine
 10
77.9563
 20
190.0
 30
0.0
 11
81.8875
 21
190.0
 31
0.0
  0
LINE
  5
DF
330
1E
100
AcDbEntity
  8
0
100
AcDbLine
 10
79.7625
 20
187.2799999999999
 30
0.0
 11
84.0125
 21
187.2799999999999
 31
0.0
  0
LINE
  5
E0
330
1E
100
AcDbEntity
  8
0
100
AcDbLine
 10
79.7625
 20
108.7199999999999
 30
0.0
 11
84.0125
 21
108.7199999999999
 31
0.0
  0
LINE
  5
E1
330
1E
100
AcDbEntity
  8
0
100
AcDbLine
 10
72.9625
 20
108.7199999999999
 30
0.0
 11
79.7625
 21
108.7199999999999
 31
0.0
  0
LINE
  5
E2
330
1E
100
AcDbEntity
  8
0
100
AcDbLine
 10
71.47499999999999
 20
106.0
 30
0.0
 11
77.9563
 21
106.0
 31
0.0
  0
LINE
  5
E3
330
1E
100
AcDbEntity
  8
0
100
AcDbLine
 10
81.09999999999999
 20
99.0
 30
0.0
 11
82.2
 21
99.0
 31
0.0
  0
LINE
  5
E4
330
1E
100
AcDbEntity
  8
0
100
AcDbLine
 10
81.09999999999999
 20
106.0
 30
0.0
 11
82.2
 21
106.0
 31
0.0
  0
LINE
  5
E5
330
1E
100
AcDbEntity
  8
0
100
AcDbLine
 10
81.25
 20
99.0
 30
0.0
 11
81.25
 21
48.96
 31
0.0
  0
LINE
  5
E6
330
1E
100
AcDbEntity
  8
0
100
AcDbLine
 10
81.25
 20
99.0
 30
0.0
 11
83.8
 21
99.0
 31
0.0
  0
LINE
  5
E7
330
1E
100
AcDbEntity
  8
0
100
AcDbLine
 10
81.8875
 20
190.0
 30
0.0
 11
83.375
 21
190.0
 31
0.0
  0
LINE
  5
E8
330
1E
100
AcDbEntity
  8
0
100
AcDbLine
 10
82.2
 20
99.0
 30
0.0
 11
82.5
 21
99.0
 31
0.0
  0
LINE
  5
E9
330
1E
100
AcDbEntity
  8
0
100
AcDbLine
 10
82.34999999999999
 20
99.01666666666661
 30
0.0
 11
82.5
 21
99.0
 31
0.0
  0
LINE
  5
EA
330
1E
100
AcDbEntity
  8
0
100
AcDbLine
 10
82.2
 20
106.0
 30
0.0
 11
82.5
 21
106.0
 31
0.0
  0
LINE
  5
EB
330
1E
100
AcDbEntity
  8
0
100
AcDbLine
 10
82.5
 20
99.0
 30
0.0
 11
83.40000000000001
 21
99.1
 31
0.0
  0
LINE
  5
EC
330
1E
100
AcDbEntity
  8
0
100
AcDbLine
 10
82.34999999999999
 20
105.9833333333329
 30
0.0
 11
82.5
 21
106.0
 31
0.0
  0
LINE
  5
ED
330
1E
100
AcDbEntity
  8
0
100
AcDbLine
 10
82.5
 20
106.0
 30
0.0
 11
83.375
 21
106.0
 31
0.0
  0
LINE
  5
EE
330
1E
100
AcDbEntity
  8
0
100
AcDbLine
 10
82.5
 20
106.0
 30
0.0
 11
83.8
 21
106.0
 31
0.0
  0
LINE
  5
EF
330
1E
100
AcDbEntity
  8
0
100
AcDbLine
 10
82.5
 20
106.0
 30
0.0
 11
83.40000000000001
 21
105.9
 31
0.0
  0
LINE
  5
F0
330
1E
100
AcDbEntity
  8
0
100
AcDbLine
 10
103.0
 20
85.0
 30
0.0
 11
103.0
 21
85.6
 31
0.0
  0
LINE
  5
F1
330
1E
100
AcDbEntity
  8
0
100
AcDbLine
 10
103.0
 20
85.0
 30
0.0
 11
103.4999999999999
 21
84.50000000000001
 31
0.0
  0
LINE
  5
F2
330
1E
100
AcDbEntity
  8
0
100
AcDbLine
 10
103.0
 20
85.6
 30
0.0
 11
103.0
 21
87.3
 31
0.0
  0
LINE
  5
F3
330
1E
100
AcDbEntity
  8
0
100
AcDbLine
 10
103.0
 20
85.6
 30
0.0
 11
103.0
 21
85.0
 31
0.0
  0
LINE
  5
F4
330
1E
100
AcDbEntity
  8
0
100
AcDbLine
 10
103.0
 20
87.3
 30
0.0
 11
103.0
 21
90.09999999999999
 31
0.0
  0
LINE
  5
F5
330
1E
100
AcDbEntity
  8
0
100
AcDbLine
 10
103.0
 20
87.3
 30
0.0
 11
103.0
 21
85.6
 31
0.0
  0
LINE
  5
F6
330
1E
100
AcDbEntity
  8
0
100
AcDbLine
 10
103.0
 20
90.5
 30
0.0
 11
103.0
 21
90.90000000000001
 31
0.0
  0
LINE
  5
F7
330
1E
100
AcDbEntity
  8
0
100
AcDbLine
 10
103.0
 20
90.90000000000001
 30
0.0
 11
103.0
 21
92.09999999999999
 31
0.0
  0
LINE
  5
F8
330
1E
100
AcDbEntity
  8
0
100
AcDbLine
 10
103.0
 20
96.5
 30
0.0
 11
103.0
 21
99.40000000000001
 31
0.0
  0
LINE
  5
F9
330
1E
100
AcDbEntity
  8
0
100
AcDbLine
 10
99.50000000000001
 20
95.5
 30
0.0
 11
101.0
 21
92.0
 31
0.0
  0
LINE
  5
FA
330
1E
100
AcDbEntity
  8
0
100
AcDbLine
 10
101.0
 20
92.0
 30
0.0
 11
103.0
 21
90.5
 31
0.0
  0
LINE
  5
FB
330
1E
100
AcDbEntity
  8
0
100
AcDbLine
 10
103.0
 20
94.0
 30
0.0
 11
103.0
 21
93.8
 31
0.0
  0
LINE
  5
FC
330
1E
100
AcDbEntity
  8
0
100
AcDbLine
 10
103.0
 20
94.0
 30
0.0
 11
103.0
 21
96.5
 31
0.0
  0
LINE
  5
FD
330
1E
100
AcDbEntity
  8
0
100
AcDbLine
 10
103.0
 20
90.09999999999999
 30
0.0
 11
103.0
 21
93.8
 31
0.0
  0
LINE
  5
FE
330
1E
100
AcDbEntity
  8
0
100
AcDbLine
 10
103.0
 20
90.09999999999999
 30
0.0
 11
103.0
 21
87.3
 31
0.0
  0
LINE
  5
FF
330
1E
100
AcDbEntity
  8
0
100
AcDbLine
 10
103.0
 20
93.8
 30
0.0
 11
103.0
 21
98.0
 31
0.0
  0
LINE
  5
100
330
1E
100
AcDbEntity
  8
0
100
AcDbLine
 10
103.0
 20
93.8
 30
0.0
 11
103.0
 21
94.0
 31
0.0
  0
LINE
  5
101
330
1E
100
AcDbEntity
  8
0
100
AcDbLine
 10
97.0
 20
99.0
 30
0.0
 11
99.0
 21
99.0
 31
0.0
  0
LINE
  5
102
330
1E
100
AcDbEntity
  8
0
100
AcDbLine
 10
92.70000000000001
 20
99.0
 30
0.0
 11
97.0
 21
99.0
 31
0.0
  0
LINE
  5
103
330
1E
100
AcDbEntity
  8
0
100
AcDbLine
 10
87.9
 20
99.0
 30
0.0
 11
92.70000000000001
 21
99.0
 31
0.0
  0
LINE
  5
104
330
1E
100
AcDbEntity
  8
0
100
AcDbLine
 10
83.40000000000001
 20
99.1
 30
0.0
 11
84.19999999999999
 21
99.50000000000001
 31
0.0
  0
LINE
  5
105
330
1E
100
AcDbEntity
  8
0
100
AcDbLine
 10
84.19999999999999
 20
99.50000000000001
 30
0.0
 11
85.0
 21
100.0
 31
0.0
  0
LINE
  5
106
330
1E
100
AcDbEntity
  8
0
100
AcDbLine
 10
83.8
 20
99.0
 30
0.0
 11
87.9
 21
99.0
 31
0.0
  0
LINE
  5
107
330
1E
100
AcDbEntity
  8
0
100
AcDbLine
 10
99.0
 20
99.1
 30
0.0
 11
99.0
 21
99.0
 31
0.0
  0
LINE
  5
108
330
1E
100
AcDbEntity
  8
0
100
AcDbLine
 10
99.0
 20
99.1
 30
0.0
 11
99.0
 21
99.50000000000001
 31
0.0
  0
LINE
  5
109
330
1E
100
AcDbEntity
  8
0
100
AcDbLine
 10
85.0
 20
100.0
 30
0.0
 11
85.5
 21
100.8
 31
0.0
  0
LINE
  5
10A
330
1E
100
AcDbEntity
  8
0
100
AcDbLine
 10
85.5
 20
100.8
 30
0.0
 11
85.90000000000001
 21
101.6
 31
0.0
  0
LINE
  5
10B
330
1E
100
AcDbEntity
  8
0
100
AcDbLine
 10
99.0
 20
99.50000000000001
 30
0.0
 11
99.0
 21
99.1
 31
0.0
  0
LINE
  5
10C
330
1E
100
AcDbEntity
  8
0
100
AcDbLine
 10
99.0
 20
99.50000000000001
 30
0.0
 11
99.0
 21
100.0
 31
0.0
  0
LINE
  5
10D
330
1E
100
AcDbEntity
  8
0
100
AcDbLine
 10
99.0
 20
100.0
 30
0.0
 11
99.0
 21
99.50000000000001
 31
0.0
  0
LINE
  5
10E
330
1E
100
AcDbEntity
  8
0
100
AcDbLine
 10
99.0
 20
100.0
 30
0.0
 11
99.0
 21
100.8
 31
0.0
  0
LINE
  5
10F
330
1E
100
AcDbEntity
  8
0
100
AcDbLine
 10
85.90000000000001
 20
101.6
 30
0.0
 11
86.0
 21
102.4999999999999
 31
0.0
  0
LINE
  5
110
330
1E
100
AcDbEntity
  8
0
100
AcDbLine
 10
99.0
 20
100.8
 30
0.0
 11
99.0
 21
100.0
 31
0.0
  0
LINE
  5
111
330
1E
100
AcDbEntity
  8
0
100
AcDbLine
 10
99.0
 20
100.8
 30
0.0
 11
99.0
 21
101.6
 31
0.0
  0
LINE
  5
112
330
1E
100
AcDbEntity
  8
0
100
AcDbLine
 10
99.0
 20
101.6
 30
0.0
 11
99.0
 21
100.8
 31
0.0
  0
LINE
  5
113
330
1E
100
AcDbEntity
  8
0
100
AcDbLine
 10
99.0
 20
101.6
 30
0.0
 11
99.0
 21
102.4999999999999
 31
0.0
  0
LINE
  5
114
330
1E
100
AcDbEntity
  8
0
100
AcDbLine
 10
99.0
 20
102.4999999999999
 30
0.0
 11
99.0
 21
103.4
 31
0.0
  0
LINE
  5
115
330
1E
100
AcDbEntity
  8
0
100
AcDbLine
 10
99.0
 20
102.4999999999999
 30
0.0
 11
99.0
 21
101.6
 31
0.0
  0
LINE
  5
116
330
1E
100
AcDbEntity
  8
0
100
AcDbLine
 10
103.0
 20
99.40000000000001
 30
0.0
 11
103.0
 21
102.4999999999999
 31
0.0
  0
LINE
  5
117
330
1E
100
AcDbEntity
  8
0
100
AcDbLine
 10
99.0
 20
99.0
 30
0.0
 11
99.50000000000001
 21
95.5
 31
0.0
  0
LINE
  5
118
330
1E
100
AcDbEntity
  8
0
100
AcDbLine
 10
99.0
 20
99.0
 30
0.0
 11
99.0
 21
99.1
 31
0.0
  0
LINE
  5
119
330
1E
100
AcDbEntity
  8
0
100
AcDbLine
 10
103.0
 20
98.0
 30
0.0
 11
103.0
 21
102.4999999999999
 31
0.0
  0
LINE
  5
11A
330
1E
100
AcDbEntity
  8
0
100
AcDbLine
 10
103.0
 20
98.0
 30
0.0
 11
103.0
 21
93.8
 31
0.0
  0
LINE
  5
11B
330
1E
100
AcDbEntity
  8
0
100
AcDbLine
 10
121.0
 20
76.0
 30
0.0
 11
121.0
 21
77.0
 31
0.0
  0
LINE
  5
11C
330
1E
100
AcDbEntity
  8
0
100
AcDbLine
 10
121.0
 20
76.0
 30
0.0
 11
121.5
 21
75.5
 31
0.0
  0
LINE
  5
11D
330
1E
100
AcDbEntity
  8
0
100
AcDbLine
 10
121.0
 20
77.0
 30
0.0
 11
121.0
 21
79.5
 31
0.0
  0
LINE
  5
11E
330
1E
100
AcDbEntity
  8
0
100
AcDbLine
 10
121.0
 20
77.0
 30
0.0
 11
121.0
 21
76.0
 31
0.0
  0
LINE
  5
11F
330
1E
100
AcDbEntity
  8
0
100
AcDbLine
 10
121.0
 20
79.5
 30
0.0
 11
121.0
 21
83.8
 31
0.0
  0
LINE
  5
120
330
1E
100
AcDbEntity
  8
0
100
AcDbLine
 10
121.0
 20
79.5
 30
0.0
 11
121.0
 21
77.0
 31
0.0
  0
LINE
  5
121
330
1E
100
AcDbEntity
  8
0
100
AcDbLine
 10
103.4999999999999
 20
84.50000000000001
 30
0.0
 11
103.4999999999999
 21
85.20000000000001
 31
0.0
  0
LINE
  5
122
330
1E
100
AcDbEntity
  8
0
100
AcDbLine
 10
103.4999999999999
 20
84.50000000000001
 30
0.0
 11
121.0
 21
84.50000000000001
 31
0.0
  0
LINE
  5
123
330
1E
100
AcDbEntity
  8
0
100
AcDbLine
 10
103.4999999999999
 20
85.20000000000001
 30
0.0
 11
103.4999999999999
 21
86.90000000000001
 31
0.0
  0
LINE
  5
124
330
1E
100
AcDbEntity
  8
0
100
AcDbLine
 10
103.4999999999999
 20
85.20000000000001
 30
0.0
 11
103.4999999999999
 21
84.50000000000001
 31
0.0
  0
LINE
  5
125
330
1E
100
AcDbEntity
  8
0
100
AcDbLine
 10
121.0
 20
84.50000000000001
 30
0.0
 11
121.0
 21
85.20000000000001
 31
0.0
  0
LINE
  5
126
330
1E
100
AcDbEntity
  8
0
100
AcDbLine
 10
121.0
 20
84.50000000000001
 30
0.0
 11
121.0
 21
83.8
 31
0.0
  0
LINE
  5
127
330
1E
100
AcDbEntity
  8
0
100
AcDbLine
 10
103.4999999999999
 20
86.90000000000001
 30
0.0
 11
103.4999999999999
 21
89.8
 31
0.0
  0
LINE
  5
128
330
1E
100
AcDbEntity
  8
0
100
AcDbLine
 10
103.4999999999999
 20
86.90000000000001
 30
0.0
 11
103.4999999999999
 21
85.20000000000001
 31
0.0
  0
LINE
  5
129
330
1E
100
AcDbEntity
  8
0
100
AcDbLine
 10
103.4999999999999
 20
89.8
 30
0.0
 11
103.4999999999999
 21
93.59999999999999
 31
0.0
  0
LINE
  5
12A
330
1E
100
AcDbEntity
  8
0
100
AcDbLine
 10
103.4999999999999
 20
89.8
 30
0.0
 11
103.4999999999999
 21
86.90000000000001
 31
0.0
  0
LINE
  5
12B
330
1E
100
AcDbEntity
  8
0
100
AcDbLine
 10
121.0
 20
85.20000000000001
 30
0.0
 11
121.0
 21
86.90000000000001
 31
0.0
  0
LINE
  5
12C
330
1E
100
AcDbEntity
  8
0
100
AcDbLine
 10
121.0
 20
85.20000000000001
 30
0.0
 11
121.0
 21
84.50000000000001
 31
0.0
  0
LINE
  5
12D
330
1E
100
AcDbEntity
  8
0
100
AcDbLine
 10
121.0
 20
86.90000000000001
 30
0.0
 11
121.0
 21
89.8
 31
0.0
  0
LINE
  5
12E
330
1E
100
AcDbEntity
  8
0
100
AcDbLine
 10
121.0
 20
86.90000000000001
 30
0.0
 11
121.0
 21
85.20000000000001
 31
0.0
  0
LINE
  5
12F
330
1E
100
AcDbEntity
  8
0
100
AcDbLine
 10
103.4999999999999
 20
93.59999999999999
 30
0.0
 11
103.4999999999999
 21
97.9
 31
0.0
  0
LINE
  5
130
330
1E
100
AcDbEntity
  8
0
100
AcDbLine
 10
103.4999999999999
 20
93.59999999999999
 30
0.0
 11
103.4999999999999
 21
89.8
 31
0.0
  0
LINE
  5
131
330
1E
100
AcDbEntity
  8
0
100
AcDbLine
 10
121.0
 20
89.8
 30
0.0
 11
121.0
 21
93.59999999999999
 31
0.0
  0
LINE
  5
132
330
1E
100
AcDbEntity
  8
0
100
AcDbLine
 10
121.0
 20
89.8
 30
0.0
 11
121.0
 21
86.90000000000001
 31
0.0
  0
LINE
  5
133
330
1E
100
AcDbEntity
  8
0
100
AcDbLine
 10
121.0
 20
93.59999999999999
 30
0.0
 11
121.0
 21
97.9
 31
0.0
  0
LINE
  5
134
330
1E
100
AcDbEntity
  8
0
100
AcDbLine
 10
121.0
 20
93.59999999999999
 30
0.0
 11
121.0
 21
89.8
 31
0.0
  0
LINE
  5
135
330
1E
100
AcDbEntity
  8
0
100
AcDbLine
 10
121.0
 20
83.8
 30
0.0
 11
121.0
 21
89.29999999999999
 31
0.0
  0
LINE
  5
136
330
1E
100
AcDbEntity
  8
0
100
AcDbLine
 10
121.0
 20
83.8
 30
0.0
 11
121.0
 21
79.5
 31
0.0
  0
LINE
  5
137
330
1E
100
AcDbEntity
  8
0
100
AcDbLine
 10
121.0
 20
83.8
 30
0.0
 11
121.0
 21
84.50000000000001
 31
0.0
  0
LINE
  5
138
330
1E
100
AcDbEntity
  8
0
100
AcDbLine
 10
121.0
 20
89.29999999999999
 30
0.0
 11
121.0
 21
95.7
 31
0.0
  0
LINE
  5
139
330
1E
100
AcDbEntity
  8
0
100
AcDbLine
 10
121.0
 20
89.29999999999999
 30
0.0
 11
121.0
 21
83.8
 31
0.0
  0
LINE
  5
13A
330
1E
100
AcDbEntity
  8
0
100
AcDbLine
 10
103.4999999999999
 20
97.9
 30
0.0
 11
103.4999999999999
 21
102.4999999999999
 31
0.0
  0
LINE
  5
13B
330
1E
100
AcDbEntity
  8
0
100
AcDbLine
 10
103.4999999999999
 20
97.9
 30
0.0
 11
103.4999999999999
 21
93.59999999999999
 31
0.0
  0
LINE
  5
13C
330
1E
100
AcDbEntity
  8
0
100
AcDbLine
 10
121.0
 20
97.9
 30
0.0
 11
121.0
 21
102.4999999999999
 31
0.0
  0
LINE
  5
13D
330
1E
100
AcDbEntity
  8
0
100
AcDbLine
 10
121.0
 20
97.9
 30
0.0
 11
121.0
 21
93.59999999999999
 31
0.0
  0
LINE
  5
13E
330
1E
100
AcDbEntity
  8
0
100
AcDbLine
 10
121.0
 20
95.7
 30
0.0
 11
121.0
 21
102.4999999999999
 31
0.0
  0
LINE
  5
13F
330
1E
100
AcDbEntity
  8
0
100
AcDbLine
 10
121.0
 20
95.7
 30
0.0
 11
121.0
 21
89.29999999999999
 31
0.0
  0
LINE
  5
140
330
1E
100
AcDbEntity
  8
0
100
AcDbLine
 10
103.0
 20
102.4999999999999
 30
0.0
 11
103.0
 21
107.0
 31
0.0
  0
LINE
  5
141
330
1E
100
AcDbEntity
  8
0
100
AcDbLine
 10
103.0
 20
102.4999999999999
 30
0.0
 11
103.0
 21
98.0
 31
0.0
  0
LINE
  5
142
330
1E
100
AcDbEntity
  8
0
100
AcDbLine
 10
103.0
 20
102.4999999999999
 30
0.0
 11
103.0
 21
105.6
 31
0.0
  0
LINE
  5
143
330
1E
100
AcDbEntity
  8
0
100
AcDbLine
 10
103.4999999999999
 20
102.4999999999999
 30
0.0
 11
103.4999999999999
 21
107.0999999999999
 31
0.0
  0
LINE
  5
144
330
1E
100
AcDbEntity
  8
0
100
AcDbLine
 10
103.4999999999999
 20
102.4999999999999
 30
0.0
 11
103.4999999999999
 21
97.9
 31
0.0
  0
LINE
  5
145
330
1E
100
AcDbEntity
  8
0
100
AcDbLine
 10
121.5
 20
75.5
 30
0.0
 11
121.5
 21
76.5
 31
0.0
  0
LINE
  5
146
330
1E
100
AcDbEntity
  8
0
100
AcDbLine
 10
121.5
 20
75.5
 30
0.0
 11
131.0
 21
75.5
 31
0.0
  0
LINE
  5
147
330
1E
100
AcDbEntity
  8
0
100
AcDbLine
 10
121.5
 20
76.5
 30
0.0
 11
121.5
 21
79.1
 31
0.0
  0
LINE
  5
148
330
1E
100
AcDbEntity
  8
0
100
AcDbLine
 10
121.5
 20
76.5
 30
0.0
 11
121.5
 21
75.5
 31
0.0
  0
LINE
  5
149
330
1E
100
AcDbEntity
  8
0
100
AcDbLine
 10
131.0
 20
75.5
 30
0.0
 11
131.0
 21
76.5
 31
0.0
  0
LINE
  5
14A
330
1E
100
AcDbEntity
  8
0
100
AcDbLine
 10
121.5
 20
79.1
 30
0.0
 11
121.5
 21
83.40000000000001
 31
0.0
  0
LINE
  5
14B
330
1E
100
AcDbEntity
  8
0
100
AcDbLine
 10
121.5
 20
79.1
 30
0.0
 11
121.5
 21
76.5
 31
0.0
  0
LINE
  5
14C
330
1E
100
AcDbEntity
  8
0
100
AcDbLine
 10
121.5
 20
83.40000000000001
 30
0.0
 11
121.5
 21
89.1
 31
0.0
  0
LINE
  5
14D
330
1E
100
AcDbEntity
  8
0
100
AcDbLine
 10
121.5
 20
83.40000000000001
 30
0.0
 11
121.5
 21
79.1
 31
0.0
  0
LINE
  5
14E
330
1E
100
AcDbEntity
  8
0
100
AcDbLine
 10
131.0
 20
76.5
 30
0.0
 11
131.0
 21
79.1
 31
0.0
  0
LINE
  5
14F
330
1E
100
AcDbEntity
  8
0
100
AcDbLine
 10
131.0
 20
76.5
 30
0.0
 11
131.0
 21
75.5
 31
0.0
  0
LINE
  5
150
330
1E
100
AcDbEntity
  8
0
100
AcDbLine
 10
131.0
 20
79.1
 30
0.0
 11
131.0
 21
83.40000000000001
 31
0.0
  0
LINE
  5
151
330
1E
100
AcDbEntity
  8
0
100
AcDbLine
 10
131.0
 20
79.1
 30
0.0
 11
131.0
 21
76.5
 31
0.0
  0
LINE
  5
152
330
1E
100
AcDbEntity
  8
0
100
AcDbLine
 10
121.5
 20
89.1
 30
0.0
 11
121.5
 21
95.6
 31
0.0
  0
LINE
  5
153
330
1E
100
AcDbEntity
  8
0
100
AcDbLine
 10
121.5
 20
89.1
 30
0.0
 11
121.5
 21
83.40000000000001
 31
0.0
  0
LINE
  5
154
330
1E
100
AcDbEntity
  8
0
100
AcDbLine
 10
121.5
 20
95.6
 30
0.0
 11
121.5
 21
102.4999999999999
 31
0.0
  0
LINE
  5
155
330
1E
100
AcDbEntity
  8
0
100
AcDbLine
 10
121.5
 20
95.6
 30
0.0
 11
121.5
 21
89.1
 31
0.0
  0
LINE
  5
156
330
1E
100
AcDbEntity
  8
0
100
AcDbLine
 10
131.0
 20
83.40000000000001
 30
0.0
 11
131.0
 21
89.1
 31
0.0
  0
LINE
  5
157
330
1E
100
AcDbEntity
  8
0
100
AcDbLine
 10
131.0
 20
83.40000000000001
 30
0.0
 11
131.0
 21
79.1
 31
0.0
  0
LINE
  5
158
330
1E
100
AcDbEntity
  8
0
100
AcDbLine
 10
131.0
 20
89.1
 30
0.0
 11
131.0
 21
95.6
 31
0.0
  0
LINE
  5
159
330
1E
100
AcDbEntity
  8
0
100
AcDbLine
 10
131.0
 20
89.1
 30
0.0
 11
131.0
 21
83.40000000000001
 31
0.0
  0
LINE
  5
15A
330
1E
100
AcDbEntity
  8
0
100
AcDbLine
 10
131.0
 20
95.6
 30
0.0
 11
131.0
 21
102.4999999999999
 31
0.0
  0
LINE
  5
15B
330
1E
100
AcDbEntity
  8
0
100
AcDbLine
 10
131.0
 20
95.6
 30
0.0
 11
131.0
 21
89.1
 31
0.0
  0
LINE
  5
15C
330
1E
100
AcDbEntity
  8
0
100
AcDbLine
 10
121.0
 20
102.4999999999999
 30
0.0
 11
121.0
 21
109.2999999999999
 31
0.0
  0
LINE
  5
15D
330
1E
100
AcDbEntity
  8
0
100
AcDbLine
 10
121.0
 20
102.4999999999999
 30
0.0
 11
121.0
 21
107.0999999999999
 31
0.0
  0
LINE
  5
15E
330
1E
100
AcDbEntity
  8
0
100
AcDbLine
 10
121.0
 20
102.4999999999999
 30
0.0
 11
121.0
 21
95.7
 31
0.0
  0
LINE
  5
15F
330
1E
100
AcDbEntity
  8
0
100
AcDbLine
 10
121.0
 20
102.4999999999999
 30
0.0
 11
121.0
 21
97.9
 31
0.0
  0
LINE
  5
160
330
1E
100
AcDbEntity
  8
0
100
AcDbLine
 10
83.40000000000001
 20
105.9
 30
0.0
 11
84.19999999999999
 21
105.4999999999999
 31
0.0
  0
LINE
  5
161
330
1E
100
AcDbEntity
  8
0
100
AcDbLine
 10
84.19999999999999
 20
105.4999999999999
 30
0.0
 11
85.0
 21
105.0
 31
0.0
  0
LINE
  5
162
330
1E
100
AcDbEntity
  8
0
100
AcDbLine
 10
85.0
 20
105.0
 30
0.0
 11
85.5
 21
104.2
 31
0.0
  0
LINE
  5
163
330
1E
100
AcDbEntity
  8
0
100
AcDbLine
 10
85.5
 20
104.2
 30
0.0
 11
85.90000000000001
 21
103.4
 31
0.0
  0
LINE
  5
164
330
1E
100
AcDbEntity
  8
0
100
AcDbLine
 10
85.90000000000001
 20
103.4
 30
0.0
 11
86.0
 21
102.4999999999999
 31
0.0
  0
LINE
  5
165
330
1E
100
AcDbEntity
  8
0
100
AcDbLine
 10
99.0
 20
103.4
 30
0.0
 11
99.0
 21
104.2
 31
0.0
  0
LINE
  5
166
330
1E
100
AcDbEntity
  8
0
100
AcDbLine
 10
99.0
 20
103.4
 30
0.0
 11
99.0
 21
102.4999999999999
 31
0.0
  0
LINE
  5
167
330
1E
100
AcDbEntity
  8
0
100
AcDbLine
 10
99.0
 20
104.2
 30
0.0
 11
99.0
 21
105.0
 31
0.0
  0
LINE
  5
168
330
1E
100
AcDbEntity
  8
0
100
AcDbLine
 10
99.0
 20
104.2
 30
0.0
 11
99.0
 21
103.4
 31
0.0
  0
LINE
  5
169
330
1E
100
AcDbEntity
  8
0
100
AcDbLine
 10
99.0
 20
105.0
 30
0.0
 11
99.0
 21
105.4999999999999
 31
0.0
  0
LINE
  5
16A
330
1E
100
AcDbEntity
  8
0
100
AcDbLine
 10
99.0
 20
105.0
 30
0.0
 11
99.0
 21
104.2
 31
0.0
  0
LINE
  5
16B
330
1E
100
AcDbEntity
  8
0
100
AcDbLine
 10
99.0
 20
105.4999999999999
 30
0.0
 11
99.0
 21
105.9
 31
0.0
  0
LINE
  5
16C
330
1E
100
AcDbEntity
  8
0
100
AcDbLine
 10
99.0
 20
105.4999999999999
 30
0.0
 11
99.0
 21
105.0
 31
0.0
  0
LINE
  5
16D
330
1E
100
AcDbEntity
  8
0
100
AcDbLine
 10
103.0
 20
105.6
 30
0.0
 11
103.0
 21
108.4999999999999
 31
0.0
  0
LINE
  5
16E
330
1E
100
AcDbEntity
  8
0
100
AcDbLine
 10
99.0
 20
105.9
 30
0.0
 11
99.0
 21
106.0
 31
0.0
  0
LINE
  5
16F
330
1E
100
AcDbEntity
  8
0
100
AcDbLine
 10
99.0
 20
105.9
 30
0.0
 11
99.0
 21
105.4999999999999
 31
0.0
  0
LINE
  5
170
330
1E
100
AcDbEntity
  8
0
100
AcDbLine
 10
97.0
 20
106.0
 30
0.0
 11
99.0
 21
106.0
 31
0.0
  0
LINE
  5
171
330
1E
100
AcDbEntity
  8
0
100
AcDbLine
 10
92.70000000000001
 20
106.0
 30
0.0
 11
97.0
 21
106.0
 31
0.0
  0
LINE
  5
172
330
1E
100
AcDbEntity
  8
0
100
AcDbLine
 10
87.9
 20
106.0
 30
0.0
 11
92.70000000000001
 21
106.0
 31
0.0
  0
LINE
  5
173
330
1E
100
AcDbEntity
  8
0
100
AcDbLine
 10
83.8
 20
106.0
 30
0.0
 11
87.9
 21
106.0
 31
0.0
  0
LINE
  5
174
330
1E
100
AcDbEntity
  8
0
100
AcDbLine
 10
99.0
 20
106.0
 30
0.0
 11
99.50000000000001
 21
109.4999999999999
 31
0.0
  0
LINE
  5
175
330
1E
100
AcDbEntity
  8
0
100
AcDbLine
 10
99.0
 20
106.0
 30
0.0
 11
99.0
 21
105.9
 31
0.0
  0
LINE
  5
176
330
1E
100
AcDbEntity
  8
0
100
AcDbLine
 10
103.0
 20
107.0
 30
0.0
 11
103.0
 21
111.2
 31
0.0
  0
LINE
  5
177
330
1E
100
AcDbEntity
  8
0
100
AcDbLine
 10
103.0
 20
107.0
 30
0.0
 11
103.0
 21
102.4999999999999
 31
0.0
  0
LINE
  5
178
330
1E
100
AcDbEntity
  8
0
100
AcDbLine
 10
103.0
 20
108.4999999999999
 30
0.0
 11
103.0
 21
111.0
 31
0.0
  0
LINE
  5
179
330
1E
100
AcDbEntity
  8
0
100
AcDbLine
 10
103.4999999999999
 20
107.0999999999999
 30
0.0
 11
103.4999999999999
 21
111.4
 31
0.0
  0
LINE
  5
17A
330
1E
100
AcDbEntity
  8
0
100
AcDbLine
 10
103.4999999999999
 20
107.0999999999999
 30
0.0
 11
103.4999999999999
 21
102.4999999999999
 31
0.0
  0
LINE
  5
17B
330
1E
100
AcDbEntity
  8
0
100
AcDbLine
 10
121.0
 20
107.0999999999999
 30
0.0
 11
121.0
 21
111.4
 31
0.0
  0
LINE
  5
17C
330
1E
100
AcDbEntity
  8
0
100
AcDbLine
 10
121.0
 20
107.0999999999999
 30
0.0
 11
121.0
 21
102.4999999999999
 31
0.0
  0
LINE
  5
17D
330
1E
100
AcDbEntity
  8
0
100
AcDbLine
 10
121.5
 20
102.4999999999999
 30
0.0
 11
121.5
 21
109.4
 31
0.0
  0
LINE
  5
17E
330
1E
100
AcDbEntity
  8
0
100
AcDbLine
 10
121.5
 20
102.4999999999999
 30
0.0
 11
121.5
 21
95.6
 31
0.0
  0
LINE
  5
17F
330
1E
100
AcDbEntity
  8
0
100
AcDbLine
 10
131.0
 20
102.4999999999999
 30
0.0
 11
131.0
 21
109.4
 31
0.0
  0
LINE
  5
180
330
1E
100
AcDbEntity
  8
0
100
AcDbLine
 10
131.0
 20
102.4999999999999
 30
0.0
 11
131.0
 21
95.6
 31
0.0
  0
LINE
  5
181
330
1E
100
AcDbEntity
  8
0
100
AcDbLine
 10
85.5
 20
108.7199999999999
 30
0.0
 11
85.5
 21
187.2799999999999
 31
0.0
  0
LINE
  5
182
330
1E
100
AcDbEntity
  8
0
100
AcDbLine
 10
83.375
 20
106.0
 30
0.0
 11
85.5
 21
108.7199999999999
 31
0.0
  0
LINE
  5
183
330
1E
100
AcDbEntity
  8
0
100
AcDbLine
 10
83.375
 20
190.0
 30
0.0
 11
85.5
 21
187.2799999999999
 31
0.0
  0
LINE
  5
184
330
1E
100
AcDbEntity
  8
0
100
AcDbLine
 10
103.0
 20
111.0
 30
0.0
 11
103.0
 21
112.9
 31
0.0
  0
LINE
  5
185
330
1E
100
AcDbEntity
  8
0
100
AcDbLine
 10
99.50000000000001
 20
109.4999999999999
 30
0.0
 11
101.0
 21
113.0
 31
0.0
  0
LINE
  5
186
330
1E
100
AcDbEntity
  8
0
100
AcDbLine
 10
103.0
 20
114.1
 30
0.0
 11
103.0
 21
114.5
 31
0.0
  0
LINE
  5
187
330
1E
100
AcDbEntity
  8
0
100
AcDbLine
 10
103.0
 20
112.9
 30
0.0
 11
103.0
 21
114.1
 31
0.0
  0
LINE
  5
188
330
1E
100
AcDbEntity
  8
0
100
AcDbLine
 10
101.0
 20
113.0
 30
0.0
 11
103.0
 21
114.5
 31
0.0
  0
LINE
  5
189
330
1E
100
AcDbEntity
  8
0
100
AcDbLine
 10
103.0
 20
111.2
 30
0.0
 11
103.0
 21
114.9
 31
0.0
  0
LINE
  5
18A
330
1E
100
AcDbEntity
  8
0
100
AcDbLine
 10
103.0
 20
111.2
 30
0.0
 11
103.0
 21
107.0
 31
0.0
  0
LINE
  5
18B
330
1E
100
AcDbEntity
  8
0
100
AcDbLine
 10
103.0
 20
114.5
 30
0.0
 11
103.0
 21
114.9
 31
0.0
  0
LINE
  5
18C
330
1E
100
AcDbEntity
  8
0
100
AcDbLine
 10
103.0
 20
120.0
 30
0.0
 11
103.0
 21
119.4
 31
0.0
  0
LINE
  5
18D
330
1E
100
AcDbEntity
  8
0
100
AcDbLine
 10
103.0
 20
120.0
 30
0.0
 11
103.4999999999999
 21
120.5
 31
0.0
  0
LINE
  5
18E
330
1E
100
AcDbEntity
  8
0
100
AcDbLine
 10
103.0
 20
119.4
 30
0.0
 11
103.0
 21
117.7
 31
0.0
  0
LINE
  5
18F
330
1E
100
AcDbEntity
  8
0
100
AcDbLine
 10
103.0
 20
119.4
 30
0.0
 11
103.0
 21
120.0
 31
0.0
  0
LINE
  5
190
330
1E
100
AcDbEntity
  8
0
100
AcDbLine
 10
103.0
 20
117.7
 30
0.0
 11
103.0
 21
114.9
 31
0.0
  0
LINE
  5
191
330
1E
100
AcDbEntity
  8
0
100
AcDbLine
 10
103.0
 20
117.7
 30
0.0
 11
103.0
 21
119.4
 31
0.0
  0
LINE
  5
192
330
1E
100
AcDbEntity
  8
0
100
AcDbLine
 10
103.4999999999999
 20
111.4
 30
0.0
 11
103.4999999999999
 21
115.2
 31
0.0
  0
LINE
  5
193
330
1E
100
AcDbEntity
  8
0
100
AcDbLine
 10
103.4999999999999
 20
111.4
 30
0.0
 11
103.4999999999999
 21
107.0999999999999
 31
0.0
  0
LINE
  5
194
330
1E
100
AcDbEntity
  8
0
100
AcDbLine
 10
103.4999999999999
 20
119.7999999999999
 30
0.0
 11
103.4999999999999
 21
120.5
 31
0.0
  0
LINE
  5
195
330
1E
100
AcDbEntity
  8
0
100
AcDbLine
 10
103.4999999999999
 20
119.7999999999999
 30
0.0
 11
103.4999999999999
 21
118.1
 31
0.0
  0
LINE
  5
196
330
1E
100
AcDbEntity
  8
0
100
AcDbLine
 10
103.4999999999999
 20
118.1
 30
0.0
 11
103.4999999999999
 21
119.7999999999999
 31
0.0
  0
LINE
  5
197
330
1E
100
AcDbEntity
  8
0
100
AcDbLine
 10
103.4999999999999
 20
118.1
 30
0.0
 11
103.4999999999999
 21
115.2
 31
0.0
  0
LINE
  5
198
330
1E
100
AcDbEntity
  8
0
100
AcDbLine
 10
121.0
 20
118.1
 30
0.0
 11
121.0
 21
115.2
 31
0.0
  0
LINE
  5
199
330
1E
100
AcDbEntity
  8
0
100
AcDbLine
 10
103.4999999999999
 20
115.2
 30
0.0
 11
103.4999999999999
 21
118.1
 31
0.0
  0
LINE
  5
19A
330
1E
100
AcDbEntity
  8
0
100
AcDbLine
 10
103.4999999999999
 20
115.2
 30
0.0
 11
103.4999999999999
 21
111.4
 31
0.0
  0
LINE
  5
19B
330
1E
100
AcDbEntity
  8
0
100
AcDbLine
 10
121.0
 20
115.2
 30
0.0
 11
121.0
 21
118.1
 31
0.0
  0
LINE
  5
19C
330
1E
100
AcDbEntity
  8
0
100
AcDbLine
 10
121.0
 20
115.2
 30
0.0
 11
121.0
 21
111.4
 31
0.0
  0
LINE
  5
19D
330
1E
100
AcDbEntity
  8
0
100
AcDbLine
 10
121.0
 20
111.4
 30
0.0
 11
121.0
 21
115.2
 31
0.0
  0
LINE
  5
19E
330
1E
100
AcDbEntity
  8
0
100
AcDbLine
 10
121.0
 20
111.4
 30
0.0
 11
121.0
 21
107.0999999999999
 31
0.0
  0
LINE
  5
19F
330
1E
100
AcDbEntity
  8
0
100
AcDbLine
 10
121.0
 20
115.7
 30
0.0
 11
121.0
 21
121.1999999999999
 31
0.0
  0
LINE
  5
1A0
330
1E
100
AcDbEntity
  8
0
100
AcDbLine
 10
121.0
 20
115.7
 30
0.0
 11
121.0
 21
109.2999999999999
 31
0.0
  0
LINE
  5
1A1
330
1E
100
AcDbEntity
  8
0
100
AcDbLine
 10
121.0
 20
109.2999999999999
 30
0.0
 11
121.0
 21
115.7
 31
0.0
  0
LINE
  5
1A2
330
1E
100
AcDbEntity
  8
0
100
AcDbLine
 10
121.0
 20
109.2999999999999
 30
0.0
 11
121.0
 21
102.4999999999999
 31
0.0
  0
LINE
  5
1A3
330
1E
100
AcDbEntity
  8
0
100
AcDbLine
 10
103.0
 20
114.9
 30
0.0
 11
103.0
 21
114.5
 31
0.0
  0
LINE
  5
1A4
330
1E
100
AcDbEntity
  8
0
100
AcDbLine
 10
103.0
 20
114.9
 30
0.0
 11
103.0
 21
117.7
 31
0.0
  0
LINE
  5
1A5
330
1E
100
AcDbEntity
  8
0
100
AcDbLine
 10
103.0
 20
114.9
 30
0.0
 11
103.0
 21
111.2
 31
0.0
  0
LINE
  5
1A6
330
1E
100
AcDbEntity
  8
0
100
AcDbLine
 10
103.4999999999999
 20
120.5
 30
0.0
 11
121.0
 21
120.5
 31
0.0
  0
LINE
  5
1A7
330
1E
100
AcDbEntity
  8
0
100
AcDbLine
 10
103.4999999999999
 20
120.5
 30
0.0
 11
103.4999999999999
 21
119.7999999999999
 31
0.0
  0
LINE
  5
1A8
330
1E
100
AcDbEntity
  8
0
100
AcDbLine
 10
121.5
 20
121.5999999999999
 30
0.0
 11
121.5
 21
125.9
 31
0.0
  0
LINE
  5
1A9
330
1E
100
AcDbEntity
  8
0
100
AcDbLine
 10
121.5
 20
121.5999999999999
 30
0.0
 11
121.5
 21
115.9
 31
0.0
  0
LINE
  5
1AA
330
1E
100
AcDbEntity
  8
0
100
AcDbLine
 10
121.5
 20
115.9
 30
0.0
 11
121.5
 21
121.5999999999999
 31
0.0
  0
LINE
  5
1AB
330
1E
100
AcDbEntity
  8
0
100
AcDbLine
 10
121.5
 20
115.9
 30
0.0
 11
121.5
 21
109.4
 31
0.0
  0
LINE
  5
1AC
330
1E
100
AcDbEntity
  8
0
100
AcDbLine
 10
121.5
 20
109.4
 30
0.0
 11
121.5
 21
115.9
 31
0.0
  0
LINE
  5
1AD
330
1E
100
AcDbEntity
  8
0
100
AcDbLine
 10
121.5
 20
109.4
 30
0.0
 11
121.5
 21
102.4999999999999
 31
0.0
  0
LINE
  5
1AE
330
1E
100
AcDbEntity
  8
0
100
AcDbLine
 10
121.0
 20
121.1999999999999
 30
0.0
 11
121.0
 21
125.5
 31
0.0
  0
LINE
  5
1AF
330
1E
100
AcDbEntity
  8
0
100
AcDbLine
 10
121.0
 20
129.0
 30
0.0
 11
121.0
 21
128.0
 31
0.0
  0
LINE
  5
1B0
330
1E
100
AcDbEntity
  8
0
100
AcDbLine
 10
121.0
 20
129.0
 30
0.0
 11
121.5
 21
129.4999999999999
 31
0.0
  0
LINE
  5
1B1
330
1E
100
AcDbEntity
  8
0
100
AcDbLine
 10
121.5
 20
128.4999999999999
 30
0.0
 11
121.5
 21
129.4999999999999
 31
0.0
  0
LINE
  5
1B2
330
1E
100
AcDbEntity
  8
0
100
AcDbLine
 10
121.5
 20
128.4999999999999
 30
0.0
 11
121.5
 21
125.9
 31
0.0
  0
LINE
  5
1B3
330
1E
100
AcDbEntity
  8
0
100
AcDbLine
 10
121.5
 20
125.9
 30
0.0
 11
121.5
 21
128.4999999999999
 31
0.0
  0
LINE
  5
1B4
330
1E
100
AcDbEntity
  8
0
100
AcDbLine
 10
121.5
 20
125.9
 30
0.0
 11
121.5
 21
121.5999999999999
 31
0.0
  0
LINE
  5
1B5
330
1E
100
AcDbEntity
  8
0
100
AcDbLine
 10
121.0
 20
128.0
 30
0.0
 11
121.0
 21
125.5
 31
0.0
  0
LINE
  5
1B6
330
1E
100
AcDbEntity
  8
0
100
AcDbLine
 10
121.0
 20
128.0
 30
0.0
 11
121.0
 21
129.0
 31
0.0
  0
LINE
  5
1B7
330
1E
100
AcDbEntity
  8
0
100
AcDbLine
 10
121.0
 20
125.5
 30
0.0
 11
121.0
 21
121.1999999999999
 31
0.0
  0
LINE
  5
1B8
330
1E
100
AcDbEntity
  8
0
100
AcDbLine
 10
121.0
 20
125.5
 30
0.0
 11
121.0
 21
128.0
 31
0.0
  0
LINE
  5
1B9
330
1E
100
AcDbEntity
  8
0
100
AcDbLine
 10
131.0
 20
129.4999999999999
 30
0.0
 11
131.0
 21
128.4999999999999
 31
0.0
  0
LINE
  5
1BA
330
1E
100
AcDbEntity
  8
0
100
AcDbLine
 10
131.0
 20
128.4999999999999
 30
0.0
 11
131.0
 21
129.4999999999999
 31
0.0
  0
LINE
  5
1BB
330
1E
100
AcDbEntity
  8
0
100
AcDbLine
 10
131.0
 20
128.4999999999999
 30
0.0
 11
131.0
 21
125.9
 31
0.0
  0
LINE
  5
1BC
330
1E
100
AcDbEntity
  8
0
100
AcDbLine
 10
131.0
 20
125.9
 30
0.0
 11
131.0
 21
128.4999999999999
 31
0.0
  0
LINE
  5
1BD
330
1E
100
AcDbEntity
  8
0
100
AcDbLine
 10
131.0
 20
125.9
 30
0.0
 11
131.0
 21
121.5999999999999
 31
0.0
  0
LINE
  5
1BE
330
1E
100
AcDbEntity
  8
0
100
AcDbLine
 10
131.0
 20
121.5999999999999
 30
0.0
 11
131.0
 21
125.9
 31
0.0
  0
LINE
  5
1BF
330
1E
100
AcDbEntity
  8
0
100
AcDbLine
 10
131.0
 20
121.5999999999999
 30
0.0
 11
131.0
 21
115.9
 31
0.0
  0
LINE
  5
1C0
330
1E
100
AcDbEntity
  8
0
100
AcDbLine
 10
131.0
 20
115.9
 30
0.0
 11
131.0
 21
121.5999999999999
 31
0.0
  0
LINE
  5
1C1
330
1E
100
AcDbEntity
  8
0
100
AcDbLine
 10
131.0
 20
115.9
 30
0.0
 11
131.0
 21
109.4
 31
0.0
  0
LINE
  5
1C2
330
1E
100
AcDbEntity
  8
0
100
AcDbLine
 10
131.0
 20
109.4
 30
0.0
 11
131.0
 21
115.9
 31
0.0
  0
LINE
  5
1C3
330
1E
100
AcDbEntity
  8
0
100
AcDbLine
 10
131.0
 20
109.4
 30
0.0
 11
131.0
 21
102.4999999999999
 31
0.0
  0
LINE
  5
1C4
330
1E
100
AcDbEntity
  8
0
100
AcDbLine
 10
121.5
 20
129.4999999999999
 30
0.0
 11
131.0
 21
129.4999999999999
 31
0.0
  0
LINE
  5
1C5
330
1E
100
AcDbEntity
  8
0
100
AcDbLine
 10
121.5
 20
129.4999999999999
 30
0.0
 11
121.5
 21
128.4999999999999
 31
0.0
  0
LINE
  5
1C6
330
1E
100
AcDbEntity
  8
0
100
AcDbLine
 10
85.5
 20
187.2799999999999
 30
0.0
 11
85.5
 21
108.7199999999999
 31
0.0
  0
LINE
  5
1C7
330
1E
100
AcDbEntity
  8
0
100
AcDbLine
 10
84.0125
 20
187.2799999999999
 30
0.0
 11
85.5
 21
187.2799999999999
 31
0.0
  0
LINE
  5
1C8
330
1E
100
AcDbEntity
  8
0
100
AcDbLine
 10
84.0125
 20
108.7199999999999
 30
0.0
 11
85.5
 21
108.7199999999999
 31
0.0
  0
LINE
  5
1C9
330
1E
100
AcDbEntity
  8
0
100
AcDbLine
 10
81.8875
 20
106.0
 30
0.0
 11
83.375
 21
106.0
 31
0.0
  0
LINE
  5
1CA
330
1E
100
AcDbEntity
  8
0
100
AcDbLine
 10
81.25
 20
48.96
 30
0.0
 11
81.25
 21
99.0
 31
0.0
  0
LINE
  5
1CB
330
1E
100
AcDbEntity
  8
0
100
AcDbLine
 10
79.86879999999999
 20
36.31199999999999
 30
0.0
 11
81.25
 21
48.96
 31
0.0
  0
LINE
  5
1CC
330
1E
100
AcDbEntity
  8
0
100
AcDbLine
 10
76.0437
 20
24.616
 30
0.0
 11
79.86879999999999
 21
36.31199999999999
 31
0.0
  0
LINE
  5
1CD
330
1E
100
AcDbEntity
  8
0
100
AcDbLine
 10
69.9875
 20
14.416
 30
0.0
 11
76.0437
 21
24.616
 31
0.0
  0
LINE
  5
1CE
330
1E
100
AcDbEntity
  8
0
100
AcDbLine
 10
62.125
 20
6.79999999999999
 30
0.0
 11
69.9875
 21
14.416
 31
0.0
  0
LINE
  5
1CF
330
1E
100
AcDbEntity
  8
0
100
AcDbLine
 10
52.8812
 20
1.767999999999989
 30
0.0
 11
62.125
 21
6.79999999999999
 31
0.0
  0
LINE
  5
1D0
330
1E
100
AcDbEntity
  8
0
100
AcDbLine
 10
43.0
 20
-0.0000000000000095
 30
0.0
 11
52.8812
 21
1.767999999999989
 31
0.0
  0
LINE
  5
1D1
330
1E
100
AcDbEntity
  8
0
100
AcDbLine
 10
33.1188
 20
1.767999999999989
 30
0.0
 11
43.0
 21
-0.0000000000000095
 31
0.0
  0
LINE
  5
1D2
330
1E
100
AcDbEntity
  8
0
100
AcDbLine
 10
33.1188
 20
1.767999999999989
 30
0.0
 11
43.0
 21
-0.0000000000000094
 31
0.0
  0
ENDSEC
  0
SECTION
  2
OBJECTS
  0
DICTIONARY
  5
C
330
0
100
AcDbDictionary
  3
ACAD_GROUP
350
D
  3
ACAD_LAYOUT
350
19
  3
ACAD_MLINESTYLE
350
16
  3
ACAD_PLOTSETTINGS
350
18
  3
ACAD_PLOTSTYLENAME
350
E
  3
ACDBHEADERROUNDTRIPXREC
350
1DA
  3
ACDBVARIABLEDICTIONARY
350
1D7
  0
DICTIONARY
  5
1FC
330
1E
100
AcDbDictionary
280
     1
  3
ACAD_LAYOUTSELFREF
360
1FD
  0
DICTIONARY
  5
1FA
330
1A
100
AcDbDictionary
280
     1
  3
ACAD_LAYOUTSELFREF
360
1FB
  0
DICTIONARY
  5
D
102
{ACAD_REACTORS
330
C
102
}
330
C
100
AcDbDictionary
  0
DICTIONARY
  5
19
102
{ACAD_REACTORS
330
C
102
}
330
C
100
AcDbDictionary
  0
DICTIONARY
  5
16
102
{ACAD_REACTORS
330
C
102
}
330
C
100
AcDbDictionary
  3
STANDARD
350
17
  0
DICTIONARY
  5
18
102
{ACAD_REACTORS
330
C
102
}
330
C
100
AcDbDictionary
  0
ACDBDICTIONARYWDFLT
  5
E
102
{ACAD_REACTORS
330
C
102
}
330
C
100
AcDbDictionary
281
     1
  3
Normal
350
F
100
AcDbDictionaryWithDefault
340
F
  0
DICTIONARY
  5
1DA
102
{ACAD_REACTORS
330
C
102
}
330
C
100
AcDbDictionary
  3
CEPSNTYPE
350
1E4
  3
FINGERPRINTGUID
350
1E5
  3
HYPERLINKBASE
350
1DD
  3
INSUNITS
350
1E3
  3
LAYOUTDICT
350
1DF
  3
LWETCUNION
350
1E2
  3
PLOTSETDICT
350
1E0
  3
PLOTSTYLNAMDICT
350
1E1
  3
PSVPSCALE
350
1E7
  3
PUCSBASE
350
1EA
  3
PUCSORGBACK
350
1F0
  3
PUCSORGBOTTOM
350
1EC
  3
PUCSORGFRONT
350
1EF
  3
PUCSORGLEFT
350
1ED
  3
PUCSORGRIGHT
350
1EE
  3
PUCSORGTOP
350
1EB
  3
PUCSORTHOREF
350
1E8
  3
PUCSORTHOVIEW
350
1E9
  3
STYLESHEET
350
1DE
  3
TSTACKALIGN
350
1DB
  3
TSTACKSIZE
350
1DC
  3
UCSBASE
350
1F3
  3
UCSORGBACK
350
1F9
  3
UCSORGBOTTOM
350
1F5
  3
UCSORGFRONT
350
1F8
  3
UCSORGLEFT
350
1F6
  3
UCSORGRIGHT
350
1F7
  3
UCSORGTOP
350
1F4
  3
UCSORTHOREF
350
1F1
  3
UCSORTHOVIEW
350
1F2
  3
VERSIONGUID
350
1E6
  0
DICTIONARY
  5
1D7
102
{ACAD_REACTORS
330
C
102
}
330
C
100
AcDbDictionary
  3
DIMASSOC
350
1D8
  0
XRECORD
  5
1FD
102
{ACAD_REACTORS
330
1FC
102
}
330
1FC
100
AcDbXrecord
340
1E
  0
XRECORD
  5
1FB
102
{ACAD_REACTORS
330
1FA
102
}
330
1FA
100
AcDbXrecord
340
1A
  0
MLINESTYLE
  5
17
102
{ACAD_REACTORS
330
16
102
}
330
16
100
AcDbMlineStyle
  2
STANDARD
 70
     0
  3

 62
   256
 51
90.0
 52
90.0
 71
     2
 49
0.5
 62
   256
  6
BYLAYER
 49
-0.5
 62
   256
  6
BYLAYER
  0
ACDBPLACEHOLDER
  5
F
102
{ACAD_REACTORS
330
E
102
}
330
E
100
AcDbPlaceHolder
280
     0
  0
XRECORD
  5
1E4
102
{ACAD_REACTORS
330
1DA
102
}
330
1DA
100
AcDbXrecord
 90
        0
  0
XRECORD
  5
1E5
102
{ACAD_REACTORS
330
1DA
102
}
330
1DA
100
AcDbXrecord
  1
{3CD8B6E6-8151-4223-A43F-62ECA2538ACD}
  0
XRECORD
  5
1DD
102
{ACAD_REACTORS
330
1DA
102
}
330
1DA
100
AcDbXrecord
  1

  0
XRECORD
  5
1E3
102
{ACAD_REACTORS
330
1DA
102
}
330
1DA
100
AcDbXrecord
 90
        0
  0
XRECORD
  5
1DF
102
{ACAD_REACTORS
330
1DA
102
}
330
1DA
100
AcDbXrecord
340
19
  0
XRECORD
  5
1E2
102
{ACAD_REACTORS
330
1DA
102
}
330
1DA
100
AcDbXrecord
 90
    10781
  0
XRECORD
  5
1E0
102
{ACAD_REACTORS
330
1DA
102
}
330
1DA
100
AcDbXrecord
340
18
  0
XRECORD
  5
1E1
102
{ACAD_REACTORS
330
1DA
102
}
330
1DA
100
AcDbXrecord
340
E
  0
XRECORD
  5
1E7
102
{ACAD_REACTORS
330
1DA
102
}
330
1DA
100
AcDbXrecord
 40
0.0
  0
XRECORD
  5
1EA
102
{ACAD_REACTORS
330
1DA
102
}
330
1DA
100
AcDbXrecord
340
0
  0
XRECORD
  5
1F0
102
{ACAD_REACTORS
330
1DA
102
}
330
1DA
100
AcDbXrecord
 10
0.0
 20
0.0
 30
0.0
  0
XRECORD
  5
1EC
102
{ACAD_REACTORS
330
1DA
102
}
330
1DA
100
AcDbXrecord
 10
0.0
 20
0.0
 30
0.0
  0
XRECORD
  5
1EF
102
{ACAD_REACTORS
330
1DA
102
}
330
1DA
100
AcDbXrecord
 10
0.0
 20
0.0
 30
0.0
  0
XRECORD
  5
1ED
102
{ACAD_REACTORS
330
1DA
102
}
330
1DA
100
AcDbXrecord
 10
0.0
 20
0.0
 30
0.0
  0
XRECORD
  5
1EE
102
{ACAD_REACTORS
330
1DA
102
}
330
1DA
100
AcDbXrecord
 10
0.0
 20
0.0
 30
0.0
  0
XRECORD
  5
1EB
102
{ACAD_REACTORS
330
1DA
102
}
330
1DA
100
AcDbXrecord
 10
0.0
 20
0.0
 30
0.0
  0
XRECORD
  5
1E8
102
{ACAD_REACTORS
330
1DA
102
}
330
1DA
100
AcDbXrecord
340
0
  0
XRECORD
  5
1E9
102
{ACAD_REACTORS
330
1DA
102
}
330
1DA
100
AcDbXrecord
 70
     0
  0
XRECORD
  5
1DE
102
{ACAD_REACTORS
330
1DA
102
}
330
1DA
100
AcDbXrecord
  1

  0
XRECORD
  5
1DB
102
{ACAD_REACTORS
330
1DA
102
}
330
1DA
100
AcDbXrecord
 90
        1
  0
XRECORD
  5
1DC
102
{ACAD_REACTORS
330
1DA
102
}
330
1DA
100
AcDbXrecord
 90
       70
  0
XRECORD
  5
1F3
102
{ACAD_REACTORS
330
1DA
102
}
330
1DA
100
AcDbXrecord
340
0
  0
XRECORD
  5
1F9
102
{ACAD_REACTORS
330
1DA
102
}
330
1DA
100
AcDbXrecord
 10
0.0
 20
0.0
 30
0.0
  0
XRECORD
  5
1F5
102
{ACAD_REACTORS
330
1DA
102
}
330
1DA
100
AcDbXrecord
 10
0.0
 20
0.0
 30
0.0
  0
XRECORD
  5
1F8
102
{ACAD_REACTORS
330
1DA
102
}
330
1DA
100
AcDbXrecord
 10
0.0
 20
0.0
 30
0.0
  0
XRECORD
  5
1F6
102
{ACAD_REACTORS
330
1DA
102
}
330
1DA
100
AcDbXrecord
 10
0.0
 20
0.0
 30
0.0
  0
XRECORD
  5
1F7
102
{ACAD_REACTORS
330
1DA
102
}
330
1DA
100
AcDbXrecord
 10
0.0
 20
0.0
 30
0.0
  0
XRECORD
  5
1F4
102
{ACAD_REACTORS
330
1DA
102
}
330
1DA
100
AcDbXrecord
 10
0.0
 20
0.0
 30
0.0
  0
XRECORD
  5
1F1
102
{ACAD_REACTORS
330
1DA
102
}
330
1DA
100
AcDbXrecord
340
0
  0
XRECORD
  5
1F2
102
{ACAD_REACTORS
330
1DA
102
}
330
1DA
100
AcDbXrecord
 70
     1
  0
XRECORD
  5
1E6
102
{ACAD_REACTORS
330
1DA
102
}
330
1DA
100
AcDbXrecord
  1
{DEAD6020-E852-420B-84CA-9EE3CD33036F}
  0
DICTIONARYVAR
  5
1D8
102
{ACAD_REACTORS
330
1D7
102
}
330
1D7
100
DictionaryVariables
280
     0
  1
1
  0
ENDSEC
  0
EOF
