  0
SECTION
  2
HEADER
  9
$ACADVER
  1
AC1014
  9
$ACADMAINTVER
 70
     9
  9
$DWGCODEPAGE
  3
ANSI_1252
  9
$INSBASE
 10
0.0
 20
0.0
 30
0.0
  9
$EXTMIN
 10
-0.0000000000000101
 20
0.0000000000000039
 30
0.0
  9
$EXTMAX
 10
334.0
 20
54.0
 30
0.0
  9
$LIMMIN
 10
0.0
 20
0.0
  9
$LIMMAX
 10
12.0
 20
9.0
  9
$ORTHOMODE
 70
     0
  9
$REGENMODE
 70
     1
  9
$FILLMODE
 70
     1
  9
$QTEXTMODE
 70
     0
  9
$MIRRTEXT
 70
     1
  9
$DRAGMODE
 70
     2
  9
$LTSCALE
 40
1.0
  9
$OSMODE
 70
    37
  9
$ATTMODE
 70
     1
  9
$TEXTSIZE
 40
0.2
  9
$TRACEWID
 40
0.05
  9
$TEXTSTYLE
  7
STANDARD
  9
$CLAYER
  8
0
  9
$CELTYPE
  6
CONTINUOUS
  9
$CECOLOR
 62
   256
  9
$CELTSCALE
 40
1.0
  9
$DELOBJ
 70
     1
  9
$DISPSILH
 70
     0
  9
$DIMSCALE
 40
1.0
  9
$DIMASZ
 40
0.18
  9
$DIMEXO
 40
0.0625
  9
$DIMDLI
 40
0.38
  9
$DIMRND
 40
0.0
  9
$DIMDLE
 40
0.0
  9
$DIMEXE
 40
0.18
  9
$DIMTP
 40
0.0
  9
$DIMTM
 40
0.0
  9
$DIMTXT
 40
0.18
  9
$DIMCEN
 40
0.09
  9
$DIMTSZ
 40
0.0
  9
$DIMTOL
 70
     0
  9
$DIMLIM
 70
     0
  9
$DIMTIH
 70
     1
  9
$DIMTOH
 70
     1
  9
$DIMSE1
 70
     0
  9
$DIMSE2
 70
     0
  9
$DIMTAD
 70
     0
  9
$DIMZIN
 70
     0
  9
$DIMBLK
  1

  9
$DIMASO
 70
     1
  9
$DIMSHO
 70
     1
  9
$DIMPOST
  1

  9
$DIMAPOST
  1

  9
$DIMALT
 70
     0
  9
$DIMALTD
 70
     2
  9
$DIMALTF
 40
25.4
  9
$DIMLFAC
 40
1.0
  9
$DIMTOFL
 70
     0
  9
$DIMTVP
 40
0.0
  9
$DIMTIX
 70
     0
  9
$DIMSOXD
 70
     0
  9
$DIMSAH
 70
     0
  9
$DIMBLK1
  1

  9
$DIMBLK2
  1

  9
$DIMSTYLE
  2
STANDARD
  9
$DIMCLRD
 70
     0
  9
$DIMCLRE
 70
     0
  9
$DIMCLRT
 70
     0
  9
$DIMTFAC
 40
1.0
  9
$DIMGAP
 40
0.09
  9
$DIMJUST
 70
     0
  9
$DIMSD1
 70
     0
  9
$DIMSD2
 70
     0
  9
$DIMTOLJ
 70
     1
  9
$DIMTZIN
 70
     0
  9
$DIMALTZ
 70
     0
  9
$DIMALTTZ
 70
     0
  9
$DIMFIT
 70
     3
  9
$DIMUPT
 70
     0
  9
$DIMUNIT
 70
     2
  9
$DIMDEC
 70
     4
  9
$DIMTDEC
 70
     4
  9
$DIMALTU
 70
     2
  9
$DIMALTTD
 70
     2
  9
$DIMTXSTY
  7
STANDARD
  9
$DIMAUNIT
 70
     0
  9
$LUNITS
 70
     2
  9
$LUPREC
 70
     4
  9
$SKETCHINC
 40
0.1
  9
$FILLETRAD
 40
0.0
  9
$AUNITS
 70
     0
  9
$AUPREC
 70
     0
  9
$MENU
  1
.
  9
$ELEVATION
 40
0.0
  9
$PELEVATION
 40
0.0
  9
$THICKNESS
 40
0.0
  9
$LIMCHECK
 70
     0
  9
$BLIPMODE
 70
     0
  9
$CHAMFERA
 40
0.0
  9
$CHAMFERB
 40
0.0
  9
$CHAMFERC
 40
0.0
  9
$CHAMFERD
 40
0.0
  9
$SKPOLY
 70
     0
  9
$TDCREATE
 40
2454690.652282442
  9
$TDUPDATE
 40
2454690.655602211
  9
$TDINDWG
 40
0.0033197685
  9
$TDUSRTIMER
 40
0.0033197685
  9
$USRTIMER
 70
     1
  9
$ANGBASE
 50
0.0
  9
$ANGDIR
 70
     0
  9
$PDMODE
 70
     0
  9
$PDSIZE
 40
0.0
  9
$PLINEWID
 40
0.0
  9
$COORDS
 70
     1
  9
$SPLFRAME
 70
     0
  9
$SPLINETYPE
 70
     6
  9
$SPLINESEGS
 70
     8
  9
$ATTDIA
 70
     0
  9
$ATTREQ
 70
     1
  9
$HANDLING
 70
 22529
  9
$HANDSEED
  5
1E7
  9
$SURFTAB1
 70
     6
  9
$SURFTAB2
 70
     6
  9
$SURFTYPE
 70
     6
  9
$SURFU
 70
     6
  9
$SURFV
 70
     6
  9
$UCSNAME
  2

  9
$UCSORG
 10
0.0
 20
0.0
 30
0.0
  9
$UCSXDIR
 10
1.0
 20
0.0
 30
0.0
  9
$UCSYDIR
 10
0.0
 20
1.0
 30
0.0
  9
$PUCSNAME
  2

  9
$PUCSORG
 10
0.0
 20
0.0
 30
0.0
  9
$PUCSXDIR
 10
1.0
 20
0.0
 30
0.0
  9
$PUCSYDIR
 10
0.0
 20
1.0
 30
0.0
  9
$USERI1
 70
     0
  9
$USERI2
 70
     0
  9
$USERI3
 70
     0
  9
$USERI4
 70
     0
  9
$USERI5
 70
     0
  9
$USERR1
 40
0.0
  9
$USERR2
 40
0.0
  9
$USERR3
 40
0.0
  9
$USERR4
 40
0.0
  9
$USERR5
 40
0.0
  9
$WORLDVIEW
 70
     1
  9
$SHADEDGE
 70
     3
  9
$SHADEDIF
 70
    70
  9
$TILEMODE
 70
     1
  9
$MAXACTVP
 70
    64
  9
$PINSBASE
 10
0.0
 20
0.0
 30
0.0
  9
$PLIMCHECK
 70
     0
  9
$PEXTMIN
 10
1.000000000000000E+20
 20
1.000000000000000E+20
 30
1.000000000000000E+20
  9
$PEXTMAX
 10
-1.000000000000000E+20
 20
-1.000000000000000E+20
 30
-1.000000000000000E+20
  9
$PLIMMIN
 10
0.0
 20
0.0
  9
$PLIMMAX
 10
12.0
 20
9.0
  9
$UNITMODE
 70
     0
  9
$VISRETAIN
 70
     1
  9
$PLINEGEN
 70
     0
  9
$PSLTSCALE
 70
     1
  9
$TREEDEPTH
 70
  3020
  9
$PICKSTYLE
 70
     1
  9
$CMLSTYLE
  2
STANDARD
  9
$CMLJUST
 70
     0
  9
$CMLSCALE
 40
1.0
  9
$PROXYGRAPHICS
 70
     1
  9
$MEASUREMENT
 70
     0
  0
ENDSEC
  0
SECTION
  2
CLASSES
  0
CLASS
  1
ACDBDICTIONARYWDFLT
  2
AcDbDictionaryWithDefault
  3
AutoCAD 2000
 90
        0
280
     0
281
     0
  0
CLASS
  1
ACDBPLACEHOLDER
  2
AcDbPlaceHolder
  3
AutoCAD 2000
 90
        0
280
     0
281
     0
  0
CLASS
  1
LAYOUT
  2
AcDbLayout
  3
AutoCAD 2000
 90
        0
280
     0
281
     0
  0
CLASS
  1
DICTIONARYVAR
  2
AcDbDictionaryVar
  3
AutoCAD 2000
 90
        0
280
     0
281
     0
  0
CLASS
  1
LONG_TRANSACTION
  2
AcDbLongTransaction
  3
AutoCAD 2000
 90
        0
280
     0
281
     0
  0
CLASS
  1
LWPOLYLINE
  2
AcDbPolyline
  3
AutoCAD 2000
 90
        0
280
     0
281
     1
  0
CLASS
  1
HATCH
  2
AcDbHatch
  3
AutoCAD 2000
 90
        0
280
     0
281
     1
  0
CLASS
  1
XRECORD
  2
AcDbXrecord
  3
AutoCAD 2000
 90
        0
280
     0
281
     0
  0
ENDSEC
  0
SECTION
  2
TABLES
  0
TABLE
  2
VPORT
  5
8
330
0
100
AcDbSymbolTable
 70
     2
  0
VPORT
  5
1C2
330
8
100
AcDbSymbolTableRecord
100
AcDbViewportTableRecord
  2
*ACTIVE
 70
     0
 10
0.0
 20
0.0
 11
1.0
 21
1.0
 12
167.0
 22
27.0
 13
0.0
 23
0.0
 14
1.0
 24
1.0
 15
0.0
 25
0.0
 16
0.0
 26
0.0
 36
1.0
 17
0.0
 27
0.0
 37
0.0
 40
164.056416087181
 41
2.043533930857874
 42
50.0
 43
0.0
 44
0.0
 50
0.0
 51
0.0
 71
     0
 72
   100
 73
     1
 74
     3
 75
     0
 76
     0
 77
     0
 78
     0
  0
ENDTAB
  0
TABLE
  2
LTYPE
  5
5
330
0
100
AcDbSymbolTable
 70
     1
  0
LTYPE
  5
13
330
5
100
AcDbSymbolTableRecord
100
AcDbLinetypeTableRecord
  2
BYBLOCK
 70
     0
  3

 72
    65
 73
     0
 40
0.0
  0
LTYPE
  5
14
330
5
100
AcDbSymbolTableRecord
100
AcDbLinetypeTableRecord
  2
BYLAYER
 70
     0
  3

 72
    65
 73
     0
 40
0.0
  0
LTYPE
  5
15
330
5
100
AcDbSymbolTableRecord
100
AcDbLinetypeTableRecord
  2
CONTINUOUS
 70
     0
  3
Solid line
 72
    65
 73
     0
 40
0.0
  0
ENDTAB
  0
TABLE
  2
LAYER
  5
2
330
0
100
AcDbSymbolTable
 70
     1
  0
LAYER
  5
10
330
2
100
AcDbSymbolTableRecord
100
AcDbLayerTableRecord
  2
0
 70
     0
 62
     7
  6
CONTINUOUS
  0
ENDTAB
  0
TABLE
  2
STYLE
  5
3
330
0
100
AcDbSymbolTable
 70
     1
  0
STYLE
  5
11
330
3
100
AcDbSymbolTableRecord
100
AcDbTextStyleTableRecord
  2
STANDARD
 70
     0
 40
0.0
 41
1.0
 50
0.0
 71
     0
 42
0.2
  3
txt
  4

  0
ENDTAB
  0
TABLE
  2
VIEW
  5
6
330
0
100
AcDbSymbolTable
 70
     0
  0
ENDTAB
  0
TABLE
  2
UCS
  5
7
330
0
100
AcDbSymbolTable
 70
     0
  0
ENDTAB
  0
TABLE
  2
APPID
  5
9
330
0
100
AcDbSymbolTable
 70
     1
  0
APPID
  5
12
330
9
100
AcDbSymbolTableRecord
100
AcDbRegAppTableRecord
  2
ACAD
 70
     0
  0
ENDTAB
  0
TABLE
  2
DIMSTYLE
  5
A
330
0
100
AcDbSymbolTable
 70
     1
  0
DIMSTYLE
105
1BB
330
A
100
AcDbSymbolTableRecord
100
AcDbDimStyleTableRecord
  2
STANDARD
 70
     0
  3

  4

  5

  6

  7

 40
1.0
 41
0.18
 42
0.0625
 43
0.38
 44
0.18
 45
0.0
 46
0.0
 47
0.0
 48
0.0
140
0.18
141
0.09
142
0.0
143
25.4
144
1.0
145
0.0
146
1.0
147
0.09
 71
     0
 72
     0
 73
     1
 74
     1
 75
     0
 76
     0
 77
     0
 78
     0
170
     0
171
     2
172
     0
173
     0
174
     0
175
     0
176
     0
177
     0
178
     0
270
     2
271
     4
272
     4
273
     2
274
     2
340
11
275
     0
280
     0
281
     0
282
     0
283
     1
284
     0
285
     0
286
     0
287
     3
288
     0
  0
ENDTAB
  0
TABLE
  2
BLOCK_RECORD
  5
1
330
0
100
AcDbSymbolTable
 70
     0
  0
BLOCK_RECORD
  5
1E
102
{ACAD_XDICTIONARY
360
1E5
102
}
330
1
100
AcDbSymbolTableRecord
100
AcDbBlockTableRecord
  2
*MODEL_SPACE
  0
BLOCK_RECORD
  5
1A
102
{ACAD_XDICTIONARY
360
1E3
102
}
330
1
100
AcDbSymbolTableRecord
100
AcDbBlockTableRecord
  2
*PAPER_SPACE
  0
ENDTAB
  0
ENDSEC
  0
SECTION
  2
BLOCKS
  0
BLOCK
  5
1F
330
1E
100
AcDbEntity
  8
0
100
AcDbBlockBegin
  2
*MODEL_SPACE
 70
     0
 10
0.0
 20
0.0
 30
0.0
  3
*MODEL_SPACE
  1

  0
ENDBLK
  5
20
330
1E
100
AcDbEntity
  8
0
100
AcDbBlockEnd
  0
BLOCK
  5
1B
330
1A
100
AcDbEntity
 67
     1
  8
0
100
AcDbBlockBegin
  2
*PAPER_SPACE
 70
     0
 10
0.0
 20
0.0
 30
0.0
  3
*PAPER_SPACE
  1

  0
ENDBLK
  5
1C
330
1A
100
AcDbEntity
 67
     1
  8
0
100
AcDbBlockEnd
  0
ENDSEC
  0
SECTION
  2
ENTITIES
  0
LINE
  5
22
330
1E
100
AcDbEntity
  8
0
100
AcDbLine
 10
0.99999999999999
 20
20.1
 30
0.0
 11
3.59999999999999
 21
13.6
 31
0.0
  0
LINE
  5
23
330
1E
100
AcDbEntity
  8
0
100
AcDbLine
 10
8.29999999999999
 20
8.300000000000009
 30
0.0
 11
13.8
 21
4.000000000000009
 31
0.0
  0
LINE
  5
24
330
1E
100
AcDbEntity
  8
0
100
AcDbLine
 10
7.89999999999999
 20
7.900000000000009
 30
0.0
 11
13.6
 21
3.600000000000009
 31
0.0
  0
LINE
  5
25
330
1E
100
AcDbEntity
  8
0
100
AcDbLine
 10
3.99999999999999
 20
13.8
 30
0.0
 11
8.29999999999999
 21
8.300000000000009
 31
0.0
  0
LINE
  5
26
330
1E
100
AcDbEntity
  8
0
100
AcDbLine
 10
1.499999999999989
 20
20.2
 30
0.0
 11
3.99999999999999
 21
13.8
 31
0.0
  0
LINE
  5
27
330
1E
100
AcDbEntity
  8
0
100
AcDbLine
 10
3.59999999999999
 20
13.6
 30
0.0
 11
7.89999999999999
 21
7.900000000000009
 31
0.0
  0
LINE
  5
28
330
1E
100
AcDbEntity
  8
0
100
AcDbLine
 10
0.99999999999999
 20
20.1
 30
0.0
 11
3.59999999999999
 21
13.6
 31
0.0
  0
LINE
  5
29
330
1E
100
AcDbEntity
  8
0
100
AcDbLine
 10
8.999999999999991
 20
27.0
 30
0.0
 11
9.69999999999999
 21
31.6
 31
0.0
  0
LINE
  5
2A
330
1E
100
AcDbEntity
  8
0
100
AcDbLine
 10
8.999999999999991
 20
27.0
 30
0.0
 11
9.69999999999999
 21
22.39999999999999
 31
0.0
  0
LINE
  5
2B
330
1E
100
AcDbEntity
  8
0
100
AcDbLine
 10
8.999999999999991
 20
27.0
 30
0.0
 11
9.69999999999999
 21
22.39999999999999
 31
0.0
  0
LINE
  5
2C
330
1E
100
AcDbEntity
  8
0
100
AcDbLine
 10
27.0
 20
0.0000000000000045
 30
0.0
 11
33.9
 21
1.0
 31
0.0
  0
LINE
  5
2D
330
1E
100
AcDbEntity
  8
0
100
AcDbLine
 10
27.0
 20
0.0000000000000039
 30
0.0
 11
33.9
 21
1.0
 31
0.0
  0
LINE
  5
2E
330
1E
100
AcDbEntity
  8
0
100
AcDbLine
 10
20.1
 20
1.0
 30
0.0
 11
27.0
 21
0.0000000000000045
 31
0.0
  0
LINE
  5
2F
330
1E
100
AcDbEntity
  8
0
100
AcDbLine
 10
20.1
 20
1.0
 30
0.0
 11
27.0
 21
0.0000000000000045
 31
0.0
  0
LINE
  5
30
330
1E
100
AcDbEntity
  8
0
100
AcDbLine
 10
20.2
 20
1.5
 30
0.0
 11
27.0
 21
0.500000000000005
 31
0.0
  0
LINE
  5
31
330
1E
100
AcDbEntity
  8
0
100
AcDbLine
 10
20.1
 20
1.0
 30
0.0
 11
27.0
 21
0.0000000000000039
 31
0.0
  0
LINE
  5
32
330
1E
100
AcDbEntity
  8
0
100
AcDbLine
 10
20.1
 20
1.0
 30
0.0
 11
27.0
 21
0.000000000000004
 31
0.0
  0
LINE
  5
33
330
1E
100
AcDbEntity
  8
0
100
AcDbLine
 10
13.6
 20
3.6
 30
0.0
 11
20.1
 21
1.0
 31
0.0
  0
LINE
  5
34
330
1E
100
AcDbEntity
  8
0
100
AcDbLine
 10
27.0
 20
0.500000000000005
 30
0.0
 11
33.79999999999999
 21
1.5
 31
0.0
  0
LINE
  5
35
330
1E
100
AcDbEntity
  8
0
100
AcDbLine
 10
27.0
 20
0.0000000000000045
 30
0.0
 11
33.9
 21
1.0
 31
0.0
  0
LINE
  5
36
330
1E
100
AcDbEntity
  8
0
100
AcDbLine
 10
33.9
 20
1.0
 30
0.0
 11
40.4
 21
3.600000000000009
 31
0.0
  0
LINE
  5
37
330
1E
100
AcDbEntity
  8
0
100
AcDbLine
 10
33.79999999999999
 20
1.5
 30
0.0
 11
40.2
 21
4.000000000000009
 31
0.0
  0
LINE
  5
38
330
1E
100
AcDbEntity
  8
0
100
AcDbLine
 10
33.9
 20
1.0
 30
0.0
 11
40.4
 21
3.600000000000009
 31
0.0
  0
LINE
  5
39
330
1E
100
AcDbEntity
  8
0
100
AcDbLine
 10
27.0
 20
0.000000000000004
 30
0.0
 11
33.9
 21
1.0
 31
0.0
  0
LINE
  5
3A
330
1E
100
AcDbEntity
  8
0
100
AcDbLine
 10
13.6
 20
3.600000000000009
 30
0.0
 11
20.1
 21
1.0
 31
0.0
  0
LINE
  5
3B
330
1E
100
AcDbEntity
  8
0
100
AcDbLine
 10
13.6
 20
3.600000000000009
 30
0.0
 11
20.1
 21
1.0
 31
0.0
  0
LINE
  5
3C
330
1E
100
AcDbEntity
  8
0
100
AcDbLine
 10
13.8
 20
4.000000000000009
 30
0.0
 11
20.2
 21
1.5
 31
0.0
  0
LINE
  5
3D
330
1E
100
AcDbEntity
  8
0
100
AcDbLine
 10
9.69999999999999
 20
22.39999999999999
 30
0.0
 11
11.4
 21
18.1
 31
0.0
  0
LINE
  5
3E
330
1E
100
AcDbEntity
  8
0
100
AcDbLine
 10
22.39999999999999
 20
9.700000000000009
 30
0.0
 11
27.0
 21
9.000000000000008
 31
0.0
  0
LINE
  5
3F
330
1E
100
AcDbEntity
  8
0
100
AcDbLine
 10
22.5
 20
10.1
 30
0.0
 11
27.0
 21
9.500000000000008
 31
0.0
  0
LINE
  5
40
330
1E
100
AcDbEntity
  8
0
100
AcDbLine
 10
22.39999999999999
 20
9.699999999999999
 30
0.0
 11
27.0
 21
9.000000000000008
 31
0.0
  0
LINE
  5
41
330
1E
100
AcDbEntity
  8
0
100
AcDbLine
 10
10.1
 20
22.5
 30
0.0
 11
11.8
 21
18.3
 31
0.0
  0
LINE
  5
42
330
1E
100
AcDbEntity
  8
0
100
AcDbLine
 10
18.3
 20
11.8
 30
0.0
 11
22.5
 21
10.1
 31
0.0
  0
LINE
  5
43
330
1E
100
AcDbEntity
  8
0
100
AcDbLine
 10
18.1
 20
11.4
 30
0.0
 11
22.39999999999999
 21
9.700000000000009
 31
0.0
  0
LINE
  5
44
330
1E
100
AcDbEntity
  8
0
100
AcDbLine
 10
27.0
 20
16.0
 30
0.0
 11
27.6
 21
16.0
 31
0.0
  0
LINE
  5
45
330
1E
100
AcDbEntity
  8
0
100
AcDbLine
 10
24.19999999999999
 20
16.39999999999999
 30
0.0
 11
27.0
 21
16.0
 31
0.0
  0
LINE
  5
46
330
1E
100
AcDbEntity
  8
0
100
AcDbLine
 10
21.49999999999999
 20
17.5
 30
0.0
 11
24.19999999999999
 21
16.39999999999999
 31
0.0
  0
LINE
  5
47
330
1E
100
AcDbEntity
  8
0
100
AcDbLine
 10
19.19999999999999
 20
19.19999999999999
 30
0.0
 11
21.49999999999999
 21
17.5
 31
0.0
  0
LINE
  5
48
330
1E
100
AcDbEntity
  8
0
100
AcDbLine
 10
17.5
 20
21.49999999999999
 30
0.0
 11
19.19999999999999
 21
19.19999999999999
 31
0.0
  0
LINE
  5
49
330
1E
100
AcDbEntity
  8
0
100
AcDbLine
 10
16.39999999999999
 20
24.19999999999999
 30
0.0
 11
17.5
 21
21.49999999999999
 31
0.0
  0
LINE
  5
4A
330
1E
100
AcDbEntity
  8
0
100
AcDbLine
 10
27.6
 20
16.0
 30
0.0
 11
29.1
 21
16.0
 31
0.0
  0
LINE
  5
4B
330
1E
100
AcDbEntity
  8
0
100
AcDbLine
 10
29.1
 20
16.0
 30
0.0
 11
31.69999999999999
 21
16.0
 31
0.0
  0
LINE
  5
4C
330
1E
100
AcDbEntity
  8
0
100
AcDbLine
 10
16.39999999999999
 20
29.8
 30
0.0
 11
17.5
 21
32.5
 31
0.0
  0
LINE
  5
4D
330
1E
100
AcDbEntity
  8
0
100
AcDbLine
 10
16.0
 20
27.0
 30
0.0
 11
16.39999999999999
 21
29.8
 31
0.0
  0
LINE
  5
4E
330
1E
100
AcDbEntity
  8
0
100
AcDbLine
 10
16.0
 20
27.0
 30
0.0
 11
16.39999999999999
 21
24.19999999999999
 31
0.0
  0
LINE
  5
4F
330
1E
100
AcDbEntity
  8
0
100
AcDbLine
 10
14.59999999999999
 20
14.59999999999999
 30
0.0
 11
18.3
 21
11.8
 31
0.0
  0
LINE
  5
50
330
1E
100
AcDbEntity
  8
0
100
AcDbLine
 10
11.8
 20
18.3
 30
0.0
 11
14.59999999999999
 21
14.59999999999999
 31
0.0
  0
LINE
  5
51
330
1E
100
AcDbEntity
  8
0
100
AcDbLine
 10
14.3
 20
14.3
 30
0.0
 11
18.1
 21
11.4
 31
0.0
  0
LINE
  5
52
330
1E
100
AcDbEntity
  8
0
100
AcDbLine
 10
11.4
 20
18.1
 30
0.0
 11
14.3
 21
14.3
 31
0.0
  0
LINE
  5
53
330
1E
100
AcDbEntity
  8
0
100
AcDbLine
 10
18.1
 20
11.4
 30
0.0
 11
22.39999999999999
 21
9.699999999999999
 31
0.0
  0
LINE
  5
54
330
1E
100
AcDbEntity
  8
0
100
AcDbLine
 10
9.69999999999999
 20
22.39999999999999
 30
0.0
 11
11.4
 21
18.1
 31
0.0
  0
LINE
  5
55
330
1E
100
AcDbEntity
  8
0
100
AcDbLine
 10
27.0
 20
9.500000000000008
 30
0.0
 11
31.5
 21
10.1
 31
0.0
  0
LINE
  5
56
330
1E
100
AcDbEntity
  8
0
100
AcDbLine
 10
31.5
 20
10.1
 30
0.0
 11
35.7
 21
11.8
 31
0.0
  0
LINE
  5
57
330
1E
100
AcDbEntity
  8
0
100
AcDbLine
 10
27.0
 20
9.000000000000008
 30
0.0
 11
31.6
 21
9.700000000000009
 31
0.0
  0
LINE
  5
58
330
1E
100
AcDbEntity
  8
0
100
AcDbLine
 10
31.6
 20
9.700000000000009
 30
0.0
 11
35.89999999999999
 21
11.4
 31
0.0
  0
LINE
  5
59
330
1E
100
AcDbEntity
  8
0
100
AcDbLine
 10
27.0
 20
9.000000000000008
 30
0.0
 11
31.6
 21
9.699999999999999
 31
0.0
  0
LINE
  5
5A
330
1E
100
AcDbEntity
  8
0
100
AcDbLine
 10
35.7
 20
11.8
 30
0.0
 11
39.39999999999999
 21
14.59999999999999
 31
0.0
  0
LINE
  5
5B
330
1E
100
AcDbEntity
  8
0
100
AcDbLine
 10
35.89999999999999
 20
11.4
 30
0.0
 11
39.7
 21
14.3
 31
0.0
  0
LINE
  5
5C
330
1E
100
AcDbEntity
  8
0
100
AcDbLine
 10
38.9
 20
16.0
 30
0.0
 11
43.0
 21
16.0
 31
0.0
  0
LINE
  5
5D
330
1E
100
AcDbEntity
  8
0
100
AcDbLine
 10
35.0
 20
16.0
 30
0.0
 11
38.9
 21
16.0
 31
0.0
  0
LINE
  5
5E
330
1E
100
AcDbEntity
  8
0
100
AcDbLine
 10
31.69999999999999
 20
16.0
 30
0.0
 11
35.0
 21
16.0
 31
0.0
  0
LINE
  5
5F
330
1E
100
AcDbEntity
  8
0
100
AcDbLine
 10
43.0
 20
16.0
 30
0.0
 11
43.0
 21
16.39999999999999
 31
0.0
  0
LINE
  5
60
330
1E
100
AcDbEntity
  8
0
100
AcDbLine
 10
43.0
 20
16.0
 30
0.0
 11
43.5
 21
16.5
 31
0.0
  0
LINE
  5
61
330
1E
100
AcDbEntity
  8
0
100
AcDbLine
 10
43.0
 20
16.39999999999999
 30
0.0
 11
43.0
 21
17.5
 31
0.0
  0
LINE
  5
62
330
1E
100
AcDbEntity
  8
0
100
AcDbLine
 10
43.0
 20
16.39999999999999
 30
0.0
 11
43.0
 21
16.0
 31
0.0
  0
LINE
  5
63
330
1E
100
AcDbEntity
  8
0
100
AcDbLine
 10
43.0
 20
17.5
 30
0.0
 11
43.0
 21
19.19999999999999
 31
0.0
  0
LINE
  5
64
330
1E
100
AcDbEntity
  8
0
100
AcDbLine
 10
43.0
 20
17.5
 30
0.0
 11
43.0
 21
16.39999999999999
 31
0.0
  0
LINE
  5
65
330
1E
100
AcDbEntity
  8
0
100
AcDbLine
 10
43.0
 20
19.19999999999999
 30
0.0
 11
43.0
 21
21.49999999999999
 31
0.0
  0
LINE
  5
66
330
1E
100
AcDbEntity
  8
0
100
AcDbLine
 10
43.0
 20
19.19999999999999
 30
0.0
 11
43.0
 21
17.5
 31
0.0
  0
LINE
  5
67
330
1E
100
AcDbEntity
  8
0
100
AcDbLine
 10
43.0
 20
21.49999999999999
 30
0.0
 11
43.0
 21
24.19999999999999
 31
0.0
  0
LINE
  5
68
330
1E
100
AcDbEntity
  8
0
100
AcDbLine
 10
43.0
 20
21.49999999999999
 30
0.0
 11
43.0
 21
19.19999999999999
 31
0.0
  0
LINE
  5
69
330
1E
100
AcDbEntity
  8
0
100
AcDbLine
 10
43.5
 20
16.5
 30
0.0
 11
43.5
 21
16.89999999999999
 31
0.0
  0
LINE
  5
6A
330
1E
100
AcDbEntity
  8
0
100
AcDbLine
 10
43.5
 20
16.5
 30
0.0
 11
44.0
 21
16.0
 31
0.0
  0
LINE
  5
6B
330
1E
100
AcDbEntity
  8
0
100
AcDbLine
 10
43.5
 20
16.89999999999999
 30
0.0
 11
43.5
 21
17.9
 31
0.0
  0
LINE
  5
6C
330
1E
100
AcDbEntity
  8
0
100
AcDbLine
 10
43.5
 20
16.89999999999999
 30
0.0
 11
43.5
 21
16.5
 31
0.0
  0
LINE
  5
6D
330
1E
100
AcDbEntity
  8
0
100
AcDbLine
 10
43.5
 20
17.9
 30
0.0
 11
43.5
 21
19.6
 31
0.0
  0
LINE
  5
6E
330
1E
100
AcDbEntity
  8
0
100
AcDbLine
 10
43.5
 20
17.9
 30
0.0
 11
43.5
 21
16.89999999999999
 31
0.0
  0
LINE
  5
6F
330
1E
100
AcDbEntity
  8
0
100
AcDbLine
 10
43.5
 20
19.6
 30
0.0
 11
43.5
 21
21.8
 31
0.0
  0
LINE
  5
70
330
1E
100
AcDbEntity
  8
0
100
AcDbLine
 10
43.5
 20
19.6
 30
0.0
 11
43.5
 21
17.9
 31
0.0
  0
LINE
  5
71
330
1E
100
AcDbEntity
  8
0
100
AcDbLine
 10
44.0
 20
16.0
 30
0.0
 11
44.0
 21
16.39999999999999
 31
0.0
  0
LINE
  5
72
330
1E
100
AcDbEntity
  8
0
100
AcDbLine
 10
44.0
 20
16.0
 30
0.0
 11
167.0
 21
16.0
 31
0.0
  0
LINE
  5
73
330
1E
100
AcDbEntity
  8
0
100
AcDbLine
 10
44.0
 20
16.39999999999999
 30
0.0
 11
44.0
 21
17.5
 31
0.0
  0
LINE
  5
74
330
1E
100
AcDbEntity
  8
0
100
AcDbLine
 10
44.0
 20
16.39999999999999
 30
0.0
 11
44.0
 21
16.0
 31
0.0
  0
LINE
  5
75
330
1E
100
AcDbEntity
  8
0
100
AcDbLine
 10
44.0
 20
17.5
 30
0.0
 11
44.0
 21
19.19999999999999
 31
0.0
  0
LINE
  5
76
330
1E
100
AcDbEntity
  8
0
100
AcDbLine
 10
44.0
 20
17.5
 30
0.0
 11
44.0
 21
16.39999999999999
 31
0.0
  0
LINE
  5
77
330
1E
100
AcDbEntity
  8
0
100
AcDbLine
 10
44.0
 20
19.19999999999999
 30
0.0
 11
44.0
 21
21.49999999999999
 31
0.0
  0
LINE
  5
78
330
1E
100
AcDbEntity
  8
0
100
AcDbLine
 10
44.0
 20
19.19999999999999
 30
0.0
 11
44.0
 21
17.5
 31
0.0
  0
LINE
  5
79
330
1E
100
AcDbEntity
  8
0
100
AcDbLine
 10
44.0
 20
21.49999999999999
 30
0.0
 11
44.0
 21
24.19999999999999
 31
0.0
  0
LINE
  5
7A
330
1E
100
AcDbEntity
  8
0
100
AcDbLine
 10
44.0
 20
21.49999999999999
 30
0.0
 11
44.0
 21
19.19999999999999
 31
0.0
  0
LINE
  5
7B
330
1E
100
AcDbEntity
  8
0
100
AcDbLine
 10
44.0
 20
24.19999999999999
 30
0.0
 11
44.0
 21
27.0
 31
0.0
  0
LINE
  5
7C
330
1E
100
AcDbEntity
  8
0
100
AcDbLine
 10
44.0
 20
24.19999999999999
 30
0.0
 11
44.0
 21
21.49999999999999
 31
0.0
  0
LINE
  5
7D
330
1E
100
AcDbEntity
  8
0
100
AcDbLine
 10
43.5
 20
21.8
 30
0.0
 11
43.5
 21
24.3
 31
0.0
  0
LINE
  5
7E
330
1E
100
AcDbEntity
  8
0
100
AcDbLine
 10
43.5
 20
21.8
 30
0.0
 11
43.5
 21
19.6
 31
0.0
  0
LINE
  5
7F
330
1E
100
AcDbEntity
  8
0
100
AcDbLine
 10
43.5
 20
24.3
 30
0.0
 11
43.5
 21
27.0
 31
0.0
  0
LINE
  5
80
330
1E
100
AcDbEntity
  8
0
100
AcDbLine
 10
43.5
 20
24.3
 30
0.0
 11
43.5
 21
21.8
 31
0.0
  0
LINE
  5
81
330
1E
100
AcDbEntity
  8
0
100
AcDbLine
 10
44.0
 20
27.0
 30
0.0
 11
44.0
 21
29.8
 31
0.0
  0
LINE
  5
82
330
1E
100
AcDbEntity
  8
0
100
AcDbLine
 10
44.0
 20
27.0
 30
0.0
 11
44.0
 21
24.19999999999999
 31
0.0
  0
LINE
  5
83
330
1E
100
AcDbEntity
  8
0
100
AcDbLine
 10
43.5
 20
27.0
 30
0.0
 11
43.5
 21
29.7
 31
0.0
  0
LINE
  5
84
330
1E
100
AcDbEntity
  8
0
100
AcDbLine
 10
43.5
 20
27.0
 30
0.0
 11
43.5
 21
24.3
 31
0.0
  0
LINE
  5
85
330
1E
100
AcDbEntity
  8
0
100
AcDbLine
 10
43.0
 20
24.19999999999999
 30
0.0
 11
43.0
 21
27.0
 31
0.0
  0
LINE
  5
86
330
1E
100
AcDbEntity
  8
0
100
AcDbLine
 10
43.0
 20
24.19999999999999
 30
0.0
 11
43.0
 21
21.49999999999999
 31
0.0
  0
LINE
  5
87
330
1E
100
AcDbEntity
  8
0
100
AcDbLine
 10
44.0
 20
29.8
 30
0.0
 11
44.0
 21
32.5
 31
0.0
  0
LINE
  5
88
330
1E
100
AcDbEntity
  8
0
100
AcDbLine
 10
44.0
 20
29.8
 30
0.0
 11
44.0
 21
27.0
 31
0.0
  0
LINE
  5
89
330
1E
100
AcDbEntity
  8
0
100
AcDbLine
 10
43.5
 20
29.7
 30
0.0
 11
43.5
 21
32.2
 31
0.0
  0
LINE
  5
8A
330
1E
100
AcDbEntity
  8
0
100
AcDbLine
 10
43.5
 20
29.7
 30
0.0
 11
43.5
 21
27.0
 31
0.0
  0
LINE
  5
8B
330
1E
100
AcDbEntity
  8
0
100
AcDbLine
 10
43.0
 20
29.8
 30
0.0
 11
43.0
 21
32.5
 31
0.0
  0
LINE
  5
8C
330
1E
100
AcDbEntity
  8
0
100
AcDbLine
 10
43.0
 20
29.8
 30
0.0
 11
43.0
 21
27.0
 31
0.0
  0
LINE
  5
8D
330
1E
100
AcDbEntity
  8
0
100
AcDbLine
 10
43.0
 20
27.0
 30
0.0
 11
43.0
 21
29.8
 31
0.0
  0
LINE
  5
8E
330
1E
100
AcDbEntity
  8
0
100
AcDbLine
 10
43.0
 20
27.0
 30
0.0
 11
43.0
 21
24.19999999999999
 31
0.0
  0
LINE
  5
8F
330
1E
100
AcDbEntity
  8
0
100
AcDbLine
 10
39.39999999999999
 20
14.59999999999999
 30
0.0
 11
40.4594594594595
 21
16.0
 31
0.0
  0
LINE
  5
90
330
1E
100
AcDbEntity
  8
0
100
AcDbLine
 10
39.7
 20
14.3
 30
0.0
 11
40.99736842105261
 21
16.0
 31
0.0
  0
LINE
  5
91
330
1E
100
AcDbEntity
  8
0
100
AcDbLine
 10
31.6
 20
9.699999999999999
 30
0.0
 11
35.89999999999999
 21
11.4
 31
0.0
  0
LINE
  5
92
330
1E
100
AcDbEntity
  8
0
100
AcDbLine
 10
40.2
 20
4.000000000000009
 30
0.0
 11
45.7
 21
8.300000000000009
 31
0.0
  0
LINE
  5
93
330
1E
100
AcDbEntity
  8
0
100
AcDbLine
 10
45.7
 20
8.300000000000009
 30
0.0
 11
50.0
 21
13.8
 31
0.0
  0
LINE
  5
94
330
1E
100
AcDbEntity
  8
0
100
AcDbLine
 10
40.4
 20
3.600000000000009
 30
0.0
 11
46.1
 21
7.900000000000009
 31
0.0
  0
LINE
  5
95
330
1E
100
AcDbEntity
  8
0
100
AcDbLine
 10
50.0
 20
13.8
 30
0.0
 11
50.859375
 21
16.0
 31
0.0
  0
LINE
  5
96
330
1E
100
AcDbEntity
  8
0
100
AcDbLine
 10
46.1
 20
7.900000000000009
 30
0.0
 11
50.4
 21
13.6
 31
0.0
  0
LINE
  5
97
330
1E
100
AcDbEntity
  8
0
100
AcDbLine
 10
40.4
 20
3.6
 30
0.0
 11
46.1
 21
7.900000000000009
 31
0.0
  0
LINE
  5
98
330
1E
100
AcDbEntity
  8
0
100
AcDbLine
 10
283.140625
 20
16.0
 30
0.0
 11
284.0
 21
13.8
 31
0.0
  0
LINE
  5
99
330
1E
100
AcDbEntity
  8
0
100
AcDbLine
 10
288.3
 20
8.300000000000009
 30
0.0
 11
293.8
 21
4.000000000000009
 31
0.0
  0
LINE
  5
9A
330
1E
100
AcDbEntity
  8
0
100
AcDbLine
 10
284.0
 20
13.8
 30
0.0
 11
288.3
 21
8.300000000000009
 31
0.0
  0
LINE
  5
9B
330
1E
100
AcDbEntity
  8
0
100
AcDbLine
 10
287.8999999999999
 20
7.900000000000009
 30
0.0
 11
293.6
 21
3.6
 31
0.0
  0
LINE
  5
9C
330
1E
100
AcDbEntity
  8
0
100
AcDbLine
 10
287.8999999999999
 20
7.900000000000009
 30
0.0
 11
293.6
 21
3.600000000000009
 31
0.0
  0
LINE
  5
9D
330
1E
100
AcDbEntity
  8
0
100
AcDbLine
 10
283.6
 20
13.6
 30
0.0
 11
287.8999999999999
 21
7.900000000000009
 31
0.0
  0
LINE
  5
9E
330
1E
100
AcDbEntity
  8
0
100
AcDbLine
 10
282.6399999999999
 20
16.0
 30
0.0
 11
283.6
 21
13.6
 31
0.0
  0
LINE
  5
9F
330
1E
100
AcDbEntity
  8
0
100
AcDbLine
 10
167.0
 20
16.0
 30
0.0
 11
290.0
 21
16.0
 31
0.0
  0
LINE
  5
A0
330
1E
100
AcDbEntity
  8
0
100
AcDbLine
 10
290.0
 20
16.39999999999999
 30
0.0
 11
290.0
 21
16.0
 31
0.0
  0
LINE
  5
A1
330
1E
100
AcDbEntity
  8
0
100
AcDbLine
 10
290.0
 20
16.39999999999999
 30
0.0
 11
290.0
 21
17.5
 31
0.0
  0
LINE
  5
A2
330
1E
100
AcDbEntity
  8
0
100
AcDbLine
 10
290.0
 20
16.0
 30
0.0
 11
290.5
 21
16.5
 31
0.0
  0
LINE
  5
A3
330
1E
100
AcDbEntity
  8
0
100
AcDbLine
 10
290.0
 20
16.0
 30
0.0
 11
290.0
 21
16.39999999999999
 31
0.0
  0
LINE
  5
A4
330
1E
100
AcDbEntity
  8
0
100
AcDbLine
 10
291.0
 20
16.0
 30
0.0
 11
291.0
 21
16.39999999999999
 31
0.0
  0
LINE
  5
A5
330
1E
100
AcDbEntity
  8
0
100
AcDbLine
 10
291.0
 20
16.0
 30
0.0
 11
295.1
 21
16.0
 31
0.0
  0
LINE
  5
A6
330
1E
100
AcDbEntity
  8
0
100
AcDbLine
 10
290.0
 20
17.5
 30
0.0
 11
290.0
 21
16.39999999999999
 31
0.0
  0
LINE
  5
A7
330
1E
100
AcDbEntity
  8
0
100
AcDbLine
 10
290.0
 20
17.5
 30
0.0
 11
290.0
 21
19.19999999999999
 31
0.0
  0
LINE
  5
A8
330
1E
100
AcDbEntity
  8
0
100
AcDbLine
 10
290.0
 20
19.19999999999999
 30
0.0
 11
290.0
 21
17.5
 31
0.0
  0
LINE
  5
A9
330
1E
100
AcDbEntity
  8
0
100
AcDbLine
 10
290.0
 20
19.19999999999999
 30
0.0
 11
290.0
 21
21.49999999999999
 31
0.0
  0
LINE
  5
AA
330
1E
100
AcDbEntity
  8
0
100
AcDbLine
 10
290.5
 20
16.89999999999999
 30
0.0
 11
290.5
 21
16.5
 31
0.0
  0
LINE
  5
AB
330
1E
100
AcDbEntity
  8
0
100
AcDbLine
 10
290.5
 20
16.89999999999999
 30
0.0
 11
290.5
 21
17.9
 31
0.0
  0
LINE
  5
AC
330
1E
100
AcDbEntity
  8
0
100
AcDbLine
 10
290.5
 20
16.5
 30
0.0
 11
291.0
 21
16.0
 31
0.0
  0
LINE
  5
AD
330
1E
100
AcDbEntity
  8
0
100
AcDbLine
 10
290.5
 20
16.5
 30
0.0
 11
290.5
 21
16.89999999999999
 31
0.0
  0
LINE
  5
AE
330
1E
100
AcDbEntity
  8
0
100
AcDbLine
 10
290.5
 20
17.9
 30
0.0
 11
290.5
 21
16.89999999999999
 31
0.0
  0
LINE
  5
AF
330
1E
100
AcDbEntity
  8
0
100
AcDbLine
 10
290.5
 20
17.9
 30
0.0
 11
290.5
 21
19.6
 31
0.0
  0
LINE
  5
B0
330
1E
100
AcDbEntity
  8
0
100
AcDbLine
 10
291.0
 20
16.39999999999999
 30
0.0
 11
291.0
 21
17.5
 31
0.0
  0
LINE
  5
B1
330
1E
100
AcDbEntity
  8
0
100
AcDbLine
 10
291.0
 20
16.39999999999999
 30
0.0
 11
291.0
 21
16.0
 31
0.0
  0
LINE
  5
B2
330
1E
100
AcDbEntity
  8
0
100
AcDbLine
 10
291.0
 20
17.5
 30
0.0
 11
291.0
 21
19.19999999999999
 31
0.0
  0
LINE
  5
B3
330
1E
100
AcDbEntity
  8
0
100
AcDbLine
 10
291.0
 20
17.5
 30
0.0
 11
291.0
 21
16.39999999999999
 31
0.0
  0
LINE
  5
B4
330
1E
100
AcDbEntity
  8
0
100
AcDbLine
 10
290.0
 20
21.49999999999999
 30
0.0
 11
290.0
 21
19.19999999999999
 31
0.0
  0
LINE
  5
B5
330
1E
100
AcDbEntity
  8
0
100
AcDbLine
 10
290.0
 20
21.49999999999999
 30
0.0
 11
290.0
 21
24.19999999999999
 31
0.0
  0
LINE
  5
B6
330
1E
100
AcDbEntity
  8
0
100
AcDbLine
 10
290.0
 20
24.19999999999999
 30
0.0
 11
290.0
 21
21.49999999999999
 31
0.0
  0
LINE
  5
B7
330
1E
100
AcDbEntity
  8
0
100
AcDbLine
 10
290.0
 20
24.19999999999999
 30
0.0
 11
290.0
 21
27.0
 31
0.0
  0
LINE
  5
B8
330
1E
100
AcDbEntity
  8
0
100
AcDbLine
 10
290.5
 20
19.6
 30
0.0
 11
290.5
 21
17.9
 31
0.0
  0
LINE
  5
B9
330
1E
100
AcDbEntity
  8
0
100
AcDbLine
 10
290.5
 20
19.6
 30
0.0
 11
290.5
 21
21.8
 31
0.0
  0
LINE
  5
BA
330
1E
100
AcDbEntity
  8
0
100
AcDbLine
 10
290.5
 20
21.8
 30
0.0
 11
290.5
 21
19.6
 31
0.0
  0
LINE
  5
BB
330
1E
100
AcDbEntity
  8
0
100
AcDbLine
 10
290.5
 20
21.8
 30
0.0
 11
290.5
 21
24.3
 31
0.0
  0
LINE
  5
BC
330
1E
100
AcDbEntity
  8
0
100
AcDbLine
 10
291.0
 20
19.19999999999999
 30
0.0
 11
291.0
 21
21.49999999999999
 31
0.0
  0
LINE
  5
BD
330
1E
100
AcDbEntity
  8
0
100
AcDbLine
 10
291.0
 20
19.19999999999999
 30
0.0
 11
291.0
 21
17.5
 31
0.0
  0
LINE
  5
BE
330
1E
100
AcDbEntity
  8
0
100
AcDbLine
 10
300.1
 20
1.0
 30
0.0
 11
307.0
 21
0.0000000000000045
 31
0.0
  0
LINE
  5
BF
330
1E
100
AcDbEntity
  8
0
100
AcDbLine
 10
300.1
 20
1.0
 30
0.0
 11
307.0
 21
0.0000000000000045
 31
0.0
  0
LINE
  5
C0
330
1E
100
AcDbEntity
  8
0
100
AcDbLine
 10
307.0
 20
0.000000000000004
 30
0.0
 11
313.8999999999999
 21
1.0
 31
0.0
  0
LINE
  5
C1
330
1E
100
AcDbEntity
  8
0
100
AcDbLine
 10
307.0
 20
0.500000000000005
 30
0.0
 11
313.8
 21
1.5
 31
0.0
  0
LINE
  5
C2
330
1E
100
AcDbEntity
  8
0
100
AcDbLine
 10
307.0
 20
0.0000000000000045
 30
0.0
 11
313.8999999999999
 21
1.0
 31
0.0
  0
LINE
  5
C3
330
1E
100
AcDbEntity
  8
0
100
AcDbLine
 10
313.8
 20
1.5
 30
0.0
 11
320.1999999999999
 21
4.000000000000009
 31
0.0
  0
LINE
  5
C4
330
1E
100
AcDbEntity
  8
0
100
AcDbLine
 10
313.8999999999999
 20
1.0
 30
0.0
 11
320.3999999999999
 21
3.600000000000009
 31
0.0
  0
LINE
  5
C5
330
1E
100
AcDbEntity
  8
0
100
AcDbLine
 10
307.0
 20
0.0000000000000045
 30
0.0
 11
313.8999999999999
 21
1.0
 31
0.0
  0
LINE
  5
C6
330
1E
100
AcDbEntity
  8
0
100
AcDbLine
 10
313.8999999999999
 20
1.0
 30
0.0
 11
320.3999999999999
 21
3.600000000000009
 31
0.0
  0
LINE
  5
C7
330
1E
100
AcDbEntity
  8
0
100
AcDbLine
 10
307.0
 20
0.0000000000000039
 30
0.0
 11
313.8999999999999
 21
1.0
 31
0.0
  0
LINE
  5
C8
330
1E
100
AcDbEntity
  8
0
100
AcDbLine
 10
313.8999999999999
 20
1.0
 30
0.0
 11
320.3999999999999
 21
3.6
 31
0.0
  0
LINE
  5
C9
330
1E
100
AcDbEntity
  8
0
100
AcDbLine
 10
320.3999999999999
 20
3.6
 30
0.0
 11
326.1
 21
7.900000000000009
 31
0.0
  0
LINE
  5
CA
330
1E
100
AcDbEntity
  8
0
100
AcDbLine
 10
300.1999999999999
 20
1.5
 30
0.0
 11
307.0
 21
0.500000000000005
 31
0.0
  0
LINE
  5
CB
330
1E
100
AcDbEntity
  8
0
100
AcDbLine
 10
300.1
 20
1.0
 30
0.0
 11
307.0
 21
0.000000000000004
 31
0.0
  0
LINE
  5
CC
330
1E
100
AcDbEntity
  8
0
100
AcDbLine
 10
300.1
 20
1.0
 30
0.0
 11
307.0
 21
0.0000000000000039
 31
0.0
  0
LINE
  5
CD
330
1E
100
AcDbEntity
  8
0
100
AcDbLine
 10
293.5405405405409
 20
16.0
 30
0.0
 11
294.6
 21
14.59999999999999
 31
0.0
  0
LINE
  5
CE
330
1E
100
AcDbEntity
  8
0
100
AcDbLine
 10
293.0026315789469
 20
16.0
 30
0.0
 11
294.2999999999999
 21
14.3
 31
0.0
  0
LINE
  5
CF
330
1E
100
AcDbEntity
  8
0
100
AcDbLine
 10
320.1999999999999
 20
4.000000000000009
 30
0.0
 11
325.7
 21
8.300000000000009
 31
0.0
  0
LINE
  5
D0
330
1E
100
AcDbEntity
  8
0
100
AcDbLine
 10
320.3999999999999
 20
3.600000000000009
 30
0.0
 11
326.1
 21
7.900000000000009
 31
0.0
  0
LINE
  5
D1
330
1E
100
AcDbEntity
  8
0
100
AcDbLine
 10
302.4
 20
9.700000000000009
 30
0.0
 11
307.0
 21
9.000000000000008
 31
0.0
  0
LINE
  5
D2
330
1E
100
AcDbEntity
  8
0
100
AcDbLine
 10
307.0
 20
9.500000000000008
 30
0.0
 11
311.5
 21
10.1
 31
0.0
  0
LINE
  5
D3
330
1E
100
AcDbEntity
  8
0
100
AcDbLine
 10
311.5
 20
10.1
 30
0.0
 11
315.7
 21
11.8
 31
0.0
  0
LINE
  5
D4
330
1E
100
AcDbEntity
  8
0
100
AcDbLine
 10
307.0
 20
9.000000000000008
 30
0.0
 11
311.6
 21
9.700000000000009
 31
0.0
  0
LINE
  5
D5
330
1E
100
AcDbEntity
  8
0
100
AcDbLine
 10
311.6
 20
9.700000000000009
 30
0.0
 11
315.8999999999999
 21
11.4
 31
0.0
  0
LINE
  5
D6
330
1E
100
AcDbEntity
  8
0
100
AcDbLine
 10
325.7
 20
8.300000000000009
 30
0.0
 11
330.0
 21
13.8
 31
0.0
  0
LINE
  5
D7
330
1E
100
AcDbEntity
  8
0
100
AcDbLine
 10
326.1
 20
7.900000000000009
 30
0.0
 11
330.3999999999999
 21
13.6
 31
0.0
  0
LINE
  5
D8
330
1E
100
AcDbEntity
  8
0
100
AcDbLine
 10
302.4999999999999
 20
10.1
 30
0.0
 11
307.0
 21
9.500000000000008
 31
0.0
  0
LINE
  5
D9
330
1E
100
AcDbEntity
  8
0
100
AcDbLine
 10
302.4
 20
9.699999999999999
 30
0.0
 11
307.0
 21
9.000000000000008
 31
0.0
  0
LINE
  5
DA
330
1E
100
AcDbEntity
  8
0
100
AcDbLine
 10
295.1
 20
16.0
 30
0.0
 11
299.0
 21
16.0
 31
0.0
  0
LINE
  5
DB
330
1E
100
AcDbEntity
  8
0
100
AcDbLine
 10
294.6
 20
14.59999999999999
 30
0.0
 11
298.3
 21
11.8
 31
0.0
  0
LINE
  5
DC
330
1E
100
AcDbEntity
  8
0
100
AcDbLine
 10
315.7
 20
11.8
 30
0.0
 11
319.3999999999999
 21
14.59999999999999
 31
0.0
  0
LINE
  5
DD
330
1E
100
AcDbEntity
  8
0
100
AcDbLine
 10
315.8999999999999
 20
11.4
 30
0.0
 11
319.7
 21
14.3
 31
0.0
  0
LINE
  5
DE
330
1E
100
AcDbEntity
  8
0
100
AcDbLine
 10
299.0
 20
16.0
 30
0.0
 11
302.3
 21
16.0
 31
0.0
  0
LINE
  5
DF
330
1E
100
AcDbEntity
  8
0
100
AcDbLine
 10
306.4
 20
16.0
 30
0.0
 11
307.0
 21
16.0
 31
0.0
  0
LINE
  5
E0
330
1E
100
AcDbEntity
  8
0
100
AcDbLine
 10
309.8
 20
16.39999999999999
 30
0.0
 11
312.5
 21
17.5
 31
0.0
  0
LINE
  5
E1
330
1E
100
AcDbEntity
  8
0
100
AcDbLine
 10
312.5
 20
17.5
 30
0.0
 11
314.8
 21
19.19999999999999
 31
0.0
  0
LINE
  5
E2
330
1E
100
AcDbEntity
  8
0
100
AcDbLine
 10
309.8
 20
16.39999999999999
 30
0.0
 11
312.5
 21
17.5
 31
0.0
  0
LINE
  5
E3
330
1E
100
AcDbEntity
  8
0
100
AcDbLine
 10
304.8999999999999
 20
16.0
 30
0.0
 11
306.4
 21
16.0
 31
0.0
  0
LINE
  5
E4
330
1E
100
AcDbEntity
  8
0
100
AcDbLine
 10
302.3
 20
16.0
 30
0.0
 11
304.8999999999999
 21
16.0
 31
0.0
  0
LINE
  5
E5
330
1E
100
AcDbEntity
  8
0
100
AcDbLine
 10
319.3999999999999
 20
14.59999999999999
 30
0.0
 11
322.1999999999999
 21
18.3
 31
0.0
  0
LINE
  5
E6
330
1E
100
AcDbEntity
  8
0
100
AcDbLine
 10
319.7
 20
14.3
 30
0.0
 11
322.6
 21
18.1
 31
0.0
  0
LINE
  5
E7
330
1E
100
AcDbEntity
  8
0
100
AcDbLine
 10
314.8
 20
19.19999999999999
 30
0.0
 11
316.5
 21
21.49999999999999
 31
0.0
  0
LINE
  5
E8
330
1E
100
AcDbEntity
  8
0
100
AcDbLine
 10
322.1999999999999
 20
18.3
 30
0.0
 11
323.8999999999999
 21
22.5
 31
0.0
  0
LINE
  5
E9
330
1E
100
AcDbEntity
  8
0
100
AcDbLine
 10
322.6
 20
18.1
 30
0.0
 11
324.3
 21
22.39999999999999
 31
0.0
  0
LINE
  5
EA
330
1E
100
AcDbEntity
  8
0
100
AcDbLine
 10
330.0
 20
13.8
 30
0.0
 11
332.5
 21
20.2
 31
0.0
  0
LINE
  5
EB
330
1E
100
AcDbEntity
  8
0
100
AcDbLine
 10
316.5
 20
21.49999999999999
 30
0.0
 11
317.6
 21
24.19999999999999
 31
0.0
  0
LINE
  5
EC
330
1E
100
AcDbEntity
  8
0
100
AcDbLine
 10
317.6
 20
24.19999999999999
 30
0.0
 11
318.0
 21
27.0
 31
0.0
  0
LINE
  5
ED
330
1E
100
AcDbEntity
  8
0
100
AcDbLine
 10
323.8999999999999
 20
22.5
 30
0.0
 11
324.5
 21
27.0
 31
0.0
  0
LINE
  5
EE
330
1E
100
AcDbEntity
  8
0
100
AcDbLine
 10
324.3
 20
22.39999999999999
 30
0.0
 11
325.0
 21
27.0
 31
0.0
  0
LINE
  5
EF
330
1E
100
AcDbEntity
  8
0
100
AcDbLine
 10
324.3
 20
22.39999999999999
 30
0.0
 11
325.0
 21
27.0
 31
0.0
  0
LINE
  5
F0
330
1E
100
AcDbEntity
  8
0
100
AcDbLine
 10
332.5
 20
20.2
 30
0.0
 11
333.4999999999999
 21
27.0
 31
0.0
  0
LINE
  5
F1
330
1E
100
AcDbEntity
  8
0
100
AcDbLine
 10
333.0
 20
20.1
 30
0.0
 11
334.0
 21
27.0
 31
0.0
  0
LINE
  5
F2
330
1E
100
AcDbEntity
  8
0
100
AcDbLine
 10
330.3999999999999
 20
13.6
 30
0.0
 11
333.0
 21
20.1
 31
0.0
  0
LINE
  5
F3
330
1E
100
AcDbEntity
  8
0
100
AcDbLine
 10
330.3999999999999
 20
13.6
 30
0.0
 11
333.0
 21
20.1
 31
0.0
  0
LINE
  5
F4
330
1E
100
AcDbEntity
  8
0
100
AcDbLine
 10
333.0
 20
20.1
 30
0.0
 11
334.0
 21
27.0
 31
0.0
  0
LINE
  5
F5
330
1E
100
AcDbEntity
  8
0
100
AcDbLine
 10
298.3
 20
11.8
 30
0.0
 11
302.4999999999999
 21
10.1
 31
0.0
  0
LINE
  5
F6
330
1E
100
AcDbEntity
  8
0
100
AcDbLine
 10
298.1
 20
11.4
 30
0.0
 11
302.4
 21
9.700000000000009
 31
0.0
  0
LINE
  5
F7
330
1E
100
AcDbEntity
  8
0
100
AcDbLine
 10
298.1
 20
11.4
 30
0.0
 11
302.4
 21
9.699999999999999
 31
0.0
  0
LINE
  5
F8
330
1E
100
AcDbEntity
  8
0
100
AcDbLine
 10
294.2999999999999
 20
14.3
 30
0.0
 11
298.1
 21
11.4
 31
0.0
  0
LINE
  5
F9
330
1E
100
AcDbEntity
  8
0
100
AcDbLine
 10
294.2999999999999
 20
14.3
 30
0.0
 11
298.1
 21
11.4
 31
0.0
  0
LINE
  5
FA
330
1E
100
AcDbEntity
  8
0
100
AcDbLine
 10
293.8
 20
4.000000000000009
 30
0.0
 11
300.1999999999999
 21
1.5
 31
0.0
  0
LINE
  5
FB
330
1E
100
AcDbEntity
  8
0
100
AcDbLine
 10
293.6
 20
3.600000000000009
 30
0.0
 11
300.1
 21
1.0
 31
0.0
  0
LINE
  5
FC
330
1E
100
AcDbEntity
  8
0
100
AcDbLine
 10
293.6
 20
3.600000000000009
 30
0.0
 11
300.1
 21
1.0
 31
0.0
  0
LINE
  5
FD
330
1E
100
AcDbEntity
  8
0
100
AcDbLine
 10
293.6
 20
3.6
 30
0.0
 11
300.1
 21
1.0
 31
0.0
  0
LINE
  5
FE
330
1E
100
AcDbEntity
  8
0
100
AcDbLine
 10
291.0
 20
21.49999999999999
 30
0.0
 11
291.0
 21
24.19999999999999
 31
0.0
  0
LINE
  5
FF
330
1E
100
AcDbEntity
  8
0
100
AcDbLine
 10
291.0
 20
21.49999999999999
 30
0.0
 11
291.0
 21
19.19999999999999
 31
0.0
  0
LINE
  5
100
330
1E
100
AcDbEntity
  8
0
100
AcDbLine
 10
290.0
 20
29.8
 30
0.0
 11
290.0
 21
27.0
 31
0.0
  0
LINE
  5
101
330
1E
100
AcDbEntity
  8
0
100
AcDbLine
 10
290.0
 20
29.8
 30
0.0
 11
290.0
 21
32.5
 31
0.0
  0
LINE
  5
102
330
1E
100
AcDbEntity
  8
0
100
AcDbLine
 10
290.5
 20
29.7
 30
0.0
 11
290.5
 21
27.0
 31
0.0
  0
LINE
  5
103
330
1E
100
AcDbEntity
  8
0
100
AcDbLine
 10
290.5
 20
29.7
 30
0.0
 11
290.5
 21
32.2
 31
0.0
  0
LINE
  5
104
330
1E
100
AcDbEntity
  8
0
100
AcDbLine
 10
290.0
 20
27.0
 30
0.0
 11
290.0
 21
24.19999999999999
 31
0.0
  0
LINE
  5
105
330
1E
100
AcDbEntity
  8
0
100
AcDbLine
 10
290.0
 20
27.0
 30
0.0
 11
290.0
 21
29.8
 31
0.0
  0
LINE
  5
106
330
1E
100
AcDbEntity
  8
0
100
AcDbLine
 10
290.5
 20
24.3
 30
0.0
 11
290.5
 21
21.8
 31
0.0
  0
LINE
  5
107
330
1E
100
AcDbEntity
  8
0
100
AcDbLine
 10
290.5
 20
24.3
 30
0.0
 11
290.5
 21
27.0
 31
0.0
  0
LINE
  5
108
330
1E
100
AcDbEntity
  8
0
100
AcDbLine
 10
323.8999999999999
 20
31.5
 30
0.0
 11
324.5
 21
27.0
 31
0.0
  0
LINE
  5
109
330
1E
100
AcDbEntity
  8
0
100
AcDbLine
 10
317.6
 20
29.8
 30
0.0
 11
318.0
 21
27.0
 31
0.0
  0
LINE
  5
10A
330
1E
100
AcDbEntity
  8
0
100
AcDbLine
 10
291.0
 20
29.8
 30
0.0
 11
291.0
 21
32.5
 31
0.0
  0
LINE
  5
10B
330
1E
100
AcDbEntity
  8
0
100
AcDbLine
 10
291.0
 20
29.8
 30
0.0
 11
291.0
 21
27.0
 31
0.0
  0
LINE
  5
10C
330
1E
100
AcDbEntity
  8
0
100
AcDbLine
 10
291.0
 20
27.0
 30
0.0
 11
291.0
 21
29.8
 31
0.0
  0
LINE
  5
10D
330
1E
100
AcDbEntity
  8
0
100
AcDbLine
 10
291.0
 20
27.0
 30
0.0
 11
291.0
 21
24.19999999999999
 31
0.0
  0
LINE
  5
10E
330
1E
100
AcDbEntity
  8
0
100
AcDbLine
 10
290.5
 20
27.0
 30
0.0
 11
290.5
 21
24.3
 31
0.0
  0
LINE
  5
10F
330
1E
100
AcDbEntity
  8
0
100
AcDbLine
 10
290.5
 20
27.0
 30
0.0
 11
290.5
 21
29.7
 31
0.0
  0
LINE
  5
110
330
1E
100
AcDbEntity
  8
0
100
AcDbLine
 10
291.0
 20
24.19999999999999
 30
0.0
 11
291.0
 21
27.0
 31
0.0
  0
LINE
  5
111
330
1E
100
AcDbEntity
  8
0
100
AcDbLine
 10
291.0
 20
24.19999999999999
 30
0.0
 11
291.0
 21
21.49999999999999
 31
0.0
  0
LINE
  5
112
330
1E
100
AcDbEntity
  8
0
100
AcDbLine
 10
50.4
 20
13.6
 30
0.0
 11
51.36
 21
16.0
 31
0.0
  0
LINE
  5
113
330
1E
100
AcDbEntity
  8
0
100
AcDbLine
 10
324.3
 20
31.6
 30
0.0
 11
325.0
 21
27.0
 31
0.0
  0
LINE
  5
114
330
1E
100
AcDbEntity
  8
0
100
AcDbLine
 10
10.1
 20
31.5
 30
0.0
 11
11.8
 21
35.7
 31
0.0
  0
LINE
  5
115
330
1E
100
AcDbEntity
  8
0
100
AcDbLine
 10
9.499999999999991
 20
27.0
 30
0.0
 11
10.1
 21
31.5
 31
0.0
  0
LINE
  5
116
330
1E
100
AcDbEntity
  8
0
100
AcDbLine
 10
9.499999999999991
 20
27.0
 30
0.0
 11
10.1
 21
22.5
 31
0.0
  0
LINE
  5
117
330
1E
100
AcDbEntity
  8
0
100
AcDbLine
 10
290.0
 20
32.5
 30
0.0
 11
290.0
 21
29.8
 31
0.0
  0
LINE
  5
118
330
1E
100
AcDbEntity
  8
0
100
AcDbLine
 10
290.0
 20
32.5
 30
0.0
 11
290.0
 21
34.79999999999999
 31
0.0
  0
LINE
  5
119
330
1E
100
AcDbEntity
  8
0
100
AcDbLine
 10
316.5
 20
32.5
 30
0.0
 11
317.6
 21
29.8
 31
0.0
  0
LINE
  5
11A
330
1E
100
AcDbEntity
  8
0
100
AcDbLine
 10
291.0
 20
32.5
 30
0.0
 11
291.0
 21
34.79999999999999
 31
0.0
  0
LINE
  5
11B
330
1E
100
AcDbEntity
  8
0
100
AcDbLine
 10
291.0
 20
32.5
 30
0.0
 11
291.0
 21
29.8
 31
0.0
  0
LINE
  5
11C
330
1E
100
AcDbEntity
  8
0
100
AcDbLine
 10
290.5
 20
32.2
 30
0.0
 11
290.5
 21
29.7
 31
0.0
  0
LINE
  5
11D
330
1E
100
AcDbEntity
  8
0
100
AcDbLine
 10
290.5
 20
32.2
 30
0.0
 11
290.5
 21
34.39999999999999
 31
0.0
  0
LINE
  5
11E
330
1E
100
AcDbEntity
  8
0
100
AcDbLine
 10
44.0
 20
32.5
 30
0.0
 11
44.0
 21
34.79999999999999
 31
0.0
  0
LINE
  5
11F
330
1E
100
AcDbEntity
  8
0
100
AcDbLine
 10
44.0
 20
32.5
 30
0.0
 11
44.0
 21
29.8
 31
0.0
  0
LINE
  5
120
330
1E
100
AcDbEntity
  8
0
100
AcDbLine
 10
43.5
 20
32.2
 30
0.0
 11
43.5
 21
34.39999999999999
 31
0.0
  0
LINE
  5
121
330
1E
100
AcDbEntity
  8
0
100
AcDbLine
 10
43.5
 20
32.2
 30
0.0
 11
43.5
 21
29.7
 31
0.0
  0
LINE
  5
122
330
1E
100
AcDbEntity
  8
0
100
AcDbLine
 10
332.5
 20
33.79999999999999
 30
0.0
 11
333.4999999999999
 21
27.0
 31
0.0
  0
LINE
  5
123
330
1E
100
AcDbEntity
  8
0
100
AcDbLine
 10
43.0
 20
32.5
 30
0.0
 11
43.0
 21
34.79999999999999
 31
0.0
  0
LINE
  5
124
330
1E
100
AcDbEntity
  8
0
100
AcDbLine
 10
43.0
 20
32.5
 30
0.0
 11
43.0
 21
29.8
 31
0.0
  0
LINE
  5
125
330
1E
100
AcDbEntity
  8
0
100
AcDbLine
 10
17.5
 20
32.5
 30
0.0
 11
19.19999999999999
 21
34.79999999999999
 31
0.0
  0
LINE
  5
126
330
1E
100
AcDbEntity
  8
0
100
AcDbLine
 10
9.69999999999999
 20
31.6
 30
0.0
 11
11.4
 21
35.89999999999999
 31
0.0
  0
LINE
  5
127
330
1E
100
AcDbEntity
  8
0
100
AcDbLine
 10
8.999999999999991
 20
27.0
 30
0.0
 11
9.69999999999999
 21
31.6
 31
0.0
  0
LINE
  5
128
330
1E
100
AcDbEntity
  8
0
100
AcDbLine
 10
333.0
 20
33.9
 30
0.0
 11
334.0
 21
27.0
 31
0.0
  0
LINE
  5
129
330
1E
100
AcDbEntity
  8
0
100
AcDbLine
 10
1.499999999999989
 20
33.79999999999999
 30
0.0
 11
3.99999999999999
 21
40.2
 31
0.0
  0
LINE
  5
12A
330
1E
100
AcDbEntity
  8
0
100
AcDbLine
 10
0.4999999999999901
 20
27.0
 30
0.0
 11
1.499999999999989
 21
33.79999999999999
 31
0.0
  0
LINE
  5
12B
330
1E
100
AcDbEntity
  8
0
100
AcDbLine
 10
0.4999999999999901
 20
27.0
 30
0.0
 11
1.499999999999989
 21
20.2
 31
0.0
  0
LINE
  5
12C
330
1E
100
AcDbEntity
  8
0
100
AcDbLine
 10
11.8
 20
35.7
 30
0.0
 11
14.59999999999999
 21
39.39999999999999
 31
0.0
  0
LINE
  5
12D
330
1E
100
AcDbEntity
  8
0
100
AcDbLine
 10
11.4
 20
35.89999999999999
 30
0.0
 11
14.3
 21
39.7
 31
0.0
  0
LINE
  5
12E
330
1E
100
AcDbEntity
  8
0
100
AcDbLine
 10
3.99999999999999
 20
40.2
 30
0.0
 11
8.29999999999999
 21
45.7
 31
0.0
  0
LINE
  5
12F
330
1E
100
AcDbEntity
  8
0
100
AcDbLine
 10
8.29999999999999
 20
45.7
 30
0.0
 11
13.8
 21
50.0
 31
0.0
  0
LINE
  5
130
330
1E
100
AcDbEntity
  8
0
100
AcDbLine
 10
7.89999999999999
 20
46.1
 30
0.0
 11
13.6
 21
50.4
 31
0.0
  0
LINE
  5
131
330
1E
100
AcDbEntity
  8
0
100
AcDbLine
 10
3.59999999999999
 20
40.4
 30
0.0
 11
7.89999999999999
 21
46.1
 31
0.0
  0
LINE
  5
132
330
1E
100
AcDbEntity
  8
0
100
AcDbLine
 10
21.49999999999999
 20
36.5
 30
0.0
 11
24.19999999999999
 21
37.6
 31
0.0
  0
LINE
  5
133
330
1E
100
AcDbEntity
  8
0
100
AcDbLine
 10
27.0
 20
38.0
 30
0.0
 11
27.6
 21
38.0
 31
0.0
  0
LINE
  5
134
330
1E
100
AcDbEntity
  8
0
100
AcDbLine
 10
24.19999999999999
 20
37.6
 30
0.0
 11
27.0
 21
38.0
 31
0.0
  0
LINE
  5
135
330
1E
100
AcDbEntity
  8
0
100
AcDbLine
 10
19.19999999999999
 20
34.79999999999999
 30
0.0
 11
21.49999999999999
 21
36.5
 31
0.0
  0
LINE
  5
136
330
1E
100
AcDbEntity
  8
0
100
AcDbLine
 10
27.6
 20
38.0
 30
0.0
 11
29.1
 21
38.0
 31
0.0
  0
LINE
  5
137
330
1E
100
AcDbEntity
  8
0
100
AcDbLine
 10
38.9
 20
38.0
 30
0.0
 11
43.0
 21
38.0
 31
0.0
  0
LINE
  5
138
330
1E
100
AcDbEntity
  8
0
100
AcDbLine
 10
35.0
 20
38.0
 30
0.0
 11
38.9
 21
38.0
 31
0.0
  0
LINE
  5
139
330
1E
100
AcDbEntity
  8
0
100
AcDbLine
 10
31.69999999999999
 20
38.0
 30
0.0
 11
35.0
 21
38.0
 31
0.0
  0
LINE
  5
13A
330
1E
100
AcDbEntity
  8
0
100
AcDbLine
 10
29.1
 20
38.0
 30
0.0
 11
31.69999999999999
 21
38.0
 31
0.0
  0
LINE
  5
13B
330
1E
100
AcDbEntity
  8
0
100
AcDbLine
 10
39.39999999999999
 20
39.39999999999999
 30
0.0
 11
40.4594594594594
 21
38.0
 31
0.0
  0
LINE
  5
13C
330
1E
100
AcDbEntity
  8
0
100
AcDbLine
 10
44.0
 20
34.79999999999999
 30
0.0
 11
44.0
 21
36.5
 31
0.0
  0
LINE
  5
13D
330
1E
100
AcDbEntity
  8
0
100
AcDbLine
 10
44.0
 20
34.79999999999999
 30
0.0
 11
44.0
 21
32.5
 31
0.0
  0
LINE
  5
13E
330
1E
100
AcDbEntity
  8
0
100
AcDbLine
 10
43.5
 20
34.39999999999999
 30
0.0
 11
43.5
 21
36.1
 31
0.0
  0
LINE
  5
13F
330
1E
100
AcDbEntity
  8
0
100
AcDbLine
 10
43.5
 20
34.39999999999999
 30
0.0
 11
43.5
 21
32.2
 31
0.0
  0
LINE
  5
140
330
1E
100
AcDbEntity
  8
0
100
AcDbLine
 10
43.0
 20
38.0
 30
0.0
 11
43.0
 21
37.6
 31
0.0
  0
LINE
  5
141
330
1E
100
AcDbEntity
  8
0
100
AcDbLine
 10
43.0
 20
38.0
 30
0.0
 11
43.5
 21
37.5
 31
0.0
  0
LINE
  5
142
330
1E
100
AcDbEntity
  8
0
100
AcDbLine
 10
43.0
 20
37.6
 30
0.0
 11
43.0
 21
38.0
 31
0.0
  0
LINE
  5
143
330
1E
100
AcDbEntity
  8
0
100
AcDbLine
 10
43.0
 20
37.6
 30
0.0
 11
43.0
 21
36.5
 31
0.0
  0
LINE
  5
144
330
1E
100
AcDbEntity
  8
0
100
AcDbLine
 10
43.5
 20
37.5
 30
0.0
 11
43.5
 21
37.1
 31
0.0
  0
LINE
  5
145
330
1E
100
AcDbEntity
  8
0
100
AcDbLine
 10
43.5
 20
37.5
 30
0.0
 11
44.0
 21
38.0
 31
0.0
  0
LINE
  5
146
330
1E
100
AcDbEntity
  8
0
100
AcDbLine
 10
44.0
 20
38.0
 30
0.0
 11
44.0
 21
37.6
 31
0.0
  0
LINE
  5
147
330
1E
100
AcDbEntity
  8
0
100
AcDbLine
 10
44.0
 20
38.0
 30
0.0
 11
167.0
 21
38.0
 31
0.0
  0
LINE
  5
148
330
1E
100
AcDbEntity
  8
0
100
AcDbLine
 10
44.0
 20
37.6
 30
0.0
 11
44.0
 21
38.0
 31
0.0
  0
LINE
  5
149
330
1E
100
AcDbEntity
  8
0
100
AcDbLine
 10
44.0
 20
37.6
 30
0.0
 11
44.0
 21
36.5
 31
0.0
  0
LINE
  5
14A
330
1E
100
AcDbEntity
  8
0
100
AcDbLine
 10
44.0
 20
36.5
 30
0.0
 11
44.0
 21
37.6
 31
0.0
  0
LINE
  5
14B
330
1E
100
AcDbEntity
  8
0
100
AcDbLine
 10
44.0
 20
36.5
 30
0.0
 11
44.0
 21
34.79999999999999
 31
0.0
  0
LINE
  5
14C
330
1E
100
AcDbEntity
  8
0
100
AcDbLine
 10
43.5
 20
37.1
 30
0.0
 11
43.5
 21
37.5
 31
0.0
  0
LINE
  5
14D
330
1E
100
AcDbEntity
  8
0
100
AcDbLine
 10
43.5
 20
37.1
 30
0.0
 11
43.5
 21
36.1
 31
0.0
  0
LINE
  5
14E
330
1E
100
AcDbEntity
  8
0
100
AcDbLine
 10
43.5
 20
36.1
 30
0.0
 11
43.5
 21
37.1
 31
0.0
  0
LINE
  5
14F
330
1E
100
AcDbEntity
  8
0
100
AcDbLine
 10
43.5
 20
36.1
 30
0.0
 11
43.5
 21
34.39999999999999
 31
0.0
  0
LINE
  5
150
330
1E
100
AcDbEntity
  8
0
100
AcDbLine
 10
43.0
 20
36.5
 30
0.0
 11
43.0
 21
37.6
 31
0.0
  0
LINE
  5
151
330
1E
100
AcDbEntity
  8
0
100
AcDbLine
 10
43.0
 20
36.5
 30
0.0
 11
43.0
 21
34.79999999999999
 31
0.0
  0
LINE
  5
152
330
1E
100
AcDbEntity
  8
0
100
AcDbLine
 10
43.0
 20
34.79999999999999
 30
0.0
 11
43.0
 21
36.5
 31
0.0
  0
LINE
  5
153
330
1E
100
AcDbEntity
  8
0
100
AcDbLine
 10
43.0
 20
34.79999999999999
 30
0.0
 11
43.0
 21
32.5
 31
0.0
  0
LINE
  5
154
330
1E
100
AcDbEntity
  8
0
100
AcDbLine
 10
39.7
 20
39.7
 30
0.0
 11
40.99736842105261
 21
38.0
 31
0.0
  0
LINE
  5
155
330
1E
100
AcDbEntity
  8
0
100
AcDbLine
 10
35.7
 20
42.2
 30
0.0
 11
39.39999999999999
 21
39.39999999999999
 31
0.0
  0
LINE
  5
156
330
1E
100
AcDbEntity
  8
0
100
AcDbLine
 10
50.0
 20
40.2
 30
0.0
 11
50.859375
 21
38.0
 31
0.0
  0
LINE
  5
157
330
1E
100
AcDbEntity
  8
0
100
AcDbLine
 10
290.0
 20
36.5
 30
0.0
 11
290.0
 21
34.79999999999999
 31
0.0
  0
LINE
  5
158
330
1E
100
AcDbEntity
  8
0
100
AcDbLine
 10
290.0
 20
36.5
 30
0.0
 11
290.0
 21
37.6
 31
0.0
  0
LINE
  5
159
330
1E
100
AcDbEntity
  8
0
100
AcDbLine
 10
290.0
 20
34.79999999999999
 30
0.0
 11
290.0
 21
32.5
 31
0.0
  0
LINE
  5
15A
330
1E
100
AcDbEntity
  8
0
100
AcDbLine
 10
290.0
 20
34.79999999999999
 30
0.0
 11
290.0
 21
36.5
 31
0.0
  0
LINE
  5
15B
330
1E
100
AcDbEntity
  8
0
100
AcDbLine
 10
283.140625
 20
38.0
 30
0.0
 11
284.0
 21
40.2
 31
0.0
  0
LINE
  5
15C
330
1E
100
AcDbEntity
  8
0
100
AcDbLine
 10
282.6399999999999
 20
38.0
 30
0.0
 11
283.6
 21
40.4
 31
0.0
  0
LINE
  5
15D
330
1E
100
AcDbEntity
  8
0
100
AcDbLine
 10
284.0
 20
40.2
 30
0.0
 11
288.3
 21
45.7
 31
0.0
  0
LINE
  5
15E
330
1E
100
AcDbEntity
  8
0
100
AcDbLine
 10
283.6
 20
40.4
 30
0.0
 11
287.8999999999999
 21
46.1
 31
0.0
  0
LINE
  5
15F
330
1E
100
AcDbEntity
  8
0
100
AcDbLine
 10
167.0
 20
38.0
 30
0.0
 11
290.0
 21
38.0
 31
0.0
  0
LINE
  5
160
330
1E
100
AcDbEntity
  8
0
100
AcDbLine
 10
290.0
 20
38.0
 30
0.0
 11
290.0
 21
37.6
 31
0.0
  0
LINE
  5
161
330
1E
100
AcDbEntity
  8
0
100
AcDbLine
 10
290.0
 20
38.0
 30
0.0
 11
290.5
 21
37.5
 31
0.0
  0
LINE
  5
162
330
1E
100
AcDbEntity
  8
0
100
AcDbLine
 10
290.0
 20
37.6
 30
0.0
 11
290.0
 21
36.5
 31
0.0
  0
LINE
  5
163
330
1E
100
AcDbEntity
  8
0
100
AcDbLine
 10
290.0
 20
37.6
 30
0.0
 11
290.0
 21
38.0
 31
0.0
  0
LINE
  5
164
330
1E
100
AcDbEntity
  8
0
100
AcDbLine
 10
290.5
 20
37.5
 30
0.0
 11
290.5
 21
37.1
 31
0.0
  0
LINE
  5
165
330
1E
100
AcDbEntity
  8
0
100
AcDbLine
 10
290.5
 20
37.5
 30
0.0
 11
291.0
 21
38.0
 31
0.0
  0
LINE
  5
166
330
1E
100
AcDbEntity
  8
0
100
AcDbLine
 10
290.5
 20
37.1
 30
0.0
 11
290.5
 21
36.1
 31
0.0
  0
LINE
  5
167
330
1E
100
AcDbEntity
  8
0
100
AcDbLine
 10
290.5
 20
37.1
 30
0.0
 11
290.5
 21
37.5
 31
0.0
  0
LINE
  5
168
330
1E
100
AcDbEntity
  8
0
100
AcDbLine
 10
314.8
 20
34.79999999999999
 30
0.0
 11
316.5
 21
32.5
 31
0.0
  0
LINE
  5
169
330
1E
100
AcDbEntity
  8
0
100
AcDbLine
 10
291.0
 20
38.0
 30
0.0
 11
291.0
 21
37.6
 31
0.0
  0
LINE
  5
16A
330
1E
100
AcDbEntity
  8
0
100
AcDbLine
 10
291.0
 20
38.0
 30
0.0
 11
295.1
 21
38.0
 31
0.0
  0
LINE
  5
16B
330
1E
100
AcDbEntity
  8
0
100
AcDbLine
 10
291.0
 20
37.6
 30
0.0
 11
291.0
 21
38.0
 31
0.0
  0
LINE
  5
16C
330
1E
100
AcDbEntity
  8
0
100
AcDbLine
 10
291.0
 20
37.6
 30
0.0
 11
291.0
 21
36.5
 31
0.0
  0
LINE
  5
16D
330
1E
100
AcDbEntity
  8
0
100
AcDbLine
 10
293.5405405405409
 20
38.0
 30
0.0
 11
294.6
 21
39.39999999999999
 31
0.0
  0
LINE
  5
16E
330
1E
100
AcDbEntity
  8
0
100
AcDbLine
 10
293.0026315789469
 20
38.0
 30
0.0
 11
294.2999999999999
 21
39.7
 31
0.0
  0
LINE
  5
16F
330
1E
100
AcDbEntity
  8
0
100
AcDbLine
 10
322.1999999999999
 20
35.7
 30
0.0
 11
323.8999999999999
 21
31.5
 31
0.0
  0
LINE
  5
170
330
1E
100
AcDbEntity
  8
0
100
AcDbLine
 10
322.6
 20
35.89999999999999
 30
0.0
 11
324.3
 21
31.6
 31
0.0
  0
LINE
  5
171
330
1E
100
AcDbEntity
  8
0
100
AcDbLine
 10
307.0
 20
38.0
 30
0.0
 11
309.8
 21
37.6
 31
0.0
  0
LINE
  5
172
330
1E
100
AcDbEntity
  8
0
100
AcDbLine
 10
306.4
 20
38.0
 30
0.0
 11
307.0
 21
38.0
 31
0.0
  0
LINE
  5
173
330
1E
100
AcDbEntity
  8
0
100
AcDbLine
 10
309.8
 20
37.6
 30
0.0
 11
312.5
 21
36.5
 31
0.0
  0
LINE
  5
174
330
1E
100
AcDbEntity
  8
0
100
AcDbLine
 10
312.5
 20
36.5
 30
0.0
 11
314.8
 21
34.79999999999999
 31
0.0
  0
LINE
  5
175
330
1E
100
AcDbEntity
  8
0
100
AcDbLine
 10
304.8999999999999
 20
38.0
 30
0.0
 11
306.4
 21
38.0
 31
0.0
  0
LINE
  5
176
330
1E
100
AcDbEntity
  8
0
100
AcDbLine
 10
302.3
 20
38.0
 30
0.0
 11
304.8999999999999
 21
38.0
 31
0.0
  0
LINE
  5
177
330
1E
100
AcDbEntity
  8
0
100
AcDbLine
 10
295.1
 20
38.0
 30
0.0
 11
299.0
 21
38.0
 31
0.0
  0
LINE
  5
178
330
1E
100
AcDbEntity
  8
0
100
AcDbLine
 10
294.6
 20
39.39999999999999
 30
0.0
 11
298.3
 21
42.2
 31
0.0
  0
LINE
  5
179
330
1E
100
AcDbEntity
  8
0
100
AcDbLine
 10
294.2999999999999
 20
39.7
 30
0.0
 11
298.1
 21
42.6
 31
0.0
  0
LINE
  5
17A
330
1E
100
AcDbEntity
  8
0
100
AcDbLine
 10
319.3999999999999
 20
39.39999999999999
 30
0.0
 11
322.1999999999999
 21
35.7
 31
0.0
  0
LINE
  5
17B
330
1E
100
AcDbEntity
  8
0
100
AcDbLine
 10
319.7
 20
39.7
 30
0.0
 11
322.6
 21
35.89999999999999
 31
0.0
  0
LINE
  5
17C
330
1E
100
AcDbEntity
  8
0
100
AcDbLine
 10
298.3
 20
42.2
 30
0.0
 11
302.4999999999999
 21
43.89999999999999
 31
0.0
  0
LINE
  5
17D
330
1E
100
AcDbEntity
  8
0
100
AcDbLine
 10
315.7
 20
42.2
 30
0.0
 11
319.3999999999999
 21
39.39999999999999
 31
0.0
  0
LINE
  5
17E
330
1E
100
AcDbEntity
  8
0
100
AcDbLine
 10
330.0
 20
40.2
 30
0.0
 11
332.5
 21
33.79999999999999
 31
0.0
  0
LINE
  5
17F
330
1E
100
AcDbEntity
  8
0
100
AcDbLine
 10
330.3999999999999
 20
40.4
 30
0.0
 11
333.0
 21
33.9
 31
0.0
  0
LINE
  5
180
330
1E
100
AcDbEntity
  8
0
100
AcDbLine
 10
299.0
 20
38.0
 30
0.0
 11
302.3
 21
38.0
 31
0.0
  0
LINE
  5
181
330
1E
100
AcDbEntity
  8
0
100
AcDbLine
 10
291.0
 20
36.5
 30
0.0
 11
291.0
 21
37.6
 31
0.0
  0
LINE
  5
182
330
1E
100
AcDbEntity
  8
0
100
AcDbLine
 10
291.0
 20
36.5
 30
0.0
 11
291.0
 21
34.79999999999999
 31
0.0
  0
LINE
  5
183
330
1E
100
AcDbEntity
  8
0
100
AcDbLine
 10
291.0
 20
34.79999999999999
 30
0.0
 11
291.0
 21
36.5
 31
0.0
  0
LINE
  5
184
330
1E
100
AcDbEntity
  8
0
100
AcDbLine
 10
291.0
 20
34.79999999999999
 30
0.0
 11
291.0
 21
32.5
 31
0.0
  0
LINE
  5
185
330
1E
100
AcDbEntity
  8
0
100
AcDbLine
 10
290.5
 20
36.1
 30
0.0
 11
290.5
 21
34.39999999999999
 31
0.0
  0
LINE
  5
186
330
1E
100
AcDbEntity
  8
0
100
AcDbLine
 10
290.5
 20
36.1
 30
0.0
 11
290.5
 21
37.1
 31
0.0
  0
LINE
  5
187
330
1E
100
AcDbEntity
  8
0
100
AcDbLine
 10
290.5
 20
34.39999999999999
 30
0.0
 11
290.5
 21
32.2
 31
0.0
  0
LINE
  5
188
330
1E
100
AcDbEntity
  8
0
100
AcDbLine
 10
290.5
 20
34.39999999999999
 30
0.0
 11
290.5
 21
36.1
 31
0.0
  0
LINE
  5
189
330
1E
100
AcDbEntity
  8
0
100
AcDbLine
 10
50.4
 20
40.4
 30
0.0
 11
51.36
 21
38.0
 31
0.0
  0
LINE
  5
18A
330
1E
100
AcDbEntity
  8
0
100
AcDbLine
 10
298.1
 20
42.6
 30
0.0
 11
302.4
 21
44.29999999999999
 31
0.0
  0
LINE
  5
18B
330
1E
100
AcDbEntity
  8
0
100
AcDbLine
 10
315.8999999999999
 20
42.6
 30
0.0
 11
319.7
 21
39.7
 31
0.0
  0
LINE
  5
18C
330
1E
100
AcDbEntity
  8
0
100
AcDbLine
 10
35.89999999999999
 20
42.6
 30
0.0
 11
39.7
 21
39.7
 31
0.0
  0
LINE
  5
18D
330
1E
100
AcDbEntity
  8
0
100
AcDbLine
 10
18.3
 20
42.2
 30
0.0
 11
22.5
 21
43.89999999999999
 31
0.0
  0
LINE
  5
18E
330
1E
100
AcDbEntity
  8
0
100
AcDbLine
 10
14.59999999999999
 20
39.39999999999999
 30
0.0
 11
18.3
 21
42.2
 31
0.0
  0
LINE
  5
18F
330
1E
100
AcDbEntity
  8
0
100
AcDbLine
 10
302.4999999999999
 20
43.89999999999999
 30
0.0
 11
307.0
 21
44.5
 31
0.0
  0
LINE
  5
190
330
1E
100
AcDbEntity
  8
0
100
AcDbLine
 10
311.5
 20
43.89999999999999
 30
0.0
 11
315.7
 21
42.2
 31
0.0
  0
LINE
  5
191
330
1E
100
AcDbEntity
  8
0
100
AcDbLine
 10
31.5
 20
43.89999999999999
 30
0.0
 11
35.7
 21
42.2
 31
0.0
  0
LINE
  5
192
330
1E
100
AcDbEntity
  8
0
100
AcDbLine
 10
27.0
 20
44.5
 30
0.0
 11
31.5
 21
43.89999999999999
 31
0.0
  0
LINE
  5
193
330
1E
100
AcDbEntity
  8
0
100
AcDbLine
 10
27.0
 20
45.0
 30
0.0
 11
31.6
 21
44.29999999999999
 31
0.0
  0
LINE
  5
194
330
1E
100
AcDbEntity
  8
0
100
AcDbLine
 10
31.6
 20
44.29999999999999
 30
0.0
 11
35.89999999999999
 21
42.6
 31
0.0
  0
LINE
  5
195
330
1E
100
AcDbEntity
  8
0
100
AcDbLine
 10
40.2
 20
50.0
 30
0.0
 11
45.7
 21
45.7
 31
0.0
  0
LINE
  5
196
330
1E
100
AcDbEntity
  8
0
100
AcDbLine
 10
45.7
 20
45.7
 30
0.0
 11
50.0
 21
40.2
 31
0.0
  0
LINE
  5
197
330
1E
100
AcDbEntity
  8
0
100
AcDbLine
 10
33.79999999999999
 20
52.5
 30
0.0
 11
40.2
 21
50.0
 31
0.0
  0
LINE
  5
198
330
1E
100
AcDbEntity
  8
0
100
AcDbLine
 10
40.4
 20
50.4
 30
0.0
 11
46.1
 21
46.1
 31
0.0
  0
LINE
  5
199
330
1E
100
AcDbEntity
  8
0
100
AcDbLine
 10
302.4
 20
44.29999999999999
 30
0.0
 11
307.0
 21
45.0
 31
0.0
  0
LINE
  5
19A
330
1E
100
AcDbEntity
  8
0
100
AcDbLine
 10
288.3
 20
45.7
 30
0.0
 11
293.8
 21
50.0
 31
0.0
  0
LINE
  5
19B
330
1E
100
AcDbEntity
  8
0
100
AcDbLine
 10
287.8999999999999
 20
46.1
 30
0.0
 11
293.6
 21
50.4
 31
0.0
  0
LINE
  5
19C
330
1E
100
AcDbEntity
  8
0
100
AcDbLine
 10
307.0
 20
44.5
 30
0.0
 11
311.5
 21
43.89999999999999
 31
0.0
  0
LINE
  5
19D
330
1E
100
AcDbEntity
  8
0
100
AcDbLine
 10
307.0
 20
45.0
 30
0.0
 11
311.6
 21
44.29999999999999
 31
0.0
  0
LINE
  5
19E
330
1E
100
AcDbEntity
  8
0
100
AcDbLine
 10
311.6
 20
44.29999999999999
 30
0.0
 11
315.8999999999999
 21
42.6
 31
0.0
  0
LINE
  5
19F
330
1E
100
AcDbEntity
  8
0
100
AcDbLine
 10
325.7
 20
45.7
 30
0.0
 11
330.0
 21
40.2
 31
0.0
  0
LINE
  5
1A0
330
1E
100
AcDbEntity
  8
0
100
AcDbLine
 10
293.8
 20
50.0
 30
0.0
 11
300.1999999999999
 21
52.5
 31
0.0
  0
LINE
  5
1A1
330
1E
100
AcDbEntity
  8
0
100
AcDbLine
 10
300.1999999999999
 20
52.5
 30
0.0
 11
307.0
 21
53.5
 31
0.0
  0
LINE
  5
1A2
330
1E
100
AcDbEntity
  8
0
100
AcDbLine
 10
293.6
 20
50.4
 30
0.0
 11
300.1
 21
53.0
 31
0.0
  0
LINE
  5
1A3
330
1E
100
AcDbEntity
  8
0
100
AcDbLine
 10
313.8
 20
52.5
 30
0.0
 11
320.1999999999999
 21
50.0
 31
0.0
  0
LINE
  5
1A4
330
1E
100
AcDbEntity
  8
0
100
AcDbLine
 10
320.1999999999999
 20
50.0
 30
0.0
 11
325.7
 21
45.7
 31
0.0
  0
LINE
  5
1A5
330
1E
100
AcDbEntity
  8
0
100
AcDbLine
 10
320.3999999999999
 20
50.4
 30
0.0
 11
326.1
 21
46.1
 31
0.0
  0
LINE
  5
1A6
330
1E
100
AcDbEntity
  8
0
100
AcDbLine
 10
326.1
 20
46.1
 30
0.0
 11
330.3999999999999
 21
40.4
 31
0.0
  0
LINE
  5
1A7
330
1E
100
AcDbEntity
  8
0
100
AcDbLine
 10
46.1
 20
46.1
 30
0.0
 11
50.4
 21
40.4
 31
0.0
  0
LINE
  5
1A8
330
1E
100
AcDbEntity
  8
0
100
AcDbLine
 10
22.5
 20
43.89999999999999
 30
0.0
 11
27.0
 21
44.5
 31
0.0
  0
LINE
  5
1A9
330
1E
100
AcDbEntity
  8
0
100
AcDbLine
 10
22.39999999999999
 20
44.29999999999999
 30
0.0
 11
27.0
 21
45.0
 31
0.0
  0
LINE
  5
1AA
330
1E
100
AcDbEntity
  8
0
100
AcDbLine
 10
18.1
 20
42.6
 30
0.0
 11
22.39999999999999
 21
44.29999999999999
 31
0.0
  0
LINE
  5
1AB
330
1E
100
AcDbEntity
  8
0
100
AcDbLine
 10
14.3
 20
39.7
 30
0.0
 11
18.1
 21
42.6
 31
0.0
  0
LINE
  5
1AC
330
1E
100
AcDbEntity
  8
0
100
AcDbLine
 10
300.1
 20
53.0
 30
0.0
 11
307.0
 21
54.0
 31
0.0
  0
LINE
  5
1AD
330
1E
100
AcDbEntity
  8
0
100
AcDbLine
 10
313.8999999999999
 20
53.0
 30
0.0
 11
320.3999999999999
 21
50.4
 31
0.0
  0
LINE
  5
1AE
330
1E
100
AcDbEntity
  8
0
100
AcDbLine
 10
33.9
 20
53.0
 30
0.0
 11
40.4
 21
50.4
 31
0.0
  0
LINE
  5
1AF
330
1E
100
AcDbEntity
  8
0
100
AcDbLine
 10
20.2
 20
52.5
 30
0.0
 11
27.0
 21
53.5
 31
0.0
  0
LINE
  5
1B0
330
1E
100
AcDbEntity
  8
0
100
AcDbLine
 10
13.8
 20
50.0
 30
0.0
 11
20.2
 21
52.5
 31
0.0
  0
LINE
  5
1B1
330
1E
100
AcDbEntity
  8
0
100
AcDbLine
 10
27.0
 20
53.5
 30
0.0
 11
33.79999999999999
 21
52.5
 31
0.0
  0
LINE
  5
1B2
330
1E
100
AcDbEntity
  8
0
100
AcDbLine
 10
307.0
 20
53.5
 30
0.0
 11
313.8
 21
52.5
 31
0.0
  0
LINE
  5
1B3
330
1E
100
AcDbEntity
  8
0
100
AcDbLine
 10
307.0
 20
54.0
 30
0.0
 11
313.8999999999999
 21
53.0
 31
0.0
  0
LINE
  5
1B4
330
1E
100
AcDbEntity
  8
0
100
AcDbLine
 10
27.0
 20
54.0
 30
0.0
 11
33.9
 21
53.0
 31
0.0
  0
LINE
  5
1B5
330
1E
100
AcDbEntity
  8
0
100
AcDbLine
 10
20.1
 20
53.0
 30
0.0
 11
27.0
 21
54.0
 31
0.0
  0
LINE
  5
1B6
330
1E
100
AcDbEntity
  8
0
100
AcDbLine
 10
13.6
 20
50.4
 30
0.0
 11
20.1
 21
53.0
 31
0.0
  0
LINE
  5
1B7
330
1E
100
AcDbEntity
  8
0
100
AcDbLine
 10
0.99999999999999
 20
33.9
 30
0.0
 11
3.59999999999999
 21
40.4
 31
0.0
  0
LINE
  5
1B8
330
1E
100
AcDbEntity
  8
0
100
AcDbLine
 10
-0.0000000000000101
 20
27.0
 30
0.0
 11
0.99999999999999
 21
33.9
 31
0.0
  0
LINE
  5
1B9
330
1E
100
AcDbEntity
  8
0
100
AcDbLine
 10
-0.0000000000000101
 20
27.0
 30
0.0
 11
0.99999999999999
 21
20.1
 31
0.0
  0
LINE
  5
1BA
330
1E
100
AcDbEntity
  8
0
100
AcDbLine
 10
-0.0000000000000101
 20
27.0
 30
0.0
 11
0.99999999999999
 21
20.1
 31
0.0
  0
LINE
  5
1BF
330
1E
100
AcDbEntity
  8
0
100
AcDbLine
 10
307.0
 20
16.0
 30
0.0
 11
309.8
 21
16.39999999999999
 31
0.0
  0
ENDSEC
  0
SECTION
  2
OBJECTS
  0
DICTIONARY
  5
C
330
0
100
AcDbDictionary
  3
ACAD_GROUP
350
D
  3
ACAD_LAYOUT
350
19
  3
ACAD_MLINESTYLE
350
16
  3
ACAD_PLOTSETTINGS
350
18
  3
ACAD_PLOTSTYLENAME
350
E
  3
ACDBHEADERROUNDTRIPXREC
350
1C3
  3
ACDBVARIABLEDICTIONARY
350
1C0
  0
DICTIONARY
  5
1E5
330
1E
100
AcDbDictionary
280
     1
  3
ACAD_LAYOUTSELFREF
360
1E6
  0
DICTIONARY
  5
1E3
330
1A
100
AcDbDictionary
280
     1
  3
ACAD_LAYOUTSELFREF
360
1E4
  0
DICTIONARY
  5
D
102
{ACAD_REACTORS
330
C
102
}
330
C
100
AcDbDictionary
  0
DICTIONARY
  5
19
102
{ACAD_REACTORS
330
C
102
}
330
C
100
AcDbDictionary
  0
DICTIONARY
  5
16
102
{ACAD_REACTORS
330
C
102
}
330
C
100
AcDbDictionary
  3
STANDARD
350
17
  0
DICTIONARY
  5
18
102
{ACAD_REACTORS
330
C
102
}
330
C
100
AcDbDictionary
  0
ACDBDICTIONARYWDFLT
  5
E
102
{ACAD_REACTORS
330
C
102
}
330
C
100
AcDbDictionary
281
     1
  3
Normal
350
F
100
AcDbDictionaryWithDefault
340
F
  0
DICTIONARY
  5
1C3
102
{ACAD_REACTORS
330
C
102
}
330
C
100
AcDbDictionary
  3
CEPSNTYPE
350
1CD
  3
FINGERPRINTGUID
350
1CE
  3
HYPERLINKBASE
350
1C6
  3
INSUNITS
350
1CC
  3
LAYOUTDICT
350
1C8
  3
LWETCUNION
350
1CB
  3
PLOTSETDICT
350
1C9
  3
PLOTSTYLNAMDICT
350
1CA
  3
PSVPSCALE
350
1D0
  3
PUCSBASE
350
1D3
  3
PUCSORGBACK
350
1D9
  3
PUCSORGBOTTOM
350
1D5
  3
PUCSORGFRONT
350
1D8
  3
PUCSORGLEFT
350
1D6
  3
PUCSORGRIGHT
350
1D7
  3
PUCSORGTOP
350
1D4
  3
PUCSORTHOREF
350
1D1
  3
PUCSORTHOVIEW
350
1D2
  3
STYLESHEET
350
1C7
  3
TSTACKALIGN
350
1C4
  3
TSTACKSIZE
350
1C5
  3
UCSBASE
350
1DC
  3
UCSORGBACK
350
1E2
  3
UCSORGBOTTOM
350
1DE
  3
UCSORGFRONT
350
1E1
  3
UCSORGLEFT
350
1DF
  3
UCSORGRIGHT
350
1E0
  3
UCSORGTOP
350
1DD
  3
UCSORTHOREF
350
1DA
  3
UCSORTHOVIEW
350
1DB
  3
VERSIONGUID
350
1CF
  0
DICTIONARY
  5
1C0
102
{ACAD_REACTORS
330
C
102
}
330
C
100
AcDbDictionary
  3
DIMASSOC
350
1C1
  0
XRECORD
  5
1E6
102
{ACAD_REACTORS
330
1E5
102
}
330
1E5
100
AcDbXrecord
340
1E
  0
XRECORD
  5
1E4
102
{ACAD_REACTORS
330
1E3
102
}
330
1E3
100
AcDbXrecord
340
1A
  0
MLINESTYLE
  5
17
102
{ACAD_REACTORS
330
16
102
}
330
16
100
AcDbMlineStyle
  2
STANDARD
 70
     0
  3

 62
   256
 51
90.0
 52
90.0
 71
     2
 49
0.5
 62
   256
  6
BYLAYER
 49
-0.5
 62
   256
  6
BYLAYER
  0
ACDBPLACEHOLDER
  5
F
102
{ACAD_REACTORS
330
E
102
}
330
E
100
AcDbPlaceHolder
280
     0
  0
XRECORD
  5
1CD
102
{ACAD_REACTORS
330
1C3
102
}
330
1C3
100
AcDbXrecord
 90
        0
  0
XRECORD
  5
1CE
102
{ACAD_REACTORS
330
1C3
102
}
330
1C3
100
AcDbXrecord
  1
{FF241165-14A7-4615-B9D5-D46480E87A41}
  0
XRECORD
  5
1C6
102
{ACAD_REACTORS
330
1C3
102
}
330
1C3
100
AcDbXrecord
  1

  0
XRECORD
  5
1CC
102
{ACAD_REACTORS
330
1C3
102
}
330
1C3
100
AcDbXrecord
 90
        0
  0
XRECORD
  5
1C8
102
{ACAD_REACTORS
330
1C3
102
}
330
1C3
100
AcDbXrecord
340
19
  0
XRECORD
  5
1CB
102
{ACAD_REACTORS
330
1C3
102
}
330
1C3
100
AcDbXrecord
 90
    10781
  0
XRECORD
  5
1C9
102
{ACAD_REACTORS
330
1C3
102
}
330
1C3
100
AcDbXrecord
340
18
  0
XRECORD
  5
1CA
102
{ACAD_REACTORS
330
1C3
102
}
330
1C3
100
AcDbXrecord
340
E
  0
XRECORD
  5
1D0
102
{ACAD_REACTORS
330
1C3
102
}
330
1C3
100
AcDbXrecord
 40
0.0
  0
XRECORD
  5
1D3
102
{ACAD_REACTORS
330
1C3
102
}
330
1C3
100
AcDbXrecord
340
0
  0
XRECORD
  5
1D9
102
{ACAD_REACTORS
330
1C3
102
}
330
1C3
100
AcDbXrecord
 10
0.0
 20
0.0
 30
0.0
  0
XRECORD
  5
1D5
102
{ACAD_REACTORS
330
1C3
102
}
330
1C3
100
AcDbXrecord
 10
0.0
 20
0.0
 30
0.0
  0
XRECORD
  5
1D8
102
{ACAD_REACTORS
330
1C3
102
}
330
1C3
100
AcDbXrecord
 10
0.0
 20
0.0
 30
0.0
  0
XRECORD
  5
1D6
102
{ACAD_REACTORS
330
1C3
102
}
330
1C3
100
AcDbXrecord
 10
0.0
 20
0.0
 30
0.0
  0
XRECORD
  5
1D7
102
{ACAD_REACTORS
330
1C3
102
}
330
1C3
100
AcDbXrecord
 10
0.0
 20
0.0
 30
0.0
  0
XRECORD
  5
1D4
102
{ACAD_REACTORS
330
1C3
102
}
330
1C3
100
AcDbXrecord
 10
0.0
 20
0.0
 30
0.0
  0
XRECORD
  5
1D1
102
{ACAD_REACTORS
330
1C3
102
}
330
1C3
100
AcDbXrecord
340
0
  0
XRECORD
  5
1D2
102
{ACAD_REACTORS
330
1C3
102
}
330
1C3
100
AcDbXrecord
 70
     0
  0
XRECORD
  5
1C7
102
{ACAD_REACTORS
330
1C3
102
}
330
1C3
100
AcDbXrecord
  1

  0
XRECORD
  5
1C4
102
{ACAD_REACTORS
330
1C3
102
}
330
1C3
100
AcDbXrecord
 90
        1
  0
XRECORD
  5
1C5
102
{ACAD_REACTORS
330
1C3
102
}
330
1C3
100
AcDbXrecord
 90
       70
  0
XRECORD
  5
1DC
102
{ACAD_REACTORS
330
1C3
102
}
330
1C3
100
AcDbXrecord
340
0
  0
XRECORD
  5
1E2
102
{ACAD_REACTORS
330
1C3
102
}
330
1C3
100
AcDbXrecord
 10
0.0
 20
0.0
 30
0.0
  0
XRECORD
  5
1DE
102
{ACAD_REACTORS
330
1C3
102
}
330
1C3
100
AcDbXrecord
 10
0.0
 20
0.0
 30
0.0
  0
XRECORD
  5
1E1
102
{ACAD_REACTORS
330
1C3
102
}
330
1C3
100
AcDbXrecord
 10
0.0
 20
0.0
 30
0.0
  0
XRECORD
  5
1DF
102
{ACAD_REACTORS
330
1C3
102
}
330
1C3
100
AcDbXrecord
 10
0.0
 20
0.0
 30
0.0
  0
XRECORD
  5
1E0
102
{ACAD_REACTORS
330
1C3
102
}
330
1C3
100
AcDbXrecord
 10
0.0
 20
0.0
 30
0.0
  0
XRECORD
  5
1DD
102
{ACAD_REACTORS
330
1C3
102
}
330
1C3
100
AcDbXrecord
 10
0.0
 20
0.0
 30
0.0
  0
XRECORD
  5
1DA
102
{ACAD_REACTORS
330
1C3
102
}
330
1C3
100
AcDbXrecord
340
0
  0
XRECORD
  5
1DB
102
{ACAD_REACTORS
330
1C3
102
}
330
1C3
100
AcDbXrecord
 70
     1
  0
XRECORD
  5
1CF
102
{ACAD_REACTORS
330
1C3
102
}
330
1C3
100
AcDbXrecord
  1
{1C0583B6-FE9C-4533-A8E6-0BE663E0F8D4}
  0
DICTIONARYVAR
  5
1C1
102
{ACAD_REACTORS
330
1C0
102
}
330
1C0
100
DictionaryVariables
280
     0
  1
1
  0
ENDSEC
  0
EOF
