  0
SECTION
  2
HEADER
  9
$ACADVER
  1
AC1014
  9
$ACADMAINTVER
 70
     9
  9
$DWGCODEPAGE
  3
ANSI_1252
  9
$INSBASE
 10
0.0
 20
0.0
 30
0.0
  9
$EXTMIN
 10
-0.0000000000000058
 20
-0.0000000000000088
 30
0.0
  9
$EXTMAX
 10
191.0
 20
211.0
 30
0.0
  9
$LIMMIN
 10
0.0
 20
0.0
  9
$LIMMAX
 10
12.0
 20
9.0
  9
$ORTHOMODE
 70
     0
  9
$REGENMODE
 70
     1
  9
$FILLMODE
 70
     1
  9
$QTEXTMODE
 70
     0
  9
$MIRRTEXT
 70
     1
  9
$DRAGMODE
 70
     2
  9
$LTSCALE
 40
1.0
  9
$OSMODE
 70
    37
  9
$ATTMODE
 70
     1
  9
$TEXTSIZE
 40
0.2
  9
$TRACEWID
 40
0.05
  9
$TEXTSTYLE
  7
STANDARD
  9
$CLAYER
  8
0
  9
$CELTYPE
  6
CONTINUOUS
  9
$CECOLOR
 62
   256
  9
$CELTSCALE
 40
1.0
  9
$DELOBJ
 70
     1
  9
$DISPSILH
 70
     0
  9
$DIMSCALE
 40
1.0
  9
$DIMASZ
 40
0.18
  9
$DIMEXO
 40
0.0625
  9
$DIMDLI
 40
0.38
  9
$DIMRND
 40
0.0
  9
$DIMDLE
 40
0.0
  9
$DIMEXE
 40
0.18
  9
$DIMTP
 40
0.0
  9
$DIMTM
 40
0.0
  9
$DIMTXT
 40
0.18
  9
$DIMCEN
 40
0.09
  9
$DIMTSZ
 40
0.0
  9
$DIMTOL
 70
     0
  9
$DIMLIM
 70
     0
  9
$DIMTIH
 70
     1
  9
$DIMTOH
 70
     1
  9
$DIMSE1
 70
     0
  9
$DIMSE2
 70
     0
  9
$DIMTAD
 70
     0
  9
$DIMZIN
 70
     0
  9
$DIMBLK
  1

  9
$DIMASO
 70
     1
  9
$DIMSHO
 70
     1
  9
$DIMPOST
  1

  9
$DIMAPOST
  1

  9
$DIMALT
 70
     0
  9
$DIMALTD
 70
     2
  9
$DIMALTF
 40
25.4
  9
$DIMLFAC
 40
1.0
  9
$DIMTOFL
 70
     0
  9
$DIMTVP
 40
0.0
  9
$DIMTIX
 70
     0
  9
$DIMSOXD
 70
     0
  9
$DIMSAH
 70
     0
  9
$DIMBLK1
  1

  9
$DIMBLK2
  1

  9
$DIMSTYLE
  2
STANDARD
  9
$DIMCLRD
 70
     0
  9
$DIMCLRE
 70
     0
  9
$DIMCLRT
 70
     0
  9
$DIMTFAC
 40
1.0
  9
$DIMGAP
 40
0.09
  9
$DIMJUST
 70
     0
  9
$DIMSD1
 70
     0
  9
$DIMSD2
 70
     0
  9
$DIMTOLJ
 70
     1
  9
$DIMTZIN
 70
     0
  9
$DIMALTZ
 70
     0
  9
$DIMALTTZ
 70
     0
  9
$DIMFIT
 70
     3
  9
$DIMUPT
 70
     0
  9
$DIMUNIT
 70
     2
  9
$DIMDEC
 70
     4
  9
$DIMTDEC
 70
     4
  9
$DIMALTU
 70
     2
  9
$DIMALTTD
 70
     2
  9
$DIMTXSTY
  7
STANDARD
  9
$DIMAUNIT
 70
     0
  9
$LUNITS
 70
     2
  9
$LUPREC
 70
     4
  9
$SKETCHINC
 40
0.1
  9
$FILLETRAD
 40
0.0
  9
$AUNITS
 70
     0
  9
$AUPREC
 70
     0
  9
$MENU
  1
.
  9
$ELEVATION
 40
0.0
  9
$PELEVATION
 40
0.0
  9
$THICKNESS
 40
0.0
  9
$LIMCHECK
 70
     0
  9
$BLIPMODE
 70
     0
  9
$CHAMFERA
 40
0.0
  9
$CHAMFERB
 40
0.0
  9
$CHAMFERC
 40
0.0
  9
$CHAMFERD
 40
0.0
  9
$SKPOLY
 70
     0
  9
$TDCREATE
 40
2454690.652273032
  9
$TDUPDATE
 40
2454690.656972106
  9
$TDINDWG
 40
0.0046992593
  9
$TDUSRTIMER
 40
0.0046992593
  9
$USRTIMER
 70
     1
  9
$ANGBASE
 50
0.0
  9
$ANGDIR
 70
     0
  9
$PDMODE
 70
     0
  9
$PDSIZE
 40
0.0
  9
$PLINEWID
 40
0.0
  9
$COORDS
 70
     1
  9
$SPLFRAME
 70
     0
  9
$SPLINETYPE
 70
     6
  9
$SPLINESEGS
 70
     8
  9
$ATTDIA
 70
     0
  9
$ATTREQ
 70
     1
  9
$HANDLING
 70
 22529
  9
$HANDSEED
  5
13A
  9
$SURFTAB1
 70
     6
  9
$SURFTAB2
 70
     6
  9
$SURFTYPE
 70
     6
  9
$SURFU
 70
     6
  9
$SURFV
 70
     6
  9
$UCSNAME
  2

  9
$UCSORG
 10
0.0
 20
0.0
 30
0.0
  9
$UCSXDIR
 10
1.0
 20
0.0
 30
0.0
  9
$UCSYDIR
 10
0.0
 20
1.0
 30
0.0
  9
$PUCSNAME
  2

  9
$PUCSORG
 10
0.0
 20
0.0
 30
0.0
  9
$PUCSXDIR
 10
1.0
 20
0.0
 30
0.0
  9
$PUCSYDIR
 10
0.0
 20
1.0
 30
0.0
  9
$USERI1
 70
     0
  9
$USERI2
 70
     0
  9
$USERI3
 70
     0
  9
$USERI4
 70
     0
  9
$USERI5
 70
     0
  9
$USERR1
 40
0.0
  9
$USERR2
 40
0.0
  9
$USERR3
 40
0.0
  9
$USERR4
 40
0.0
  9
$USERR5
 40
0.0
  9
$WORLDVIEW
 70
     1
  9
$SHADEDGE
 70
     3
  9
$SHADEDIF
 70
    70
  9
$TILEMODE
 70
     1
  9
$MAXACTVP
 70
    64
  9
$PINSBASE
 10
0.0
 20
0.0
 30
0.0
  9
$PLIMCHECK
 70
     0
  9
$PEXTMIN
 10
1.000000000000000E+20
 20
1.000000000000000E+20
 30
1.000000000000000E+20
  9
$PEXTMAX
 10
-1.000000000000000E+20
 20
-1.000000000000000E+20
 30
-1.000000000000000E+20
  9
$PLIMMIN
 10
0.0
 20
0.0
  9
$PLIMMAX
 10
12.0
 20
9.0
  9
$UNITMODE
 70
     0
  9
$VISRETAIN
 70
     1
  9
$PLINEGEN
 70
     0
  9
$PSLTSCALE
 70
     1
  9
$TREEDEPTH
 70
  3020
  9
$PICKSTYLE
 70
     1
  9
$CMLSTYLE
  2
STANDARD
  9
$CMLJUST
 70
     0
  9
$CMLSCALE
 40
1.0
  9
$PROXYGRAPHICS
 70
     1
  9
$MEASUREMENT
 70
     0
  0
ENDSEC
  0
SECTION
  2
CLASSES
  0
CLASS
  1
ACDBDICTIONARYWDFLT
  2
AcDbDictionaryWithDefault
  3
AutoCAD 2000
 90
        0
280
     0
281
     0
  0
CLASS
  1
ACDBPLACEHOLDER
  2
AcDbPlaceHolder
  3
AutoCAD 2000
 90
        0
280
     0
281
     0
  0
CLASS
  1
LAYOUT
  2
AcDbLayout
  3
AutoCAD 2000
 90
        0
280
     0
281
     0
  0
CLASS
  1
DICTIONARYVAR
  2
AcDbDictionaryVar
  3
AutoCAD 2000
 90
        0
280
     0
281
     0
  0
CLASS
  1
LONG_TRANSACTION
  2
AcDbLongTransaction
  3
AutoCAD 2000
 90
        0
280
     0
281
     0
  0
CLASS
  1
LWPOLYLINE
  2
AcDbPolyline
  3
AutoCAD 2000
 90
        0
280
     0
281
     1
  0
CLASS
  1
HATCH
  2
AcDbHatch
  3
AutoCAD 2000
 90
        0
280
     0
281
     1
  0
CLASS
  1
XRECORD
  2
AcDbXrecord
  3
AutoCAD 2000
 90
        0
280
     0
281
     0
  0
ENDSEC
  0
SECTION
  2
TABLES
  0
TABLE
  2
VPORT
  5
8
330
0
100
AcDbSymbolTable
 70
     2
  0
VPORT
  5
115
330
8
100
AcDbSymbolTableRecord
100
AcDbViewportTableRecord
  2
*ACTIVE
 70
     0
 10
0.0
 20
0.0
 11
1.0
 21
1.0
 12
95.5
 22
105.4999999999999
 13
0.0
 23
0.0
 14
1.0
 24
1.0
 15
0.0
 25
0.0
 16
0.0
 26
0.0
 36
1.0
 17
0.0
 27
0.0
 37
0.0
 40
212.618925831202
 41
2.043533930857874
 42
50.0
 43
0.0
 44
0.0
 50
0.0
 51
0.0
 71
     0
 72
   100
 73
     1
 74
     3
 75
     0
 76
     0
 77
     0
 78
     0
  0
ENDTAB
  0
TABLE
  2
LTYPE
  5
5
330
0
100
AcDbSymbolTable
 70
     1
  0
LTYPE
  5
13
330
5
100
AcDbSymbolTableRecord
100
AcDbLinetypeTableRecord
  2
BYBLOCK
 70
     0
  3

 72
    65
 73
     0
 40
0.0
  0
LTYPE
  5
14
330
5
100
AcDbSymbolTableRecord
100
AcDbLinetypeTableRecord
  2
BYLAYER
 70
     0
  3

 72
    65
 73
     0
 40
0.0
  0
LTYPE
  5
15
330
5
100
AcDbSymbolTableRecord
100
AcDbLinetypeTableRecord
  2
CONTINUOUS
 70
     0
  3
Solid line
 72
    65
 73
     0
 40
0.0
  0
ENDTAB
  0
TABLE
  2
LAYER
  5
2
330
0
100
AcDbSymbolTable
 70
     1
  0
LAYER
  5
10
330
2
100
AcDbSymbolTableRecord
100
AcDbLayerTableRecord
  2
0
 70
     0
 62
     7
  6
CONTINUOUS
  0
ENDTAB
  0
TABLE
  2
STYLE
  5
3
330
0
100
AcDbSymbolTable
 70
     1
  0
STYLE
  5
11
330
3
100
AcDbSymbolTableRecord
100
AcDbTextStyleTableRecord
  2
STANDARD
 70
     0
 40
0.0
 41
1.0
 50
0.0
 71
     0
 42
0.2
  3
txt
  4

  0
ENDTAB
  0
TABLE
  2
VIEW
  5
6
330
0
100
AcDbSymbolTable
 70
     0
  0
ENDTAB
  0
TABLE
  2
UCS
  5
7
330
0
100
AcDbSymbolTable
 70
     0
  0
ENDTAB
  0
TABLE
  2
APPID
  5
9
330
0
100
AcDbSymbolTable
 70
     1
  0
APPID
  5
12
330
9
100
AcDbSymbolTableRecord
100
AcDbRegAppTableRecord
  2
ACAD
 70
     0
  0
ENDTAB
  0
TABLE
  2
DIMSTYLE
  5
A
330
0
100
AcDbSymbolTable
 70
     1
  0
DIMSTYLE
105
10F
330
A
100
AcDbSymbolTableRecord
100
AcDbDimStyleTableRecord
  2
STANDARD
 70
     0
  3

  4

  5

  6

  7

 40
1.0
 41
0.18
 42
0.0625
 43
0.38
 44
0.18
 45
0.0
 46
0.0
 47
0.0
 48
0.0
140
0.18
141
0.09
142
0.0
143
25.4
144
1.0
145
0.0
146
1.0
147
0.09
 71
     0
 72
     0
 73
     1
 74
     1
 75
     0
 76
     0
 77
     0
 78
     0
170
     0
171
     2
172
     0
173
     0
174
     0
175
     0
176
     0
177
     0
178
     0
270
     2
271
     4
272
     4
273
     2
274
     2
340
11
275
     0
280
     0
281
     0
282
     0
283
     1
284
     0
285
     0
286
     0
287
     3
288
     0
  0
ENDTAB
  0
TABLE
  2
BLOCK_RECORD
  5
1
330
0
100
AcDbSymbolTable
 70
     0
  0
BLOCK_RECORD
  5
1E
102
{ACAD_XDICTIONARY
360
138
102
}
330
1
100
AcDbSymbolTableRecord
100
AcDbBlockTableRecord
  2
*MODEL_SPACE
  0
BLOCK_RECORD
  5
1A
102
{ACAD_XDICTIONARY
360
136
102
}
330
1
100
AcDbSymbolTableRecord
100
AcDbBlockTableRecord
  2
*PAPER_SPACE
  0
ENDTAB
  0
ENDSEC
  0
SECTION
  2
BLOCKS
  0
BLOCK
  5
1F
330
1E
100
AcDbEntity
  8
0
100
AcDbBlockBegin
  2
*MODEL_SPACE
 70
     0
 10
0.0
 20
0.0
 30
0.0
  3
*MODEL_SPACE
  1

  0
ENDBLK
  5
20
330
1E
100
AcDbEntity
  8
0
100
AcDbBlockEnd
  0
BLOCK
  5
1B
330
1A
100
AcDbEntity
 67
     1
  8
0
100
AcDbBlockBegin
  2
*PAPER_SPACE
 70
     0
 10
0.0
 20
0.0
 30
0.0
  3
*PAPER_SPACE
  1

  0
ENDBLK
  5
1C
330
1A
100
AcDbEntity
 67
     1
  8
0
100
AcDbBlockEnd
  0
ENDSEC
  0
SECTION
  2
ENTITIES
  0
LINE
  5
22
330
1E
100
AcDbEntity
  8
0
100
AcDbLine
 10
59.0
 20
7.29999999999999
 30
0.0
 11
70.8
 21
3.29999999999999
 31
0.0
  0
LINE
  5
23
330
1E
100
AcDbEntity
  8
0
100
AcDbLine
 10
47.81039999999999
 20
12.7802
 30
0.0
 11
59.0
 21
7.29999999999999
 31
0.0
  0
LINE
  5
24
330
1E
100
AcDbEntity
  8
0
100
AcDbLine
 10
64.3335
 20
20.18619999999999
 30
0.0
 11
74.40000000000001
 21
16.8
 31
0.0
  0
LINE
  5
25
330
1E
100
AcDbEntity
  8
0
100
AcDbLine
 10
54.7727
 20
24.8937
 30
0.0
 11
64.3335
 21
20.18619999999999
 31
0.0
  0
LINE
  5
26
330
1E
100
AcDbEntity
  8
0
100
AcDbLine
 10
45.84449999999999
 20
30.8054
 30
0.0
 11
54.7727
 21
24.8937
 31
0.0
  0
LINE
  5
27
330
1E
100
AcDbEntity
  8
0
100
AcDbLine
 10
37.3944
 20
19.6064
 30
0.0
 11
47.81039999999999
 21
12.7802
 31
0.0
  0
LINE
  5
28
330
1E
100
AcDbEntity
  8
0
100
AcDbLine
 10
27.8499
 20
27.9639
 30
0.0
 11
37.3944
 21
19.6064
 31
0.0
  0
LINE
  5
29
330
1E
100
AcDbEntity
  8
0
100
AcDbLine
 10
3.29999999999999
 20
70.8
 30
0.0
 11
7.29999999999999
 21
59.0
 31
0.0
  0
LINE
  5
2A
330
1E
100
AcDbEntity
  8
0
100
AcDbLine
 10
0.7999999999999941
 20
83.0
 30
0.0
 11
3.29999999999999
 21
70.8
 31
0.0
  0
LINE
  5
2B
330
1E
100
AcDbEntity
  8
0
100
AcDbLine
 10
16.8
 20
74.40000000000001
 30
0.0
 11
20.18619999999999
 21
64.3335
 31
0.0
  0
LINE
  5
2C
330
1E
100
AcDbEntity
  8
0
100
AcDbLine
 10
14.69999999999999
 20
84.9
 30
0.0
 11
16.8
 21
74.40000000000001
 31
0.0
  0
LINE
  5
2D
330
1E
100
AcDbEntity
  8
0
100
AcDbLine
 10
14.0
 20
95.5
 30
0.0
 11
14.69999999999999
 21
84.9
 31
0.0
  0
LINE
  5
2E
330
1E
100
AcDbEntity
  8
0
100
AcDbLine
 10
14.0
 20
95.5
 30
0.0
 11
14.69999999999999
 21
106.0999999999999
 31
0.0
  0
LINE
  5
2F
330
1E
100
AcDbEntity
  8
0
100
AcDbLine
 10
7.29999999999999
 20
132.0
 30
0.0
 11
12.7802
 21
143.1899999999999
 31
0.0
  0
LINE
  5
30
330
1E
100
AcDbEntity
  8
0
100
AcDbLine
 10
12.7802
 20
143.1899999999999
 30
0.0
 11
19.6064
 21
153.6059999999999
 31
0.0
  0
LINE
  5
31
330
1E
100
AcDbEntity
  8
0
100
AcDbLine
 10
20.18619999999999
 20
126.6669999999999
 30
0.0
 11
24.8937
 21
136.227
 31
0.0
  0
LINE
  5
32
330
1E
100
AcDbEntity
  8
0
100
AcDbLine
 10
19.6064
 20
153.6059999999999
 30
0.0
 11
27.8499
 21
163.036
 31
0.0
  0
LINE
  5
33
330
1E
100
AcDbEntity
  8
0
100
AcDbLine
 10
16.8
 20
116.5999999999999
 30
0.0
 11
20.18619999999999
 21
126.6669999999999
 31
0.0
  0
LINE
  5
34
330
1E
100
AcDbEntity
  8
0
100
AcDbLine
 10
3.29999999999999
 20
120.1999999999999
 30
0.0
 11
7.29999999999999
 21
132.0
 31
0.0
  0
LINE
  5
35
330
1E
100
AcDbEntity
  8
0
100
AcDbLine
 10
14.69999999999999
 20
106.0999999999999
 30
0.0
 11
16.8
 21
116.5999999999999
 31
0.0
  0
LINE
  5
36
330
1E
100
AcDbEntity
  8
0
100
AcDbLine
 10
0.7999999999999941
 20
108.0
 30
0.0
 11
3.29999999999999
 21
120.1999999999999
 31
0.0
  0
LINE
  5
37
330
1E
100
AcDbEntity
  8
0
100
AcDbLine
 10
-0.0000000000000058
 20
95.5
 30
0.0
 11
0.7999999999999941
 21
83.0
 31
0.0
  0
LINE
  5
38
330
1E
100
AcDbEntity
  8
0
100
AcDbLine
 10
-0.0000000000000058
 20
95.5
 30
0.0
 11
0.7999999999999941
 21
108.0
 31
0.0
  0
LINE
  5
39
330
1E
100
AcDbEntity
  8
0
100
AcDbLine
 10
24.8937
 20
136.227
 30
0.0
 11
30.8054
 21
145.156
 31
0.0
  0
LINE
  5
3A
330
1E
100
AcDbEntity
  8
0
100
AcDbLine
 10
20.18619999999999
 20
64.3335
 30
0.0
 11
24.8937
 21
54.7727
 31
0.0
  0
LINE
  5
3B
330
1E
100
AcDbEntity
  8
0
100
AcDbLine
 10
7.29999999999999
 20
59.0
 30
0.0
 11
12.7802
 21
47.81039999999999
 31
0.0
  0
LINE
  5
3C
330
1E
100
AcDbEntity
  8
0
100
AcDbLine
 10
30.8054
 20
145.156
 30
0.0
 11
37.7805
 21
153.168
 31
0.0
  0
LINE
  5
3D
330
1E
100
AcDbEntity
  8
0
100
AcDbLine
 10
27.8499
 20
163.036
 30
0.0
 11
37.3944
 21
171.394
 31
0.0
  0
LINE
  5
3E
330
1E
100
AcDbEntity
  8
0
100
AcDbLine
 10
24.8937
 20
54.7727
 30
0.0
 11
30.8054
 21
45.84449999999999
 31
0.0
  0
LINE
  5
3F
330
1E
100
AcDbEntity
  8
0
100
AcDbLine
 10
12.7802
 20
47.81039999999999
 30
0.0
 11
19.6064
 21
37.3944
 31
0.0
  0
LINE
  5
40
330
1E
100
AcDbEntity
  8
0
100
AcDbLine
 10
37.3944
 20
171.394
 30
0.0
 11
47.81039999999999
 21
178.22
 31
0.0
  0
LINE
  5
41
330
1E
100
AcDbEntity
  8
0
100
AcDbLine
 10
64.3335
 20
170.814
 30
0.0
 11
74.40000000000001
 21
174.1999999999999
 31
0.0
  0
LINE
  5
42
330
1E
100
AcDbEntity
  8
0
100
AcDbLine
 10
59.0
 20
183.6999999999999
 30
0.0
 11
70.8
 21
187.6999999999999
 31
0.0
  0
LINE
  5
43
330
1E
100
AcDbEntity
  8
0
100
AcDbLine
 10
54.7727
 20
166.1059999999999
 30
0.0
 11
64.3335
 21
170.814
 31
0.0
  0
LINE
  5
44
330
1E
100
AcDbEntity
  8
0
100
AcDbLine
 10
47.81039999999999
 20
178.22
 30
0.0
 11
59.0
 21
183.6999999999999
 31
0.0
  0
LINE
  5
45
330
1E
100
AcDbEntity
  8
0
100
AcDbLine
 10
45.84449999999999
 20
160.1949999999999
 30
0.0
 11
54.7727
 21
166.1059999999999
 31
0.0
  0
LINE
  5
46
330
1E
100
AcDbEntity
  8
0
100
AcDbLine
 10
37.7805
 20
153.168
 30
0.0
 11
45.84449999999999
 21
160.1949999999999
 31
0.0
  0
LINE
  5
47
330
1E
100
AcDbEntity
  8
0
100
AcDbLine
 10
37.7805
 20
37.8322
 30
0.0
 11
45.84449999999999
 21
30.8054
 31
0.0
  0
LINE
  5
48
330
1E
100
AcDbEntity
  8
0
100
AcDbLine
 10
30.8054
 20
45.84449999999999
 30
0.0
 11
37.7805
 21
37.8322
 31
0.0
  0
LINE
  5
49
330
1E
100
AcDbEntity
  8
0
100
AcDbLine
 10
19.6064
 20
37.3944
 30
0.0
 11
27.8499
 21
27.9639
 31
0.0
  0
LINE
  5
4A
330
1E
100
AcDbEntity
  8
0
100
AcDbLine
 10
70.8
 20
3.29999999999999
 30
0.0
 11
83.0
 21
0.799999999999991
 31
0.0
  0
LINE
  5
4B
330
1E
100
AcDbEntity
  8
0
100
AcDbLine
 10
70.8
 20
3.29999999999999
 30
0.0
 11
83.0
 21
0.799999999999991
 31
0.0
  0
LINE
  5
4C
330
1E
100
AcDbEntity
  8
0
100
AcDbLine
 10
71.10352511623429
 20
173.0911872094139
 30
0.0
 11
72.09999999999999
 21
170.5999999999999
 31
0.0
  0
LINE
  5
4D
330
1E
100
AcDbEntity
  8
0
100
AcDbLine
 10
74.40000000000001
 20
16.8
 30
0.0
 11
84.9
 21
14.69999999999999
 31
0.0
  0
LINE
  5
4E
330
1E
100
AcDbEntity
  8
0
100
AcDbLine
 10
76.79999999999999
 20
165.3
 30
0.0
 11
82.3
 21
161.0
 31
0.0
  0
LINE
  5
4F
330
1E
100
AcDbEntity
  8
0
100
AcDbLine
 10
72.5
 20
170.8
 30
0.0
 11
76.79999999999999
 21
165.3
 31
0.0
  0
LINE
  5
50
330
1E
100
AcDbEntity
  8
0
100
AcDbLine
 10
76.4
 20
164.9
 30
0.0
 11
82.09999999999999
 21
160.5999999999999
 31
0.0
  0
LINE
  5
51
330
1E
100
AcDbEntity
  8
0
100
AcDbLine
 10
72.09999999999999
 20
170.5999999999999
 30
0.0
 11
76.4
 21
164.9
 31
0.0
  0
LINE
  5
52
330
1E
100
AcDbEntity
  8
0
100
AcDbLine
 10
70.8
 20
187.6999999999999
 30
0.0
 11
83.0
 21
190.1999999999999
 31
0.0
  0
LINE
  5
53
330
1E
100
AcDbEntity
  8
0
100
AcDbLine
 10
74.40000000000001
 20
174.1999999999999
 30
0.0
 11
84.05868263473051
 21
176.1317365269459
 31
0.0
  0
LINE
  5
54
330
1E
100
AcDbEntity
  8
0
100
AcDbLine
 10
71.54676666127051
 20
173.240277347148
 30
0.0
 11
72.5
 21
170.8
 31
0.0
  0
LINE
  5
55
330
1E
100
AcDbEntity
  8
0
100
AcDbLine
 10
71.10352511623429
 20
173.0911872094139
 30
0.0
 11
72.09999999999999
 21
170.5999999999999
 31
0.0
  0
LINE
  5
56
330
1E
100
AcDbEntity
  8
0
100
AcDbLine
 10
95.5
 20
-0.0000000000000088
 30
0.0
 11
108.0
 21
0.799999999999991
 31
0.0
  0
LINE
  5
57
330
1E
100
AcDbEntity
  8
0
100
AcDbLine
 10
83.0
 20
0.799999999999991
 30
0.0
 11
95.5
 21
-0.0000000000000088
 31
0.0
  0
LINE
  5
58
330
1E
100
AcDbEntity
  8
0
100
AcDbLine
 10
83.0
 20
0.799999999999991
 30
0.0
 11
95.5
 21
-0.0000000000000088
 31
0.0
  0
LINE
  5
59
330
1E
100
AcDbEntity
  8
0
100
AcDbLine
 10
84.9
 20
14.69999999999999
 30
0.0
 11
95.5
 21
14.0
 31
0.0
  0
LINE
  5
5A
330
1E
100
AcDbEntity
  8
0
100
AcDbLine
 10
95.5
 20
14.0
 30
0.0
 11
106.0999999999999
 21
14.69999999999999
 31
0.0
  0
LINE
  5
5B
330
1E
100
AcDbEntity
  8
0
100
AcDbLine
 10
95.5
 20
-0.0000000000000088
 30
0.0
 11
108.0
 21
0.799999999999991
 31
0.0
  0
LINE
  5
5C
330
1E
100
AcDbEntity
  8
0
100
AcDbLine
 10
88.59999999999999
 20
158.0
 30
0.0
 11
95.5
 21
157.0
 31
0.0
  0
LINE
  5
5D
330
1E
100
AcDbEntity
  8
0
100
AcDbLine
 10
95.5
 20
157.5
 30
0.0
 11
102.2999999999999
 21
158.4999999999999
 31
0.0
  0
LINE
  5
5E
330
1E
100
AcDbEntity
  8
0
100
AcDbLine
 10
108.0
 20
0.799999999999991
 30
0.0
 11
120.1999999999999
 21
3.29999999999999
 31
0.0
  0
LINE
  5
5F
330
1E
100
AcDbEntity
  8
0
100
AcDbLine
 10
106.0999999999999
 20
14.69999999999999
 30
0.0
 11
116.5999999999999
 21
16.8
 31
0.0
  0
LINE
  5
60
330
1E
100
AcDbEntity
  8
0
100
AcDbLine
 10
108.0
 20
0.799999999999991
 30
0.0
 11
120.1999999999999
 21
3.29999999999999
 31
0.0
  0
LINE
  5
61
330
1E
100
AcDbEntity
  8
0
100
AcDbLine
 10
95.5
 20
157.0
 30
0.0
 11
102.4
 21
158.0
 31
0.0
  0
LINE
  5
62
330
1E
100
AcDbEntity
  8
0
100
AcDbLine
 10
88.7
 20
158.4999999999999
 30
0.0
 11
95.5
 21
157.5
 31
0.0
  0
LINE
  5
63
330
1E
100
AcDbEntity
  8
0
100
AcDbLine
 10
82.3
 20
161.0
 30
0.0
 11
88.7
 21
158.4999999999999
 31
0.0
  0
LINE
  5
64
330
1E
100
AcDbEntity
  8
0
100
AcDbLine
 10
82.09999999999999
 20
160.5999999999999
 30
0.0
 11
88.59999999999999
 21
158.0
 31
0.0
  0
LINE
  5
65
330
1E
100
AcDbEntity
  8
0
100
AcDbLine
 10
102.2999999999999
 20
158.4999999999999
 30
0.0
 11
108.6999999999999
 21
161.0
 31
0.0
  0
LINE
  5
66
330
1E
100
AcDbEntity
  8
0
100
AcDbLine
 10
108.6999999999999
 20
161.0
 30
0.0
 11
114.2
 21
165.3
 31
0.0
  0
LINE
  5
67
330
1E
100
AcDbEntity
  8
0
100
AcDbLine
 10
102.4
 20
158.0
 30
0.0
 11
108.9
 21
160.5999999999999
 31
0.0
  0
LINE
  5
68
330
1E
100
AcDbEntity
  8
0
100
AcDbLine
 10
116.5999999999999
 20
16.8
 30
0.0
 11
126.6669999999999
 21
20.18619999999999
 31
0.0
  0
LINE
  5
69
330
1E
100
AcDbEntity
  8
0
100
AcDbLine
 10
108.9
 20
160.5999999999999
 30
0.0
 11
114.5999999999999
 21
164.9
 31
0.0
  0
LINE
  5
6A
330
1E
100
AcDbEntity
  8
0
100
AcDbLine
 10
90.90000000000001
 20
166.6999999999999
 30
0.0
 11
95.5
 21
166.0
 31
0.0
  0
LINE
  5
6B
330
1E
100
AcDbEntity
  8
0
100
AcDbLine
 10
95.5
 20
166.5
 30
0.0
 11
100.0
 21
167.1
 31
0.0
  0
LINE
  5
6C
330
1E
100
AcDbEntity
  8
0
100
AcDbLine
 10
95.5
 20
166.0
 30
0.0
 11
100.0999999999999
 21
166.6999999999999
 31
0.0
  0
LINE
  5
6D
330
1E
100
AcDbEntity
  8
0
100
AcDbLine
 10
91.0
 20
167.1
 30
0.0
 11
95.5
 21
166.5
 31
0.0
  0
LINE
  5
6E
330
1E
100
AcDbEntity
  8
0
100
AcDbLine
 10
95.5
 20
170.0
 30
0.0
 11
99.1
 21
170.5
 31
0.0
  0
LINE
  5
6F
330
1E
100
AcDbEntity
  8
0
100
AcDbLine
 10
95.5
 20
170.0
 30
0.0
 11
99.1
 21
170.5
 31
0.0
  0
LINE
  5
70
330
1E
100
AcDbEntity
  8
0
100
AcDbLine
 10
99.1
 20
170.5
 30
0.0
 11
102.4999999999999
 21
171.9
 31
0.0
  0
LINE
  5
71
330
1E
100
AcDbEntity
  8
0
100
AcDbLine
 10
95.5
 20
171.0
 30
0.0
 11
98.9
 21
171.5
 31
0.0
  0
LINE
  5
72
330
1E
100
AcDbEntity
  8
0
100
AcDbLine
 10
99.1
 20
170.5
 30
0.0
 11
102.4999999999999
 21
171.9
 31
0.0
  0
LINE
  5
73
330
1E
100
AcDbEntity
  8
0
100
AcDbLine
 10
91.90000000000001
 20
170.5
 30
0.0
 11
95.5
 21
170.0
 31
0.0
  0
LINE
  5
74
330
1E
100
AcDbEntity
  8
0
100
AcDbLine
 10
91.90000000000001
 20
170.5
 30
0.0
 11
95.5
 21
170.0
 31
0.0
  0
LINE
  5
75
330
1E
100
AcDbEntity
  8
0
100
AcDbLine
 10
86.79999999999999
 20
168.8
 30
0.0
 11
91.0
 21
167.1
 31
0.0
  0
LINE
  5
76
330
1E
100
AcDbEntity
  8
0
100
AcDbLine
 10
86.6
 20
168.4
 30
0.0
 11
90.90000000000001
 21
166.6999999999999
 31
0.0
  0
LINE
  5
77
330
1E
100
AcDbEntity
  8
0
100
AcDbLine
 10
82.79999999999999
 20
171.3
 30
0.0
 11
86.6
 21
168.4
 31
0.0
  0
LINE
  5
78
330
1E
100
AcDbEntity
  8
0
100
AcDbLine
 10
100.0
 20
167.1
 30
0.0
 11
104.2
 21
168.8
 31
0.0
  0
LINE
  5
79
330
1E
100
AcDbEntity
  8
0
100
AcDbLine
 10
104.2
 20
168.8
 30
0.0
 11
107.9
 21
171.6
 31
0.0
  0
LINE
  5
7A
330
1E
100
AcDbEntity
  8
0
100
AcDbLine
 10
100.0999999999999
 20
166.6999999999999
 30
0.0
 11
104.4
 21
168.4
 31
0.0
  0
LINE
  5
7B
330
1E
100
AcDbEntity
  8
0
100
AcDbLine
 10
104.4
 20
168.4
 30
0.0
 11
108.2
 21
171.3
 31
0.0
  0
LINE
  5
7C
330
1E
100
AcDbEntity
  8
0
100
AcDbLine
 10
98.9
 20
171.5
 30
0.0
 11
102.0
 21
172.6999999999999
 31
0.0
  0
LINE
  5
7D
330
1E
100
AcDbEntity
  8
0
100
AcDbLine
 10
92.09999999999999
 20
171.5
 30
0.0
 11
95.5
 21
171.0
 31
0.0
  0
LINE
  5
7E
330
1E
100
AcDbEntity
  8
0
100
AcDbLine
 10
83.1
 20
171.6
 30
0.0
 11
86.79999999999999
 21
168.8
 31
0.0
  0
LINE
  5
7F
330
1E
100
AcDbEntity
  8
0
100
AcDbLine
 10
102.4999999999999
 20
171.9
 30
0.0
 11
105.4
 21
174.0999999999999
 31
0.0
  0
LINE
  5
80
330
1E
100
AcDbEntity
  8
0
100
AcDbLine
 10
102.0
 20
172.6999999999999
 30
0.0
 11
104.7
 21
174.8
 31
0.0
  0
LINE
  5
81
330
1E
100
AcDbEntity
  8
0
100
AcDbLine
 10
104.7
 20
174.8
 30
0.0
 11
106.8
 21
177.5
 31
0.0
  0
LINE
  5
82
330
1E
100
AcDbEntity
  8
0
100
AcDbLine
 10
105.4
 20
174.0999999999999
 30
0.0
 11
107.6
 21
177.0
 31
0.0
  0
LINE
  5
83
330
1E
100
AcDbEntity
  8
0
100
AcDbLine
 10
89.0
 20
172.6999999999999
 30
0.0
 11
92.09999999999999
 21
171.5
 31
0.0
  0
LINE
  5
84
330
1E
100
AcDbEntity
  8
0
100
AcDbLine
 10
86.3
 20
174.8
 30
0.0
 11
89.0
 21
172.6999999999999
 31
0.0
  0
LINE
  5
85
330
1E
100
AcDbEntity
  8
0
100
AcDbLine
 10
88.49999999999999
 20
171.9
 30
0.0
 11
91.90000000000001
 21
170.5
 31
0.0
  0
LINE
  5
86
330
1E
100
AcDbEntity
  8
0
100
AcDbLine
 10
88.49999999999999
 20
171.9
 30
0.0
 11
91.90000000000001
 21
170.5
 31
0.0
  0
LINE
  5
87
330
1E
100
AcDbEntity
  8
0
100
AcDbLine
 10
85.6
 20
174.0999999999999
 30
0.0
 11
88.49999999999999
 21
171.9
 31
0.0
  0
LINE
  5
88
330
1E
100
AcDbEntity
  8
0
100
AcDbLine
 10
106.9413173652689
 20
176.1317365269459
 30
0.0
 11
116.5999999999999
 21
174.1999999999999
 31
0.0
  0
LINE
  5
89
330
1E
100
AcDbEntity
  8
0
100
AcDbLine
 10
106.8
 20
177.5
 30
0.0
 11
108.0
 21
180.6
 31
0.0
  0
LINE
  5
8A
330
1E
100
AcDbEntity
  8
0
100
AcDbLine
 10
107.6
 20
177.0
 30
0.0
 11
109.0
 21
180.4
 31
0.0
  0
LINE
  5
8B
330
1E
100
AcDbEntity
  8
0
100
AcDbLine
 10
109.0
 20
180.4
 30
0.0
 11
109.4999999999999
 21
184.0
 31
0.0
  0
LINE
  5
8C
330
1E
100
AcDbEntity
  8
0
100
AcDbLine
 10
84.19999999999999
 20
177.5
 30
0.0
 11
86.3
 21
174.8
 31
0.0
  0
LINE
  5
8D
330
1E
100
AcDbEntity
  8
0
100
AcDbLine
 10
84.05868263473051
 20
176.1317365269459
 30
0.0
 11
85.6
 21
174.0999999999999
 31
0.0
  0
LINE
  5
8E
330
1E
100
AcDbEntity
  8
0
100
AcDbLine
 10
83.40000000000001
 20
177.0
 30
0.0
 11
85.6
 21
174.0999999999999
 31
0.0
  0
LINE
  5
8F
330
1E
100
AcDbEntity
  8
0
100
AcDbLine
 10
82.0
 20
187.5999999999999
 30
0.0
 11
83.40000000000001
 21
191.0
 31
0.0
  0
LINE
  5
90
330
1E
100
AcDbEntity
  8
0
100
AcDbLine
 10
108.0
 20
180.6
 30
0.0
 11
108.4999999999999
 21
184.0
 31
0.0
  0
LINE
  5
91
330
1E
100
AcDbEntity
  8
0
100
AcDbLine
 10
83.0
 20
187.4
 30
0.0
 11
84.19999999999999
 21
190.5
 31
0.0
  0
LINE
  5
92
330
1E
100
AcDbEntity
  8
0
100
AcDbLine
 10
108.0
 20
187.4
 30
0.0
 11
108.4999999999999
 21
184.0
 31
0.0
  0
LINE
  5
93
330
1E
100
AcDbEntity
  8
0
100
AcDbLine
 10
109.0
 20
187.5999999999999
 30
0.0
 11
109.4999999999999
 21
184.0
 31
0.0
  0
LINE
  5
94
330
1E
100
AcDbEntity
  8
0
100
AcDbLine
 10
83.0
 20
180.6
 30
0.0
 11
84.19999999999999
 21
177.5
 31
0.0
  0
LINE
  5
95
330
1E
100
AcDbEntity
  8
0
100
AcDbLine
 10
82.5
 20
184.0
 30
0.0
 11
83.0
 21
180.6
 31
0.0
  0
LINE
  5
96
330
1E
100
AcDbEntity
  8
0
100
AcDbLine
 10
82.5
 20
184.0
 30
0.0
 11
83.0
 21
187.4
 31
0.0
  0
LINE
  5
97
330
1E
100
AcDbEntity
  8
0
100
AcDbLine
 10
82.0
 20
180.4
 30
0.0
 11
83.40000000000001
 21
177.0
 31
0.0
  0
LINE
  5
98
330
1E
100
AcDbEntity
  8
0
100
AcDbLine
 10
81.5
 20
184.0
 30
0.0
 11
82.0
 21
180.4
 31
0.0
  0
LINE
  5
99
330
1E
100
AcDbEntity
  8
0
100
AcDbLine
 10
81.5
 20
184.0
 30
0.0
 11
82.0
 21
187.5999999999999
 31
0.0
  0
LINE
  5
9A
330
1E
100
AcDbEntity
  8
0
100
AcDbLine
 10
80.29999999999999
 20
175.3
 30
0.0
 11
83.1
 21
171.6
 31
0.0
  0
LINE
  5
9B
330
1E
100
AcDbEntity
  8
0
100
AcDbLine
 10
80.27004405286341
 20
175.374008810573
 30
0.0
 11
80.29999999999999
 21
175.3
 31
0.0
  0
LINE
  5
9C
330
1E
100
AcDbEntity
  8
0
100
AcDbLine
 10
79.90000000000001
 20
175.0999999999999
 30
0.0
 11
82.79999999999999
 21
171.3
 31
0.0
  0
LINE
  5
9D
330
1E
100
AcDbEntity
  8
0
100
AcDbLine
 10
79.82672413793101
 20
175.2853448275859
 30
0.0
 11
79.90000000000001
 21
175.0999999999999
 31
0.0
  0
LINE
  5
9E
330
1E
100
AcDbEntity
  8
0
100
AcDbLine
 10
107.9
 20
171.6
 30
0.0
 11
110.6999999999999
 21
175.3
 31
0.0
  0
LINE
  5
9F
330
1E
100
AcDbEntity
  8
0
100
AcDbLine
 10
110.6999999999999
 20
175.3
 30
0.0
 11
110.7299559471369
 21
175.374008810573
 31
0.0
  0
LINE
  5
A0
330
1E
100
AcDbEntity
  8
0
100
AcDbLine
 10
108.2
 20
171.3
 30
0.0
 11
111.0999999999999
 21
175.0999999999999
 31
0.0
  0
LINE
  5
A1
330
1E
100
AcDbEntity
  8
0
100
AcDbLine
 10
116.5999999999999
 20
174.1999999999999
 30
0.0
 11
126.6669999999999
 21
170.814
 31
0.0
  0
LINE
  5
A2
330
1E
100
AcDbEntity
  8
0
100
AcDbLine
 10
111.0999999999999
 20
175.0999999999999
 30
0.0
 11
111.1732758620689
 21
175.2853448275859
 31
0.0
  0
LINE
  5
A3
330
1E
100
AcDbEntity
  8
0
100
AcDbLine
 10
114.2
 20
165.3
 30
0.0
 11
118.5
 21
170.8
 31
0.0
  0
LINE
  5
A4
330
1E
100
AcDbEntity
  8
0
100
AcDbLine
 10
118.5
 20
170.8
 30
0.0
 11
119.453249796279
 21
173.240319478474
 31
0.0
  0
LINE
  5
A5
330
1E
100
AcDbEntity
  8
0
100
AcDbLine
 10
114.5999999999999
 20
164.9
 30
0.0
 11
118.9
 21
170.5999999999999
 31
0.0
  0
LINE
  5
A6
330
1E
100
AcDbEntity
  8
0
100
AcDbLine
 10
120.1999999999999
 20
3.29999999999999
 30
0.0
 11
132.0
 21
7.29999999999999
 31
0.0
  0
LINE
  5
A7
330
1E
100
AcDbEntity
  8
0
100
AcDbLine
 10
126.6669999999999
 20
20.18619999999999
 30
0.0
 11
136.227
 21
24.8937
 31
0.0
  0
LINE
  5
A8
330
1E
100
AcDbEntity
  8
0
100
AcDbLine
 10
132.0
 20
7.29999999999999
 30
0.0
 11
143.1899999999999
 21
12.7802
 31
0.0
  0
LINE
  5
A9
330
1E
100
AcDbEntity
  8
0
100
AcDbLine
 10
136.227
 20
24.8937
 30
0.0
 11
145.156
 21
30.8054
 31
0.0
  0
LINE
  5
AA
330
1E
100
AcDbEntity
  8
0
100
AcDbLine
 10
143.1899999999999
 20
12.7802
 30
0.0
 11
153.6059999999999
 21
19.6064
 31
0.0
  0
LINE
  5
AB
330
1E
100
AcDbEntity
  8
0
100
AcDbLine
 10
145.156
 20
30.8054
 30
0.0
 11
153.2189999999999
 21
37.8322
 31
0.0
  0
LINE
  5
AC
330
1E
100
AcDbEntity
  8
0
100
AcDbLine
 10
153.6059999999999
 20
19.6064
 30
0.0
 11
163.15
 21
27.9639
 31
0.0
  0
LINE
  5
AD
330
1E
100
AcDbEntity
  8
0
100
AcDbLine
 10
160.1949999999999
 20
45.84449999999999
 30
0.0
 11
166.1059999999999
 21
54.7727
 31
0.0
  0
LINE
  5
AE
330
1E
100
AcDbEntity
  8
0
100
AcDbLine
 10
153.2189999999999
 20
37.8322
 30
0.0
 11
160.1949999999999
 21
45.84449999999999
 31
0.0
  0
LINE
  5
AF
330
1E
100
AcDbEntity
  8
0
100
AcDbLine
 10
166.1059999999999
 20
54.7727
 30
0.0
 11
170.814
 21
64.3335
 31
0.0
  0
LINE
  5
B0
330
1E
100
AcDbEntity
  8
0
100
AcDbLine
 10
178.22
 20
47.81039999999999
 30
0.0
 11
183.6999999999999
 21
59.0
 31
0.0
  0
LINE
  5
B1
330
1E
100
AcDbEntity
  8
0
100
AcDbLine
 10
171.394
 20
37.3944
 30
0.0
 11
178.22
 21
47.81039999999999
 31
0.0
  0
LINE
  5
B2
330
1E
100
AcDbEntity
  8
0
100
AcDbLine
 10
163.15
 20
27.9639
 30
0.0
 11
171.394
 21
37.3944
 31
0.0
  0
LINE
  5
B3
330
1E
100
AcDbEntity
  8
0
100
AcDbLine
 10
170.814
 20
64.3335
 30
0.0
 11
174.1999999999999
 21
74.40000000000001
 31
0.0
  0
LINE
  5
B4
330
1E
100
AcDbEntity
  8
0
100
AcDbLine
 10
183.6999999999999
 20
59.0
 30
0.0
 11
187.6999999999999
 21
70.8
 31
0.0
  0
LINE
  5
B5
330
1E
100
AcDbEntity
  8
0
100
AcDbLine
 10
174.1999999999999
 20
74.40000000000001
 30
0.0
 11
176.3
 21
84.9
 31
0.0
  0
LINE
  5
B6
330
1E
100
AcDbEntity
  8
0
100
AcDbLine
 10
187.6999999999999
 20
70.8
 30
0.0
 11
190.1999999999999
 21
83.0
 31
0.0
  0
LINE
  5
B7
330
1E
100
AcDbEntity
  8
0
100
AcDbLine
 10
145.156
 20
160.1949999999999
 30
0.0
 11
153.2189999999999
 21
153.168
 31
0.0
  0
LINE
  5
B8
330
1E
100
AcDbEntity
  8
0
100
AcDbLine
 10
170.814
 20
126.6669999999999
 30
0.0
 11
174.1999999999999
 21
116.5999999999999
 31
0.0
  0
LINE
  5
B9
330
1E
100
AcDbEntity
  8
0
100
AcDbLine
 10
174.1999999999999
 20
116.5999999999999
 30
0.0
 11
176.3
 21
106.0999999999999
 31
0.0
  0
LINE
  5
BA
330
1E
100
AcDbEntity
  8
0
100
AcDbLine
 10
176.3
 20
106.0999999999999
 30
0.0
 11
177.0
 21
95.5
 31
0.0
  0
LINE
  5
BB
330
1E
100
AcDbEntity
  8
0
100
AcDbLine
 10
166.1059999999999
 20
136.227
 30
0.0
 11
170.814
 21
126.6669999999999
 31
0.0
  0
LINE
  5
BC
330
1E
100
AcDbEntity
  8
0
100
AcDbLine
 10
160.1949999999999
 20
145.156
 30
0.0
 11
166.1059999999999
 21
136.227
 31
0.0
  0
LINE
  5
BD
330
1E
100
AcDbEntity
  8
0
100
AcDbLine
 10
171.394
 20
153.6059999999999
 30
0.0
 11
178.22
 21
143.1899999999999
 31
0.0
  0
LINE
  5
BE
330
1E
100
AcDbEntity
  8
0
100
AcDbLine
 10
153.2189999999999
 20
153.168
 30
0.0
 11
160.1949999999999
 21
145.156
 31
0.0
  0
LINE
  5
BF
330
1E
100
AcDbEntity
  8
0
100
AcDbLine
 10
126.6669999999999
 20
170.814
 30
0.0
 11
136.227
 21
166.1059999999999
 31
0.0
  0
LINE
  5
C0
330
1E
100
AcDbEntity
  8
0
100
AcDbLine
 10
136.227
 20
166.1059999999999
 30
0.0
 11
145.156
 21
160.1949999999999
 31
0.0
  0
LINE
  5
C1
330
1E
100
AcDbEntity
  8
0
100
AcDbLine
 10
132.0
 20
183.6999999999999
 30
0.0
 11
143.1899999999999
 21
178.22
 31
0.0
  0
LINE
  5
C2
330
1E
100
AcDbEntity
  8
0
100
AcDbLine
 10
143.1899999999999
 20
178.22
 30
0.0
 11
153.6059999999999
 21
171.394
 31
0.0
  0
LINE
  5
C3
330
1E
100
AcDbEntity
  8
0
100
AcDbLine
 10
153.6059999999999
 20
171.394
 30
0.0
 11
163.15
 21
163.036
 31
0.0
  0
LINE
  5
C4
330
1E
100
AcDbEntity
  8
0
100
AcDbLine
 10
120.1999999999999
 20
187.6999999999999
 30
0.0
 11
132.0
 21
183.6999999999999
 31
0.0
  0
LINE
  5
C5
330
1E
100
AcDbEntity
  8
0
100
AcDbLine
 10
163.15
 20
163.036
 30
0.0
 11
171.394
 21
153.6059999999999
 31
0.0
  0
LINE
  5
C6
330
1E
100
AcDbEntity
  8
0
100
AcDbLine
 10
183.6999999999999
 20
132.0
 30
0.0
 11
187.6999999999999
 21
120.1999999999999
 31
0.0
  0
LINE
  5
C7
330
1E
100
AcDbEntity
  8
0
100
AcDbLine
 10
187.6999999999999
 20
120.1999999999999
 30
0.0
 11
190.1999999999999
 21
108.0
 31
0.0
  0
LINE
  5
C8
330
1E
100
AcDbEntity
  8
0
100
AcDbLine
 10
190.1999999999999
 20
108.0
 30
0.0
 11
191.0
 21
95.5
 31
0.0
  0
LINE
  5
C9
330
1E
100
AcDbEntity
  8
0
100
AcDbLine
 10
178.22
 20
143.1899999999999
 30
0.0
 11
183.6999999999999
 21
132.0
 31
0.0
  0
LINE
  5
CA
330
1E
100
AcDbEntity
  8
0
100
AcDbLine
 10
176.3
 20
84.9
 30
0.0
 11
177.0
 21
95.5
 31
0.0
  0
LINE
  5
CB
330
1E
100
AcDbEntity
  8
0
100
AcDbLine
 10
190.1999999999999
 20
83.0
 30
0.0
 11
191.0
 21
95.5
 31
0.0
  0
LINE
  5
CC
330
1E
100
AcDbEntity
  8
0
100
AcDbLine
 10
118.9
 20
170.5999999999999
 30
0.0
 11
119.8964943001729
 21
173.091235750433
 31
0.0
  0
LINE
  5
CD
330
1E
100
AcDbEntity
  8
0
100
AcDbLine
 10
83.0
 20
190.1999999999999
 30
0.0
 11
83.07249879168679
 21
190.204639922668
 31
0.0
  0
LINE
  5
CE
330
1E
100
AcDbEntity
  8
0
100
AcDbLine
 10
108.0
 20
190.1999999999999
 30
0.0
 11
120.1999999999999
 21
187.6999999999999
 31
0.0
  0
LINE
  5
CF
330
1E
100
AcDbEntity
  8
0
100
AcDbLine
 10
107.927501208313
 20
190.204639922668
 30
0.0
 11
108.0
 21
190.1999999999999
 31
0.0
  0
LINE
  5
D0
330
1E
100
AcDbEntity
  8
0
100
AcDbLine
 10
84.19999999999999
 20
190.5
 30
0.0
 11
86.3
 21
193.2
 31
0.0
  0
LINE
  5
D1
330
1E
100
AcDbEntity
  8
0
100
AcDbLine
 10
83.07249879168679
 20
190.204639922668
 30
0.0
 11
83.40000000000001
 21
191.0
 31
0.0
  0
LINE
  5
D2
330
1E
100
AcDbEntity
  8
0
100
AcDbLine
 10
106.8
 20
190.5
 30
0.0
 11
108.0
 21
187.4
 31
0.0
  0
LINE
  5
D3
330
1E
100
AcDbEntity
  8
0
100
AcDbLine
 10
121.0
 20
190.8
 30
0.0
 11
121.521773347324
 21
187.2519412381949
 31
0.0
  0
LINE
  5
D4
330
1E
100
AcDbEntity
  8
0
100
AcDbLine
 10
78.9523728452862
 20
189.370568206001
 30
0.0
 11
80.29999999999999
 21
192.6999999999999
 31
0.0
  0
LINE
  5
D5
330
1E
100
AcDbEntity
  8
0
100
AcDbLine
 10
78.4651732005808
 20
189.270732213234
 30
0.0
 11
79.90000000000001
 21
192.9
 31
0.0
  0
LINE
  5
D6
330
1E
100
AcDbEntity
  8
0
100
AcDbLine
 10
121.5
 20
190.8999999999999
 30
0.0
 11
122.054895375872
 21
187.071221906484
 31
0.0
  0
LINE
  5
D7
330
1E
100
AcDbEntity
  8
0
100
AcDbLine
 10
70.0
 20
190.8
 30
0.0
 11
72.5
 21
197.1999999999999
 31
0.0
  0
LINE
  5
D8
330
1E
100
AcDbEntity
  8
0
100
AcDbLine
 10
69.4782266526758
 20
187.2519412381949
 30
0.0
 11
70.0
 21
190.8
 31
0.0
  0
LINE
  5
D9
330
1E
100
AcDbEntity
  8
0
100
AcDbLine
 10
72.5
 20
197.1999999999999
 30
0.0
 11
76.79999999999999
 21
202.7
 31
0.0
  0
LINE
  5
DA
330
1E
100
AcDbEntity
  8
0
100
AcDbLine
 10
80.29999999999999
 20
192.6999999999999
 30
0.0
 11
83.1
 21
196.4
 31
0.0
  0
LINE
  5
DB
330
1E
100
AcDbEntity
  8
0
100
AcDbLine
 10
79.90000000000001
 20
192.9
 30
0.0
 11
82.79999999999999
 21
196.6999999999999
 31
0.0
  0
LINE
  5
DC
330
1E
100
AcDbEntity
  8
0
100
AcDbLine
 10
86.3
 20
193.2
 30
0.0
 11
89.0
 21
195.3
 31
0.0
  0
LINE
  5
DD
330
1E
100
AcDbEntity
  8
0
100
AcDbLine
 10
85.6
 20
193.9
 30
0.0
 11
88.49999999999999
 21
196.1
 31
0.0
  0
LINE
  5
DE
330
1E
100
AcDbEntity
  8
0
100
AcDbLine
 10
83.40000000000001
 20
191.0
 30
0.0
 11
85.6
 21
193.9
 31
0.0
  0
LINE
  5
DF
330
1E
100
AcDbEntity
  8
0
100
AcDbLine
 10
104.7
 20
193.2
 30
0.0
 11
106.8
 21
190.5
 31
0.0
  0
LINE
  5
E0
330
1E
100
AcDbEntity
  8
0
100
AcDbLine
 10
89.0
 20
195.3
 30
0.0
 11
92.09999999999999
 21
196.5
 31
0.0
  0
LINE
  5
E1
330
1E
100
AcDbEntity
  8
0
100
AcDbLine
 10
88.49999999999999
 20
196.1
 30
0.0
 11
91.90000000000001
 21
197.5
 31
0.0
  0
LINE
  5
E2
330
1E
100
AcDbEntity
  8
0
100
AcDbLine
 10
102.0
 20
195.3
 30
0.0
 11
104.7
 21
193.2
 31
0.0
  0
LINE
  5
E3
330
1E
100
AcDbEntity
  8
0
100
AcDbLine
 10
102.4999999999999
 20
196.1
 30
0.0
 11
105.4
 21
193.9
 31
0.0
  0
LINE
  5
E4
330
1E
100
AcDbEntity
  8
0
100
AcDbLine
 10
105.4
 20
193.9
 30
0.0
 11
107.6
 21
191.0
 31
0.0
  0
LINE
  5
E5
330
1E
100
AcDbEntity
  8
0
100
AcDbLine
 10
107.6
 20
191.0
 30
0.0
 11
109.0
 21
187.5999999999999
 31
0.0
  0
LINE
  5
E6
330
1E
100
AcDbEntity
  8
0
100
AcDbLine
 10
92.09999999999999
 20
196.5
 30
0.0
 11
95.5
 21
197.0
 31
0.0
  0
LINE
  5
E7
330
1E
100
AcDbEntity
  8
0
100
AcDbLine
 10
98.9
 20
196.5
 30
0.0
 11
102.0
 21
195.3
 31
0.0
  0
LINE
  5
E8
330
1E
100
AcDbEntity
  8
0
100
AcDbLine
 10
107.9
 20
196.4
 30
0.0
 11
110.6999999999999
 21
192.6999999999999
 31
0.0
  0
LINE
  5
E9
330
1E
100
AcDbEntity
  8
0
100
AcDbLine
 10
110.6999999999999
 20
192.6999999999999
 30
0.0
 11
112.0476271547139
 21
189.370568206001
 31
0.0
  0
LINE
  5
EA
330
1E
100
AcDbEntity
  8
0
100
AcDbLine
 10
95.5
 20
197.0
 30
0.0
 11
98.9
 21
196.5
 31
0.0
  0
LINE
  5
EB
330
1E
100
AcDbEntity
  8
0
100
AcDbLine
 10
108.2
 20
196.6999999999999
 30
0.0
 11
111.0999999999999
 21
192.9
 31
0.0
  0
LINE
  5
EC
330
1E
100
AcDbEntity
  8
0
100
AcDbLine
 10
111.0999999999999
 20
192.9
 30
0.0
 11
112.534826799419
 21
189.270732213234
 31
0.0
  0
LINE
  5
ED
330
1E
100
AcDbEntity
  8
0
100
AcDbLine
 10
91.90000000000001
 20
197.5
 30
0.0
 11
95.5
 21
198.0
 31
0.0
  0
LINE
  5
EE
330
1E
100
AcDbEntity
  8
0
100
AcDbLine
 10
95.5
 20
198.0
 30
0.0
 11
99.1
 21
197.5
 31
0.0
  0
LINE
  5
EF
330
1E
100
AcDbEntity
  8
0
100
AcDbLine
 10
99.1
 20
197.5
 30
0.0
 11
102.4999999999999
 21
196.1
 31
0.0
  0
LINE
  5
F0
330
1E
100
AcDbEntity
  8
0
100
AcDbLine
 10
104.2
 20
199.1999999999999
 30
0.0
 11
107.9
 21
196.4
 31
0.0
  0
LINE
  5
F1
330
1E
100
AcDbEntity
  8
0
100
AcDbLine
 10
118.5
 20
197.1999999999999
 30
0.0
 11
121.0
 21
190.8
 31
0.0
  0
LINE
  5
F2
330
1E
100
AcDbEntity
  8
0
100
AcDbLine
 10
118.9
 20
197.4
 30
0.0
 11
121.5
 21
190.8999999999999
 31
0.0
  0
LINE
  5
F3
330
1E
100
AcDbEntity
  8
0
100
AcDbLine
 10
104.4
 20
199.6
 30
0.0
 11
108.2
 21
196.6999999999999
 31
0.0
  0
LINE
  5
F4
330
1E
100
AcDbEntity
  8
0
100
AcDbLine
 10
86.79999999999999
 20
199.1999999999999
 30
0.0
 11
91.0
 21
200.8999999999999
 31
0.0
  0
LINE
  5
F5
330
1E
100
AcDbEntity
  8
0
100
AcDbLine
 10
83.1
 20
196.4
 30
0.0
 11
86.79999999999999
 21
199.1999999999999
 31
0.0
  0
LINE
  5
F6
330
1E
100
AcDbEntity
  8
0
100
AcDbLine
 10
100.0
 20
200.8999999999999
 30
0.0
 11
104.2
 21
199.1999999999999
 31
0.0
  0
LINE
  5
F7
330
1E
100
AcDbEntity
  8
0
100
AcDbLine
 10
95.5
 20
201.5
 30
0.0
 11
100.0
 21
200.8999999999999
 31
0.0
  0
LINE
  5
F8
330
1E
100
AcDbEntity
  8
0
100
AcDbLine
 10
95.5
 20
202.0
 30
0.0
 11
100.0999999999999
 21
201.3
 31
0.0
  0
LINE
  5
F9
330
1E
100
AcDbEntity
  8
0
100
AcDbLine
 10
100.0999999999999
 20
201.3
 30
0.0
 11
104.4
 21
199.6
 31
0.0
  0
LINE
  5
FA
330
1E
100
AcDbEntity
  8
0
100
AcDbLine
 10
114.2
 20
202.7
 30
0.0
 11
118.5
 21
197.1999999999999
 31
0.0
  0
LINE
  5
FB
330
1E
100
AcDbEntity
  8
0
100
AcDbLine
 10
91.0
 20
200.8999999999999
 30
0.0
 11
95.5
 21
201.5
 31
0.0
  0
LINE
  5
FC
330
1E
100
AcDbEntity
  8
0
100
AcDbLine
 10
90.90000000000001
 20
201.3
 30
0.0
 11
95.5
 21
202.0
 31
0.0
  0
LINE
  5
FD
330
1E
100
AcDbEntity
  8
0
100
AcDbLine
 10
86.6
 20
199.6
 30
0.0
 11
90.90000000000001
 21
201.3
 31
0.0
  0
LINE
  5
FE
330
1E
100
AcDbEntity
  8
0
100
AcDbLine
 10
82.79999999999999
 20
196.6999999999999
 30
0.0
 11
86.6
 21
199.6
 31
0.0
  0
LINE
  5
FF
330
1E
100
AcDbEntity
  8
0
100
AcDbLine
 10
108.6999999999999
 20
207.0
 30
0.0
 11
114.2
 21
202.7
 31
0.0
  0
LINE
  5
100
330
1E
100
AcDbEntity
  8
0
100
AcDbLine
 10
108.9
 20
207.4
 30
0.0
 11
114.5999999999999
 21
203.1
 31
0.0
  0
LINE
  5
101
330
1E
100
AcDbEntity
  8
0
100
AcDbLine
 10
114.5999999999999
 20
203.1
 30
0.0
 11
118.9
 21
197.4
 31
0.0
  0
LINE
  5
102
330
1E
100
AcDbEntity
  8
0
100
AcDbLine
 10
82.3
 20
207.0
 30
0.0
 11
88.7
 21
209.5
 31
0.0
  0
LINE
  5
103
330
1E
100
AcDbEntity
  8
0
100
AcDbLine
 10
76.79999999999999
 20
202.7
 30
0.0
 11
82.3
 21
207.0
 31
0.0
  0
LINE
  5
104
330
1E
100
AcDbEntity
  8
0
100
AcDbLine
 10
76.4
 20
203.1
 30
0.0
 11
82.09999999999999
 21
207.4
 31
0.0
  0
LINE
  5
105
330
1E
100
AcDbEntity
  8
0
100
AcDbLine
 10
102.2999999999999
 20
209.5
 30
0.0
 11
108.6999999999999
 21
207.0
 31
0.0
  0
LINE
  5
106
330
1E
100
AcDbEntity
  8
0
100
AcDbLine
 10
95.5
 20
210.4999999999999
 30
0.0
 11
102.2999999999999
 21
209.5
 31
0.0
  0
LINE
  5
107
330
1E
100
AcDbEntity
  8
0
100
AcDbLine
 10
95.5
 20
211.0
 30
0.0
 11
102.4
 21
210.0
 31
0.0
  0
LINE
  5
108
330
1E
100
AcDbEntity
  8
0
100
AcDbLine
 10
102.4
 20
210.0
 30
0.0
 11
108.9
 21
207.4
 31
0.0
  0
LINE
  5
109
330
1E
100
AcDbEntity
  8
0
100
AcDbLine
 10
88.7
 20
209.5
 30
0.0
 11
95.5
 21
210.4999999999999
 31
0.0
  0
LINE
  5
10A
330
1E
100
AcDbEntity
  8
0
100
AcDbLine
 10
88.59999999999999
 20
210.0
 30
0.0
 11
95.5
 21
211.0
 31
0.0
  0
LINE
  5
10B
330
1E
100
AcDbEntity
  8
0
100
AcDbLine
 10
82.09999999999999
 20
207.4
 30
0.0
 11
88.59999999999999
 21
210.0
 31
0.0
  0
LINE
  5
10C
330
1E
100
AcDbEntity
  8
0
100
AcDbLine
 10
72.09999999999999
 20
197.4
 30
0.0
 11
76.4
 21
203.1
 31
0.0
  0
LINE
  5
10D
330
1E
100
AcDbEntity
  8
0
100
AcDbLine
 10
69.5
 20
190.8999999999999
 30
0.0
 11
72.09999999999999
 21
197.4
 31
0.0
  0
LINE
  5
10E
330
1E
100
AcDbEntity
  8
0
100
AcDbLine
 10
68.9451046241281
 20
187.071221906484
 30
0.0
 11
69.5
 21
190.8999999999999
 31
0.0
  0
ENDSEC
  0
SECTION
  2
OBJECTS
  0
DICTIONARY
  5
C
330
0
100
AcDbDictionary
  3
ACAD_GROUP
350
D
  3
ACAD_LAYOUT
350
19
  3
ACAD_MLINESTYLE
350
16
  3
ACAD_PLOTSETTINGS
350
18
  3
ACAD_PLOTSTYLENAME
350
E
  3
ACDBHEADERROUNDTRIPXREC
350
116
  3
ACDBVARIABLEDICTIONARY
350
113
  0
DICTIONARY
  5
138
330
1E
100
AcDbDictionary
280
     1
  3
ACAD_LAYOUTSELFREF
360
139
  0
DICTIONARY
  5
136
330
1A
100
AcDbDictionary
280
     1
  3
ACAD_LAYOUTSELFREF
360
137
  0
DICTIONARY
  5
D
102
{ACAD_REACTORS
330
C
102
}
330
C
100
AcDbDictionary
  0
DICTIONARY
  5
19
102
{ACAD_REACTORS
330
C
102
}
330
C
100
AcDbDictionary
  0
DICTIONARY
  5
16
102
{ACAD_REACTORS
330
C
102
}
330
C
100
AcDbDictionary
  3
STANDARD
350
17
  0
DICTIONARY
  5
18
102
{ACAD_REACTORS
330
C
102
}
330
C
100
AcDbDictionary
  0
ACDBDICTIONARYWDFLT
  5
E
102
{ACAD_REACTORS
330
C
102
}
330
C
100
AcDbDictionary
281
     1
  3
Normal
350
F
100
AcDbDictionaryWithDefault
340
F
  0
DICTIONARY
  5
116
102
{ACAD_REACTORS
330
C
102
}
330
C
100
AcDbDictionary
  3
CEPSNTYPE
350
120
  3
FINGERPRINTGUID
350
121
  3
HYPERLINKBASE
350
119
  3
INSUNITS
350
11F
  3
LAYOUTDICT
350
11B
  3
LWETCUNION
350
11E
  3
PLOTSETDICT
350
11C
  3
PLOTSTYLNAMDICT
350
11D
  3
PSVPSCALE
350
123
  3
PUCSBASE
350
126
  3
PUCSORGBACK
350
12C
  3
PUCSORGBOTTOM
350
128
  3
PUCSORGFRONT
350
12B
  3
PUCSORGLEFT
350
129
  3
PUCSORGRIGHT
350
12A
  3
PUCSORGTOP
350
127
  3
PUCSORTHOREF
350
124
  3
PUCSORTHOVIEW
350
125
  3
STYLESHEET
350
11A
  3
TSTACKALIGN
350
117
  3
TSTACKSIZE
350
118
  3
UCSBASE
350
12F
  3
UCSORGBACK
350
135
  3
UCSORGBOTTOM
350
131
  3
UCSORGFRONT
350
134
  3
UCSORGLEFT
350
132
  3
UCSORGRIGHT
350
133
  3
UCSORGTOP
350
130
  3
UCSORTHOREF
350
12D
  3
UCSORTHOVIEW
350
12E
  3
VERSIONGUID
350
122
  0
DICTIONARY
  5
113
102
{ACAD_REACTORS
330
C
102
}
330
C
100
AcDbDictionary
  3
DIMASSOC
350
114
  0
XRECORD
  5
139
102
{ACAD_REACTORS
330
138
102
}
330
138
100
AcDbXrecord
340
1E
  0
XRECORD
  5
137
102
{ACAD_REACTORS
330
136
102
}
330
136
100
AcDbXrecord
340
1A
  0
MLINESTYLE
  5
17
102
{ACAD_REACTORS
330
16
102
}
330
16
100
AcDbMlineStyle
  2
STANDARD
 70
     0
  3

 62
   256
 51
90.0
 52
90.0
 71
     2
 49
0.5
 62
   256
  6
BYLAYER
 49
-0.5
 62
   256
  6
BYLAYER
  0
ACDBPLACEHOLDER
  5
F
102
{ACAD_REACTORS
330
E
102
}
330
E
100
AcDbPlaceHolder
280
     0
  0
XRECORD
  5
120
102
{ACAD_REACTORS
330
116
102
}
330
116
100
AcDbXrecord
 90
        0
  0
XRECORD
  5
121
102
{ACAD_REACTORS
330
116
102
}
330
116
100
AcDbXrecord
  1
{F766F191-F354-479B-BF15-75E4D1C1C21B}
  0
XRECORD
  5
119
102
{ACAD_REACTORS
330
116
102
}
330
116
100
AcDbXrecord
  1

  0
XRECORD
  5
11F
102
{ACAD_REACTORS
330
116
102
}
330
116
100
AcDbXrecord
 90
        0
  0
XRECORD
  5
11B
102
{ACAD_REACTORS
330
116
102
}
330
116
100
AcDbXrecord
340
19
  0
XRECORD
  5
11E
102
{ACAD_REACTORS
330
116
102
}
330
116
100
AcDbXrecord
 90
    10781
  0
XRECORD
  5
11C
102
{ACAD_REACTORS
330
116
102
}
330
116
100
AcDbXrecord
340
18
  0
XRECORD
  5
11D
102
{ACAD_REACTORS
330
116
102
}
330
116
100
AcDbXrecord
340
E
  0
XRECORD
  5
123
102
{ACAD_REACTORS
330
116
102
}
330
116
100
AcDbXrecord
 40
0.0
  0
XRECORD
  5
126
102
{ACAD_REACTORS
330
116
102
}
330
116
100
AcDbXrecord
340
0
  0
XRECORD
  5
12C
102
{ACAD_REACTORS
330
116
102
}
330
116
100
AcDbXrecord
 10
0.0
 20
0.0
 30
0.0
  0
XRECORD
  5
128
102
{ACAD_REACTORS
330
116
102
}
330
116
100
AcDbXrecord
 10
0.0
 20
0.0
 30
0.0
  0
XRECORD
  5
12B
102
{ACAD_REACTORS
330
116
102
}
330
116
100
AcDbXrecord
 10
0.0
 20
0.0
 30
0.0
  0
XRECORD
  5
129
102
{ACAD_REACTORS
330
116
102
}
330
116
100
AcDbXrecord
 10
0.0
 20
0.0
 30
0.0
  0
XRECORD
  5
12A
102
{ACAD_REACTORS
330
116
102
}
330
116
100
AcDbXrecord
 10
0.0
 20
0.0
 30
0.0
  0
XRECORD
  5
127
102
{ACAD_REACTORS
330
116
102
}
330
116
100
AcDbXrecord
 10
0.0
 20
0.0
 30
0.0
  0
XRECORD
  5
124
102
{ACAD_REACTORS
330
116
102
}
330
116
100
AcDbXrecord
340
0
  0
XRECORD
  5
125
102
{ACAD_REACTORS
330
116
102
}
330
116
100
AcDbXrecord
 70
     0
  0
XRECORD
  5
11A
102
{ACAD_REACTORS
330
116
102
}
330
116
100
AcDbXrecord
  1

  0
XRECORD
  5
117
102
{ACAD_REACTORS
330
116
102
}
330
116
100
AcDbXrecord
 90
        1
  0
XRECORD
  5
118
102
{ACAD_REACTORS
330
116
102
}
330
116
100
AcDbXrecord
 90
       70
  0
XRECORD
  5
12F
102
{ACAD_REACTORS
330
116
102
}
330
116
100
AcDbXrecord
340
0
  0
XRECORD
  5
135
102
{ACAD_REACTORS
330
116
102
}
330
116
100
AcDbXrecord
 10
0.0
 20
0.0
 30
0.0
  0
XRECORD
  5
131
102
{ACAD_REACTORS
330
116
102
}
330
116
100
AcDbXrecord
 10
0.0
 20
0.0
 30
0.0
  0
XRECORD
  5
134
102
{ACAD_REACTORS
330
116
102
}
330
116
100
AcDbXrecord
 10
0.0
 20
0.0
 30
0.0
  0
XRECORD
  5
132
102
{ACAD_REACTORS
330
116
102
}
330
116
100
AcDbXrecord
 10
0.0
 20
0.0
 30
0.0
  0
XRECORD
  5
133
102
{ACAD_REACTORS
330
116
102
}
330
116
100
AcDbXrecord
 10
0.0
 20
0.0
 30
0.0
  0
XRECORD
  5
130
102
{ACAD_REACTORS
330
116
102
}
330
116
100
AcDbXrecord
 10
0.0
 20
0.0
 30
0.0
  0
XRECORD
  5
12D
102
{ACAD_REACTORS
330
116
102
}
330
116
100
AcDbXrecord
340
0
  0
XRECORD
  5
12E
102
{ACAD_REACTORS
330
116
102
}
330
116
100
AcDbXrecord
 70
     1
  0
XRECORD
  5
122
102
{ACAD_REACTORS
330
116
102
}
330
116
100
AcDbXrecord
  1
{C86F060E-8241-465B-B5F7-B4F05F3C144F}
  0
DICTIONARYVAR
  5
114
102
{ACAD_REACTORS
330
113
102
}
330
113
100
DictionaryVariables
280
     0
  1
1
  0
ENDSEC
  0
EOF
