  0
SECTION
  2
HEADER
  9
$ACADVER
  1
AC1015
  9
$ACADMAINTVER
 70
    13
  9
$DWGCODEPAGE
  3
ANSI_1252
  9
$INSBASE
 10
0.0
 20
0.0
 30
0.0
  9
$EXTMIN
 10
0.0
 20
-0.0000000000000061
 30
0.0
  9
$EXTMAX
 10
102.0
 20
109.0
 30
0.0
  9
$LIMMIN
 10
0.0
 20
0.0
  9
$LIMMAX
 10
12.0
 20
9.0
  9
$ORTHOMODE
 70
     0
  9
$REGENMODE
 70
     1
  9
$FILLMODE
 70
     1
  9
$QTEXTMODE
 70
     0
  9
$MIRRTEXT
 70
     1
  9
$LTSCALE
 40
1.0
  9
$ATTMODE
 70
     1
  9
$TEXTSIZE
 40
0.2
  9
$TRACEWID
 40
0.05
  9
$TEXTSTYLE
  7
Standard
  9
$CLAYER
  8
0
  9
$CELTYPE
  6
Continuous
  9
$CECOLOR
 62
   256
  9
$CELTSCALE
 40
1.0
  9
$DISPSILH
 70
     0
  9
$DIMSCALE
 40
1.0
  9
$DIMASZ
 40
0.18
  9
$DIMEXO
 40
0.0625
  9
$DIMDLI
 40
0.38
  9
$DIMRND
 40
0.0
  9
$DIMDLE
 40
0.0
  9
$DIMEXE
 40
0.18
  9
$DIMTP
 40
0.0
  9
$DIMTM
 40
0.0
  9
$DIMTXT
 40
0.18
  9
$DIMCEN
 40
0.09
  9
$DIMTSZ
 40
0.0
  9
$DIMTOL
 70
     0
  9
$DIMLIM
 70
     0
  9
$DIMTIH
 70
     1
  9
$DIMTOH
 70
     1
  9
$DIMSE1
 70
     0
  9
$DIMSE2
 70
     0
  9
$DIMTAD
 70
     0
  9
$DIMZIN
 70
     0
  9
$DIMBLK
  1

  9
$DIMASO
 70
     1
  9
$DIMSHO
 70
     1
  9
$DIMPOST
  1

  9
$DIMAPOST
  1

  9
$DIMALT
 70
     0
  9
$DIMALTD
 70
     2
  9
$DIMALTF
 40
25.4
  9
$DIMLFAC
 40
1.0
  9
$DIMTOFL
 70
     0
  9
$DIMTVP
 40
0.0
  9
$DIMTIX
 70
     0
  9
$DIMSOXD
 70
     0
  9
$DIMSAH
 70
     0
  9
$DIMBLK1
  1

  9
$DIMBLK2
  1

  9
$DIMSTYLE
  2
Standard
  9
$DIMCLRD
 70
     0
  9
$DIMCLRE
 70
     0
  9
$DIMCLRT
 70
     0
  9
$DIMTFAC
 40
1.0
  9
$DIMGAP
 40
0.09
  9
$DIMJUST
 70
     0
  9
$DIMSD1
 70
     0
  9
$DIMSD2
 70
     0
  9
$DIMTOLJ
 70
     1
  9
$DIMTZIN
 70
     0
  9
$DIMALTZ
 70
     0
  9
$DIMALTTZ
 70
     0
  9
$DIMUPT
 70
     0
  9
$DIMDEC
 70
     4
  9
$DIMTDEC
 70
     4
  9
$DIMALTU
 70
     2
  9
$DIMALTTD
 70
     2
  9
$DIMTXSTY
  7
Standard
  9
$DIMAUNIT
 70
     0
  9
$DIMADEC
 70
     0
  9
$DIMALTRND
 40
0.0
  9
$DIMAZIN
 70
     0
  9
$DIMDSEP
 70
    46
  9
$DIMATFIT
 70
     3
  9
$DIMFRAC
 70
     0
  9
$DIMLDRBLK
  1

  9
$DIMLUNIT
 70
     2
  9
$DIMLWD
 70
    -2
  9
$DIMLWE
 70
    -2
  9
$DIMTMOVE
 70
     0
  9
$LUNITS
 70
     2
  9
$LUPREC
 70
     4
  9
$SKETCHINC
 40
0.1
  9
$FILLETRAD
 40
0.0
  9
$AUNITS
 70
     0
  9
$AUPREC
 70
     0
  9
$MENU
  1
.
  9
$ELEVATION
 40
0.0
  9
$PELEVATION
 40
0.0
  9
$THICKNESS
 40
0.0
  9
$LIMCHECK
 70
     0
  9
$CHAMFERA
 40
0.0
  9
$CHAMFERB
 40
0.0
  9
$CHAMFERC
 40
0.0
  9
$CHAMFERD
 40
0.0
  9
$SKPOLY
 70
     0
  9
$TDCREATE
 40
2454636.794955682
  9
$TDUCREATE
 40
2454636.711622349
  9
$TDUPDATE
 40
2454636.796438981
  9
$TDUUPDATE
 40
2454636.713105648
  9
$TDINDWG
 40
0.0014832986
  9
$TDUSRTIMER
 40
0.0014832986
  9
$USRTIMER
 70
     1
  9
$ANGBASE
 50
0.0
  9
$ANGDIR
 70
     0
  9
$PDMODE
 70
     0
  9
$PDSIZE
 40
0.0
  9
$PLINEWID
 40
0.0
  9
$SPLFRAME
 70
     0
  9
$SPLINETYPE
 70
     6
  9
$SPLINESEGS
 70
     8
  9
$HANDSEED
  5
1AB
  9
$SURFTAB1
 70
     6
  9
$SURFTAB2
 70
     6
  9
$SURFTYPE
 70
     6
  9
$SURFU
 70
     6
  9
$SURFV
 70
     6
  9
$UCSBASE
  2

  9
$UCSNAME
  2

  9
$UCSORG
 10
0.0
 20
0.0
 30
0.0
  9
$UCSXDIR
 10
1.0
 20
0.0
 30
0.0
  9
$UCSYDIR
 10
0.0
 20
1.0
 30
0.0
  9
$UCSORTHOREF
  2

  9
$UCSORTHOVIEW
 70
     1
  9
$UCSORGTOP
 10
0.0
 20
0.0
 30
0.0
  9
$UCSORGBOTTOM
 10
0.0
 20
0.0
 30
0.0
  9
$UCSORGLEFT
 10
0.0
 20
0.0
 30
0.0
  9
$UCSORGRIGHT
 10
0.0
 20
0.0
 30
0.0
  9
$UCSORGFRONT
 10
0.0
 20
0.0
 30
0.0
  9
$UCSORGBACK
 10
0.0
 20
0.0
 30
0.0
  9
$PUCSBASE
  2

  9
$PUCSNAME
  2

  9
$PUCSORG
 10
0.0
 20
0.0
 30
0.0
  9
$PUCSXDIR
 10
1.0
 20
0.0
 30
0.0
  9
$PUCSYDIR
 10
0.0
 20
1.0
 30
0.0
  9
$PUCSORTHOREF
  2

  9
$PUCSORTHOVIEW
 70
     0
  9
$PUCSORGTOP
 10
0.0
 20
0.0
 30
0.0
  9
$PUCSORGBOTTOM
 10
0.0
 20
0.0
 30
0.0
  9
$PUCSORGLEFT
 10
0.0
 20
0.0
 30
0.0
  9
$PUCSORGRIGHT
 10
0.0
 20
0.0
 30
0.0
  9
$PUCSORGFRONT
 10
0.0
 20
0.0
 30
0.0
  9
$PUCSORGBACK
 10
0.0
 20
0.0
 30
0.0
  9
$USERI1
 70
     0
  9
$USERI2
 70
     0
  9
$USERI3
 70
     0
  9
$USERI4
 70
     0
  9
$USERI5
 70
     0
  9
$USERR1
 40
0.0
  9
$USERR2
 40
0.0
  9
$USERR3
 40
0.0
  9
$USERR4
 40
0.0
  9
$USERR5
 40
0.0
  9
$WORLDVIEW
 70
     1
  9
$SHADEDGE
 70
     3
  9
$SHADEDIF
 70
    70
  9
$TILEMODE
 70
     1
  9
$MAXACTVP
 70
    64
  9
$PINSBASE
 10
0.0
 20
0.0
 30
0.0
  9
$PLIMCHECK
 70
     0
  9
$PEXTMIN
 10
1.000000000000000E+20
 20
1.000000000000000E+20
 30
1.000000000000000E+20
  9
$PEXTMAX
 10
-1.000000000000000E+20
 20
-1.000000000000000E+20
 30
-1.000000000000000E+20
  9
$PLIMMIN
 10
0.0
 20
0.0
  9
$PLIMMAX
 10
12.0
 20
9.0
  9
$UNITMODE
 70
     0
  9
$VISRETAIN
 70
     1
  9
$PLINEGEN
 70
     0
  9
$PSLTSCALE
 70
     1
  9
$TREEDEPTH
 70
  3020
  9
$CMLSTYLE
  2
Standard
  9
$CMLJUST
 70
     0
  9
$CMLSCALE
 40
1.0
  9
$PROXYGRAPHICS
 70
     1
  9
$MEASUREMENT
 70
     0
  9
$CELWEIGHT
370
    -1
  9
$ENDCAPS
280
     0
  9
$JOINSTYLE
280
     0
  9
$LWDISPLAY
290
     0
  9
$INSUNITS
 70
     0
  9
$HYPERLINKBASE
  1

  9
$STYLESHEET
  1

  9
$XEDIT
290
     1
  9
$CEPSNTYPE
380
     0
  9
$PSTYLEMODE
290
     1
  9
$FINGERPRINTGUID
  2
{C4CEE9FC-E221-4A0F-A56F-2B0B25F4BCC6}
  9
$VERSIONGUID
  2
{02AB0988-888E-446B-B807-3AC8F2461AEB}
  9
$EXTNAMES
290
     1
  9
$PSVPSCALE
 40
0.0
  9
$OLESTARTUP
290
     0
  0
ENDSEC
  0
SECTION
  2
CLASSES
  0
CLASS
  1
ACDBDICTIONARYWDFLT
  2
AcDbDictionaryWithDefault
  3
AutoCAD 2000
 90
        0
280
     0
281
     0
  0
CLASS
  1
ACDBPLACEHOLDER
  2
AcDbPlaceHolder
  3
AutoCAD 2000
 90
        0
280
     0
281
     0
  0
CLASS
  1
LAYOUT
  2
AcDbLayout
  3
AutoCAD 2000
 90
        0
280
     0
281
     0
  0
CLASS
  1
DICTIONARYVAR
  2
AcDbDictionaryVar
  3
AutoCAD 2000
 90
        0
280
     0
281
     0
  0
ENDSEC
  0
SECTION
  2
TABLES
  0
TABLE
  2
VPORT
  5
8
330
0
100
AcDbSymbolTable
 70
     2
  0
VPORT
  5
1AA
330
8
100
AcDbSymbolTableRecord
100
AcDbViewportTableRecord
  2
*Active
 70
     0
 10
0.0
 20
0.0
 11
1.0
 21
1.0
 12
51.0
 22
54.49999999999999
 13
0.0
 23
0.0
 14
1.0
 24
1.0
 15
0.0
 25
0.0
 16
0.0
 26
0.0
 36
1.0
 17
0.0
 27
0.0
 37
0.0
 40
109.8363171355498
 41
2.043533930857874
 42
50.0
 43
0.0
 44
0.0
 50
0.0
 51
0.0
 71
     0
 72
   100
 73
     1
 74
     3
 75
     0
 76
     0
 77
     0
 78
     0
281
     0
 65
     1
110
0.0
120
0.0
130
0.0
111
1.0
121
0.0
131
0.0
112
0.0
122
1.0
132
0.0
 79
     1
146
0.0
  0
ENDTAB
  0
TABLE
  2
LTYPE
  5
5
330
0
100
AcDbSymbolTable
 70
     1
  0
LTYPE
  5
13
330
5
100
AcDbSymbolTableRecord
100
AcDbLinetypeTableRecord
  2
ByBlock
 70
     0
  3

 72
    65
 73
     0
 40
0.0
  0
LTYPE
  5
14
330
5
100
AcDbSymbolTableRecord
100
AcDbLinetypeTableRecord
  2
ByLayer
 70
     0
  3

 72
    65
 73
     0
 40
0.0
  0
LTYPE
  5
15
330
5
100
AcDbSymbolTableRecord
100
AcDbLinetypeTableRecord
  2
Continuous
 70
     0
  3
Solid line
 72
    65
 73
     0
 40
0.0
  0
ENDTAB
  0
TABLE
  2
LAYER
  5
2
330
0
100
AcDbSymbolTable
 70
     1
  0
LAYER
  5
10
330
2
100
AcDbSymbolTableRecord
100
AcDbLayerTableRecord
  2
0
 70
     0
 62
     7
  6
Continuous
370
    -3
390
F
  0
ENDTAB
  0
TABLE
  2
STYLE
  5
3
330
0
100
AcDbSymbolTable
 70
     1
  0
STYLE
  5
11
330
3
100
AcDbSymbolTableRecord
100
AcDbTextStyleTableRecord
  2
Standard
 70
     0
 40
0.0
 41
1.0
 50
0.0
 71
     0
 42
0.2
  3
txt
  4

  0
ENDTAB
  0
TABLE
  2
VIEW
  5
6
330
0
100
AcDbSymbolTable
 70
     0
  0
ENDTAB
  0
TABLE
  2
UCS
  5
7
330
0
100
AcDbSymbolTable
 70
     0
  0
ENDTAB
  0
TABLE
  2
APPID
  5
9
330
0
100
AcDbSymbolTable
 70
     1
  0
APPID
  5
12
330
9
100
AcDbSymbolTableRecord
100
AcDbRegAppTableRecord
  2
ACAD
 70
     0
  0
ENDTAB
  0
TABLE
  2
DIMSTYLE
  5
A
330
0
100
AcDbSymbolTable
 70
     1
100
AcDbDimStyleTable
 71
     0
  0
DIMSTYLE
105
1A4
330
A
100
AcDbSymbolTableRecord
100
AcDbDimStyleTableRecord
  2
Standard
 70
     0
340
11
  0
ENDTAB
  0
TABLE
  2
BLOCK_RECORD
  5
1
330
0
100
AcDbSymbolTable
 70
     0
  0
BLOCK_RECORD
  5
1E
330
1
100
AcDbSymbolTableRecord
100
AcDbBlockTableRecord
  2
*Model_Space
340
21
  0
BLOCK_RECORD
  5
1A
330
1
100
AcDbSymbolTableRecord
100
AcDbBlockTableRecord
  2
*Paper_Space
340
1D
  0
ENDTAB
  0
ENDSEC
  0
SECTION
  2
BLOCKS
  0
BLOCK
  5
1F
330
1E
100
AcDbEntity
  8
0
100
AcDbBlockBegin
  2
*Model_Space
 70
     0
 10
0.0
 20
0.0
 30
0.0
  3
*Model_Space
  1

  0
ENDBLK
  5
20
330
1E
100
AcDbEntity
  8
0
100
AcDbBlockEnd
  0
BLOCK
  5
1B
330
1A
100
AcDbEntity
 67
     1
  8
0
100
AcDbBlockBegin
  2
*Paper_Space
 70
     0
 10
0.0
 20
0.0
 30
0.0
  3
*Paper_Space
  1

  0
ENDBLK
  5
1C
330
1A
100
AcDbEntity
 67
     1
  8
0
100
AcDbBlockEnd
  0
ENDSEC
  0
SECTION
  2
ENTITIES
  0
LINE
  5
22
330
1E
100
AcDbEntity
  8
0
100
AcDbLine
 10
16.0
 20
-0.000000000000004
 30
0.0
 11
16.0
 21
47.0
 31
0.0
  0
LINE
  5
23
330
1E
100
AcDbEntity
  8
0
100
AcDbLine
 10
0.0000000000000006
 20
-0.000000000000003
 30
0.0
 11
0.500000000000001
 21
0.499999999999997
 31
0.0
  0
LINE
  5
24
330
1E
100
AcDbEntity
  8
0
100
AcDbLine
 10
0.0
 20
-0.000000000000003
 30
0.0
 11
16.0
 21
-0.000000000000004
 31
0.0
  0
LINE
  5
25
330
1E
100
AcDbEntity
  8
0
100
AcDbLine
 10
0.0000000000000006
 20
0.0
 30
0.0
 11
0.0000000000000043
 21
60.0
 31
0.0
  0
LINE
  5
26
330
1E
100
AcDbEntity
  8
0
100
AcDbLine
 10
0.0000000000000006
 20
-0.000000000000003
 30
0.0
 11
0.500000000000001
 21
0.499999999999997
 31
0.0
  0
LINE
  5
27
330
1E
100
AcDbEntity
  8
0
100
AcDbLine
 10
0.0000000000000006
 20
-0.000000000000003
 30
0.0
 11
0.0000000000000043
 21
60.0
 31
0.0
  0
LINE
  5
28
330
1E
100
AcDbEntity
  8
0
100
AcDbLine
 10
0.0000000000000006
 20
-0.000000000000003
 30
0.0
 11
16.0
 21
-0.000000000000004
 31
0.0
  0
LINE
  5
29
330
1E
100
AcDbEntity
  8
0
100
AcDbLine
 10
16.0
 20
-0.0000000000000061
 30
0.0
 11
16.0
 21
47.0
 31
0.0
  0
LINE
  5
2A
330
1E
100
AcDbEntity
  8
0
100
AcDbLine
 10
15.5
 20
0.499999999999997
 30
0.0
 11
15.5
 21
47.0
 31
0.0
  0
LINE
  5
2B
330
1E
100
AcDbEntity
  8
0
100
AcDbLine
 10
0.500000000000001
 20
0.499999999999997
 30
0.0
 11
15.5
 21
0.4999999999999961
 31
0.0
  0
LINE
  5
2C
330
1E
100
AcDbEntity
  8
0
100
AcDbLine
 10
0.500000000000001
 20
0.499999999999997
 30
0.0
 11
15.5
 21
0.4999999999999961
 31
0.0
  0
LINE
  5
2D
330
1E
100
AcDbEntity
  8
0
100
AcDbLine
 10
0.500000000000001
 20
0.499999999999997
 30
0.0
 11
0.500000000000004
 21
59.5
 31
0.0
  0
LINE
  5
2E
330
1E
100
AcDbEntity
  8
0
100
AcDbLine
 10
15.5
 20
0.4999999999999961
 30
0.0
 11
15.5
 21
47.0
 31
0.0
  0
LINE
  5
2F
330
1E
100
AcDbEntity
  8
0
100
AcDbLine
 10
15.5
 20
0.4999999999999961
 30
0.0
 11
16.0
 21
-0.000000000000004
 31
0.0
  0
LINE
  5
30
330
1E
100
AcDbEntity
  8
0
100
AcDbLine
 10
15.5
 20
0.4999999999999961
 30
0.0
 11
16.0
 21
-0.000000000000004
 31
0.0
  0
LINE
  5
31
330
1E
100
AcDbEntity
  8
0
100
AcDbLine
 10
16.0
 20
47.0
 30
0.0
 11
16.3
 21
48.2
 31
0.0
  0
LINE
  5
32
330
1E
100
AcDbEntity
  8
0
100
AcDbLine
 10
15.5
 20
47.0
 30
0.0
 11
15.8
 21
48.3
 31
0.0
  0
LINE
  5
33
330
1E
100
AcDbEntity
  8
0
100
AcDbLine
 10
16.3
 20
48.2
 30
0.0
 11
16.89999999999999
 21
49.1
 31
0.0
  0
LINE
  5
34
330
1E
100
AcDbEntity
  8
0
100
AcDbLine
 10
15.8
 20
48.3
 30
0.0
 11
16.6
 21
49.4
 31
0.0
  0
LINE
  5
35
330
1E
100
AcDbEntity
  8
0
100
AcDbLine
 10
16.89999999999999
 20
49.1
 30
0.0
 11
17.9
 21
49.7
 31
0.0
  0
LINE
  5
36
330
1E
100
AcDbEntity
  8
0
100
AcDbLine
 10
16.6
 20
49.4
 30
0.0
 11
17.7
 21
50.2
 31
0.0
  0
LINE
  5
37
330
1E
100
AcDbEntity
  8
0
100
AcDbLine
 10
17.9
 20
49.7
 30
0.0
 11
19.0
 21
50.0
 31
0.0
  0
LINE
  5
38
330
1E
100
AcDbEntity
  8
0
100
AcDbLine
 10
17.7
 20
50.2
 30
0.0
 11
19.0
 21
50.5
 31
0.0
  0
LINE
  5
39
330
1E
100
AcDbEntity
  8
0
100
AcDbLine
 10
26.0
 20
35.4546
 30
0.0
 11
26.0
 21
36.1818
 31
0.0
  0
LINE
  5
3A
330
1E
100
AcDbEntity
  8
0
100
AcDbLine
 10
26.0
 20
35.4546
 30
0.0
 11
26.5
 21
35.0
 31
0.0
  0
LINE
  5
3B
330
1E
100
AcDbEntity
  8
0
100
AcDbLine
 10
26.0
 20
36.1818
 30
0.0
 11
26.0
 21
35.4546
 31
0.0
  0
LINE
  5
3C
330
1E
100
AcDbEntity
  8
0
100
AcDbLine
 10
26.0
 20
36.1818
 30
0.0
 11
26.0
 21
38.09089999999999
 31
0.0
  0
LINE
  5
3D
330
1E
100
AcDbEntity
  8
0
100
AcDbLine
 10
26.0
 20
38.09089999999999
 30
0.0
 11
26.0
 21
36.1818
 31
0.0
  0
LINE
  5
3E
330
1E
100
AcDbEntity
  8
0
100
AcDbLine
 10
26.0
 20
38.09089999999999
 30
0.0
 11
26.0
 21
41.1818
 31
0.0
  0
LINE
  5
3F
330
1E
100
AcDbEntity
  8
0
100
AcDbLine
 10
26.0
 20
41.1818
 30
0.0
 11
26.0
 21
38.09089999999999
 31
0.0
  0
LINE
  5
40
330
1E
100
AcDbEntity
  8
0
100
AcDbLine
 10
26.0
 20
41.1818
 30
0.0
 11
26.0
 21
45.2727
 31
0.0
  0
LINE
  5
41
330
1E
100
AcDbEntity
  8
0
100
AcDbLine
 10
26.0
 20
45.2727
 30
0.0
 11
26.0
 21
41.1818
 31
0.0
  0
LINE
  5
42
330
1E
100
AcDbEntity
  8
0
100
AcDbLine
 10
26.0
 20
45.2727
 30
0.0
 11
26.0
 21
50.0
 31
0.0
  0
LINE
  5
43
330
1E
100
AcDbEntity
  8
0
100
AcDbLine
 10
26.0
 20
50.0
 30
0.0
 11
26.0
 21
45.2727
 31
0.0
  0
LINE
  5
44
330
1E
100
AcDbEntity
  8
0
100
AcDbLine
 10
26.0
 20
50.0
 30
0.0
 11
26.0
 21
55.0
 31
0.0
  0
LINE
  5
45
330
1E
100
AcDbEntity
  8
0
100
AcDbLine
 10
19.0
 20
50.0
 30
0.0
 11
26.0
 21
50.0
 31
0.0
  0
LINE
  5
46
330
1E
100
AcDbEntity
  8
0
100
AcDbLine
 10
0.0000000000000057
 20
60.0
 30
0.0
 11
26.0
 21
60.0
 31
0.0
  0
LINE
  5
47
330
1E
100
AcDbEntity
  8
0
100
AcDbLine
 10
26.0
 20
55.0
 30
0.0
 11
26.0
 21
50.0
 31
0.0
  0
LINE
  5
48
330
1E
100
AcDbEntity
  8
0
100
AcDbLine
 10
26.0
 20
55.0
 30
0.0
 11
26.0
 21
60.0
 31
0.0
  0
LINE
  5
49
330
1E
100
AcDbEntity
  8
0
100
AcDbLine
 10
26.0
 20
59.5
 30
0.0
 11
26.0
 21
50.5
 31
0.0
  0
LINE
  5
4A
330
1E
100
AcDbEntity
  8
0
100
AcDbLine
 10
0.500000000000004
 20
59.5
 30
0.0
 11
26.0
 21
59.5
 31
0.0
  0
LINE
  5
4B
330
1E
100
AcDbEntity
  8
0
100
AcDbLine
 10
26.0
 20
60.0
 30
0.0
 11
26.0
 21
59.5
 31
0.0
  0
LINE
  5
4C
330
1E
100
AcDbEntity
  8
0
100
AcDbLine
 10
26.0
 20
60.0
 30
0.0
 11
26.0
 21
64.7273
 31
0.0
  0
LINE
  5
4D
330
1E
100
AcDbEntity
  8
0
100
AcDbLine
 10
26.0
 20
60.0
 30
0.0
 11
26.0
 21
55.0
 31
0.0
  0
LINE
  5
4E
330
1E
100
AcDbEntity
  8
0
100
AcDbLine
 10
0.500000000000004
 20
59.5
 30
0.0
 11
26.0
 21
59.5
 31
0.0
  0
LINE
  5
4F
330
1E
100
AcDbEntity
  8
0
100
AcDbLine
 10
26.0
 20
74.54550000000001
 30
0.0
 11
26.0
 21
73.81820000000001
 31
0.0
  0
LINE
  5
50
330
1E
100
AcDbEntity
  8
0
100
AcDbLine
 10
26.0
 20
74.54550000000001
 30
0.0
 11
26.5
 21
75.0
 31
0.0
  0
LINE
  5
51
330
1E
100
AcDbEntity
  8
0
100
AcDbLine
 10
26.0
 20
73.81820000000001
 30
0.0
 11
26.0
 21
71.90909999999999
 31
0.0
  0
LINE
  5
52
330
1E
100
AcDbEntity
  8
0
100
AcDbLine
 10
26.0
 20
73.81820000000001
 30
0.0
 11
26.0
 21
74.54550000000001
 31
0.0
  0
LINE
  5
53
330
1E
100
AcDbEntity
  8
0
100
AcDbLine
 10
26.0
 20
71.90909999999999
 30
0.0
 11
26.0
 21
68.81820000000001
 31
0.0
  0
LINE
  5
54
330
1E
100
AcDbEntity
  8
0
100
AcDbLine
 10
26.0
 20
71.90909999999999
 30
0.0
 11
26.0
 21
73.81820000000001
 31
0.0
  0
LINE
  5
55
330
1E
100
AcDbEntity
  8
0
100
AcDbLine
 10
26.0
 20
68.81820000000001
 30
0.0
 11
26.0
 21
64.7273
 31
0.0
  0
LINE
  5
56
330
1E
100
AcDbEntity
  8
0
100
AcDbLine
 10
26.0
 20
68.81820000000001
 30
0.0
 11
26.0
 21
71.90909999999999
 31
0.0
  0
LINE
  5
57
330
1E
100
AcDbEntity
  8
0
100
AcDbLine
 10
26.0
 20
64.7273
 30
0.0
 11
26.0
 21
60.0
 31
0.0
  0
LINE
  5
58
330
1E
100
AcDbEntity
  8
0
100
AcDbLine
 10
26.0
 20
64.7273
 30
0.0
 11
26.0
 21
68.81820000000001
 31
0.0
  0
LINE
  5
59
330
1E
100
AcDbEntity
  8
0
100
AcDbLine
 10
0.0000000000000043
 20
60.0
 30
0.0
 11
0.500000000000004
 21
59.5
 31
0.0
  0
LINE
  5
5A
330
1E
100
AcDbEntity
  8
0
100
AcDbLine
 10
0.0000000000000043
 20
60.0
 30
0.0
 11
0.500000000000004
 21
59.5
 31
0.0
  0
LINE
  5
5B
330
1E
100
AcDbEntity
  8
0
100
AcDbLine
 10
0.0000000000000043
 20
60.0
 30
0.0
 11
26.0
 21
60.0
 31
0.0
  0
LINE
  5
5C
330
1E
100
AcDbEntity
  8
0
100
AcDbLine
 10
19.0
 20
50.5
 30
0.0
 11
26.0
 21
50.5
 31
0.0
  0
LINE
  5
5D
330
1E
100
AcDbEntity
  8
0
100
AcDbLine
 10
64.0
 20
28.6136
 30
0.0
 11
64.0
 21
29.5955
 31
0.0
  0
LINE
  5
5E
330
1E
100
AcDbEntity
  8
0
100
AcDbLine
 10
64.0
 20
28.6136
 30
0.0
 11
64.6579
 21
28.0
 31
0.0
  0
LINE
  5
5F
330
1E
100
AcDbEntity
  8
0
100
AcDbLine
 10
64.0
 20
29.5955
 30
0.0
 11
64.0
 21
28.6136
 31
0.0
  0
LINE
  5
60
330
1E
100
AcDbEntity
  8
0
100
AcDbLine
 10
64.0
 20
29.5955
 30
0.0
 11
64.0
 21
32.1727
 31
0.0
  0
LINE
  5
61
330
1E
100
AcDbEntity
  8
0
100
AcDbLine
 10
64.0
 20
32.1727
 30
0.0
 11
64.0
 21
29.5955
 31
0.0
  0
LINE
  5
62
330
1E
100
AcDbEntity
  8
0
100
AcDbLine
 10
64.0
 20
32.1727
 30
0.0
 11
64.0
 21
35.0
 31
0.0
  0
LINE
  5
63
330
1E
100
AcDbEntity
  8
0
100
AcDbLine
 10
64.0
 20
32.1727
 30
0.0
 11
64.0
 21
36.3455
 31
0.0
  0
LINE
  5
64
330
1E
100
AcDbEntity
  8
0
100
AcDbLine
 10
69.0
 20
28.0
 30
0.0
 11
73.3421
 21
28.0
 31
0.0
  0
LINE
  5
65
330
1E
100
AcDbEntity
  8
0
100
AcDbLine
 10
89.0
 20
25.68179999999999
 30
0.0
 11
89.6579
 21
25.0
 31
0.0
  0
LINE
  5
66
330
1E
100
AcDbEntity
  8
0
100
AcDbLine
 10
89.0
 20
25.68179999999999
 30
0.0
 11
89.0
 21
26.7727
 31
0.0
  0
LINE
  5
67
330
1E
100
AcDbEntity
  8
0
100
AcDbLine
 10
89.0
 20
26.7727
 30
0.0
 11
89.0
 21
25.68179999999999
 31
0.0
  0
LINE
  5
68
330
1E
100
AcDbEntity
  8
0
100
AcDbLine
 10
89.0
 20
26.7727
 30
0.0
 11
89.0
 21
28.0
 31
0.0
  0
LINE
  5
69
330
1E
100
AcDbEntity
  8
0
100
AcDbLine
 10
89.0
 20
26.7727
 30
0.0
 11
89.0
 21
29.63639999999999
 31
0.0
  0
LINE
  5
6A
330
1E
100
AcDbEntity
  8
0
100
AcDbLine
 10
91.0
 20
2.22729999999999
 30
0.0
 11
92.09650000000001
 21
0.9999999999999909
 31
0.0
  0
LINE
  5
6B
330
1E
100
AcDbEntity
  8
0
100
AcDbLine
 10
91.0
 20
2.22729999999999
 30
0.0
 11
91.0
 21
4.19089999999999
 31
0.0
  0
LINE
  5
6C
330
1E
100
AcDbEntity
  8
0
100
AcDbLine
 10
91.0
 20
4.19089999999999
 30
0.0
 11
91.0
 21
2.22729999999999
 31
0.0
  0
LINE
  5
6D
330
1E
100
AcDbEntity
  8
0
100
AcDbLine
 10
91.0
 20
4.19089999999999
 30
0.0
 11
91.0
 21
9.34549999999999
 31
0.0
  0
LINE
  5
6E
330
1E
100
AcDbEntity
  8
0
100
AcDbLine
 10
91.0
 20
9.34549999999999
 30
0.0
 11
91.0
 21
4.19089999999999
 31
0.0
  0
LINE
  5
6F
330
1E
100
AcDbEntity
  8
0
100
AcDbLine
 10
91.0
 20
9.34549999999999
 30
0.0
 11
91.0
 21
17.6909
 31
0.0
  0
LINE
  5
70
330
1E
100
AcDbEntity
  8
0
100
AcDbLine
 10
91.0
 20
17.6909
 30
0.0
 11
91.0
 21
9.34549999999999
 31
0.0
  0
LINE
  5
71
330
1E
100
AcDbEntity
  8
0
100
AcDbLine
 10
91.0
 20
17.6909
 30
0.0
 11
91.0
 21
25.0
 31
0.0
  0
LINE
  5
72
330
1E
100
AcDbEntity
  8
0
100
AcDbLine
 10
91.0
 20
17.6909
 30
0.0
 11
91.0
 21
28.7363
 31
0.0
  0
LINE
  5
73
330
1E
100
AcDbEntity
  8
0
100
AcDbLine
 10
102.0
 20
0.9999999999999909
 30
0.0
 11
102.0
 21
2.96359999999999
 31
0.0
  0
LINE
  5
74
330
1E
100
AcDbEntity
  8
0
100
AcDbLine
 10
92.09650000000001
 20
2.96359999999999
 30
0.0
 11
92.09650000000001
 21
8.11819999999999
 31
0.0
  0
LINE
  5
75
330
1E
100
AcDbEntity
  8
0
100
AcDbLine
 10
92.09650000000001
 20
2.96359999999999
 30
0.0
 11
92.09650000000001
 21
0.9999999999999909
 31
0.0
  0
LINE
  5
76
330
1E
100
AcDbEntity
  8
0
100
AcDbLine
 10
92.09650000000001
 20
8.11819999999999
 30
0.0
 11
92.09650000000001
 21
16.9545
 31
0.0
  0
LINE
  5
77
330
1E
100
AcDbEntity
  8
0
100
AcDbLine
 10
92.09650000000001
 20
8.11819999999999
 30
0.0
 11
92.09650000000001
 21
2.96359999999999
 31
0.0
  0
LINE
  5
78
330
1E
100
AcDbEntity
  8
0
100
AcDbLine
 10
102.0
 20
2.96359999999999
 30
0.0
 11
102.0
 21
8.11819999999999
 31
0.0
  0
LINE
  5
79
330
1E
100
AcDbEntity
  8
0
100
AcDbLine
 10
102.0
 20
8.11819999999999
 30
0.0
 11
102.0
 21
16.9545
 31
0.0
  0
LINE
  5
7A
330
1E
100
AcDbEntity
  8
0
100
AcDbLine
 10
102.0
 20
16.9545
 30
0.0
 11
102.0
 21
28.2454
 31
0.0
  0
LINE
  5
7B
330
1E
100
AcDbEntity
  8
0
100
AcDbLine
 10
92.09650000000001
 20
16.9545
 30
0.0
 11
92.09650000000001
 21
28.2454
 31
0.0
  0
LINE
  5
7C
330
1E
100
AcDbEntity
  8
0
100
AcDbLine
 10
92.09650000000001
 20
16.9545
 30
0.0
 11
92.09650000000001
 21
8.11819999999999
 31
0.0
  0
LINE
  5
7D
330
1E
100
AcDbEntity
  8
0
100
AcDbLine
 10
92.09650000000001
 20
0.9999999999999909
 30
0.0
 11
102.0
 21
0.9999999999999909
 31
0.0
  0
LINE
  5
7E
330
1E
100
AcDbEntity
  8
0
100
AcDbLine
 10
92.09650000000001
 20
0.9999999999999909
 30
0.0
 11
92.09650000000001
 21
2.96359999999999
 31
0.0
  0
LINE
  5
7F
330
1E
100
AcDbEntity
  8
0
100
AcDbLine
 10
91.0
 20
25.0
 30
0.0
 11
91.0
 21
26.0909
 31
0.0
  0
LINE
  5
80
330
1E
100
AcDbEntity
  8
0
100
AcDbLine
 10
91.0
 20
25.0
 30
0.0
 11
91.0
 21
17.6909
 31
0.0
  0
LINE
  5
81
330
1E
100
AcDbEntity
  8
0
100
AcDbLine
 10
91.0
 20
26.0909
 30
0.0
 11
91.0
 21
28.9545
 31
0.0
  0
LINE
  5
82
330
1E
100
AcDbEntity
  8
0
100
AcDbLine
 10
89.6579
 20
26.0909
 30
0.0
 11
89.6579
 21
28.9545
 31
0.0
  0
LINE
  5
83
330
1E
100
AcDbEntity
  8
0
100
AcDbLine
 10
89.6579
 20
26.0909
 30
0.0
 11
89.6579
 21
25.0
 31
0.0
  0
LINE
  5
84
330
1E
100
AcDbEntity
  8
0
100
AcDbLine
 10
89.6579
 20
25.0
 30
0.0
 11
91.0
 21
25.0
 31
0.0
  0
LINE
  5
85
330
1E
100
AcDbEntity
  8
0
100
AcDbLine
 10
89.6579
 20
25.0
 30
0.0
 11
89.6579
 21
26.0909
 31
0.0
  0
LINE
  5
86
330
1E
100
AcDbEntity
  8
0
100
AcDbLine
 10
89.0
 20
28.0
 30
0.0
 11
89.0
 21
28.98179999999999
 31
0.0
  0
LINE
  5
87
330
1E
100
AcDbEntity
  8
0
100
AcDbLine
 10
89.0
 20
28.0
 30
0.0
 11
89.0
 21
26.7727
 31
0.0
  0
LINE
  5
88
330
1E
100
AcDbEntity
  8
0
100
AcDbLine
 10
74.6579
 20
28.0
 30
0.0
 11
89.0
 21
28.0
 31
0.0
  0
LINE
  5
89
330
1E
100
AcDbEntity
  8
0
100
AcDbLine
 10
74.6579
 20
28.0
 30
0.0
 11
74.6579
 21
28.98179999999999
 31
0.0
  0
LINE
  5
8A
330
1E
100
AcDbEntity
  8
0
100
AcDbLine
 10
73.3421
 20
28.0
 30
0.0
 11
74.0
 21
28.6136
 31
0.0
  0
LINE
  5
8B
330
1E
100
AcDbEntity
  8
0
100
AcDbLine
 10
73.3421
 20
28.0
 30
0.0
 11
73.3421
 21
28.98179999999999
 31
0.0
  0
LINE
  5
8C
330
1E
100
AcDbEntity
  8
0
100
AcDbLine
 10
64.6579
 20
28.98179999999999
 30
0.0
 11
64.6579
 21
31.5591
 31
0.0
  0
LINE
  5
8D
330
1E
100
AcDbEntity
  8
0
100
AcDbLine
 10
64.6579
 20
28.98179999999999
 30
0.0
 11
64.6579
 21
28.0
 31
0.0
  0
LINE
  5
8E
330
1E
100
AcDbEntity
  8
0
100
AcDbLine
 10
102.0
 20
28.2454
 30
0.0
 11
102.0
 21
41.00909999999999
 31
0.0
  0
LINE
  5
8F
330
1E
100
AcDbEntity
  8
0
100
AcDbLine
 10
92.09650000000001
 20
28.2454
 30
0.0
 11
92.09650000000001
 21
41.00909999999999
 31
0.0
  0
LINE
  5
90
330
1E
100
AcDbEntity
  8
0
100
AcDbLine
 10
92.09650000000001
 20
28.2454
 30
0.0
 11
92.09650000000001
 21
16.9545
 31
0.0
  0
LINE
  5
91
330
1E
100
AcDbEntity
  8
0
100
AcDbLine
 10
91.0
 20
28.7363
 30
0.0
 11
91.0
 21
41.5
 31
0.0
  0
LINE
  5
92
330
1E
100
AcDbEntity
  8
0
100
AcDbLine
 10
91.0
 20
28.7363
 30
0.0
 11
91.0
 21
17.6909
 31
0.0
  0
LINE
  5
93
330
1E
100
AcDbEntity
  8
0
100
AcDbLine
 10
91.0
 20
28.9545
 30
0.0
 11
91.0
 21
33.86359999999999
 31
0.0
  0
LINE
  5
94
330
1E
100
AcDbEntity
  8
0
100
AcDbLine
 10
89.6579
 20
28.9545
 30
0.0
 11
89.6579
 21
33.86359999999999
 31
0.0
  0
LINE
  5
95
330
1E
100
AcDbEntity
  8
0
100
AcDbLine
 10
89.6579
 20
28.9545
 30
0.0
 11
89.6579
 21
26.0909
 31
0.0
  0
LINE
  5
96
330
1E
100
AcDbEntity
  8
0
100
AcDbLine
 10
89.0
 20
28.98179999999999
 30
0.0
 11
89.0
 21
31.5591
 31
0.0
  0
LINE
  5
97
330
1E
100
AcDbEntity
  8
0
100
AcDbLine
 10
74.6579
 20
28.98179999999999
 30
0.0
 11
74.6579
 21
31.5591
 31
0.0
  0
LINE
  5
98
330
1E
100
AcDbEntity
  8
0
100
AcDbLine
 10
74.6579
 20
28.98179999999999
 30
0.0
 11
74.6579
 21
28.0
 31
0.0
  0
LINE
  5
99
330
1E
100
AcDbEntity
  8
0
100
AcDbLine
 10
74.0
 20
28.6136
 30
0.0
 11
74.0
 21
29.5955
 31
0.0
  0
LINE
  5
9A
330
1E
100
AcDbEntity
  8
0
100
AcDbLine
 10
74.0
 20
28.6136
 30
0.0
 11
74.6579
 21
28.0
 31
0.0
  0
LINE
  5
9B
330
1E
100
AcDbEntity
  8
0
100
AcDbLine
 10
73.3421
 20
28.98179999999999
 30
0.0
 11
73.3421
 21
28.0
 31
0.0
  0
LINE
  5
9C
330
1E
100
AcDbEntity
  8
0
100
AcDbLine
 10
73.3421
 20
28.98179999999999
 30
0.0
 11
73.3421
 21
31.5591
 31
0.0
  0
LINE
  5
9D
330
1E
100
AcDbEntity
  8
0
100
AcDbLine
 10
73.3421
 20
31.5591
 30
0.0
 11
73.3421
 21
28.98179999999999
 31
0.0
  0
LINE
  5
9E
330
1E
100
AcDbEntity
  8
0
100
AcDbLine
 10
73.3421
 20
31.5591
 30
0.0
 11
73.3421
 21
35.9773
 31
0.0
  0
LINE
  5
9F
330
1E
100
AcDbEntity
  8
0
100
AcDbLine
 10
89.0
 20
29.63639999999999
 30
0.0
 11
89.0
 21
34.2727
 31
0.0
  0
LINE
  5
A0
330
1E
100
AcDbEntity
  8
0
100
AcDbLine
 10
89.0
 20
29.63639999999999
 30
0.0
 11
89.0
 21
26.7727
 31
0.0
  0
LINE
  5
A1
330
1E
100
AcDbEntity
  8
0
100
AcDbLine
 10
89.0
 20
31.5591
 30
0.0
 11
89.0
 21
35.9773
 31
0.0
  0
LINE
  5
A2
330
1E
100
AcDbEntity
  8
0
100
AcDbLine
 10
91.0
 20
33.86359999999999
 30
0.0
 11
91.0
 21
40.1363
 31
0.0
  0
LINE
  5
A3
330
1E
100
AcDbEntity
  8
0
100
AcDbLine
 10
89.6579
 20
33.86359999999999
 30
0.0
 11
89.6579
 21
40.1363
 31
0.0
  0
LINE
  5
A4
330
1E
100
AcDbEntity
  8
0
100
AcDbLine
 10
89.6579
 20
33.86359999999999
 30
0.0
 11
89.6579
 21
28.9545
 31
0.0
  0
LINE
  5
A5
330
1E
100
AcDbEntity
  8
0
100
AcDbLine
 10
89.0
 20
34.2727
 30
0.0
 11
89.0
 21
40.40899999999999
 31
0.0
  0
LINE
  5
A6
330
1E
100
AcDbEntity
  8
0
100
AcDbLine
 10
89.0
 20
34.2727
 30
0.0
 11
89.0
 21
29.63639999999999
 31
0.0
  0
LINE
  5
A7
330
1E
100
AcDbEntity
  8
0
100
AcDbLine
 10
74.6579
 20
31.5591
 30
0.0
 11
74.6579
 21
35.9773
 31
0.0
  0
LINE
  5
A8
330
1E
100
AcDbEntity
  8
0
100
AcDbLine
 10
74.6579
 20
31.5591
 30
0.0
 11
74.6579
 21
28.98179999999999
 31
0.0
  0
LINE
  5
A9
330
1E
100
AcDbEntity
  8
0
100
AcDbLine
 10
74.0
 20
32.1727
 30
0.0
 11
74.0
 21
36.3455
 31
0.0
  0
LINE
  5
AA
330
1E
100
AcDbEntity
  8
0
100
AcDbLine
 10
74.0
 20
29.5955
 30
0.0
 11
74.0
 21
32.1727
 31
0.0
  0
LINE
  5
AB
330
1E
100
AcDbEntity
  8
0
100
AcDbLine
 10
74.0
 20
29.5955
 30
0.0
 11
74.0
 21
28.6136
 31
0.0
  0
LINE
  5
AC
330
1E
100
AcDbEntity
  8
0
100
AcDbLine
 10
64.6579
 20
31.5591
 30
0.0
 11
64.6579
 21
35.9773
 31
0.0
  0
LINE
  5
AD
330
1E
100
AcDbEntity
  8
0
100
AcDbLine
 10
64.6579
 20
31.5591
 30
0.0
 11
64.6579
 21
28.98179999999999
 31
0.0
  0
LINE
  5
AE
330
1E
100
AcDbEntity
  8
0
100
AcDbLine
 10
64.6579
 20
28.0
 30
0.0
 11
69.0
 21
28.0
 31
0.0
  0
LINE
  5
AF
330
1E
100
AcDbEntity
  8
0
100
AcDbLine
 10
64.6579
 20
28.0
 30
0.0
 11
64.6579
 21
28.98179999999999
 31
0.0
  0
LINE
  5
B0
330
1E
100
AcDbEntity
  8
0
100
AcDbLine
 10
64.0
 20
35.0
 30
0.0
 11
64.0
 21
35.72729999999999
 31
0.0
  0
LINE
  5
B1
330
1E
100
AcDbEntity
  8
0
100
AcDbLine
 10
64.0
 20
35.0
 30
0.0
 11
64.0
 21
32.1727
 31
0.0
  0
LINE
  5
B2
330
1E
100
AcDbEntity
  8
0
100
AcDbLine
 10
26.5
 20
35.72729999999999
 30
0.0
 11
26.5
 21
37.6364
 31
0.0
  0
LINE
  5
B3
330
1E
100
AcDbEntity
  8
0
100
AcDbLine
 10
26.5
 20
35.72729999999999
 30
0.0
 11
26.5
 21
35.0
 31
0.0
  0
LINE
  5
B4
330
1E
100
AcDbEntity
  8
0
100
AcDbLine
 10
26.5
 20
37.6364
 30
0.0
 11
26.5
 21
40.9091
 31
0.0
  0
LINE
  5
B5
330
1E
100
AcDbEntity
  8
0
100
AcDbLine
 10
26.5
 20
37.6364
 30
0.0
 11
26.5
 21
35.72729999999999
 31
0.0
  0
LINE
  5
B6
330
1E
100
AcDbEntity
  8
0
100
AcDbLine
 10
26.5
 20
40.9091
 30
0.0
 11
26.5
 21
45.09089999999999
 31
0.0
  0
LINE
  5
B7
330
1E
100
AcDbEntity
  8
0
100
AcDbLine
 10
26.5
 20
40.9091
 30
0.0
 11
26.5
 21
37.6364
 31
0.0
  0
LINE
  5
B8
330
1E
100
AcDbEntity
  8
0
100
AcDbLine
 10
26.5
 20
74.2727
 30
0.0
 11
26.5
 21
75.0
 31
0.0
  0
LINE
  5
B9
330
1E
100
AcDbEntity
  8
0
100
AcDbLine
 10
26.5
 20
74.2727
 30
0.0
 11
26.5
 21
72.36360000000001
 31
0.0
  0
LINE
  5
BA
330
1E
100
AcDbEntity
  8
0
100
AcDbLine
 10
26.5
 20
72.36360000000001
 30
0.0
 11
26.5
 21
74.2727
 31
0.0
  0
LINE
  5
BB
330
1E
100
AcDbEntity
  8
0
100
AcDbLine
 10
26.5
 20
72.36360000000001
 30
0.0
 11
26.5
 21
69.0909
 31
0.0
  0
LINE
  5
BC
330
1E
100
AcDbEntity
  8
0
100
AcDbLine
 10
26.5
 20
69.0909
 30
0.0
 11
26.5
 21
72.36360000000001
 31
0.0
  0
LINE
  5
BD
330
1E
100
AcDbEntity
  8
0
100
AcDbLine
 10
26.5
 20
69.0909
 30
0.0
 11
26.5
 21
64.90909999999999
 31
0.0
  0
LINE
  5
BE
330
1E
100
AcDbEntity
  8
0
100
AcDbLine
 10
26.5
 20
64.90909999999999
 30
0.0
 11
26.5
 21
69.0909
 31
0.0
  0
LINE
  5
BF
330
1E
100
AcDbEntity
  8
0
100
AcDbLine
 10
26.5
 20
64.90909999999999
 30
0.0
 11
26.5
 21
60.1818
 31
0.0
  0
LINE
  5
C0
330
1E
100
AcDbEntity
  8
0
100
AcDbLine
 10
26.5
 20
60.1818
 30
0.0
 11
26.5
 21
64.90909999999999
 31
0.0
  0
LINE
  5
C1
330
1E
100
AcDbEntity
  8
0
100
AcDbLine
 10
26.5
 20
60.1818
 30
0.0
 11
26.5
 21
55.0
 31
0.0
  0
LINE
  5
C2
330
1E
100
AcDbEntity
  8
0
100
AcDbLine
 10
26.5
 20
75.0
 30
0.0
 11
64.0
 21
75.0
 31
0.0
  0
LINE
  5
C3
330
1E
100
AcDbEntity
  8
0
100
AcDbLine
 10
26.5
 20
75.0
 30
0.0
 11
26.5
 21
74.2727
 31
0.0
  0
LINE
  5
C4
330
1E
100
AcDbEntity
  8
0
100
AcDbLine
 10
26.5
 20
55.0
 30
0.0
 11
26.5
 21
49.81819999999999
 31
0.0
  0
LINE
  5
C5
330
1E
100
AcDbEntity
  8
0
100
AcDbLine
 10
26.5
 20
55.0
 30
0.0
 11
26.5
 21
60.1818
 31
0.0
  0
LINE
  5
C6
330
1E
100
AcDbEntity
  8
0
100
AcDbLine
 10
26.5
 20
45.09089999999999
 30
0.0
 11
26.5
 21
49.81819999999999
 31
0.0
  0
LINE
  5
C7
330
1E
100
AcDbEntity
  8
0
100
AcDbLine
 10
26.5
 20
45.09089999999999
 30
0.0
 11
26.5
 21
40.9091
 31
0.0
  0
LINE
  5
C8
330
1E
100
AcDbEntity
  8
0
100
AcDbLine
 10
64.0
 20
36.3455
 30
0.0
 11
64.0
 21
41.8681
 31
0.0
  0
LINE
  5
C9
330
1E
100
AcDbEntity
  8
0
100
AcDbLine
 10
64.0
 20
36.3455
 30
0.0
 11
64.0
 21
32.1727
 31
0.0
  0
LINE
  5
CA
330
1E
100
AcDbEntity
  8
0
100
AcDbLine
 10
64.0
 20
35.72729999999999
 30
0.0
 11
64.0
 21
37.6364
 31
0.0
  0
LINE
  5
CB
330
1E
100
AcDbEntity
  8
0
100
AcDbLine
 10
64.0
 20
37.6364
 30
0.0
 11
64.0
 21
40.9091
 31
0.0
  0
LINE
  5
CC
330
1E
100
AcDbEntity
  8
0
100
AcDbLine
 10
64.0
 20
41.8681
 30
0.0
 11
64.0
 21
48.25
 31
0.0
  0
LINE
  5
CD
330
1E
100
AcDbEntity
  8
0
100
AcDbLine
 10
64.0
 20
41.8681
 30
0.0
 11
64.0
 21
36.3455
 31
0.0
  0
LINE
  5
CE
330
1E
100
AcDbEntity
  8
0
100
AcDbLine
 10
64.0
 20
48.25
 30
0.0
 11
64.0
 21
55.0
 31
0.0
  0
LINE
  5
CF
330
1E
100
AcDbEntity
  8
0
100
AcDbLine
 10
64.0
 20
48.25
 30
0.0
 11
64.0
 21
41.8681
 31
0.0
  0
LINE
  5
D0
330
1E
100
AcDbEntity
  8
0
100
AcDbLine
 10
64.0
 20
40.9091
 30
0.0
 11
64.0
 21
45.09089999999999
 31
0.0
  0
LINE
  5
D1
330
1E
100
AcDbEntity
  8
0
100
AcDbLine
 10
64.6579
 20
35.9773
 30
0.0
 11
64.6579
 21
41.6227
 31
0.0
  0
LINE
  5
D2
330
1E
100
AcDbEntity
  8
0
100
AcDbLine
 10
64.6579
 20
35.9773
 30
0.0
 11
64.6579
 21
31.5591
 31
0.0
  0
LINE
  5
D3
330
1E
100
AcDbEntity
  8
0
100
AcDbLine
 10
73.3421
 20
35.9773
 30
0.0
 11
73.3421
 21
31.5591
 31
0.0
  0
LINE
  5
D4
330
1E
100
AcDbEntity
  8
0
100
AcDbLine
 10
73.3421
 20
35.9773
 30
0.0
 11
73.3421
 21
41.6227
 31
0.0
  0
LINE
  5
D5
330
1E
100
AcDbEntity
  8
0
100
AcDbLine
 10
73.3421
 20
41.6227
 30
0.0
 11
73.3421
 21
35.9773
 31
0.0
  0
LINE
  5
D6
330
1E
100
AcDbEntity
  8
0
100
AcDbLine
 10
73.3421
 20
41.6227
 30
0.0
 11
73.3421
 21
48.00460000000001
 31
0.0
  0
LINE
  5
D7
330
1E
100
AcDbEntity
  8
0
100
AcDbLine
 10
91.0
 20
40.1363
 30
0.0
 11
91.0
 21
47.2273
 31
0.0
  0
LINE
  5
D8
330
1E
100
AcDbEntity
  8
0
100
AcDbLine
 10
102.0
 20
41.00909999999999
 30
0.0
 11
102.0
 21
55.0
 31
0.0
  0
LINE
  5
D9
330
1E
100
AcDbEntity
  8
0
100
AcDbLine
 10
92.09650000000001
 20
41.00909999999999
 30
0.0
 11
92.09650000000001
 21
55.0
 31
0.0
  0
LINE
  5
DA
330
1E
100
AcDbEntity
  8
0
100
AcDbLine
 10
92.09650000000001
 20
41.00909999999999
 30
0.0
 11
92.09650000000001
 21
28.2454
 31
0.0
  0
LINE
  5
DB
330
1E
100
AcDbEntity
  8
0
100
AcDbLine
 10
91.0
 20
41.5
 30
0.0
 11
91.0
 21
55.0
 31
0.0
  0
LINE
  5
DC
330
1E
100
AcDbEntity
  8
0
100
AcDbLine
 10
91.0
 20
41.5
 30
0.0
 11
91.0
 21
28.7363
 31
0.0
  0
LINE
  5
DD
330
1E
100
AcDbEntity
  8
0
100
AcDbLine
 10
89.6579
 20
40.1363
 30
0.0
 11
89.6579
 21
47.2273
 31
0.0
  0
LINE
  5
DE
330
1E
100
AcDbEntity
  8
0
100
AcDbLine
 10
89.6579
 20
40.1363
 30
0.0
 11
89.6579
 21
33.86359999999999
 31
0.0
  0
LINE
  5
DF
330
1E
100
AcDbEntity
  8
0
100
AcDbLine
 10
89.0
 20
40.40899999999999
 30
0.0
 11
89.0
 21
47.5
 31
0.0
  0
LINE
  5
E0
330
1E
100
AcDbEntity
  8
0
100
AcDbLine
 10
89.0
 20
40.40899999999999
 30
0.0
 11
89.0
 21
34.2727
 31
0.0
  0
LINE
  5
E1
330
1E
100
AcDbEntity
  8
0
100
AcDbLine
 10
89.0
 20
35.9773
 30
0.0
 11
89.0
 21
41.6227
 31
0.0
  0
LINE
  5
E2
330
1E
100
AcDbEntity
  8
0
100
AcDbLine
 10
74.6579
 20
35.9773
 30
0.0
 11
74.6579
 21
41.6227
 31
0.0
  0
LINE
  5
E3
330
1E
100
AcDbEntity
  8
0
100
AcDbLine
 10
74.6579
 20
35.9773
 30
0.0
 11
74.6579
 21
31.5591
 31
0.0
  0
LINE
  5
E4
330
1E
100
AcDbEntity
  8
0
100
AcDbLine
 10
74.6579
 20
41.6227
 30
0.0
 11
74.6579
 21
48.00460000000001
 31
0.0
  0
LINE
  5
E5
330
1E
100
AcDbEntity
  8
0
100
AcDbLine
 10
74.6579
 20
41.6227
 30
0.0
 11
74.6579
 21
35.9773
 31
0.0
  0
LINE
  5
E6
330
1E
100
AcDbEntity
  8
0
100
AcDbLine
 10
74.0
 20
36.3455
 30
0.0
 11
74.0
 21
32.1727
 31
0.0
  0
LINE
  5
E7
330
1E
100
AcDbEntity
  8
0
100
AcDbLine
 10
74.0
 20
36.3455
 30
0.0
 11
74.0
 21
41.8681
 31
0.0
  0
LINE
  5
E8
330
1E
100
AcDbEntity
  8
0
100
AcDbLine
 10
91.0
 20
47.2273
 30
0.0
 11
91.0
 21
55.0
 31
0.0
  0
LINE
  5
E9
330
1E
100
AcDbEntity
  8
0
100
AcDbLine
 10
89.6579
 20
47.2273
 30
0.0
 11
89.6579
 21
55.0
 31
0.0
  0
LINE
  5
EA
330
1E
100
AcDbEntity
  8
0
100
AcDbLine
 10
89.6579
 20
47.2273
 30
0.0
 11
89.6579
 21
40.1363
 31
0.0
  0
LINE
  5
EB
330
1E
100
AcDbEntity
  8
0
100
AcDbLine
 10
89.0
 20
47.5
 30
0.0
 11
89.0
 21
48.00460000000001
 31
0.0
  0
LINE
  5
EC
330
1E
100
AcDbEntity
  8
0
100
AcDbLine
 10
89.0
 20
47.5
 30
0.0
 11
89.0
 21
55.0
 31
0.0
  0
LINE
  5
ED
330
1E
100
AcDbEntity
  8
0
100
AcDbLine
 10
89.0
 20
48.00460000000001
 30
0.0
 11
89.0
 21
55.0
 31
0.0
  0
LINE
  5
EE
330
1E
100
AcDbEntity
  8
0
100
AcDbLine
 10
89.0
 20
48.00460000000001
 30
0.0
 11
89.0
 21
47.5
 31
0.0
  0
LINE
  5
EF
330
1E
100
AcDbEntity
  8
0
100
AcDbLine
 10
74.6579
 20
48.00460000000001
 30
0.0
 11
74.6579
 21
55.0
 31
0.0
  0
LINE
  5
F0
330
1E
100
AcDbEntity
  8
0
100
AcDbLine
 10
74.6579
 20
48.00460000000001
 30
0.0
 11
74.6579
 21
41.6227
 31
0.0
  0
LINE
  5
F1
330
1E
100
AcDbEntity
  8
0
100
AcDbLine
 10
73.3421
 20
48.00460000000001
 30
0.0
 11
73.3421
 21
41.6227
 31
0.0
  0
LINE
  5
F2
330
1E
100
AcDbEntity
  8
0
100
AcDbLine
 10
73.3421
 20
48.00460000000001
 30
0.0
 11
73.3421
 21
55.0
 31
0.0
  0
LINE
  5
F3
330
1E
100
AcDbEntity
  8
0
100
AcDbLine
 10
74.0
 20
41.8681
 30
0.0
 11
74.0
 21
36.3455
 31
0.0
  0
LINE
  5
F4
330
1E
100
AcDbEntity
  8
0
100
AcDbLine
 10
74.0
 20
41.8681
 30
0.0
 11
74.0
 21
48.25
 31
0.0
  0
LINE
  5
F8
330
1E
100
AcDbEntity
  8
0
100
AcDbLine
 10
64.6579
 20
41.6227
 30
0.0
 11
64.6579
 21
48.00460000000001
 31
0.0
  0
LINE
  5
F9
330
1E
100
AcDbEntity
  8
0
100
AcDbLine
 10
74.0
 20
48.25
 30
0.0
 11
74.0
 21
41.8681
 31
0.0
  0
LINE
  5
FA
330
1E
100
AcDbEntity
  8
0
100
AcDbLine
 10
74.0
 20
48.25
 30
0.0
 11
74.0
 21
55.0
 31
0.0
  0
LINE
  5
FB
330
1E
100
AcDbEntity
  8
0
100
AcDbLine
 10
64.6579
 20
48.00460000000001
 30
0.0
 11
64.6579
 21
55.0
 31
0.0
  0
LINE
  5
FC
330
1E
100
AcDbEntity
  8
0
100
AcDbLine
 10
64.6579
 20
48.00460000000001
 30
0.0
 11
64.6579
 21
41.6227
 31
0.0
  0
LINE
  5
FD
330
1E
100
AcDbEntity
  8
0
100
AcDbLine
 10
64.0
 20
45.09089999999999
 30
0.0
 11
64.0
 21
49.81819999999999
 31
0.0
  0
LINE
  5
FE
330
1E
100
AcDbEntity
  8
0
100
AcDbLine
 10
64.0
 20
68.1319
 30
0.0
 11
64.0
 21
73.6546
 31
0.0
  0
LINE
  5
FF
330
1E
100
AcDbEntity
  8
0
100
AcDbLine
 10
64.0
 20
68.1319
 30
0.0
 11
64.0
 21
61.75
 31
0.0
  0
LINE
  5
100
330
1E
100
AcDbEntity
  8
0
100
AcDbLine
 10
64.0
 20
61.75
 30
0.0
 11
64.0
 21
68.1319
 31
0.0
  0
LINE
  5
101
330
1E
100
AcDbEntity
  8
0
100
AcDbLine
 10
64.0
 20
61.75
 30
0.0
 11
64.0
 21
55.0
 31
0.0
  0
LINE
  5
102
330
1E
100
AcDbEntity
  8
0
100
AcDbLine
 10
64.0
 20
73.6546
 30
0.0
 11
64.0
 21
77.82729999999999
 31
0.0
  0
LINE
  5
103
330
1E
100
AcDbEntity
  8
0
100
AcDbLine
 10
64.0
 20
73.6546
 30
0.0
 11
64.0
 21
68.1319
 31
0.0
  0
LINE
  5
104
330
1E
100
AcDbEntity
  8
0
100
AcDbLine
 10
64.0
 20
75.0
 30
0.0
 11
64.0
 21
77.82729999999999
 31
0.0
  0
LINE
  5
105
330
1E
100
AcDbEntity
  8
0
100
AcDbLine
 10
64.0
 20
81.3864
 30
0.0
 11
64.0
 21
80.40460000000001
 31
0.0
  0
LINE
  5
106
330
1E
100
AcDbEntity
  8
0
100
AcDbLine
 10
64.0
 20
81.3864
 30
0.0
 11
64.6579
 21
82.0
 31
0.0
  0
LINE
  5
107
330
1E
100
AcDbEntity
  8
0
100
AcDbLine
 10
64.0
 20
80.40460000000001
 30
0.0
 11
64.0
 21
77.82729999999999
 31
0.0
  0
LINE
  5
108
330
1E
100
AcDbEntity
  8
0
100
AcDbLine
 10
64.0
 20
80.40460000000001
 30
0.0
 11
64.0
 21
81.3864
 31
0.0
  0
LINE
  5
109
330
1E
100
AcDbEntity
  8
0
100
AcDbLine
 10
64.0
 20
77.82729999999999
 30
0.0
 11
64.0
 21
75.0
 31
0.0
  0
LINE
  5
10A
330
1E
100
AcDbEntity
  8
0
100
AcDbLine
 10
64.0
 20
77.82729999999999
 30
0.0
 11
64.0
 21
80.40460000000001
 31
0.0
  0
LINE
  5
10B
330
1E
100
AcDbEntity
  8
0
100
AcDbLine
 10
64.0
 20
77.82729999999999
 30
0.0
 11
64.0
 21
73.6546
 31
0.0
  0
LINE
  5
10C
330
1E
100
AcDbEntity
  8
0
100
AcDbLine
 10
64.0
 20
74.2727
 30
0.0
 11
64.0
 21
75.0
 31
0.0
  0
LINE
  5
10D
330
1E
100
AcDbEntity
  8
0
100
AcDbLine
 10
64.0
 20
72.36360000000001
 30
0.0
 11
64.0
 21
74.2727
 31
0.0
  0
LINE
  5
10E
330
1E
100
AcDbEntity
  8
0
100
AcDbLine
 10
64.0
 20
69.0909
 30
0.0
 11
64.0
 21
72.36360000000001
 31
0.0
  0
LINE
  5
10F
330
1E
100
AcDbEntity
  8
0
100
AcDbLine
 10
64.0
 20
64.90909999999999
 30
0.0
 11
64.0
 21
69.0909
 31
0.0
  0
LINE
  5
110
330
1E
100
AcDbEntity
  8
0
100
AcDbLine
 10
64.0
 20
60.1818
 30
0.0
 11
64.0
 21
64.90909999999999
 31
0.0
  0
LINE
  5
111
330
1E
100
AcDbEntity
  8
0
100
AcDbLine
 10
102.0
 20
55.0
 30
0.0
 11
102.0
 21
68.9909
 31
0.0
  0
LINE
  5
112
330
1E
100
AcDbEntity
  8
0
100
AcDbLine
 10
92.09650000000001
 20
55.0
 30
0.0
 11
92.09650000000001
 21
41.00909999999999
 31
0.0
  0
LINE
  5
113
330
1E
100
AcDbEntity
  8
0
100
AcDbLine
 10
92.09650000000001
 20
55.0
 30
0.0
 11
92.09650000000001
 21
68.9909
 31
0.0
  0
LINE
  5
114
330
1E
100
AcDbEntity
  8
0
100
AcDbLine
 10
91.0
 20
55.0
 30
0.0
 11
91.0
 21
62.7727
 31
0.0
  0
LINE
  5
115
330
1E
100
AcDbEntity
  8
0
100
AcDbLine
 10
91.0
 20
55.0
 30
0.0
 11
91.0
 21
41.5
 31
0.0
  0
LINE
  5
116
330
1E
100
AcDbEntity
  8
0
100
AcDbLine
 10
91.0
 20
55.0
 30
0.0
 11
91.0
 21
68.5
 31
0.0
  0
LINE
  5
117
330
1E
100
AcDbEntity
  8
0
100
AcDbLine
 10
89.6579
 20
55.0
 30
0.0
 11
89.6579
 21
47.2273
 31
0.0
  0
LINE
  5
118
330
1E
100
AcDbEntity
  8
0
100
AcDbLine
 10
89.6579
 20
55.0
 30
0.0
 11
89.6579
 21
62.7727
 31
0.0
  0
LINE
  5
119
330
1E
100
AcDbEntity
  8
0
100
AcDbLine
 10
89.0
 20
55.0
 30
0.0
 11
89.0
 21
61.99539999999999
 31
0.0
  0
LINE
  5
11A
330
1E
100
AcDbEntity
  8
0
100
AcDbLine
 10
89.0
 20
55.0
 30
0.0
 11
89.0
 21
47.5
 31
0.0
  0
LINE
  5
11B
330
1E
100
AcDbEntity
  8
0
100
AcDbLine
 10
89.0
 20
55.0
 30
0.0
 11
89.0
 21
62.5
 31
0.0
  0
LINE
  5
11C
330
1E
100
AcDbEntity
  8
0
100
AcDbLine
 10
74.6579
 20
55.0
 30
0.0
 11
74.6579
 21
48.00460000000001
 31
0.0
  0
LINE
  5
11D
330
1E
100
AcDbEntity
  8
0
100
AcDbLine
 10
74.6579
 20
55.0
 30
0.0
 11
74.6579
 21
61.99539999999999
 31
0.0
  0
LINE
  5
11E
330
1E
100
AcDbEntity
  8
0
100
AcDbLine
 10
73.3421
 20
55.0
 30
0.0
 11
73.3421
 21
48.00460000000001
 31
0.0
  0
LINE
  5
11F
330
1E
100
AcDbEntity
  8
0
100
AcDbLine
 10
73.3421
 20
55.0
 30
0.0
 11
73.3421
 21
61.99539999999999
 31
0.0
  0
LINE
  5
120
330
1E
100
AcDbEntity
  8
0
100
AcDbLine
 10
74.0
 20
55.0
 30
0.0
 11
74.0
 21
48.25
 31
0.0
  0
LINE
  5
121
330
1E
100
AcDbEntity
  8
0
100
AcDbLine
 10
74.0
 20
55.0
 30
0.0
 11
74.0
 21
61.75
 31
0.0
  0
LINE
  5
124
330
1E
100
AcDbEntity
  8
0
100
AcDbLine
 10
64.6579
 20
81.0181
 30
0.0
 11
64.6579
 21
82.0
 31
0.0
  0
LINE
  5
125
330
1E
100
AcDbEntity
  8
0
100
AcDbLine
 10
64.6579
 20
81.0181
 30
0.0
 11
64.6579
 21
78.4409
 31
0.0
  0
LINE
  5
126
330
1E
100
AcDbEntity
  8
0
100
AcDbLine
 10
64.6579
 20
78.4409
 30
0.0
 11
64.6579
 21
81.0181
 31
0.0
  0
LINE
  5
127
330
1E
100
AcDbEntity
  8
0
100
AcDbLine
 10
64.6579
 20
78.4409
 30
0.0
 11
64.6579
 21
74.0227
 31
0.0
  0
LINE
  5
128
330
1E
100
AcDbEntity
  8
0
100
AcDbLine
 10
64.6579
 20
74.0227
 30
0.0
 11
64.6579
 21
78.4409
 31
0.0
  0
LINE
  5
129
330
1E
100
AcDbEntity
  8
0
100
AcDbLine
 10
64.6579
 20
74.0227
 30
0.0
 11
64.6579
 21
68.3773
 31
0.0
  0
LINE
  5
12A
330
1E
100
AcDbEntity
  8
0
100
AcDbLine
 10
64.6579
 20
68.3773
 30
0.0
 11
64.6579
 21
74.0227
 31
0.0
  0
LINE
  5
12B
330
1E
100
AcDbEntity
  8
0
100
AcDbLine
 10
64.6579
 20
68.3773
 30
0.0
 11
64.6579
 21
61.99539999999999
 31
0.0
  0
LINE
  5
12C
330
1E
100
AcDbEntity
  8
0
100
AcDbLine
 10
64.6579
 20
61.99539999999999
 30
0.0
 11
64.6579
 21
68.3773
 31
0.0
  0
LINE
  5
12D
330
1E
100
AcDbEntity
  8
0
100
AcDbLine
 10
64.6579
 20
61.99539999999999
 30
0.0
 11
64.6579
 21
55.0
 31
0.0
  0
LINE
  5
12E
330
1E
100
AcDbEntity
  8
0
100
AcDbLine
 10
73.3421
 20
61.99539999999999
 30
0.0
 11
73.3421
 21
55.0
 31
0.0
  0
LINE
  5
12F
330
1E
100
AcDbEntity
  8
0
100
AcDbLine
 10
73.3421
 20
61.99539999999999
 30
0.0
 11
73.3421
 21
68.3773
 31
0.0
  0
LINE
  5
130
330
1E
100
AcDbEntity
  8
0
100
AcDbLine
 10
89.0
 20
61.99539999999999
 30
0.0
 11
89.0
 21
68.3773
 31
0.0
  0
LINE
  5
131
330
1E
100
AcDbEntity
  8
0
100
AcDbLine
 10
74.6579
 20
61.99539999999999
 30
0.0
 11
74.6579
 21
68.3773
 31
0.0
  0
LINE
  5
132
330
1E
100
AcDbEntity
  8
0
100
AcDbLine
 10
74.6579
 20
61.99539999999999
 30
0.0
 11
74.6579
 21
55.0
 31
0.0
  0
LINE
  5
133
330
1E
100
AcDbEntity
  8
0
100
AcDbLine
 10
74.0
 20
61.75
 30
0.0
 11
74.0
 21
55.0
 31
0.0
  0
LINE
  5
134
330
1E
100
AcDbEntity
  8
0
100
AcDbLine
 10
74.0
 20
61.75
 30
0.0
 11
74.0
 21
68.1319
 31
0.0
  0
LINE
  5
136
330
1E
100
AcDbEntity
  8
0
100
AcDbLine
 10
73.3421
 20
68.3773
 30
0.0
 11
73.3421
 21
61.99539999999999
 31
0.0
  0
LINE
  5
137
330
1E
100
AcDbEntity
  8
0
100
AcDbLine
 10
73.3421
 20
68.3773
 30
0.0
 11
73.3421
 21
74.0227
 31
0.0
  0
LINE
  5
138
330
1E
100
AcDbEntity
  8
0
100
AcDbLine
 10
73.3421
 20
74.0227
 30
0.0
 11
73.3421
 21
78.4409
 31
0.0
  0
LINE
  5
139
330
1E
100
AcDbEntity
  8
0
100
AcDbLine
 10
73.3421
 20
78.4409
 30
0.0
 11
73.3421
 21
74.0227
 31
0.0
  0
LINE
  5
13A
330
1E
100
AcDbEntity
  8
0
100
AcDbLine
 10
73.3421
 20
78.4409
 30
0.0
 11
73.3421
 21
81.0181
 31
0.0
  0
LINE
  5
13B
330
1E
100
AcDbEntity
  8
0
100
AcDbLine
 10
69.0
 20
82.0
 30
0.0
 11
73.3421
 21
82.0
 31
0.0
  0
LINE
  5
13C
330
1E
100
AcDbEntity
  8
0
100
AcDbLine
 10
73.3421
 20
82.0
 30
0.0
 11
73.3421
 21
81.0181
 31
0.0
  0
LINE
  5
13D
330
1E
100
AcDbEntity
  8
0
100
AcDbLine
 10
73.3421
 20
82.0
 30
0.0
 11
74.0
 21
81.3864
 31
0.0
  0
LINE
  5
13E
330
1E
100
AcDbEntity
  8
0
100
AcDbLine
 10
73.3421
 20
81.0181
 30
0.0
 11
73.3421
 21
78.4409
 31
0.0
  0
LINE
  5
13F
330
1E
100
AcDbEntity
  8
0
100
AcDbLine
 10
73.3421
 20
81.0181
 30
0.0
 11
73.3421
 21
82.0
 31
0.0
  0
LINE
  5
140
330
1E
100
AcDbEntity
  8
0
100
AcDbLine
 10
74.0
 20
81.3864
 30
0.0
 11
74.0
 21
80.40460000000001
 31
0.0
  0
LINE
  5
141
330
1E
100
AcDbEntity
  8
0
100
AcDbLine
 10
74.0
 20
81.3864
 30
0.0
 11
74.6579
 21
82.0
 31
0.0
  0
LINE
  5
142
330
1E
100
AcDbEntity
  8
0
100
AcDbLine
 10
74.0
 20
80.40460000000001
 30
0.0
 11
74.0
 21
77.82729999999999
 31
0.0
  0
LINE
  5
143
330
1E
100
AcDbEntity
  8
0
100
AcDbLine
 10
74.0
 20
80.40460000000001
 30
0.0
 11
74.0
 21
81.3864
 31
0.0
  0
LINE
  5
144
330
1E
100
AcDbEntity
  8
0
100
AcDbLine
 10
74.0
 20
77.82729999999999
 30
0.0
 11
74.0
 21
73.6546
 31
0.0
  0
LINE
  5
145
330
1E
100
AcDbEntity
  8
0
100
AcDbLine
 10
74.0
 20
77.82729999999999
 30
0.0
 11
74.0
 21
80.40460000000001
 31
0.0
  0
LINE
  5
146
330
1E
100
AcDbEntity
  8
0
100
AcDbLine
 10
74.0
 20
73.6546
 30
0.0
 11
74.0
 21
68.1319
 31
0.0
  0
LINE
  5
147
330
1E
100
AcDbEntity
  8
0
100
AcDbLine
 10
74.0
 20
73.6546
 30
0.0
 11
74.0
 21
77.82729999999999
 31
0.0
  0
LINE
  5
148
330
1E
100
AcDbEntity
  8
0
100
AcDbLine
 10
74.6579
 20
81.0181
 30
0.0
 11
74.6579
 21
82.0
 31
0.0
  0
LINE
  5
149
330
1E
100
AcDbEntity
  8
0
100
AcDbLine
 10
74.6579
 20
81.0181
 30
0.0
 11
74.6579
 21
78.4409
 31
0.0
  0
LINE
  5
14A
330
1E
100
AcDbEntity
  8
0
100
AcDbLine
 10
74.6579
 20
78.4409
 30
0.0
 11
74.6579
 21
81.0181
 31
0.0
  0
LINE
  5
14B
330
1E
100
AcDbEntity
  8
0
100
AcDbLine
 10
74.6579
 20
78.4409
 30
0.0
 11
74.6579
 21
74.0227
 31
0.0
  0
LINE
  5
14C
330
1E
100
AcDbEntity
  8
0
100
AcDbLine
 10
74.6579
 20
74.0227
 30
0.0
 11
74.6579
 21
78.4409
 31
0.0
  0
LINE
  5
14D
330
1E
100
AcDbEntity
  8
0
100
AcDbLine
 10
74.6579
 20
74.0227
 30
0.0
 11
74.6579
 21
68.3773
 31
0.0
  0
LINE
  5
14E
330
1E
100
AcDbEntity
  8
0
100
AcDbLine
 10
91.0
 20
62.7727
 30
0.0
 11
91.0
 21
69.86369999999999
 31
0.0
  0
LINE
  5
14F
330
1E
100
AcDbEntity
  8
0
100
AcDbLine
 10
89.6579
 20
62.7727
 30
0.0
 11
89.6579
 21
69.86369999999999
 31
0.0
  0
LINE
  5
150
330
1E
100
AcDbEntity
  8
0
100
AcDbLine
 10
89.6579
 20
62.7727
 30
0.0
 11
89.6579
 21
55.0
 31
0.0
  0
LINE
  5
151
330
1E
100
AcDbEntity
  8
0
100
AcDbLine
 10
89.0
 20
62.5
 30
0.0
 11
89.0
 21
69.59100000000001
 31
0.0
  0
LINE
  5
152
330
1E
100
AcDbEntity
  8
0
100
AcDbLine
 10
89.0
 20
62.5
 30
0.0
 11
89.0
 21
55.0
 31
0.0
  0
LINE
  5
153
330
1E
100
AcDbEntity
  8
0
100
AcDbLine
 10
89.0
 20
75.72729999999999
 30
0.0
 11
89.0
 21
80.36369999999999
 31
0.0
  0
LINE
  5
154
330
1E
100
AcDbEntity
  8
0
100
AcDbLine
 10
89.0
 20
75.72729999999999
 30
0.0
 11
89.0
 21
69.59100000000001
 31
0.0
  0
LINE
  5
155
330
1E
100
AcDbEntity
  8
0
100
AcDbLine
 10
89.0
 20
69.59100000000001
 30
0.0
 11
89.0
 21
75.72729999999999
 31
0.0
  0
LINE
  5
156
330
1E
100
AcDbEntity
  8
0
100
AcDbLine
 10
89.0
 20
69.59100000000001
 30
0.0
 11
89.0
 21
62.5
 31
0.0
  0
LINE
  5
157
330
1E
100
AcDbEntity
  8
0
100
AcDbLine
 10
89.0
 20
80.36369999999999
 30
0.0
 11
89.0
 21
83.22729999999999
 31
0.0
  0
LINE
  5
158
330
1E
100
AcDbEntity
  8
0
100
AcDbLine
 10
89.0
 20
80.36369999999999
 30
0.0
 11
89.0
 21
75.72729999999999
 31
0.0
  0
LINE
  5
159
330
1E
100
AcDbEntity
  8
0
100
AcDbLine
 10
89.0
 20
82.0
 30
0.0
 11
89.0
 21
83.22729999999999
 31
0.0
  0
LINE
  5
15A
330
1E
100
AcDbEntity
  8
0
100
AcDbLine
 10
89.0
 20
81.0181
 30
0.0
 11
89.0
 21
82.0
 31
0.0
  0
LINE
  5
15B
330
1E
100
AcDbEntity
  8
0
100
AcDbLine
 10
89.0
 20
78.4409
 30
0.0
 11
89.0
 21
81.0181
 31
0.0
  0
LINE
  5
15C
330
1E
100
AcDbEntity
  8
0
100
AcDbLine
 10
91.0
 20
68.5
 30
0.0
 11
91.0
 21
81.26369999999999
 31
0.0
  0
LINE
  5
15D
330
1E
100
AcDbEntity
  8
0
100
AcDbLine
 10
91.0
 20
68.5
 30
0.0
 11
91.0
 21
55.0
 31
0.0
  0
LINE
  5
15E
330
1E
100
AcDbEntity
  8
0
100
AcDbLine
 10
102.0
 20
68.9909
 30
0.0
 11
102.0
 21
81.75459999999999
 31
0.0
  0
LINE
  5
15F
330
1E
100
AcDbEntity
  8
0
100
AcDbLine
 10
92.09650000000001
 20
68.9909
 30
0.0
 11
92.09650000000001
 21
81.75459999999999
 31
0.0
  0
LINE
  5
160
330
1E
100
AcDbEntity
  8
0
100
AcDbLine
 10
91.0
 20
69.86369999999999
 30
0.0
 11
91.0
 21
76.1363
 31
0.0
  0
LINE
  5
161
330
1E
100
AcDbEntity
  8
0
100
AcDbLine
 10
89.6579
 20
81.0454
 30
0.0
 11
89.6579
 21
83.909
 31
0.0
  0
LINE
  5
162
330
1E
100
AcDbEntity
  8
0
100
AcDbLine
 10
89.6579
 20
81.0454
 30
0.0
 11
89.6579
 21
76.1363
 31
0.0
  0
LINE
  5
163
330
1E
100
AcDbEntity
  8
0
100
AcDbLine
 10
91.0
 20
81.26369999999999
 30
0.0
 11
91.0
 21
92.30909999999999
 31
0.0
  0
LINE
  5
164
330
1E
100
AcDbEntity
  8
0
100
AcDbLine
 10
91.0
 20
81.26369999999999
 30
0.0
 11
91.0
 21
68.5
 31
0.0
  0
LINE
  5
165
330
1E
100
AcDbEntity
  8
0
100
AcDbLine
 10
102.0
 20
81.75459999999999
 30
0.0
 11
102.0
 21
93.04540000000001
 31
0.0
  0
LINE
  5
166
330
1E
100
AcDbEntity
  8
0
100
AcDbLine
 10
92.09650000000001
 20
81.75459999999999
 30
0.0
 11
92.09650000000001
 21
93.04540000000001
 31
0.0
  0
LINE
  5
167
330
1E
100
AcDbEntity
  8
0
100
AcDbLine
 10
92.09650000000001
 20
81.75459999999999
 30
0.0
 11
92.09650000000001
 21
68.9909
 31
0.0
  0
LINE
  5
168
330
1E
100
AcDbEntity
  8
0
100
AcDbLine
 10
91.0
 20
81.0454
 30
0.0
 11
91.0
 21
83.909
 31
0.0
  0
LINE
  5
169
330
1E
100
AcDbEntity
  8
0
100
AcDbLine
 10
91.0
 20
76.1363
 30
0.0
 11
91.0
 21
81.0454
 31
0.0
  0
LINE
  5
16A
330
1E
100
AcDbEntity
  8
0
100
AcDbLine
 10
89.6579
 20
76.1363
 30
0.0
 11
89.6579
 21
81.0454
 31
0.0
  0
LINE
  5
16B
330
1E
100
AcDbEntity
  8
0
100
AcDbLine
 10
89.6579
 20
76.1363
 30
0.0
 11
89.6579
 21
69.86369999999999
 31
0.0
  0
LINE
  5
16C
330
1E
100
AcDbEntity
  8
0
100
AcDbLine
 10
89.6579
 20
69.86369999999999
 30
0.0
 11
89.6579
 21
76.1363
 31
0.0
  0
LINE
  5
16D
330
1E
100
AcDbEntity
  8
0
100
AcDbLine
 10
89.6579
 20
69.86369999999999
 30
0.0
 11
89.6579
 21
62.7727
 31
0.0
  0
LINE
  5
16E
330
1E
100
AcDbEntity
  8
0
100
AcDbLine
 10
89.0
 20
74.0227
 30
0.0
 11
89.0
 21
78.4409
 31
0.0
  0
LINE
  5
16F
330
1E
100
AcDbEntity
  8
0
100
AcDbLine
 10
89.0
 20
68.3773
 30
0.0
 11
89.0
 21
74.0227
 31
0.0
  0
LINE
  5
170
330
1E
100
AcDbEntity
  8
0
100
AcDbLine
 10
74.6579
 20
68.3773
 30
0.0
 11
74.6579
 21
74.0227
 31
0.0
  0
LINE
  5
171
330
1E
100
AcDbEntity
  8
0
100
AcDbLine
 10
74.6579
 20
68.3773
 30
0.0
 11
74.6579
 21
61.99539999999999
 31
0.0
  0
LINE
  5
172
330
1E
100
AcDbEntity
  8
0
100
AcDbLine
 10
89.0
 20
84.3182
 30
0.0
 11
89.0
 21
83.22729999999999
 31
0.0
  0
LINE
  5
173
330
1E
100
AcDbEntity
  8
0
100
AcDbLine
 10
89.0
 20
84.3182
 30
0.0
 11
89.6579
 21
85.0
 31
0.0
  0
LINE
  5
174
330
1E
100
AcDbEntity
  8
0
100
AcDbLine
 10
91.0
 20
85.0
 30
0.0
 11
91.0
 21
92.30909999999999
 31
0.0
  0
LINE
  5
175
330
1E
100
AcDbEntity
  8
0
100
AcDbLine
 10
91.0
 20
83.909
 30
0.0
 11
91.0
 21
85.0
 31
0.0
  0
LINE
  5
176
330
1E
100
AcDbEntity
  8
0
100
AcDbLine
 10
89.6579
 20
83.909
 30
0.0
 11
89.6579
 21
85.0
 31
0.0
  0
LINE
  5
177
330
1E
100
AcDbEntity
  8
0
100
AcDbLine
 10
89.6579
 20
83.909
 30
0.0
 11
89.6579
 21
81.0454
 31
0.0
  0
LINE
  5
178
330
1E
100
AcDbEntity
  8
0
100
AcDbLine
 10
91.0
 20
107.773
 30
0.0
 11
91.0
 21
105.8089999999999
 31
0.0
  0
LINE
  5
179
330
1E
100
AcDbEntity
  8
0
100
AcDbLine
 10
91.0
 20
107.773
 30
0.0
 11
92.09650000000001
 21
109.0
 31
0.0
  0
LINE
  5
17A
330
1E
100
AcDbEntity
  8
0
100
AcDbLine
 10
91.0
 20
105.8089999999999
 30
0.0
 11
91.0
 21
100.6545999999999
 31
0.0
  0
LINE
  5
17B
330
1E
100
AcDbEntity
  8
0
100
AcDbLine
 10
91.0
 20
105.8089999999999
 30
0.0
 11
91.0
 21
107.773
 31
0.0
  0
LINE
  5
17C
330
1E
100
AcDbEntity
  8
0
100
AcDbLine
 10
91.0
 20
100.6545999999999
 30
0.0
 11
91.0
 21
92.30909999999999
 31
0.0
  0
LINE
  5
17D
330
1E
100
AcDbEntity
  8
0
100
AcDbLine
 10
91.0
 20
100.6545999999999
 30
0.0
 11
91.0
 21
105.8089999999999
 31
0.0
  0
LINE
  5
17E
330
1E
100
AcDbEntity
  8
0
100
AcDbLine
 10
92.09650000000001
 20
107.0359999999999
 30
0.0
 11
92.09650000000001
 21
109.0
 31
0.0
  0
LINE
  5
17F
330
1E
100
AcDbEntity
  8
0
100
AcDbLine
 10
92.09650000000001
 20
107.0359999999999
 30
0.0
 11
92.09650000000001
 21
101.882
 31
0.0
  0
LINE
  5
180
330
1E
100
AcDbEntity
  8
0
100
AcDbLine
 10
92.09650000000001
 20
101.882
 30
0.0
 11
92.09650000000001
 21
107.0359999999999
 31
0.0
  0
LINE
  5
181
330
1E
100
AcDbEntity
  8
0
100
AcDbLine
 10
92.09650000000001
 20
101.882
 30
0.0
 11
92.09650000000001
 21
93.04540000000001
 31
0.0
  0
LINE
  5
182
330
1E
100
AcDbEntity
  8
0
100
AcDbLine
 10
102.0
 20
107.0359999999999
 30
0.0
 11
102.0
 21
109.0
 31
0.0
  0
LINE
  5
183
330
1E
100
AcDbEntity
  8
0
100
AcDbLine
 10
102.0
 20
101.882
 30
0.0
 11
102.0
 21
107.0359999999999
 31
0.0
  0
LINE
  5
184
330
1E
100
AcDbEntity
  8
0
100
AcDbLine
 10
102.0
 20
93.04540000000001
 30
0.0
 11
102.0
 21
101.882
 31
0.0
  0
LINE
  5
185
330
1E
100
AcDbEntity
  8
0
100
AcDbLine
 10
92.09650000000001
 20
93.04540000000001
 30
0.0
 11
92.09650000000001
 21
101.882
 31
0.0
  0
LINE
  5
186
330
1E
100
AcDbEntity
  8
0
100
AcDbLine
 10
92.09650000000001
 20
93.04540000000001
 30
0.0
 11
92.09650000000001
 21
81.75459999999999
 31
0.0
  0
LINE
  5
187
330
1E
100
AcDbEntity
  8
0
100
AcDbLine
 10
92.09650000000001
 20
109.0
 30
0.0
 11
102.0
 21
109.0
 31
0.0
  0
LINE
  5
188
330
1E
100
AcDbEntity
  8
0
100
AcDbLine
 10
92.09650000000001
 20
109.0
 30
0.0
 11
92.09650000000001
 21
107.0359999999999
 31
0.0
  0
LINE
  5
189
330
1E
100
AcDbEntity
  8
0
100
AcDbLine
 10
91.0
 20
92.30909999999999
 30
0.0
 11
91.0
 21
85.0
 31
0.0
  0
LINE
  5
18A
330
1E
100
AcDbEntity
  8
0
100
AcDbLine
 10
91.0
 20
92.30909999999999
 30
0.0
 11
91.0
 21
100.6545999999999
 31
0.0
  0
LINE
  5
18B
330
1E
100
AcDbEntity
  8
0
100
AcDbLine
 10
91.0
 20
92.30909999999999
 30
0.0
 11
91.0
 21
81.26369999999999
 31
0.0
  0
LINE
  5
18C
330
1E
100
AcDbEntity
  8
0
100
AcDbLine
 10
89.6579
 20
85.0
 30
0.0
 11
91.0
 21
85.0
 31
0.0
  0
LINE
  5
18D
330
1E
100
AcDbEntity
  8
0
100
AcDbLine
 10
89.6579
 20
85.0
 30
0.0
 11
89.6579
 21
83.909
 31
0.0
  0
LINE
  5
18E
330
1E
100
AcDbEntity
  8
0
100
AcDbLine
 10
89.0
 20
83.22729999999999
 30
0.0
 11
89.0
 21
82.0
 31
0.0
  0
LINE
  5
18F
330
1E
100
AcDbEntity
  8
0
100
AcDbLine
 10
89.0
 20
83.22729999999999
 30
0.0
 11
89.0
 21
84.3182
 31
0.0
  0
LINE
  5
190
330
1E
100
AcDbEntity
  8
0
100
AcDbLine
 10
89.0
 20
83.22729999999999
 30
0.0
 11
89.0
 21
80.36369999999999
 31
0.0
  0
LINE
  5
191
330
1E
100
AcDbEntity
  8
0
100
AcDbLine
 10
74.6579
 20
82.0
 30
0.0
 11
89.0
 21
82.0
 31
0.0
  0
LINE
  5
192
330
1E
100
AcDbEntity
  8
0
100
AcDbLine
 10
74.6579
 20
82.0
 30
0.0
 11
74.6579
 21
81.0181
 31
0.0
  0
LINE
  5
193
330
1E
100
AcDbEntity
  8
0
100
AcDbLine
 10
74.0
 20
68.1319
 30
0.0
 11
74.0
 21
61.75
 31
0.0
  0
LINE
  5
194
330
1E
100
AcDbEntity
  8
0
100
AcDbLine
 10
74.0
 20
68.1319
 30
0.0
 11
74.0
 21
73.6546
 31
0.0
  0
LINE
  5
197
330
1E
100
AcDbEntity
  8
0
100
AcDbLine
 10
64.6579
 20
82.0
 30
0.0
 11
69.0
 21
82.0
 31
0.0
  0
LINE
  5
198
330
1E
100
AcDbEntity
  8
0
100
AcDbLine
 10
64.6579
 20
82.0
 30
0.0
 11
64.6579
 21
81.0181
 31
0.0
  0
LINE
  5
199
330
1E
100
AcDbEntity
  8
0
100
AcDbLine
 10
64.6579
 20
55.0
 30
0.0
 11
64.6579
 21
48.00460000000001
 31
0.0
  0
LINE
  5
19A
330
1E
100
AcDbEntity
  8
0
100
AcDbLine
 10
64.6579
 20
55.0
 30
0.0
 11
64.6579
 21
61.99539999999999
 31
0.0
  0
LINE
  5
19B
330
1E
100
AcDbEntity
  8
0
100
AcDbLine
 10
64.0
 20
55.0
 30
0.0
 11
64.0
 21
60.1818
 31
0.0
  0
LINE
  5
19C
330
1E
100
AcDbEntity
  8
0
100
AcDbLine
 10
64.0
 20
55.0
 30
0.0
 11
64.0
 21
48.25
 31
0.0
  0
LINE
  5
19D
330
1E
100
AcDbEntity
  8
0
100
AcDbLine
 10
64.0
 20
55.0
 30
0.0
 11
64.0
 21
61.75
 31
0.0
  0
LINE
  5
19E
330
1E
100
AcDbEntity
  8
0
100
AcDbLine
 10
64.0
 20
49.81819999999999
 30
0.0
 11
64.0
 21
55.0
 31
0.0
  0
LINE
  5
19F
330
1E
100
AcDbEntity
  8
0
100
AcDbLine
 10
26.5
 20
49.81819999999999
 30
0.0
 11
26.5
 21
55.0
 31
0.0
  0
LINE
  5
1A0
330
1E
100
AcDbEntity
  8
0
100
AcDbLine
 10
26.5
 20
49.81819999999999
 30
0.0
 11
26.5
 21
45.09089999999999
 31
0.0
  0
LINE
  5
1A1
330
1E
100
AcDbEntity
  8
0
100
AcDbLine
 10
26.5
 20
35.0
 30
0.0
 11
64.0
 21
35.0
 31
0.0
  0
LINE
  5
1A2
330
1E
100
AcDbEntity
  8
0
100
AcDbLine
 10
26.5
 20
35.0
 30
0.0
 11
26.5
 21
35.72729999999999
 31
0.0
  0
LINE
  5
1A3
330
1E
100
AcDbEntity
  8
0
100
AcDbLine
 10
26.0
 20
50.5
 30
0.0
 11
26.0
 21
50.0
 31
0.0
  0
ENDSEC
  0
SECTION
  2
OBJECTS
  0
DICTIONARY
  5
C
330
0
100
AcDbDictionary
281
     1
  3
ACAD_GROUP
350
D
  3
ACAD_LAYOUT
350
19
  3
ACAD_MLINESTYLE
350
16
  3
ACAD_PLOTSETTINGS
350
18
  3
ACAD_PLOTSTYLENAME
350
E
  3
AcDbVariableDictionary
350
1A8
  0
DICTIONARY
  5
D
102
{ACAD_REACTORS
330
C
102
}
330
C
100
AcDbDictionary
281
     1
  0
DICTIONARY
  5
19
102
{ACAD_REACTORS
330
C
102
}
330
C
100
AcDbDictionary
281
     1
  3
Layout1
350
1D
  3
Model
350
21
  0
DICTIONARY
  5
16
102
{ACAD_REACTORS
330
C
102
}
330
C
100
AcDbDictionary
281
     1
  3
Standard
350
17
  0
DICTIONARY
  5
18
102
{ACAD_REACTORS
330
C
102
}
330
C
100
AcDbDictionary
281
     1
  0
ACDBDICTIONARYWDFLT
  5
E
102
{ACAD_REACTORS
330
C
102
}
330
C
100
AcDbDictionary
281
     1
  3
Normal
350
F
100
AcDbDictionaryWithDefault
340
F
  0
DICTIONARY
  5
1A8
102
{ACAD_REACTORS
330
C
102
}
330
C
100
AcDbDictionary
281
     1
  3
DIMASSOC
350
1A9
  0
LAYOUT
  5
1D
102
{ACAD_REACTORS
330
19
102
}
330
19
100
AcDbPlotSettings
  1

  2
hp deskjet 980c series
  4

  6

 40
0.0
 41
0.0
 42
0.0
 43
0.0
 44
0.0
 45
0.0
 46
0.0
 47
0.0
 48
0.0
 49
0.0
140
0.0
141
0.0
142
1.0
143
1.0
 70
   688
 72
     0
 73
     0
 74
     5
  7

 75
    16
147
1.0
148
0.0
149
0.0
100
AcDbLayout
  1
Layout1
 70
     1
 71
     1
 10
0.0
 20
0.0
 11
12.0
 21
9.0
 12
0.0
 22
0.0
 32
0.0
 14
1.000000000000000E+20
 24
1.000000000000000E+20
 34
1.000000000000000E+20
 15
-1.000000000000000E+20
 25
-1.000000000000000E+20
 35
-1.000000000000000E+20
146
0.0
 13
0.0
 23
0.0
 33
0.0
 16
1.0
 26
0.0
 36
0.0
 17
0.0
 27
1.0
 37
0.0
 76
     0
330
1A
  0
LAYOUT
  5
21
102
{ACAD_REACTORS
330
19
102
}
330
19
100
AcDbPlotSettings
  1

  2
hp deskjet 980c series
  4

  6

 40
0.0
 41
0.0
 42
0.0
 43
0.0
 44
0.0
 45
0.0
 46
0.0
 47
0.0
 48
0.0
 49
0.0
140
0.0
141
0.0
142
1.0
143
1.0
 70
  1712
 72
     0
 73
     0
 74
     0
  7

 75
     0
147
1.0
148
0.0
149
0.0
100
AcDbLayout
  1
Model
 70
     1
 71
     0
 10
0.0
 20
0.0
 11
12.0
 21
9.0
 12
0.0
 22
0.0
 32
0.0
 14
0.0
 24
0.0
 34
0.0
 15
0.0
 25
0.0
 35
0.0
146
0.0
 13
0.0
 23
0.0
 33
0.0
 16
1.0
 26
0.0
 36
0.0
 17
0.0
 27
1.0
 37
0.0
 76
     0
330
1E
  0
MLINESTYLE
  5
17
102
{ACAD_REACTORS
330
16
102
}
330
16
100
AcDbMlineStyle
  2
STANDARD
 70
     0
  3

 62
   256
 51
90.0
 52
90.0
 71
     2
 49
0.5
 62
   256
  6
BYLAYER
 49
-0.5
 62
   256
  6
BYLAYER
  0
ACDBPLACEHOLDER
  5
F
102
{ACAD_REACTORS
330
E
102
}
330
E
  0
DICTIONARYVAR
  5
1A9
102
{ACAD_REACTORS
330
1A8
102
}
330
1A8
100
DictionaryVariables
280
     0
  1
1
  0
ENDSEC
  0
EOF
