  0
SECTION
  2
HEADER
  9
$ACADVER
  1
AC1015
  9
$ACADMAINTVER
 70
    13
  9
$DWGCODEPAGE
  3
ANSI_1252
  9
$INSBASE
 10
0.0
 20
0.0
 30
0.0
  9
$EXTMIN
 10
0.250000000000003
 20
-0.0000000000000006
 30
0.0
  9
$EXTMAX
 10
475.75
 20
534.0
 30
0.0
  9
$LIMMIN
 10
0.0
 20
0.0
  9
$LIMMAX
 10
12.0
 20
9.0
  9
$ORTHOMODE
 70
     0
  9
$REGENMODE
 70
     1
  9
$FILLMODE
 70
     1
  9
$QTEXTMODE
 70
     0
  9
$MIRRTEXT
 70
     1
  9
$LTSCALE
 40
1.0
  9
$ATTMODE
 70
     1
  9
$TEXTSIZE
 40
0.2
  9
$TRACEWID
 40
0.05
  9
$TEXTSTYLE
  7
Standard
  9
$CLAYER
  8
0
  9
$CELTYPE
  6
Continuous
  9
$CECOLOR
 62
   256
  9
$CELTSCALE
 40
1.0
  9
$DISPSILH
 70
     0
  9
$DIMSCALE
 40
1.0
  9
$DIMASZ
 40
0.18
  9
$DIMEXO
 40
0.0625
  9
$DIMDLI
 40
0.38
  9
$DIMRND
 40
0.0
  9
$DIMDLE
 40
0.0
  9
$DIMEXE
 40
0.18
  9
$DIMTP
 40
0.0
  9
$DIMTM
 40
0.0
  9
$DIMTXT
 40
0.18
  9
$DIMCEN
 40
0.09
  9
$DIMTSZ
 40
0.0
  9
$DIMTOL
 70
     0
  9
$DIMLIM
 70
     0
  9
$DIMTIH
 70
     1
  9
$DIMTOH
 70
     1
  9
$DIMSE1
 70
     0
  9
$DIMSE2
 70
     0
  9
$DIMTAD
 70
     0
  9
$DIMZIN
 70
     0
  9
$DIMBLK
  1

  9
$DIMASO
 70
     1
  9
$DIMSHO
 70
     1
  9
$DIMPOST
  1

  9
$DIMAPOST
  1

  9
$DIMALT
 70
     0
  9
$DIMALTD
 70
     2
  9
$DIMALTF
 40
25.4
  9
$DIMLFAC
 40
1.0
  9
$DIMTOFL
 70
     0
  9
$DIMTVP
 40
0.0
  9
$DIMTIX
 70
     0
  9
$DIMSOXD
 70
     0
  9
$DIMSAH
 70
     0
  9
$DIMBLK1
  1

  9
$DIMBLK2
  1

  9
$DIMSTYLE
  2
Standard
  9
$DIMCLRD
 70
     0
  9
$DIMCLRE
 70
     0
  9
$DIMCLRT
 70
     0
  9
$DIMTFAC
 40
1.0
  9
$DIMGAP
 40
0.09
  9
$DIMJUST
 70
     0
  9
$DIMSD1
 70
     0
  9
$DIMSD2
 70
     0
  9
$DIMTOLJ
 70
     1
  9
$DIMTZIN
 70
     0
  9
$DIMALTZ
 70
     0
  9
$DIMALTTZ
 70
     0
  9
$DIMUPT
 70
     0
  9
$DIMDEC
 70
     4
  9
$DIMTDEC
 70
     4
  9
$DIMALTU
 70
     2
  9
$DIMALTTD
 70
     2
  9
$DIMTXSTY
  7
Standard
  9
$DIMAUNIT
 70
     0
  9
$DIMADEC
 70
     0
  9
$DIMALTRND
 40
0.0
  9
$DIMAZIN
 70
     0
  9
$DIMDSEP
 70
    46
  9
$DIMATFIT
 70
     3
  9
$DIMFRAC
 70
     0
  9
$DIMLDRBLK
  1

  9
$DIMLUNIT
 70
     2
  9
$DIMLWD
 70
    -2
  9
$DIMLWE
 70
    -2
  9
$DIMTMOVE
 70
     0
  9
$LUNITS
 70
     2
  9
$LUPREC
 70
     4
  9
$SKETCHINC
 40
0.1
  9
$FILLETRAD
 40
0.0
  9
$AUNITS
 70
     0
  9
$AUPREC
 70
     0
  9
$MENU
  1
.
  9
$ELEVATION
 40
0.0
  9
$PELEVATION
 40
0.0
  9
$THICKNESS
 40
0.0
  9
$LIMCHECK
 70
     0
  9
$CHAMFERA
 40
0.0
  9
$CHAMFERB
 40
0.0
  9
$CHAMFERC
 40
0.0
  9
$CHAMFERD
 40
0.0
  9
$SKPOLY
 70
     0
  9
$TDCREATE
 40
2454636.784222002
  9
$TDUCREATE
 40
2454636.700888669
  9
$TDUPDATE
 40
2454636.788188113
  9
$TDUUPDATE
 40
2454636.704854780
  9
$TDINDWG
 40
0.0039661111
  9
$TDUSRTIMER
 40
0.0039661111
  9
$USRTIMER
 70
     1
  9
$ANGBASE
 50
0.0
  9
$ANGDIR
 70
     0
  9
$PDMODE
 70
     0
  9
$PDSIZE
 40
0.0
  9
$PLINEWID
 40
0.0
  9
$SPLFRAME
 70
     0
  9
$SPLINETYPE
 70
     6
  9
$SPLINESEGS
 70
     8
  9
$HANDSEED
  5
4C9
  9
$SURFTAB1
 70
     6
  9
$SURFTAB2
 70
     6
  9
$SURFTYPE
 70
     6
  9
$SURFU
 70
     6
  9
$SURFV
 70
     6
  9
$UCSBASE
  2

  9
$UCSNAME
  2

  9
$UCSORG
 10
0.0
 20
0.0
 30
0.0
  9
$UCSXDIR
 10
1.0
 20
0.0
 30
0.0
  9
$UCSYDIR
 10
0.0
 20
1.0
 30
0.0
  9
$UCSORTHOREF
  2

  9
$UCSORTHOVIEW
 70
     1
  9
$UCSORGTOP
 10
0.0
 20
0.0
 30
0.0
  9
$UCSORGBOTTOM
 10
0.0
 20
0.0
 30
0.0
  9
$UCSORGLEFT
 10
0.0
 20
0.0
 30
0.0
  9
$UCSORGRIGHT
 10
0.0
 20
0.0
 30
0.0
  9
$UCSORGFRONT
 10
0.0
 20
0.0
 30
0.0
  9
$UCSORGBACK
 10
0.0
 20
0.0
 30
0.0
  9
$PUCSBASE
  2

  9
$PUCSNAME
  2

  9
$PUCSORG
 10
0.0
 20
0.0
 30
0.0
  9
$PUCSXDIR
 10
1.0
 20
0.0
 30
0.0
  9
$PUCSYDIR
 10
0.0
 20
1.0
 30
0.0
  9
$PUCSORTHOREF
  2

  9
$PUCSORTHOVIEW
 70
     0
  9
$PUCSORGTOP
 10
0.0
 20
0.0
 30
0.0
  9
$PUCSORGBOTTOM
 10
0.0
 20
0.0
 30
0.0
  9
$PUCSORGLEFT
 10
0.0
 20
0.0
 30
0.0
  9
$PUCSORGRIGHT
 10
0.0
 20
0.0
 30
0.0
  9
$PUCSORGFRONT
 10
0.0
 20
0.0
 30
0.0
  9
$PUCSORGBACK
 10
0.0
 20
0.0
 30
0.0
  9
$USERI1
 70
     0
  9
$USERI2
 70
     0
  9
$USERI3
 70
     0
  9
$USERI4
 70
     0
  9
$USERI5
 70
     0
  9
$USERR1
 40
0.0
  9
$USERR2
 40
0.0
  9
$USERR3
 40
0.0
  9
$USERR4
 40
0.0
  9
$USERR5
 40
0.0
  9
$WORLDVIEW
 70
     1
  9
$SHADEDGE
 70
     3
  9
$SHADEDIF
 70
    70
  9
$TILEMODE
 70
     1
  9
$MAXACTVP
 70
    64
  9
$PINSBASE
 10
0.0
 20
0.0
 30
0.0
  9
$PLIMCHECK
 70
     0
  9
$PEXTMIN
 10
1.000000000000000E+20
 20
1.000000000000000E+20
 30
1.000000000000000E+20
  9
$PEXTMAX
 10
-1.000000000000000E+20
 20
-1.000000000000000E+20
 30
-1.000000000000000E+20
  9
$PLIMMIN
 10
0.0
 20
0.0
  9
$PLIMMAX
 10
12.0
 20
9.0
  9
$UNITMODE
 70
     0
  9
$VISRETAIN
 70
     1
  9
$PLINEGEN
 70
     0
  9
$PSLTSCALE
 70
     1
  9
$TREEDEPTH
 70
  3020
  9
$CMLSTYLE
  2
Standard
  9
$CMLJUST
 70
     0
  9
$CMLSCALE
 40
1.0
  9
$PROXYGRAPHICS
 70
     1
  9
$MEASUREMENT
 70
     0
  9
$CELWEIGHT
370
    -1
  9
$ENDCAPS
280
     0
  9
$JOINSTYLE
280
     0
  9
$LWDISPLAY
290
     0
  9
$INSUNITS
 70
     0
  9
$HYPERLINKBASE
  1

  9
$STYLESHEET
  1

  9
$XEDIT
290
     1
  9
$CEPSNTYPE
380
     0
  9
$PSTYLEMODE
290
     1
  9
$FINGERPRINTGUID
  2
{A0EE8690-5A38-4BB9-A2E5-861F36FCDBA0}
  9
$VERSIONGUID
  2
{5913A591-851B-46BD-9416-992CA3192314}
  9
$EXTNAMES
290
     1
  9
$PSVPSCALE
 40
0.0
  9
$OLESTARTUP
290
     0
  0
ENDSEC
  0
SECTION
  2
CLASSES
  0
CLASS
  1
ACDBDICTIONARYWDFLT
  2
AcDbDictionaryWithDefault
  3
AutoCAD 2000
 90
        0
280
     0
281
     0
  0
CLASS
  1
ACDBPLACEHOLDER
  2
AcDbPlaceHolder
  3
AutoCAD 2000
 90
        0
280
     0
281
     0
  0
CLASS
  1
LAYOUT
  2
AcDbLayout
  3
AutoCAD 2000
 90
        0
280
     0
281
     0
  0
CLASS
  1
DICTIONARYVAR
  2
AcDbDictionaryVar
  3
AutoCAD 2000
 90
        0
280
     0
281
     0
  0
ENDSEC
  0
SECTION
  2
TABLES
  0
TABLE
  2
VPORT
  5
8
330
0
100
AcDbSymbolTable
 70
     2
  0
VPORT
  5
4C8
330
8
100
AcDbSymbolTableRecord
100
AcDbViewportTableRecord
  2
*Active
 70
     0
 10
0.0
 20
0.0
 11
1.0
 21
1.0
 12
238.0
 22
267.0
 13
0.0
 23
0.0
 14
1.0
 24
1.0
 15
0.0
 25
0.0
 16
0.0
 26
0.0
 36
1.0
 17
0.0
 27
0.0
 37
0.0
 40
538.0971867007672
 41
2.043533930857874
 42
50.0
 43
0.0
 44
0.0
 50
0.0
 51
0.0
 71
     0
 72
   100
 73
     1
 74
     3
 75
     0
 76
     0
 77
     0
 78
     0
281
     0
 65
     1
110
0.0
120
0.0
130
0.0
111
1.0
121
0.0
131
0.0
112
0.0
122
1.0
132
0.0
 79
     1
146
0.0
  0
ENDTAB
  0
TABLE
  2
LTYPE
  5
5
330
0
100
AcDbSymbolTable
 70
     1
  0
LTYPE
  5
13
330
5
100
AcDbSymbolTableRecord
100
AcDbLinetypeTableRecord
  2
ByBlock
 70
     0
  3

 72
    65
 73
     0
 40
0.0
  0
LTYPE
  5
14
330
5
100
AcDbSymbolTableRecord
100
AcDbLinetypeTableRecord
  2
ByLayer
 70
     0
  3

 72
    65
 73
     0
 40
0.0
  0
LTYPE
  5
15
330
5
100
AcDbSymbolTableRecord
100
AcDbLinetypeTableRecord
  2
Continuous
 70
     0
  3
Solid line
 72
    65
 73
     0
 40
0.0
  0
ENDTAB
  0
TABLE
  2
LAYER
  5
2
330
0
100
AcDbSymbolTable
 70
     1
  0
LAYER
  5
10
330
2
100
AcDbSymbolTableRecord
100
AcDbLayerTableRecord
  2
0
 70
     0
 62
     7
  6
Continuous
370
    -3
390
F
  0
ENDTAB
  0
TABLE
  2
STYLE
  5
3
330
0
100
AcDbSymbolTable
 70
     1
  0
STYLE
  5
11
330
3
100
AcDbSymbolTableRecord
100
AcDbTextStyleTableRecord
  2
Standard
 70
     0
 40
0.0
 41
1.0
 50
0.0
 71
     0
 42
0.2
  3
txt
  4

  0
ENDTAB
  0
TABLE
  2
VIEW
  5
6
330
0
100
AcDbSymbolTable
 70
     0
  0
ENDTAB
  0
TABLE
  2
UCS
  5
7
330
0
100
AcDbSymbolTable
 70
     0
  0
ENDTAB
  0
TABLE
  2
APPID
  5
9
330
0
100
AcDbSymbolTable
 70
     1
  0
APPID
  5
12
330
9
100
AcDbSymbolTableRecord
100
AcDbRegAppTableRecord
  2
ACAD
 70
     0
  0
ENDTAB
  0
TABLE
  2
DIMSTYLE
  5
A
330
0
100
AcDbSymbolTable
 70
     1
100
AcDbDimStyleTable
 71
     0
  0
DIMSTYLE
105
4B8
330
A
100
AcDbSymbolTableRecord
100
AcDbDimStyleTableRecord
  2
Standard
 70
     0
340
11
  0
ENDTAB
  0
TABLE
  2
BLOCK_RECORD
  5
1
330
0
100
AcDbSymbolTable
 70
     0
  0
BLOCK_RECORD
  5
1E
330
1
100
AcDbSymbolTableRecord
100
AcDbBlockTableRecord
  2
*Model_Space
340
21
  0
BLOCK_RECORD
  5
1A
330
1
100
AcDbSymbolTableRecord
100
AcDbBlockTableRecord
  2
*Paper_Space
340
1D
  0
ENDTAB
  0
ENDSEC
  0
SECTION
  2
BLOCKS
  0
BLOCK
  5
1F
330
1E
100
AcDbEntity
  8
0
100
AcDbBlockBegin
  2
*Model_Space
 70
     0
 10
0.0
 20
0.0
 30
0.0
  3
*Model_Space
  1

  0
ENDBLK
  5
20
330
1E
100
AcDbEntity
  8
0
100
AcDbBlockEnd
  0
BLOCK
  5
1B
330
1A
100
AcDbEntity
 67
     1
  8
0
100
AcDbBlockBegin
  2
*Paper_Space
 70
     0
 10
0.0
 20
0.0
 30
0.0
  3
*Paper_Space
  1

  0
ENDBLK
  5
1C
330
1A
100
AcDbEntity
 67
     1
  8
0
100
AcDbBlockEnd
  0
ENDSEC
  0
SECTION
  2
ENTITIES
  0
LINE
  5
22
330
1E
100
AcDbEntity
  8
0
100
AcDbLine
 10
75.54999999999999
 20
66.90000000000001
 30
0.0
 11
84.35
 21
45.3
 31
0.0
  0
LINE
  5
23
330
1E
100
AcDbEntity
  8
0
100
AcDbLine
 10
75.54999999999999
 20
66.90000000000001
 30
0.0
 11
84.35
 21
45.3
 31
0.0
  0
LINE
  5
24
330
1E
100
AcDbEntity
  8
0
100
AcDbLine
 10
73.25
 20
90.0
 30
0.0
 11
76.45
 21
112.9
 31
0.0
  0
LINE
  5
25
330
1E
100
AcDbEntity
  8
0
100
AcDbLine
 10
73.25
 20
90.0
 30
0.0
 11
76.45
 21
67.09999999999999
 31
0.0
  0
LINE
  5
26
330
1E
100
AcDbEntity
  8
0
100
AcDbLine
 10
72.25
 20
90.0
 30
0.0
 11
75.54999999999999
 21
113.1
 31
0.0
  0
LINE
  5
27
330
1E
100
AcDbEntity
  8
0
100
AcDbLine
 10
72.25
 20
90.0
 30
0.0
 11
75.54999999999999
 21
66.90000000000001
 31
0.0
  0
LINE
  5
28
330
1E
100
AcDbEntity
  8
0
100
AcDbLine
 10
76.45
 20
67.09999999999999
 30
0.0
 11
85.15
 21
45.8
 31
0.0
  0
LINE
  5
29
330
1E
100
AcDbEntity
  8
0
100
AcDbLine
 10
76.4500000000001
 20
67.0999999999999
 30
0.0
 11
85.15
 21
45.8
 31
0.0
  0
LINE
  5
2A
330
1E
100
AcDbEntity
  8
0
100
AcDbLine
 10
85.15
 20
45.8
 30
0.0
 11
99.45
 21
27.2
 31
0.0
  0
LINE
  5
2B
330
1E
100
AcDbEntity
  8
0
100
AcDbLine
 10
98.65000000000001
 20
26.4
 30
0.0
 11
117.5499999999999
 21
12.09999999999999
 31
0.0
  0
LINE
  5
2C
330
1E
100
AcDbEntity
  8
0
100
AcDbLine
 10
98.65000000000001
 20
26.4
 30
0.0
 11
117.5499999999999
 21
12.09999999999999
 31
0.0
  0
LINE
  5
2D
330
1E
100
AcDbEntity
  8
0
100
AcDbLine
 10
84.35
 20
45.3
 30
0.0
 11
98.65000000000001
 21
26.4
 31
0.0
  0
LINE
  5
2E
330
1E
100
AcDbEntity
  8
0
100
AcDbLine
 10
84.35
 20
45.3
 30
0.0
 11
98.65000000000001
 21
26.4
 31
0.0
  0
LINE
  5
2F
330
1E
100
AcDbEntity
  8
0
100
AcDbLine
 10
98.65000000000001
 20
26.4
 30
0.0
 11
117.5499999999999
 21
12.09999999999999
 31
0.0
  0
LINE
  5
30
330
1E
100
AcDbEntity
  8
0
100
AcDbLine
 10
76.45
 20
112.9
 30
0.0
 11
85.15
 21
134.1999999999999
 31
0.0
  0
LINE
  5
31
330
1E
100
AcDbEntity
  8
0
100
AcDbLine
 10
85.15
 20
134.1999999999999
 30
0.0
 11
99.45
 21
152.8
 31
0.0
  0
LINE
  5
32
330
1E
100
AcDbEntity
  8
0
100
AcDbLine
 10
75.54999999999999
 20
113.1
 30
0.0
 11
84.35
 21
134.6999999999999
 31
0.0
  0
LINE
  5
33
330
1E
100
AcDbEntity
  8
0
100
AcDbLine
 10
84.35
 20
134.6999999999999
 30
0.0
 11
98.65000000000001
 21
153.6
 31
0.0
  0
LINE
  5
34
330
1E
100
AcDbEntity
  8
0
100
AcDbLine
 10
99.45
 20
27.2
 30
0.0
 11
118.05
 21
12.9
 31
0.0
  0
LINE
  5
35
330
1E
100
AcDbEntity
  8
0
100
AcDbLine
 10
139.15
 20
3.299999999999999
 30
0.0
 11
162.25
 21
0.0000000000000018
 31
0.0
  0
LINE
  5
36
330
1E
100
AcDbEntity
  8
0
100
AcDbLine
 10
139.15
 20
3.299999999999999
 30
0.0
 11
162.25
 21
0.0000000000000019
 31
0.0
  0
LINE
  5
37
330
1E
100
AcDbEntity
  8
0
100
AcDbLine
 10
139.15
 20
3.299999999999999
 30
0.0
 11
162.25
 21
-0.0000000000000006
 31
0.0
  0
LINE
  5
38
330
1E
100
AcDbEntity
  8
0
100
AcDbLine
 10
139.15
 20
3.299999999999999
 30
0.0
 11
162.25
 21
-0.0000000000000005
 31
0.0
  0
LINE
  5
39
330
1E
100
AcDbEntity
  8
0
100
AcDbLine
 10
162.25
 20
-0.0000000000000006
 30
0.0
 11
185.35
 21
3.299999999999999
 31
0.0
  0
LINE
  5
3A
330
1E
100
AcDbEntity
  8
0
100
AcDbLine
 10
162.25
 20
1.0
 30
0.0
 11
185.15
 21
4.2
 31
0.0
  0
LINE
  5
3B
330
1E
100
AcDbEntity
  8
0
100
AcDbLine
 10
162.25
 20
1.0
 30
0.0
 11
185.15
 21
4.2
 31
0.0
  0
LINE
  5
3C
330
1E
100
AcDbEntity
  8
0
100
AcDbLine
 10
162.25
 20
0.0000000000000018
 30
0.0
 11
185.35
 21
3.299999999999999
 31
0.0
  0
LINE
  5
3D
330
1E
100
AcDbEntity
  8
0
100
AcDbLine
 10
162.25
 20
0.0000000000000019
 30
0.0
 11
185.35
 21
3.299999999999999
 31
0.0
  0
LINE
  5
3E
330
1E
100
AcDbEntity
  8
0
100
AcDbLine
 10
162.25
 20
-0.0000000000000005
 30
0.0
 11
185.35
 21
3.299999999999999
 31
0.0
  0
LINE
  5
3F
330
1E
100
AcDbEntity
  8
0
100
AcDbLine
 10
185.35
 20
3.299999999999999
 30
0.0
 11
206.95
 21
12.09999999999999
 31
0.0
  0
LINE
  5
40
330
1E
100
AcDbEntity
  8
0
100
AcDbLine
 10
185.15
 20
4.2
 30
0.0
 11
206.4499999999999
 21
12.9
 31
0.0
  0
LINE
  5
41
330
1E
100
AcDbEntity
  8
0
100
AcDbLine
 10
185.35
 20
3.299999999999999
 30
0.0
 11
206.95
 21
12.09999999999999
 31
0.0
  0
LINE
  5
42
330
1E
100
AcDbEntity
  8
0
100
AcDbLine
 10
185.15
 20
4.200000000000009
 30
0.0
 11
206.4499999999999
 21
12.9
 31
0.0
  0
LINE
  5
43
330
1E
100
AcDbEntity
  8
0
100
AcDbLine
 10
185.35
 20
3.299999999999999
 30
0.0
 11
206.95
 21
12.09999999999999
 31
0.0
  0
LINE
  5
44
330
1E
100
AcDbEntity
  8
0
100
AcDbLine
 10
185.35
 20
3.299999999999999
 30
0.0
 11
206.95
 21
12.09999999999999
 31
0.0
  0
LINE
  5
45
330
1E
100
AcDbEntity
  8
0
100
AcDbLine
 10
185.35
 20
3.299999999999999
 30
0.0
 11
206.95
 21
12.09999999999999
 31
0.0
  0
LINE
  5
46
330
1E
100
AcDbEntity
  8
0
100
AcDbLine
 10
185.35
 20
3.299999999999999
 30
0.0
 11
206.95
 21
12.09999999999999
 31
0.0
  0
LINE
  5
47
330
1E
100
AcDbEntity
  8
0
100
AcDbLine
 10
139.3499999999999
 20
4.2
 30
0.0
 11
162.25
 21
1.0
 31
0.0
  0
LINE
  5
48
330
1E
100
AcDbEntity
  8
0
100
AcDbLine
 10
139.3499999999999
 20
4.2
 30
0.0
 11
162.25
 21
1.0
 31
0.0
  0
LINE
  5
49
330
1E
100
AcDbEntity
  8
0
100
AcDbLine
 10
118.05
 20
12.9
 30
0.0
 11
139.3499999999999
 21
4.2
 31
0.0
  0
LINE
  5
4A
330
1E
100
AcDbEntity
  8
0
100
AcDbLine
 10
118.05
 20
12.9
 30
0.0
 11
139.3499999999999
 21
4.200000000000009
 31
0.0
  0
LINE
  5
4B
330
1E
100
AcDbEntity
  8
0
100
AcDbLine
 10
117.5499999999999
 20
12.09999999999999
 30
0.0
 11
139.15
 21
3.299999999999999
 31
0.0
  0
LINE
  5
4C
330
1E
100
AcDbEntity
  8
0
100
AcDbLine
 10
117.5499999999999
 20
12.09999999999999
 30
0.0
 11
139.15
 21
3.299999999999999
 31
0.0
  0
LINE
  5
4D
330
1E
100
AcDbEntity
  8
0
100
AcDbLine
 10
99.4500000000001
 20
27.2
 30
0.0
 11
118.05
 21
12.9
 31
0.0
  0
LINE
  5
4E
330
1E
100
AcDbEntity
  8
0
100
AcDbLine
 10
206.95
 20
12.09999999999999
 30
0.0
 11
225.85
 21
26.4
 31
0.0
  0
LINE
  5
4F
330
1E
100
AcDbEntity
  8
0
100
AcDbLine
 10
206.4499999999999
 20
12.9
 30
0.0
 11
225.05
 21
27.2
 31
0.0
  0
LINE
  5
50
330
1E
100
AcDbEntity
  8
0
100
AcDbLine
 10
151.25
 20
104.539
 30
0.0
 11
151.25
 21
96.50816999999999
 31
0.0
  0
LINE
  5
51
330
1E
100
AcDbEntity
  8
0
100
AcDbLine
 10
151.25
 20
104.539
 30
0.0
 11
151.25
 21
115.5891
 31
0.0
  0
LINE
  5
52
330
1E
100
AcDbEntity
  8
0
100
AcDbLine
 10
151.25
 20
96.50816999999999
 30
0.0
 11
151.25
 21
91.63403
 31
0.0
  0
LINE
  5
53
330
1E
100
AcDbEntity
  8
0
100
AcDbLine
 10
151.25
 20
96.50816999999999
 30
0.0
 11
151.25
 21
104.539
 31
0.0
  0
LINE
  5
54
330
1E
100
AcDbEntity
  8
0
100
AcDbLine
 10
151.25
 20
90.0
 30
0.0
 11
151.646
 21
87.184
 31
0.0
  0
LINE
  5
55
330
1E
100
AcDbEntity
  8
0
100
AcDbLine
 10
151.25
 20
90.0
 30
0.0
 11
151.25
 21
91.63403
 31
0.0
  0
LINE
  5
56
330
1E
100
AcDbEntity
  8
0
100
AcDbLine
 10
151.25
 20
91.63403
 30
0.0
 11
151.25
 21
90.0
 31
0.0
  0
LINE
  5
57
330
1E
100
AcDbEntity
  8
0
100
AcDbLine
 10
151.25
 20
91.63403
 30
0.0
 11
151.25
 21
96.50816999999999
 31
0.0
  0
LINE
  5
58
330
1E
100
AcDbEntity
  8
0
100
AcDbLine
 10
151.25
 20
115.5891
 30
0.0
 11
151.25
 21
129.4695
 31
0.0
  0
LINE
  5
59
330
1E
100
AcDbEntity
  8
0
100
AcDbLine
 10
151.25
 20
115.5891
 30
0.0
 11
151.25
 21
104.539
 31
0.0
  0
LINE
  5
5A
330
1E
100
AcDbEntity
  8
0
100
AcDbLine
 10
167.7059999999999
 20
80.45199999999999
 30
0.0
 11
170.0379999999999
 21
82.21200000000001
 31
0.0
  0
LINE
  5
5B
330
1E
100
AcDbEntity
  8
0
100
AcDbLine
 10
170.0379999999999
 20
82.21200000000001
 30
0.0
 11
171.798
 21
84.54399999999999
 31
0.0
  0
LINE
  5
5C
330
1E
100
AcDbEntity
  8
0
100
AcDbLine
 10
171.798
 20
84.54399999999999
 30
0.0
 11
172.854
 21
87.184
 31
0.0
  0
LINE
  5
5D
330
1E
100
AcDbEntity
  8
0
100
AcDbLine
 10
172.854
 20
87.184
 30
0.0
 11
173.2499999999999
 21
90.0
 31
0.0
  0
LINE
  5
5E
330
1E
100
AcDbEntity
  8
0
100
AcDbLine
 10
154.462
 20
82.21200000000001
 30
0.0
 11
156.7939999999999
 21
80.45199999999999
 31
0.0
  0
LINE
  5
5F
330
1E
100
AcDbEntity
  8
0
100
AcDbLine
 10
152.702
 20
84.54399999999999
 30
0.0
 11
154.462
 21
82.21200000000001
 31
0.0
  0
LINE
  5
60
330
1E
100
AcDbEntity
  8
0
100
AcDbLine
 10
173.2499999999999
 20
90.0
 30
0.0
 11
173.2499999999999
 21
91.63403
 31
0.0
  0
LINE
  5
61
330
1E
100
AcDbEntity
  8
0
100
AcDbLine
 10
173.2499999999999
 20
104.539
 30
0.0
 11
173.2499999999999
 21
115.5891
 31
0.0
  0
LINE
  5
62
330
1E
100
AcDbEntity
  8
0
100
AcDbLine
 10
173.2499999999999
 20
104.539
 30
0.0
 11
173.2499999999999
 21
96.50816999999999
 31
0.0
  0
LINE
  5
63
330
1E
100
AcDbEntity
  8
0
100
AcDbLine
 10
173.2499999999999
 20
96.50816999999999
 30
0.0
 11
173.2499999999999
 21
91.63403
 31
0.0
  0
LINE
  5
64
330
1E
100
AcDbEntity
  8
0
100
AcDbLine
 10
173.2499999999999
 20
96.50816999999999
 30
0.0
 11
173.2499999999999
 21
104.539
 31
0.0
  0
LINE
  5
65
330
1E
100
AcDbEntity
  8
0
100
AcDbLine
 10
173.2499999999999
 20
91.63403
 30
0.0
 11
173.2499999999999
 21
96.50816999999999
 31
0.0
  0
LINE
  5
66
330
1E
100
AcDbEntity
  8
0
100
AcDbLine
 10
173.2499999999999
 20
91.63403
 30
0.0
 11
173.2499999999999
 21
90.0
 31
0.0
  0
LINE
  5
67
330
1E
100
AcDbEntity
  8
0
100
AcDbLine
 10
173.2499999999999
 20
115.5891
 30
0.0
 11
173.2499999999999
 21
129.4695
 31
0.0
  0
LINE
  5
68
330
1E
100
AcDbEntity
  8
0
100
AcDbLine
 10
173.2499999999999
 20
115.5891
 30
0.0
 11
173.2499999999999
 21
104.539
 31
0.0
  0
LINE
  5
69
330
1E
100
AcDbEntity
  8
0
100
AcDbLine
 10
173.2499999999999
 20
129.4695
 30
0.0
 11
173.2499999999999
 21
145.9426
 31
0.0
  0
LINE
  5
6A
330
1E
100
AcDbEntity
  8
0
100
AcDbLine
 10
173.2499999999999
 20
129.4695
 30
0.0
 11
173.2499999999999
 21
115.5891
 31
0.0
  0
LINE
  5
6B
330
1E
100
AcDbEntity
  8
0
100
AcDbLine
 10
173.2499999999999
 20
145.9426
 30
0.0
 11
173.2499999999999
 21
164.7265999999999
 31
0.0
  0
LINE
  5
6C
330
1E
100
AcDbEntity
  8
0
100
AcDbLine
 10
173.2499999999999
 20
145.9426
 30
0.0
 11
173.2499999999999
 21
129.4695
 31
0.0
  0
LINE
  5
6D
330
1E
100
AcDbEntity
  8
0
100
AcDbLine
 10
151.646
 20
87.184
 30
0.0
 11
152.702
 21
84.54399999999999
 31
0.0
  0
LINE
  5
6E
330
1E
100
AcDbEntity
  8
0
100
AcDbLine
 10
151.25
 20
129.4695
 30
0.0
 11
151.25
 21
145.9426
 31
0.0
  0
LINE
  5
6F
330
1E
100
AcDbEntity
  8
0
100
AcDbLine
 10
151.25
 20
129.4695
 30
0.0
 11
151.25
 21
115.5891
 31
0.0
  0
LINE
  5
70
330
1E
100
AcDbEntity
  8
0
100
AcDbLine
 10
173.2499999999999
 20
164.7265999999999
 30
0.0
 11
173.2499999999999
 21
145.9426
 31
0.0
  0
LINE
  5
71
330
1E
100
AcDbEntity
  8
0
100
AcDbLine
 10
173.2499999999999
 20
164.7265999999999
 30
0.0
 11
173.2499999999999
 21
185.5
 31
0.0
  0
LINE
  5
72
330
1E
100
AcDbEntity
  8
0
100
AcDbLine
 10
151.25
 20
164.7265999999999
 30
0.0
 11
151.25
 21
185.5
 31
0.0
  0
LINE
  5
73
330
1E
100
AcDbEntity
  8
0
100
AcDbLine
 10
151.25
 20
164.7265999999999
 30
0.0
 11
151.25
 21
145.9426
 31
0.0
  0
LINE
  5
74
330
1E
100
AcDbEntity
  8
0
100
AcDbLine
 10
151.25
 20
145.9426
 30
0.0
 11
151.25
 21
129.4695
 31
0.0
  0
LINE
  5
75
330
1E
100
AcDbEntity
  8
0
100
AcDbLine
 10
151.25
 20
145.9426
 30
0.0
 11
151.25
 21
164.7265999999999
 31
0.0
  0
LINE
  5
76
330
1E
100
AcDbEntity
  8
0
100
AcDbLine
 10
225.05
 20
152.8
 30
0.0
 11
239.3499999999999
 21
134.1999999999999
 31
0.0
  0
LINE
  5
77
330
1E
100
AcDbEntity
  8
0
100
AcDbLine
 10
206.4499999999999
 20
167.1
 30
0.0
 11
225.05
 21
152.8
 31
0.0
  0
LINE
  5
78
330
1E
100
AcDbEntity
  8
0
100
AcDbLine
 10
225.85
 20
153.6
 30
0.0
 11
240.1499999999999
 21
134.6999999999999
 31
0.0
  0
LINE
  5
79
330
1E
100
AcDbEntity
  8
0
100
AcDbLine
 10
225.05
 20
27.2
 30
0.0
 11
239.3499999999999
 21
45.8
 31
0.0
  0
LINE
  5
7A
330
1E
100
AcDbEntity
  8
0
100
AcDbLine
 10
225.85
 20
26.4
 30
0.0
 11
240.1499999999999
 21
45.3
 31
0.0
  0
LINE
  5
7B
330
1E
100
AcDbEntity
  8
0
100
AcDbLine
 10
240.1499999999999
 20
45.3
 30
0.0
 11
248.95
 21
66.90000000000001
 31
0.0
  0
LINE
  5
7C
330
1E
100
AcDbEntity
  8
0
100
AcDbLine
 10
240.1499999999999
 20
45.3
 30
0.0
 11
248.95
 21
66.90000000000001
 31
0.0
  0
LINE
  5
7D
330
1E
100
AcDbEntity
  8
0
100
AcDbLine
 10
239.3499999999999
 20
45.8
 30
0.0
 11
248.05
 21
67.0999999999999
 31
0.0
  0
LINE
  5
7E
330
1E
100
AcDbEntity
  8
0
100
AcDbLine
 10
239.3499999999999
 20
45.8
 30
0.0
 11
248.05
 21
67.09999999999999
 31
0.0
  0
LINE
  5
7F
330
1E
100
AcDbEntity
  8
0
100
AcDbLine
 10
248.05
 20
112.9
 30
0.0
 11
251.25
 21
90.0
 31
0.0
  0
LINE
  5
80
330
1E
100
AcDbEntity
  8
0
100
AcDbLine
 10
239.3499999999999
 20
134.1999999999999
 30
0.0
 11
248.05
 21
112.9
 31
0.0
  0
LINE
  5
81
330
1E
100
AcDbEntity
  8
0
100
AcDbLine
 10
240.1499999999999
 20
134.6999999999999
 30
0.0
 11
248.95
 21
113.1
 31
0.0
  0
LINE
  5
82
330
1E
100
AcDbEntity
  8
0
100
AcDbLine
 10
248.95
 20
113.1
 30
0.0
 11
252.2499999999999
 21
90.0
 31
0.0
  0
LINE
  5
83
330
1E
100
AcDbEntity
  8
0
100
AcDbLine
 10
248.05
 20
67.09999999999999
 30
0.0
 11
251.25
 21
90.0
 31
0.0
  0
LINE
  5
84
330
1E
100
AcDbEntity
  8
0
100
AcDbLine
 10
248.95
 20
66.90000000000001
 30
0.0
 11
252.2499999999999
 21
90.0
 31
0.0
  0
LINE
  5
85
330
1E
100
AcDbEntity
  8
0
100
AcDbLine
 10
248.95
 20
66.90000000000001
 30
0.0
 11
252.2499999999999
 21
90.0
 31
0.0
  0
LINE
  5
86
330
1E
100
AcDbEntity
  8
0
100
AcDbLine
 10
225.85
 20
26.4
 30
0.0
 11
240.1499999999999
 21
45.3
 31
0.0
  0
LINE
  5
87
330
1E
100
AcDbEntity
  8
0
100
AcDbLine
 10
118.05
 20
12.9
 30
0.0
 11
139.3499999999999
 21
4.2
 31
0.0
  0
LINE
  5
88
330
1E
100
AcDbEntity
  8
0
100
AcDbLine
 10
117.5499999999999
 20
12.09999999999999
 30
0.0
 11
139.15
 21
3.299999999999999
 31
0.0
  0
LINE
  5
89
330
1E
100
AcDbEntity
  8
0
100
AcDbLine
 10
117.5499999999999
 20
12.09999999999999
 30
0.0
 11
139.15
 21
3.299999999999999
 31
0.0
  0
LINE
  5
8A
330
1E
100
AcDbEntity
  8
0
100
AcDbLine
 10
117.5499999999999
 20
12.09999999999999
 30
0.0
 11
139.15
 21
3.299999999999999
 31
0.0
  0
LINE
  5
8B
330
1E
100
AcDbEntity
  8
0
100
AcDbLine
 10
117.5499999999999
 20
12.09999999999999
 30
0.0
 11
139.15
 21
3.299999999999999
 31
0.0
  0
LINE
  5
8C
330
1E
100
AcDbEntity
  8
0
100
AcDbLine
 10
99.45
 20
152.8
 30
0.0
 11
118.05
 21
167.1
 31
0.0
  0
LINE
  5
8D
330
1E
100
AcDbEntity
  8
0
100
AcDbLine
 10
206.95
 20
167.9
 30
0.0
 11
225.85
 21
153.6
 31
0.0
  0
LINE
  5
8E
330
1E
100
AcDbEntity
  8
0
100
AcDbLine
 10
118.05
 20
167.1
 30
0.0
 11
139.3499999999999
 21
175.8
 31
0.0
  0
LINE
  5
8F
330
1E
100
AcDbEntity
  8
0
100
AcDbLine
 10
98.65000000000001
 20
153.6
 30
0.0
 11
117.5499999999999
 21
167.9
 31
0.0
  0
LINE
  5
90
330
1E
100
AcDbEntity
  8
0
100
AcDbLine
 10
0.750000000000004
 20
421.0
 30
0.0
 11
15.75
 21
421.0
 31
0.0
  0
LINE
  5
91
330
1E
100
AcDbEntity
  8
0
100
AcDbLine
 10
0.250000000000003
 20
421.4999999999999
 30
0.0
 11
0.7500000000000031
 21
421.0
 31
0.0
  0
LINE
  5
92
330
1E
100
AcDbEntity
  8
0
100
AcDbLine
 10
0.250000000000003
 20
421.4999999999999
 30
0.0
 11
0.250000000000003
 21
452.2
 31
0.0
  0
LINE
  5
93
330
1E
100
AcDbEntity
  8
0
100
AcDbLine
 10
0.7500000000000031
 20
421.0
 30
0.0
 11
15.75
 21
421.0
 31
0.0
  0
LINE
  5
94
330
1E
100
AcDbEntity
  8
0
100
AcDbLine
 10
0.7500000000000031
 20
421.0
 30
0.0
 11
0.7500000000000031
 21
451.6
 31
0.0
  0
LINE
  5
95
330
1E
100
AcDbEntity
  8
0
100
AcDbLine
 10
16.25
 20
421.4999999999999
 30
0.0
 11
16.25
 21
452.2
 31
0.0
  0
LINE
  5
96
330
1E
100
AcDbEntity
  8
0
100
AcDbLine
 10
15.75
 20
421.0
 30
0.0
 11
16.25
 21
421.4999999999999
 31
0.0
  0
LINE
  5
97
330
1E
100
AcDbEntity
  8
0
100
AcDbLine
 10
15.75
 20
421.0
 30
0.0
 11
15.75
 21
451.6
 31
0.0
  0
LINE
  5
98
330
1E
100
AcDbEntity
  8
0
100
AcDbLine
 10
26.9167
 20
435.0
 30
0.0
 11
68.25
 21
435.0
 31
0.0
  0
LINE
  5
99
330
1E
100
AcDbEntity
  8
0
100
AcDbLine
 10
26.9167
 20
435.0
 30
0.0
 11
26.9167
 21
435.7559999999999
 31
0.0
  0
LINE
  5
9A
330
1E
100
AcDbEntity
  8
0
100
AcDbLine
 10
68.25
 20
435.0
 30
0.0
 11
68.25
 21
435.7559999999999
 31
0.0
  0
LINE
  5
9B
330
1E
100
AcDbEntity
  8
0
100
AcDbLine
 10
26.25
 20
435.504
 30
0.0
 11
26.9167
 21
435.0
 31
0.0
  0
LINE
  5
9C
330
1E
100
AcDbEntity
  8
0
100
AcDbLine
 10
26.25
 20
435.504
 30
0.0
 11
26.25
 21
436.2599999999999
 31
0.0
  0
LINE
  5
9D
330
1E
100
AcDbEntity
  8
0
100
AcDbLine
 10
26.9167
 20
435.7559999999999
 30
0.0
 11
26.9167
 21
435.0
 31
0.0
  0
LINE
  5
9E
330
1E
100
AcDbEntity
  8
0
100
AcDbLine
 10
26.9167
 20
435.7559999999999
 30
0.0
 11
26.9167
 21
437.772
 31
0.0
  0
LINE
  5
9F
330
1E
100
AcDbEntity
  8
0
100
AcDbLine
 10
26.25
 20
436.2599999999999
 30
0.0
 11
26.25
 21
435.504
 31
0.0
  0
LINE
  5
A0
330
1E
100
AcDbEntity
  8
0
100
AcDbLine
 10
26.25
 20
436.2599999999999
 30
0.0
 11
26.25
 21
438.276
 31
0.0
  0
LINE
  5
A1
330
1E
100
AcDbEntity
  8
0
100
AcDbLine
 10
68.25
 20
435.7559999999999
 30
0.0
 11
68.25
 21
437.772
 31
0.0
  0
LINE
  5
A2
330
1E
100
AcDbEntity
  8
0
100
AcDbLine
 10
68.25
 20
436.5
 30
0.0
 11
70.25
 21
436.5
 31
0.0
  0
LINE
  5
A3
330
1E
100
AcDbEntity
  8
0
100
AcDbLine
 10
26.25
 20
438.276
 30
0.0
 11
26.25
 21
436.2599999999999
 31
0.0
  0
LINE
  5
A4
330
1E
100
AcDbEntity
  8
0
100
AcDbLine
 10
26.25
 20
438.276
 30
0.0
 11
26.25
 21
441.5519999999999
 31
0.0
  0
LINE
  5
A5
330
1E
100
AcDbEntity
  8
0
100
AcDbLine
 10
26.9167
 20
437.772
 30
0.0
 11
26.9167
 21
435.7559999999999
 31
0.0
  0
LINE
  5
A6
330
1E
100
AcDbEntity
  8
0
100
AcDbLine
 10
26.9167
 20
437.772
 30
0.0
 11
26.9167
 21
441.1319999999999
 31
0.0
  0
LINE
  5
A7
330
1E
100
AcDbEntity
  8
0
100
AcDbLine
 10
68.25
 20
437.772
 30
0.0
 11
68.25
 21
441.1319999999999
 31
0.0
  0
LINE
  5
A8
330
1E
100
AcDbEntity
  8
0
100
AcDbLine
 10
26.9167
 20
441.1319999999999
 30
0.0
 11
26.9167
 21
437.772
 31
0.0
  0
LINE
  5
A9
330
1E
100
AcDbEntity
  8
0
100
AcDbLine
 10
26.9167
 20
441.1319999999999
 30
0.0
 11
26.9167
 21
445.584
 31
0.0
  0
LINE
  5
AA
330
1E
100
AcDbEntity
  8
0
100
AcDbLine
 10
68.25
 20
441.1319999999999
 30
0.0
 11
68.25
 21
445.584
 31
0.0
  0
LINE
  5
AB
330
1E
100
AcDbEntity
  8
0
100
AcDbLine
 10
70.25
 20
439.1
 30
0.0
 11
70.25
 21
442.1999999999999
 31
0.0
  0
LINE
  5
AC
330
1E
100
AcDbEntity
  8
0
100
AcDbLine
 10
70.25
 20
439.1
 30
0.0
 11
70.25
 21
437.1999999999999
 31
0.0
  0
LINE
  5
AD
330
1E
100
AcDbEntity
  8
0
100
AcDbLine
 10
70.25
 20
437.1999999999999
 30
0.0
 11
70.25
 21
439.1
 31
0.0
  0
LINE
  5
AE
330
1E
100
AcDbEntity
  8
0
100
AcDbLine
 10
70.25
 20
437.1999999999999
 30
0.0
 11
70.25
 21
436.5
 31
0.0
  0
LINE
  5
AF
330
1E
100
AcDbEntity
  8
0
100
AcDbLine
 10
26.25
 20
441.5519999999999
 30
0.0
 11
26.25
 21
438.276
 31
0.0
  0
LINE
  5
B0
330
1E
100
AcDbEntity
  8
0
100
AcDbLine
 10
26.25
 20
441.5519999999999
 30
0.0
 11
26.25
 21
445.8359999999999
 31
0.0
  0
LINE
  5
B1
330
1E
100
AcDbEntity
  8
0
100
AcDbLine
 10
26.25
 20
445.8359999999999
 30
0.0
 11
26.25
 21
441.5519999999999
 31
0.0
  0
LINE
  5
B2
330
1E
100
AcDbEntity
  8
0
100
AcDbLine
 10
26.25
 20
445.8359999999999
 30
0.0
 11
26.25
 21
450.708
 31
0.0
  0
LINE
  5
B3
330
1E
100
AcDbEntity
  8
0
100
AcDbLine
 10
26.9167
 20
445.584
 30
0.0
 11
26.9167
 21
441.1319999999999
 31
0.0
  0
LINE
  5
B4
330
1E
100
AcDbEntity
  8
0
100
AcDbLine
 10
26.9167
 20
445.584
 30
0.0
 11
26.9167
 21
450.624
 31
0.0
  0
LINE
  5
B5
330
1E
100
AcDbEntity
  8
0
100
AcDbLine
 10
68.25
 20
445.584
 30
0.0
 11
68.25
 21
450.624
 31
0.0
  0
LINE
  5
B6
330
1E
100
AcDbEntity
  8
0
100
AcDbLine
 10
70.25
 20
446.3
 30
0.0
 11
70.25
 21
451.0
 31
0.0
  0
LINE
  5
B7
330
1E
100
AcDbEntity
  8
0
100
AcDbLine
 10
70.25
 20
446.3
 30
0.0
 11
70.25
 21
442.1999999999999
 31
0.0
  0
LINE
  5
B8
330
1E
100
AcDbEntity
  8
0
100
AcDbLine
 10
70.25
 20
442.1999999999999
 30
0.0
 11
70.25
 21
446.3
 31
0.0
  0
LINE
  5
B9
330
1E
100
AcDbEntity
  8
0
100
AcDbLine
 10
70.25
 20
442.1999999999999
 30
0.0
 11
70.25
 21
439.1
 31
0.0
  0
LINE
  5
BA
330
1E
100
AcDbEntity
  8
0
100
AcDbLine
 10
0.250000000000003
 20
452.2
 30
0.0
 11
0.250000000000003
 21
421.4999999999999
 31
0.0
  0
LINE
  5
BB
330
1E
100
AcDbEntity
  8
0
100
AcDbLine
 10
0.250000000000003
 20
452.2
 30
0.0
 11
0.250000000000003
 21
452.3
 31
0.0
  0
LINE
  5
BC
330
1E
100
AcDbEntity
  8
0
100
AcDbLine
 10
0.250000000000003
 20
452.2
 30
0.0
 11
0.7500000000000031
 21
451.6
 31
0.0
  0
LINE
  5
BD
330
1E
100
AcDbEntity
  8
0
100
AcDbLine
 10
0.250000000000003
 20
452.3
 30
0.0
 11
0.250000000000003
 21
452.5
 31
0.0
  0
LINE
  5
BE
330
1E
100
AcDbEntity
  8
0
100
AcDbLine
 10
0.250000000000003
 20
452.3
 30
0.0
 11
0.250000000000003
 21
452.2
 31
0.0
  0
LINE
  5
BF
330
1E
100
AcDbEntity
  8
0
100
AcDbLine
 10
26.25
 20
451.1999999999999
 30
0.0
 11
26.25
 21
451.0
 31
0.0
  0
LINE
  5
C0
330
1E
100
AcDbEntity
  8
0
100
AcDbLine
 10
16.25
 20
451.0
 30
0.0
 11
26.25
 21
451.0
 31
0.0
  0
LINE
  5
C1
330
1E
100
AcDbEntity
  8
0
100
AcDbLine
 10
0.750000000000004
 20
451.6
 30
0.0
 11
15.75
 21
451.6
 31
0.0
  0
LINE
  5
C2
330
1E
100
AcDbEntity
  8
0
100
AcDbLine
 10
0.7500000000000031
 20
451.6
 30
0.0
 11
15.75
 21
451.6
 31
0.0
  0
LINE
  5
C3
330
1E
100
AcDbEntity
  8
0
100
AcDbLine
 10
0.7500000000000031
 20
451.6
 30
0.0
 11
0.7500000000000031
 21
451.7999999999999
 31
0.0
  0
LINE
  5
C4
330
1E
100
AcDbEntity
  8
0
100
AcDbLine
 10
0.7500000000000031
 20
451.6
 30
0.0
 11
0.7500000000000031
 21
421.0
 31
0.0
  0
LINE
  5
C5
330
1E
100
AcDbEntity
  8
0
100
AcDbLine
 10
0.7500000000000031
 20
451.7999999999999
 30
0.0
 11
0.7500000000000031
 21
451.6
 31
0.0
  0
LINE
  5
C6
330
1E
100
AcDbEntity
  8
0
100
AcDbLine
 10
0.7500000000000031
 20
451.7999999999999
 30
0.0
 11
0.7500000000000031
 21
452.0
 31
0.0
  0
LINE
  5
C7
330
1E
100
AcDbEntity
  8
0
100
AcDbLine
 10
0.750000000000004
 20
452.0
 30
0.0
 11
15.75
 21
452.0
 31
0.0
  0
LINE
  5
C8
330
1E
100
AcDbEntity
  8
0
100
AcDbLine
 10
0.7500000000000031
 20
452.0
 30
0.0
 11
0.7500000000000031
 21
456.0
 31
0.0
  0
LINE
  5
C9
330
1E
100
AcDbEntity
  8
0
100
AcDbLine
 10
0.7500000000000031
 20
452.0
 30
0.0
 11
15.75
 21
452.0
 31
0.0
  0
LINE
  5
CA
330
1E
100
AcDbEntity
  8
0
100
AcDbLine
 10
0.7500000000000031
 20
452.0
 30
0.0
 11
0.7500000000000031
 21
451.7999999999999
 31
0.0
  0
LINE
  5
CB
330
1E
100
AcDbEntity
  8
0
100
AcDbLine
 10
0.7500000000000031
 20
456.0
 30
0.0
 11
0.7500000000000031
 21
452.0
 31
0.0
  0
LINE
  5
CC
330
1E
100
AcDbEntity
  8
0
100
AcDbLine
 10
0.7500000000000031
 20
456.0
 30
0.0
 11
0.7500000000000031
 21
460.0
 31
0.0
  0
LINE
  5
CD
330
1E
100
AcDbEntity
  8
0
100
AcDbLine
 10
15.75
 20
456.0
 30
0.0
 11
15.75
 21
452.0
 31
0.0
  0
LINE
  5
CE
330
1E
100
AcDbEntity
  8
0
100
AcDbLine
 10
15.75
 20
456.0
 30
0.0
 11
15.75
 21
460.0
 31
0.0
  0
LINE
  5
CF
330
1E
100
AcDbEntity
  8
0
100
AcDbLine
 10
16.25
 20
456.0
 30
0.0
 11
16.25
 21
452.5
 31
0.0
  0
LINE
  5
D0
330
1E
100
AcDbEntity
  8
0
100
AcDbLine
 10
16.25
 20
456.0
 30
0.0
 11
16.25
 21
459.4999999999999
 31
0.0
  0
LINE
  5
D1
330
1E
100
AcDbEntity
  8
0
100
AcDbLine
 10
15.75
 20
452.0
 30
0.0
 11
15.75
 21
456.0
 31
0.0
  0
LINE
  5
D2
330
1E
100
AcDbEntity
  8
0
100
AcDbLine
 10
15.75
 20
452.0
 30
0.0
 11
16.25
 21
452.5
 31
0.0
  0
LINE
  5
D3
330
1E
100
AcDbEntity
  8
0
100
AcDbLine
 10
15.75
 20
452.0
 30
0.0
 11
15.75
 21
451.7999999999999
 31
0.0
  0
LINE
  5
D4
330
1E
100
AcDbEntity
  8
0
100
AcDbLine
 10
16.25
 20
452.5
 30
0.0
 11
16.25
 21
456.0
 31
0.0
  0
LINE
  5
D5
330
1E
100
AcDbEntity
  8
0
100
AcDbLine
 10
15.75
 20
451.7999999999999
 30
0.0
 11
15.75
 21
451.6
 31
0.0
  0
LINE
  5
D6
330
1E
100
AcDbEntity
  8
0
100
AcDbLine
 10
15.75
 20
451.7999999999999
 30
0.0
 11
15.75
 21
452.0
 31
0.0
  0
LINE
  5
D7
330
1E
100
AcDbEntity
  8
0
100
AcDbLine
 10
26.25
 20
454.6999999999999
 30
0.0
 11
26.25
 21
453.5
 31
0.0
  0
LINE
  5
D8
330
1E
100
AcDbEntity
  8
0
100
AcDbLine
 10
26.25
 20
453.5
 30
0.0
 11
26.25
 21
452.5
 31
0.0
  0
LINE
  5
D9
330
1E
100
AcDbEntity
  8
0
100
AcDbLine
 10
26.25
 20
452.5
 30
0.0
 11
26.25
 21
451.7
 31
0.0
  0
LINE
  5
DA
330
1E
100
AcDbEntity
  8
0
100
AcDbLine
 10
26.25
 20
451.7
 30
0.0
 11
26.25
 21
451.1999999999999
 31
0.0
  0
LINE
  5
DB
330
1E
100
AcDbEntity
  8
0
100
AcDbLine
 10
16.25
 20
452.2
 30
0.0
 11
16.25
 21
421.4999999999999
 31
0.0
  0
LINE
  5
DC
330
1E
100
AcDbEntity
  8
0
100
AcDbLine
 10
15.75
 20
451.6
 30
0.0
 11
16.25
 21
452.2
 31
0.0
  0
LINE
  5
DD
330
1E
100
AcDbEntity
  8
0
100
AcDbLine
 10
15.75
 20
451.6
 30
0.0
 11
15.75
 21
451.7999999999999
 31
0.0
  0
LINE
  5
DE
330
1E
100
AcDbEntity
  8
0
100
AcDbLine
 10
15.75
 20
451.6
 30
0.0
 11
15.75
 21
421.0
 31
0.0
  0
LINE
  5
DF
330
1E
100
AcDbEntity
  8
0
100
AcDbLine
 10
0.250000000000003
 20
452.5
 30
0.0
 11
0.250000000000003
 21
452.3
 31
0.0
  0
LINE
  5
E0
330
1E
100
AcDbEntity
  8
0
100
AcDbLine
 10
0.250000000000003
 20
452.5
 30
0.0
 11
0.250000000000003
 21
456.0
 31
0.0
  0
LINE
  5
E1
330
1E
100
AcDbEntity
  8
0
100
AcDbLine
 10
0.250000000000003
 20
452.5
 30
0.0
 11
0.7500000000000031
 21
452.0
 31
0.0
  0
LINE
  5
E2
330
1E
100
AcDbEntity
  8
0
100
AcDbLine
 10
0.250000000000003
 20
456.0
 30
0.0
 11
0.250000000000003
 21
459.4999999999999
 31
0.0
  0
LINE
  5
E3
330
1E
100
AcDbEntity
  8
0
100
AcDbLine
 10
0.250000000000003
 20
456.0
 30
0.0
 11
0.250000000000003
 21
452.5
 31
0.0
  0
LINE
  5
E4
330
1E
100
AcDbEntity
  8
0
100
AcDbLine
 10
26.25
 20
451.0
 30
0.0
 11
26.25
 21
450.708
 31
0.0
  0
LINE
  5
E5
330
1E
100
AcDbEntity
  8
0
100
AcDbLine
 10
26.25
 20
450.708
 30
0.0
 11
26.25
 21
445.8359999999999
 31
0.0
  0
LINE
  5
E6
330
1E
100
AcDbEntity
  8
0
100
AcDbLine
 10
26.25
 20
450.708
 30
0.0
 11
26.25
 21
456.0
 31
0.0
  0
LINE
  5
E7
330
1E
100
AcDbEntity
  8
0
100
AcDbLine
 10
26.25
 20
450.708
 30
0.0
 11
26.25
 21
451.0
 31
0.0
  0
LINE
  5
E8
330
1E
100
AcDbEntity
  8
0
100
AcDbLine
 10
26.9167
 20
450.624
 30
0.0
 11
26.9167
 21
445.584
 31
0.0
  0
LINE
  5
E9
330
1E
100
AcDbEntity
  8
0
100
AcDbLine
 10
26.9167
 20
450.624
 30
0.0
 11
26.9167
 21
456.0
 31
0.0
  0
LINE
  5
EA
330
1E
100
AcDbEntity
  8
0
100
AcDbLine
 10
26.25
 20
456.0
 30
0.0
 11
26.25
 21
461.2919999999999
 31
0.0
  0
LINE
  5
EB
330
1E
100
AcDbEntity
  8
0
100
AcDbLine
 10
26.25
 20
456.0
 30
0.0
 11
26.25
 21
450.708
 31
0.0
  0
LINE
  5
EC
330
1E
100
AcDbEntity
  8
0
100
AcDbLine
 10
26.25
 20
456.0
 30
0.0
 11
26.25
 21
454.6999999999999
 31
0.0
  0
LINE
  5
ED
330
1E
100
AcDbEntity
  8
0
100
AcDbLine
 10
68.25
 20
450.624
 30
0.0
 11
68.25
 21
456.0
 31
0.0
  0
LINE
  5
EE
330
1E
100
AcDbEntity
  8
0
100
AcDbLine
 10
26.9167
 20
456.0
 30
0.0
 11
26.9167
 21
461.376
 31
0.0
  0
LINE
  5
EF
330
1E
100
AcDbEntity
  8
0
100
AcDbLine
 10
26.9167
 20
456.0
 30
0.0
 11
26.9167
 21
450.624
 31
0.0
  0
LINE
  5
F0
330
1E
100
AcDbEntity
  8
0
100
AcDbLine
 10
68.25
 20
456.0
 30
0.0
 11
68.25
 21
461.376
 31
0.0
  0
LINE
  5
F1
330
1E
100
AcDbEntity
  8
0
100
AcDbLine
 10
70.25
 20
451.0
 30
0.0
 11
70.25
 21
456.0
 31
0.0
  0
LINE
  5
F2
330
1E
100
AcDbEntity
  8
0
100
AcDbLine
 10
70.25
 20
451.0
 30
0.0
 11
70.25
 21
446.3
 31
0.0
  0
LINE
  5
F3
330
1E
100
AcDbEntity
  8
0
100
AcDbLine
 10
70.25
 20
450.6
 30
0.0
 11
70.25
 21
456.0
 31
0.0
  0
LINE
  5
F4
330
1E
100
AcDbEntity
  8
0
100
AcDbLine
 10
70.25
 20
450.6
 30
0.0
 11
70.25
 21
445.5
 31
0.0
  0
LINE
  5
F5
330
1E
100
AcDbEntity
  8
0
100
AcDbLine
 10
70.25
 20
445.5
 30
0.0
 11
70.25
 21
450.6
 31
0.0
  0
LINE
  5
F6
330
1E
100
AcDbEntity
  8
0
100
AcDbLine
 10
70.25
 20
445.5
 30
0.0
 11
70.25
 21
441.1999999999999
 31
0.0
  0
LINE
  5
F7
330
1E
100
AcDbEntity
  8
0
100
AcDbLine
 10
70.25
 20
441.1999999999999
 30
0.0
 11
70.25
 21
445.5
 31
0.0
  0
LINE
  5
F8
330
1E
100
AcDbEntity
  8
0
100
AcDbLine
 10
70.25
 20
441.1999999999999
 30
0.0
 11
70.25
 21
437.8
 31
0.0
  0
LINE
  5
F9
330
1E
100
AcDbEntity
  8
0
100
AcDbLine
 10
70.25
 20
437.8
 30
0.0
 11
70.25
 21
441.1999999999999
 31
0.0
  0
LINE
  5
FA
330
1E
100
AcDbEntity
  8
0
100
AcDbLine
 10
70.25
 20
437.8
 30
0.0
 11
70.25
 21
435.8
 31
0.0
  0
LINE
  5
FB
330
1E
100
AcDbEntity
  8
0
100
AcDbLine
 10
0.250000000000003
 20
459.4999999999999
 30
0.0
 11
0.250000000000003
 21
456.0
 31
0.0
  0
LINE
  5
FC
330
1E
100
AcDbEntity
  8
0
100
AcDbLine
 10
0.250000000000003
 20
459.4999999999999
 30
0.0
 11
0.250000000000003
 21
459.7
 31
0.0
  0
LINE
  5
FD
330
1E
100
AcDbEntity
  8
0
100
AcDbLine
 10
0.250000000000003
 20
459.4999999999999
 30
0.0
 11
0.7500000000000031
 21
460.0
 31
0.0
  0
LINE
  5
FE
330
1E
100
AcDbEntity
  8
0
100
AcDbLine
 10
26.25
 20
457.3
 30
0.0
 11
26.25
 21
456.0
 31
0.0
  0
LINE
  5
FF
330
1E
100
AcDbEntity
  8
0
100
AcDbLine
 10
26.25
 20
458.4999999999999
 30
0.0
 11
26.25
 21
457.3
 31
0.0
  0
LINE
  5
100
330
1E
100
AcDbEntity
  8
0
100
AcDbLine
 10
26.25
 20
459.4999999999999
 30
0.0
 11
26.25
 21
458.4999999999999
 31
0.0
  0
LINE
  5
101
330
1E
100
AcDbEntity
  8
0
100
AcDbLine
 10
16.25
 20
459.7999999999999
 30
0.0
 11
16.25
 21
490.5
 31
0.0
  0
LINE
  5
102
330
1E
100
AcDbEntity
  8
0
100
AcDbLine
 10
16.25
 20
459.4999999999999
 30
0.0
 11
16.25
 21
456.0
 31
0.0
  0
LINE
  5
103
330
1E
100
AcDbEntity
  8
0
100
AcDbLine
 10
0.250000000000003
 20
459.7
 30
0.0
 11
0.250000000000003
 21
459.7999999999999
 31
0.0
  0
LINE
  5
104
330
1E
100
AcDbEntity
  8
0
100
AcDbLine
 10
0.250000000000003
 20
459.7
 30
0.0
 11
0.250000000000003
 21
459.4999999999999
 31
0.0
  0
LINE
  5
105
330
1E
100
AcDbEntity
  8
0
100
AcDbLine
 10
0.750000000000004
 20
460.0
 30
0.0
 11
15.75
 21
460.0
 31
0.0
  0
LINE
  5
106
330
1E
100
AcDbEntity
  8
0
100
AcDbLine
 10
0.750000000000004
 20
460.4
 30
0.0
 11
15.75
 21
460.4
 31
0.0
  0
LINE
  5
107
330
1E
100
AcDbEntity
  8
0
100
AcDbLine
 10
0.7500000000000031
 20
460.4
 30
0.0
 11
0.7500000000000031
 21
491.0
 31
0.0
  0
LINE
  5
108
330
1E
100
AcDbEntity
  8
0
100
AcDbLine
 10
0.7500000000000031
 20
460.4
 30
0.0
 11
15.75
 21
460.4
 31
0.0
  0
LINE
  5
109
330
1E
100
AcDbEntity
  8
0
100
AcDbLine
 10
0.7500000000000031
 20
460.4
 30
0.0
 11
0.7500000000000031
 21
460.2
 31
0.0
  0
LINE
  5
10A
330
1E
100
AcDbEntity
  8
0
100
AcDbLine
 10
15.75
 20
460.4
 30
0.0
 11
15.75
 21
491.0
 31
0.0
  0
LINE
  5
10B
330
1E
100
AcDbEntity
  8
0
100
AcDbLine
 10
15.75
 20
460.4
 30
0.0
 11
16.25
 21
459.7999999999999
 31
0.0
  0
LINE
  5
10C
330
1E
100
AcDbEntity
  8
0
100
AcDbLine
 10
15.75
 20
460.4
 30
0.0
 11
15.75
 21
460.2
 31
0.0
  0
LINE
  5
10D
330
1E
100
AcDbEntity
  8
0
100
AcDbLine
 10
0.7500000000000031
 20
460.2
 30
0.0
 11
0.7500000000000031
 21
460.0
 31
0.0
  0
LINE
  5
10E
330
1E
100
AcDbEntity
  8
0
100
AcDbLine
 10
0.7500000000000031
 20
460.2
 30
0.0
 11
0.7500000000000031
 21
460.4
 31
0.0
  0
LINE
  5
10F
330
1E
100
AcDbEntity
  8
0
100
AcDbLine
 10
15.75
 20
460.2
 30
0.0
 11
15.75
 21
460.0
 31
0.0
  0
LINE
  5
110
330
1E
100
AcDbEntity
  8
0
100
AcDbLine
 10
15.75
 20
460.2
 30
0.0
 11
15.75
 21
460.4
 31
0.0
  0
LINE
  5
111
330
1E
100
AcDbEntity
  8
0
100
AcDbLine
 10
0.7500000000000031
 20
460.0
 30
0.0
 11
15.75
 21
460.0
 31
0.0
  0
LINE
  5
112
330
1E
100
AcDbEntity
  8
0
100
AcDbLine
 10
0.7500000000000031
 20
460.0
 30
0.0
 11
0.7500000000000031
 21
460.2
 31
0.0
  0
LINE
  5
113
330
1E
100
AcDbEntity
  8
0
100
AcDbLine
 10
0.7500000000000031
 20
460.0
 30
0.0
 11
0.7500000000000031
 21
456.0
 31
0.0
  0
LINE
  5
114
330
1E
100
AcDbEntity
  8
0
100
AcDbLine
 10
26.25
 20
460.3
 30
0.0
 11
26.25
 21
459.4999999999999
 31
0.0
  0
LINE
  5
115
330
1E
100
AcDbEntity
  8
0
100
AcDbLine
 10
26.25
 20
460.8
 30
0.0
 11
26.25
 21
460.3
 31
0.0
  0
LINE
  5
116
330
1E
100
AcDbEntity
  8
0
100
AcDbLine
 10
16.25
 20
461.0
 30
0.0
 11
26.25
 21
461.0
 31
0.0
  0
LINE
  5
117
330
1E
100
AcDbEntity
  8
0
100
AcDbLine
 10
15.75
 20
460.0
 30
0.0
 11
16.25
 21
459.4999999999999
 31
0.0
  0
LINE
  5
118
330
1E
100
AcDbEntity
  8
0
100
AcDbLine
 10
15.75
 20
460.0
 30
0.0
 11
15.75
 21
460.2
 31
0.0
  0
LINE
  5
119
330
1E
100
AcDbEntity
  8
0
100
AcDbLine
 10
15.75
 20
460.0
 30
0.0
 11
15.75
 21
456.0
 31
0.0
  0
LINE
  5
11A
330
1E
100
AcDbEntity
  8
0
100
AcDbLine
 10
0.250000000000003
 20
459.7999999999999
 30
0.0
 11
0.250000000000003
 21
459.7
 31
0.0
  0
LINE
  5
11B
330
1E
100
AcDbEntity
  8
0
100
AcDbLine
 10
0.250000000000003
 20
459.7999999999999
 30
0.0
 11
0.250000000000003
 21
490.5
 31
0.0
  0
LINE
  5
11C
330
1E
100
AcDbEntity
  8
0
100
AcDbLine
 10
0.250000000000003
 20
459.7999999999999
 30
0.0
 11
0.7500000000000031
 21
460.4
 31
0.0
  0
LINE
  5
11D
330
1E
100
AcDbEntity
  8
0
100
AcDbLine
 10
26.25
 20
461.0
 30
0.0
 11
26.25
 21
461.2919999999999
 31
0.0
  0
LINE
  5
11E
330
1E
100
AcDbEntity
  8
0
100
AcDbLine
 10
26.25
 20
461.0
 30
0.0
 11
26.25
 21
460.8
 31
0.0
  0
LINE
  5
11F
330
1E
100
AcDbEntity
  8
0
100
AcDbLine
 10
26.25
 20
466.164
 30
0.0
 11
26.25
 21
470.448
 31
0.0
  0
LINE
  5
120
330
1E
100
AcDbEntity
  8
0
100
AcDbLine
 10
26.25
 20
466.164
 30
0.0
 11
26.25
 21
461.2919999999999
 31
0.0
  0
LINE
  5
121
330
1E
100
AcDbEntity
  8
0
100
AcDbLine
 10
68.25
 20
461.376
 30
0.0
 11
68.25
 21
466.4159999999999
 31
0.0
  0
LINE
  5
122
330
1E
100
AcDbEntity
  8
0
100
AcDbLine
 10
68.25
 20
466.4159999999999
 30
0.0
 11
68.25
 21
470.868
 31
0.0
  0
LINE
  5
123
330
1E
100
AcDbEntity
  8
0
100
AcDbLine
 10
26.9167
 20
466.4159999999999
 30
0.0
 11
26.9167
 21
461.376
 31
0.0
  0
LINE
  5
124
330
1E
100
AcDbEntity
  8
0
100
AcDbLine
 10
26.9167
 20
466.4159999999999
 30
0.0
 11
26.9167
 21
470.868
 31
0.0
  0
LINE
  5
125
330
1E
100
AcDbEntity
  8
0
100
AcDbLine
 10
26.9167
 20
461.376
 30
0.0
 11
26.9167
 21
456.0
 31
0.0
  0
LINE
  5
126
330
1E
100
AcDbEntity
  8
0
100
AcDbLine
 10
26.9167
 20
461.376
 30
0.0
 11
26.9167
 21
466.4159999999999
 31
0.0
  0
LINE
  5
127
330
1E
100
AcDbEntity
  8
0
100
AcDbLine
 10
26.25
 20
461.2919999999999
 30
0.0
 11
26.25
 21
466.164
 31
0.0
  0
LINE
  5
128
330
1E
100
AcDbEntity
  8
0
100
AcDbLine
 10
26.25
 20
461.2919999999999
 30
0.0
 11
26.25
 21
461.0
 31
0.0
  0
LINE
  5
129
330
1E
100
AcDbEntity
  8
0
100
AcDbLine
 10
26.25
 20
461.2919999999999
 30
0.0
 11
26.25
 21
456.0
 31
0.0
  0
LINE
  5
12A
330
1E
100
AcDbEntity
  8
0
100
AcDbLine
 10
70.25
 20
461.0
 30
0.0
 11
70.25
 21
465.7
 31
0.0
  0
LINE
  5
12B
330
1E
100
AcDbEntity
  8
0
100
AcDbLine
 10
70.25
 20
461.0
 30
0.0
 11
70.25
 21
456.0
 31
0.0
  0
LINE
  5
12C
330
1E
100
AcDbEntity
  8
0
100
AcDbLine
 10
70.25
 20
465.7
 30
0.0
 11
70.25
 21
469.8
 31
0.0
  0
LINE
  5
12D
330
1E
100
AcDbEntity
  8
0
100
AcDbLine
 10
70.25
 20
465.7
 30
0.0
 11
70.25
 21
461.0
 31
0.0
  0
LINE
  5
12E
330
1E
100
AcDbEntity
  8
0
100
AcDbLine
 10
70.25
 20
456.0
 30
0.0
 11
70.25
 21
461.3999999999999
 31
0.0
  0
LINE
  5
12F
330
1E
100
AcDbEntity
  8
0
100
AcDbLine
 10
70.25
 20
456.0
 30
0.0
 11
70.25
 21
461.0
 31
0.0
  0
LINE
  5
130
330
1E
100
AcDbEntity
  8
0
100
AcDbLine
 10
70.25
 20
456.0
 30
0.0
 11
70.25
 21
450.6
 31
0.0
  0
LINE
  5
131
330
1E
100
AcDbEntity
  8
0
100
AcDbLine
 10
70.25
 20
456.0
 30
0.0
 11
70.25
 21
451.0
 31
0.0
  0
LINE
  5
132
330
1E
100
AcDbEntity
  8
0
100
AcDbLine
 10
70.25
 20
461.3999999999999
 30
0.0
 11
70.25
 21
466.5
 31
0.0
  0
LINE
  5
133
330
1E
100
AcDbEntity
  8
0
100
AcDbLine
 10
70.25
 20
461.3999999999999
 30
0.0
 11
70.25
 21
456.0
 31
0.0
  0
LINE
  5
134
330
1E
100
AcDbEntity
  8
0
100
AcDbLine
 10
26.25
 20
473.7239999999999
 30
0.0
 11
26.25
 21
475.74
 31
0.0
  0
LINE
  5
135
330
1E
100
AcDbEntity
  8
0
100
AcDbLine
 10
26.25
 20
473.7239999999999
 30
0.0
 11
26.25
 21
470.448
 31
0.0
  0
LINE
  5
136
330
1E
100
AcDbEntity
  8
0
100
AcDbLine
 10
68.25
 20
470.868
 30
0.0
 11
68.25
 21
474.228
 31
0.0
  0
LINE
  5
137
330
1E
100
AcDbEntity
  8
0
100
AcDbLine
 10
26.9167
 20
470.868
 30
0.0
 11
26.9167
 21
466.4159999999999
 31
0.0
  0
LINE
  5
138
330
1E
100
AcDbEntity
  8
0
100
AcDbLine
 10
26.9167
 20
470.868
 30
0.0
 11
26.9167
 21
474.228
 31
0.0
  0
LINE
  5
139
330
1E
100
AcDbEntity
  8
0
100
AcDbLine
 10
26.25
 20
470.448
 30
0.0
 11
26.25
 21
473.7239999999999
 31
0.0
  0
LINE
  5
13A
330
1E
100
AcDbEntity
  8
0
100
AcDbLine
 10
26.25
 20
470.448
 30
0.0
 11
26.25
 21
466.164
 31
0.0
  0
LINE
  5
13B
330
1E
100
AcDbEntity
  8
0
100
AcDbLine
 10
70.25
 20
469.8
 30
0.0
 11
70.25
 21
472.9
 31
0.0
  0
LINE
  5
13C
330
1E
100
AcDbEntity
  8
0
100
AcDbLine
 10
70.25
 20
469.8
 30
0.0
 11
70.25
 21
465.7
 31
0.0
  0
LINE
  5
13D
330
1E
100
AcDbEntity
  8
0
100
AcDbLine
 10
70.25
 20
472.9
 30
0.0
 11
70.25
 21
474.8
 31
0.0
  0
LINE
  5
13E
330
1E
100
AcDbEntity
  8
0
100
AcDbLine
 10
70.25
 20
472.9
 30
0.0
 11
70.25
 21
469.8
 31
0.0
  0
LINE
  5
13F
330
1E
100
AcDbEntity
  8
0
100
AcDbLine
 10
70.25
 20
466.5
 30
0.0
 11
70.25
 21
470.8
 31
0.0
  0
LINE
  5
140
330
1E
100
AcDbEntity
  8
0
100
AcDbLine
 10
70.25
 20
466.5
 30
0.0
 11
70.25
 21
461.3999999999999
 31
0.0
  0
LINE
  5
141
330
1E
100
AcDbEntity
  8
0
100
AcDbLine
 10
70.25
 20
470.8
 30
0.0
 11
70.25
 21
474.1999999999999
 31
0.0
  0
LINE
  5
142
330
1E
100
AcDbEntity
  8
0
100
AcDbLine
 10
70.25
 20
470.8
 30
0.0
 11
70.25
 21
466.5
 31
0.0
  0
LINE
  5
143
330
1E
100
AcDbEntity
  8
0
100
AcDbLine
 10
68.25
 20
474.228
 30
0.0
 11
68.25
 21
476.244
 31
0.0
  0
LINE
  5
144
330
1E
100
AcDbEntity
  8
0
100
AcDbLine
 10
26.9167
 20
474.228
 30
0.0
 11
26.9167
 21
470.868
 31
0.0
  0
LINE
  5
145
330
1E
100
AcDbEntity
  8
0
100
AcDbLine
 10
26.9167
 20
474.228
 30
0.0
 11
26.9167
 21
476.244
 31
0.0
  0
LINE
  5
146
330
1E
100
AcDbEntity
  8
0
100
AcDbLine
 10
26.25
 20
475.74
 30
0.0
 11
26.25
 21
476.496
 31
0.0
  0
LINE
  5
147
330
1E
100
AcDbEntity
  8
0
100
AcDbLine
 10
26.25
 20
475.74
 30
0.0
 11
26.25
 21
473.7239999999999
 31
0.0
  0
LINE
  5
148
330
1E
100
AcDbEntity
  8
0
100
AcDbLine
 10
68.25
 20
475.4999999999999
 30
0.0
 11
70.25
 21
475.4999999999999
 31
0.0
  0
LINE
  5
149
330
1E
100
AcDbEntity
  8
0
100
AcDbLine
 10
70.25
 20
474.8
 30
0.0
 11
70.25
 21
475.4999999999999
 31
0.0
  0
LINE
  5
14A
330
1E
100
AcDbEntity
  8
0
100
AcDbLine
 10
70.25
 20
474.8
 30
0.0
 11
70.25
 21
472.9
 31
0.0
  0
LINE
  5
14B
330
1E
100
AcDbEntity
  8
0
100
AcDbLine
 10
70.25
 20
474.1999999999999
 30
0.0
 11
70.25
 21
476.1999999999999
 31
0.0
  0
LINE
  5
14C
330
1E
100
AcDbEntity
  8
0
100
AcDbLine
 10
70.25
 20
474.1999999999999
 30
0.0
 11
70.25
 21
470.8
 31
0.0
  0
LINE
  5
14D
330
1E
100
AcDbEntity
  8
0
100
AcDbLine
 10
70.25
 20
475.4999999999999
 30
0.0
 11
70.25
 21
476.1999999999999
 31
0.0
  0
LINE
  5
14E
330
1E
100
AcDbEntity
  8
0
100
AcDbLine
 10
70.25
 20
475.4999999999999
 30
0.0
 11
70.25
 21
474.8
 31
0.0
  0
LINE
  5
14F
330
1E
100
AcDbEntity
  8
0
100
AcDbLine
 10
70.25
 20
475.4999999999999
 30
0.0
 11
70.25
 21
490.0
 31
0.0
  0
LINE
  5
150
330
1E
100
AcDbEntity
  8
0
100
AcDbLine
 10
26.9167
 20
476.244
 30
0.0
 11
26.9167
 21
474.228
 31
0.0
  0
LINE
  5
151
330
1E
100
AcDbEntity
  8
0
100
AcDbLine
 10
26.9167
 20
476.244
 30
0.0
 11
26.9167
 21
477.0
 31
0.0
  0
LINE
  5
152
330
1E
100
AcDbEntity
  8
0
100
AcDbLine
 10
26.25
 20
476.496
 30
0.0
 11
26.9167
 21
477.0
 31
0.0
  0
LINE
  5
153
330
1E
100
AcDbEntity
  8
0
100
AcDbLine
 10
26.25
 20
476.496
 30
0.0
 11
26.25
 21
475.74
 31
0.0
  0
LINE
  5
154
330
1E
100
AcDbEntity
  8
0
100
AcDbLine
 10
68.25
 20
476.244
 30
0.0
 11
68.25
 21
477.0
 31
0.0
  0
LINE
  5
155
330
1E
100
AcDbEntity
  8
0
100
AcDbLine
 10
26.9167
 20
477.0
 30
0.0
 11
68.25
 21
477.0
 31
0.0
  0
LINE
  5
156
330
1E
100
AcDbEntity
  8
0
100
AcDbLine
 10
26.9167
 20
477.0
 30
0.0
 11
26.9167
 21
476.244
 31
0.0
  0
LINE
  5
157
330
1E
100
AcDbEntity
  8
0
100
AcDbLine
 10
70.25
 20
476.1999999999999
 30
0.0
 11
70.25
 21
475.4999999999999
 31
0.0
  0
LINE
  5
158
330
1E
100
AcDbEntity
  8
0
100
AcDbLine
 10
70.25
 20
476.1999999999999
 30
0.0
 11
70.25
 21
477.0
 31
0.0
  0
LINE
  5
159
330
1E
100
AcDbEntity
  8
0
100
AcDbLine
 10
70.25
 20
476.1999999999999
 30
0.0
 11
70.25
 21
474.1999999999999
 31
0.0
  0
LINE
  5
15A
330
1E
100
AcDbEntity
  8
0
100
AcDbLine
 10
70.25
 20
477.0
 30
0.0
 11
70.25
 21
476.1999999999999
 31
0.0
  0
LINE
  5
15B
330
1E
100
AcDbEntity
  8
0
100
AcDbLine
 10
70.25
 20
436.5
 30
0.0
 11
70.25
 21
435.8
 31
0.0
  0
LINE
  5
15C
330
1E
100
AcDbEntity
  8
0
100
AcDbLine
 10
70.25
 20
436.5
 30
0.0
 11
70.25
 21
437.1999999999999
 31
0.0
  0
LINE
  5
15D
330
1E
100
AcDbEntity
  8
0
100
AcDbLine
 10
104.2499999999999
 20
477.0
 30
0.0
 11
152.5196
 21
477.0
 31
0.0
  0
LINE
  5
15E
330
1E
100
AcDbEntity
  8
0
100
AcDbLine
 10
104.2499999999999
 20
477.0
 30
0.0
 11
104.2499999999999
 21
490.0
 31
0.0
  0
LINE
  5
15F
330
1E
100
AcDbEntity
  8
0
100
AcDbLine
 10
70.25
 20
435.8
 30
0.0
 11
70.25
 21
435.0
 31
0.0
  0
LINE
  5
160
330
1E
100
AcDbEntity
  8
0
100
AcDbLine
 10
70.25
 20
435.8
 30
0.0
 11
70.25
 21
436.5
 31
0.0
  0
LINE
  5
161
330
1E
100
AcDbEntity
  8
0
100
AcDbLine
 10
70.25
 20
435.8
 30
0.0
 11
70.25
 21
437.8
 31
0.0
  0
LINE
  5
162
330
1E
100
AcDbEntity
  8
0
100
AcDbLine
 10
70.25
 20
435.0
 30
0.0
 11
151.25
 21
435.0
 31
0.0
  0
LINE
  5
163
330
1E
100
AcDbEntity
  8
0
100
AcDbLine
 10
70.25
 20
435.0
 30
0.0
 11
70.25
 21
435.8
 31
0.0
  0
LINE
  5
164
330
1E
100
AcDbEntity
  8
0
100
AcDbLine
 10
185.15
 20
175.8
 30
0.0
 11
206.4499999999999
 21
167.1
 31
0.0
  0
LINE
  5
165
330
1E
100
AcDbEntity
  8
0
100
AcDbLine
 10
151.25
 20
256.07
 30
0.0
 11
151.25
 21
231.5659999999999
 31
0.0
  0
LINE
  5
166
330
1E
100
AcDbEntity
  8
0
100
AcDbLine
 10
151.25
 20
256.07
 30
0.0
 11
151.25
 21
281.0
 31
0.0
  0
LINE
  5
167
330
1E
100
AcDbEntity
  8
0
100
AcDbLine
 10
151.25
 20
231.5659999999999
 30
0.0
 11
151.25
 21
207.907
 31
0.0
  0
LINE
  5
168
330
1E
100
AcDbEntity
  8
0
100
AcDbLine
 10
151.25
 20
231.5659999999999
 30
0.0
 11
151.25
 21
256.07
 31
0.0
  0
LINE
  5
169
330
1E
100
AcDbEntity
  8
0
100
AcDbLine
 10
151.25
 20
207.907
 30
0.0
 11
151.25
 21
185.5
 31
0.0
  0
LINE
  5
16A
330
1E
100
AcDbEntity
  8
0
100
AcDbLine
 10
151.25
 20
207.907
 30
0.0
 11
151.25
 21
231.5659999999999
 31
0.0
  0
LINE
  5
16B
330
1E
100
AcDbEntity
  8
0
100
AcDbLine
 10
151.25
 20
185.5
 30
0.0
 11
151.25
 21
164.7265999999999
 31
0.0
  0
LINE
  5
16C
330
1E
100
AcDbEntity
  8
0
100
AcDbLine
 10
151.25
 20
185.5
 30
0.0
 11
151.25
 21
207.907
 31
0.0
  0
LINE
  5
16D
330
1E
100
AcDbEntity
  8
0
100
AcDbLine
 10
151.25
 20
281.0
 30
0.0
 11
151.25
 21
305.93
 31
0.0
  0
LINE
  5
16E
330
1E
100
AcDbEntity
  8
0
100
AcDbLine
 10
151.25
 20
281.0
 30
0.0
 11
151.25
 21
256.07
 31
0.0
  0
LINE
  5
16F
330
1E
100
AcDbEntity
  8
0
100
AcDbLine
 10
151.25
 20
354.093
 30
0.0
 11
151.25
 21
330.434
 31
0.0
  0
LINE
  5
170
330
1E
100
AcDbEntity
  8
0
100
AcDbLine
 10
151.25
 20
354.093
 30
0.0
 11
151.25
 21
376.5
 31
0.0
  0
LINE
  5
171
330
1E
100
AcDbEntity
  8
0
100
AcDbLine
 10
151.25
 20
330.434
 30
0.0
 11
151.25
 21
305.93
 31
0.0
  0
LINE
  5
172
330
1E
100
AcDbEntity
  8
0
100
AcDbLine
 10
151.25
 20
330.434
 30
0.0
 11
151.25
 21
354.093
 31
0.0
  0
LINE
  5
173
330
1E
100
AcDbEntity
  8
0
100
AcDbLine
 10
151.25
 20
305.93
 30
0.0
 11
151.25
 21
281.0
 31
0.0
  0
LINE
  5
174
330
1E
100
AcDbEntity
  8
0
100
AcDbLine
 10
151.25
 20
305.93
 30
0.0
 11
151.25
 21
330.434
 31
0.0
  0
LINE
  5
175
330
1E
100
AcDbEntity
  8
0
100
AcDbLine
 10
151.25
 20
376.5
 30
0.0
 11
151.25
 21
397.273
 31
0.0
  0
LINE
  5
176
330
1E
100
AcDbEntity
  8
0
100
AcDbLine
 10
151.25
 20
376.5
 30
0.0
 11
151.25
 21
354.093
 31
0.0
  0
LINE
  5
177
330
1E
100
AcDbEntity
  8
0
100
AcDbLine
 10
151.25
 20
397.273
 30
0.0
 11
151.25
 21
416.0569999999999
 31
0.0
  0
LINE
  5
178
330
1E
100
AcDbEntity
  8
0
100
AcDbLine
 10
151.25
 20
397.273
 30
0.0
 11
151.25
 21
376.5
 31
0.0
  0
LINE
  5
179
330
1E
100
AcDbEntity
  8
0
100
AcDbLine
 10
151.25
 20
416.0569999999999
 30
0.0
 11
151.25
 21
432.5299999999999
 31
0.0
  0
LINE
  5
17A
330
1E
100
AcDbEntity
  8
0
100
AcDbLine
 10
151.25
 20
416.0569999999999
 30
0.0
 11
151.25
 21
397.273
 31
0.0
  0
LINE
  5
17B
330
1E
100
AcDbEntity
  8
0
100
AcDbLine
 10
151.25
 20
457.4609999999999
 30
0.0
 11
151.25
 21
446.4109999999999
 31
0.0
  0
LINE
  5
17C
330
1E
100
AcDbEntity
  8
0
100
AcDbLine
 10
151.25
 20
457.4609999999999
 30
0.0
 11
151.25
 21
465.4919999999999
 31
0.0
  0
LINE
  5
17D
330
1E
100
AcDbEntity
  8
0
100
AcDbLine
 10
151.25
 20
465.4919999999999
 30
0.0
 11
151.25
 21
470.366
 31
0.0
  0
LINE
  5
17E
330
1E
100
AcDbEntity
  8
0
100
AcDbLine
 10
151.25
 20
465.4919999999999
 30
0.0
 11
151.25
 21
457.4609999999999
 31
0.0
  0
LINE
  5
17F
330
1E
100
AcDbEntity
  8
0
100
AcDbLine
 10
151.25
 20
470.366
 30
0.0
 11
151.25
 21
472.0
 31
0.0
  0
LINE
  5
180
330
1E
100
AcDbEntity
  8
0
100
AcDbLine
 10
151.25
 20
470.366
 30
0.0
 11
151.25
 21
465.4919999999999
 31
0.0
  0
LINE
  5
181
330
1E
100
AcDbEntity
  8
0
100
AcDbLine
 10
151.25
 20
446.4109999999999
 30
0.0
 11
151.25
 21
432.5299999999999
 31
0.0
  0
LINE
  5
182
330
1E
100
AcDbEntity
  8
0
100
AcDbLine
 10
151.25
 20
446.4109999999999
 30
0.0
 11
151.25
 21
457.4609999999999
 31
0.0
  0
LINE
  5
183
330
1E
100
AcDbEntity
  8
0
100
AcDbLine
 10
151.25
 20
432.5299999999999
 30
0.0
 11
151.25
 21
416.0569999999999
 31
0.0
  0
LINE
  5
184
330
1E
100
AcDbEntity
  8
0
100
AcDbLine
 10
151.25
 20
432.5299999999999
 30
0.0
 11
151.25
 21
446.4109999999999
 31
0.0
  0
LINE
  5
185
330
1E
100
AcDbEntity
  8
0
100
AcDbLine
 10
151.646
 20
474.8159999999999
 30
0.0
 11
152.702
 21
477.456
 31
0.0
  0
LINE
  5
186
330
1E
100
AcDbEntity
  8
0
100
AcDbLine
 10
151.25
 20
472.0
 30
0.0
 11
151.25
 21
470.366
 31
0.0
  0
LINE
  5
187
330
1E
100
AcDbEntity
  8
0
100
AcDbLine
 10
173.2499999999999
 20
231.5659999999999
 30
0.0
 11
173.2499999999999
 21
207.907
 31
0.0
  0
LINE
  5
188
330
1E
100
AcDbEntity
  8
0
100
AcDbLine
 10
173.2499999999999
 20
231.5659999999999
 30
0.0
 11
173.2499999999999
 21
256.07
 31
0.0
  0
LINE
  5
189
330
1E
100
AcDbEntity
  8
0
100
AcDbLine
 10
173.2499999999999
 20
207.907
 30
0.0
 11
173.2499999999999
 21
185.5
 31
0.0
  0
LINE
  5
18A
330
1E
100
AcDbEntity
  8
0
100
AcDbLine
 10
173.2499999999999
 20
207.907
 30
0.0
 11
173.2499999999999
 21
231.5659999999999
 31
0.0
  0
LINE
  5
18B
330
1E
100
AcDbEntity
  8
0
100
AcDbLine
 10
173.2499999999999
 20
185.5
 30
0.0
 11
173.2499999999999
 21
164.7265999999999
 31
0.0
  0
LINE
  5
18C
330
1E
100
AcDbEntity
  8
0
100
AcDbLine
 10
173.2499999999999
 20
185.5
 30
0.0
 11
173.2499999999999
 21
207.907
 31
0.0
  0
LINE
  5
18D
330
1E
100
AcDbEntity
  8
0
100
AcDbLine
 10
173.2499999999999
 20
305.93
 30
0.0
 11
173.2499999999999
 21
330.434
 31
0.0
  0
LINE
  5
18E
330
1E
100
AcDbEntity
  8
0
100
AcDbLine
 10
173.2499999999999
 20
305.93
 30
0.0
 11
173.2499999999999
 21
281.0
 31
0.0
  0
LINE
  5
18F
330
1E
100
AcDbEntity
  8
0
100
AcDbLine
 10
173.2499999999999
 20
330.434
 30
0.0
 11
173.2499999999999
 21
354.093
 31
0.0
  0
LINE
  5
190
330
1E
100
AcDbEntity
  8
0
100
AcDbLine
 10
173.2499999999999
 20
330.434
 30
0.0
 11
173.2499999999999
 21
305.93
 31
0.0
  0
LINE
  5
191
330
1E
100
AcDbEntity
  8
0
100
AcDbLine
 10
173.2499999999999
 20
354.093
 30
0.0
 11
173.2499999999999
 21
376.5
 31
0.0
  0
LINE
  5
192
330
1E
100
AcDbEntity
  8
0
100
AcDbLine
 10
173.2499999999999
 20
354.093
 30
0.0
 11
173.2499999999999
 21
330.434
 31
0.0
  0
LINE
  5
193
330
1E
100
AcDbEntity
  8
0
100
AcDbLine
 10
173.2499999999999
 20
397.273
 30
0.0
 11
173.2499999999999
 21
376.5
 31
0.0
  0
LINE
  5
194
330
1E
100
AcDbEntity
  8
0
100
AcDbLine
 10
173.2499999999999
 20
397.273
 30
0.0
 11
173.2499999999999
 21
416.0569999999999
 31
0.0
  0
LINE
  5
195
330
1E
100
AcDbEntity
  8
0
100
AcDbLine
 10
173.2499999999999
 20
376.5
 30
0.0
 11
173.2499999999999
 21
397.273
 31
0.0
  0
LINE
  5
196
330
1E
100
AcDbEntity
  8
0
100
AcDbLine
 10
173.2499999999999
 20
376.5
 30
0.0
 11
173.2499999999999
 21
354.093
 31
0.0
  0
LINE
  5
197
330
1E
100
AcDbEntity
  8
0
100
AcDbLine
 10
173.2499999999999
 20
432.5299999999999
 30
0.0
 11
173.2499999999999
 21
416.0569999999999
 31
0.0
  0
LINE
  5
198
330
1E
100
AcDbEntity
  8
0
100
AcDbLine
 10
173.2499999999999
 20
432.5299999999999
 30
0.0
 11
173.2499999999999
 21
446.4109999999999
 31
0.0
  0
LINE
  5
199
330
1E
100
AcDbEntity
  8
0
100
AcDbLine
 10
173.2499999999999
 20
416.0569999999999
 30
0.0
 11
173.2499999999999
 21
432.5299999999999
 31
0.0
  0
LINE
  5
19A
330
1E
100
AcDbEntity
  8
0
100
AcDbLine
 10
173.2499999999999
 20
416.0569999999999
 30
0.0
 11
173.2499999999999
 21
397.273
 31
0.0
  0
LINE
  5
19B
330
1E
100
AcDbEntity
  8
0
100
AcDbLine
 10
173.2499999999999
 20
281.0
 30
0.0
 11
173.2499999999999
 21
256.07
 31
0.0
  0
LINE
  5
19C
330
1E
100
AcDbEntity
  8
0
100
AcDbLine
 10
173.2499999999999
 20
281.0
 30
0.0
 11
173.2499999999999
 21
305.93
 31
0.0
  0
LINE
  5
19D
330
1E
100
AcDbEntity
  8
0
100
AcDbLine
 10
173.2499999999999
 20
256.07
 30
0.0
 11
173.2499999999999
 21
281.0
 31
0.0
  0
LINE
  5
19E
330
1E
100
AcDbEntity
  8
0
100
AcDbLine
 10
173.2499999999999
 20
256.07
 30
0.0
 11
173.2499999999999
 21
231.5659999999999
 31
0.0
  0
LINE
  5
19F
330
1E
100
AcDbEntity
  8
0
100
AcDbLine
 10
173.2499999999999
 20
446.4109999999999
 30
0.0
 11
173.2499999999999
 21
457.4609999999999
 31
0.0
  0
LINE
  5
1A0
330
1E
100
AcDbEntity
  8
0
100
AcDbLine
 10
173.2499999999999
 20
446.4109999999999
 30
0.0
 11
173.2499999999999
 21
432.5299999999999
 31
0.0
  0
LINE
  5
1A1
330
1E
100
AcDbEntity
  8
0
100
AcDbLine
 10
173.2499999999999
 20
457.4609999999999
 30
0.0
 11
173.2499999999999
 21
465.4919999999999
 31
0.0
  0
LINE
  5
1A2
330
1E
100
AcDbEntity
  8
0
100
AcDbLine
 10
173.2499999999999
 20
457.4609999999999
 30
0.0
 11
173.2499999999999
 21
446.4109999999999
 31
0.0
  0
LINE
  5
1A3
330
1E
100
AcDbEntity
  8
0
100
AcDbLine
 10
173.2499999999999
 20
465.4919999999999
 30
0.0
 11
173.2499999999999
 21
470.366
 31
0.0
  0
LINE
  5
1A4
330
1E
100
AcDbEntity
  8
0
100
AcDbLine
 10
173.2499999999999
 20
465.4919999999999
 30
0.0
 11
173.2499999999999
 21
457.4609999999999
 31
0.0
  0
LINE
  5
1A5
330
1E
100
AcDbEntity
  8
0
100
AcDbLine
 10
173.2499999999999
 20
472.0
 30
0.0
 11
173.2499999999999
 21
470.366
 31
0.0
  0
LINE
  5
1A6
330
1E
100
AcDbEntity
  8
0
100
AcDbLine
 10
173.2499999999999
 20
470.366
 30
0.0
 11
173.2499999999999
 21
472.0
 31
0.0
  0
LINE
  5
1A7
330
1E
100
AcDbEntity
  8
0
100
AcDbLine
 10
173.2499999999999
 20
470.366
 30
0.0
 11
173.2499999999999
 21
465.4919999999999
 31
0.0
  0
LINE
  5
1A8
330
1E
100
AcDbEntity
  8
0
100
AcDbLine
 10
172.854
 20
474.8159999999999
 30
0.0
 11
173.2499999999999
 21
472.0
 31
0.0
  0
LINE
  5
1A9
330
1E
100
AcDbEntity
  8
0
100
AcDbLine
 10
154.2499999999999
 20
479.5071
 30
0.0
 11
154.2499999999999
 21
526.0
 31
0.0
  0
LINE
  5
1AA
330
1E
100
AcDbEntity
  8
0
100
AcDbLine
 10
162.25
 20
483.0
 30
0.0
 11
165.0659999999999
 21
482.604
 31
0.0
  0
LINE
  5
1AB
330
1E
100
AcDbEntity
  8
0
100
AcDbLine
 10
165.0659999999999
 20
482.604
 30
0.0
 11
167.7059999999999
 21
481.5479999999999
 31
0.0
  0
LINE
  5
1AC
330
1E
100
AcDbEntity
  8
0
100
AcDbLine
 10
159.434
 20
482.604
 30
0.0
 11
162.25
 21
483.0
 31
0.0
  0
LINE
  5
1AD
330
1E
100
AcDbEntity
  8
0
100
AcDbLine
 10
154.462
 20
479.788
 30
0.0
 11
156.7939999999999
 21
481.5479999999999
 31
0.0
  0
LINE
  5
1AE
330
1E
100
AcDbEntity
  8
0
100
AcDbLine
 10
171.798
 20
477.456
 30
0.0
 11
172.854
 21
474.8159999999999
 31
0.0
  0
LINE
  5
1AF
330
1E
100
AcDbEntity
  8
0
100
AcDbLine
 10
170.25
 20
479.5071
 30
0.0
 11
170.25
 21
526.0
 31
0.0
  0
LINE
  5
1B0
330
1E
100
AcDbEntity
  8
0
100
AcDbLine
 10
167.7059999999999
 20
481.5479999999999
 30
0.0
 11
170.0379999999999
 21
479.788
 31
0.0
  0
LINE
  5
1B1
330
1E
100
AcDbEntity
  8
0
100
AcDbLine
 10
171.9804
 20
477.0
 30
0.0
 11
220.25
 21
477.0
 31
0.0
  0
LINE
  5
1B2
330
1E
100
AcDbEntity
  8
0
100
AcDbLine
 10
173.2499999999999
 20
435.0
 30
0.0
 11
254.2499999999999
 21
435.0
 31
0.0
  0
LINE
  5
1B3
330
1E
100
AcDbEntity
  8
0
100
AcDbLine
 10
173.2499999999999
 20
177.46288209607
 30
0.0
 11
185.15
 21
175.8
 31
0.0
  0
LINE
  5
1B4
330
1E
100
AcDbEntity
  8
0
100
AcDbLine
 10
254.2499999999999
 20
435.0
 30
0.0
 11
254.2499999999999
 21
435.8
 31
0.0
  0
LINE
  5
1B5
330
1E
100
AcDbEntity
  8
0
100
AcDbLine
 10
254.2499999999999
 20
435.8
 30
0.0
 11
254.2499999999999
 21
435.0
 31
0.0
  0
LINE
  5
1B6
330
1E
100
AcDbEntity
  8
0
100
AcDbLine
 10
254.2499999999999
 20
435.8
 30
0.0
 11
254.2499999999999
 21
437.8
 31
0.0
  0
LINE
  5
1B7
330
1E
100
AcDbEntity
  8
0
100
AcDbLine
 10
254.2499999999999
 20
436.5
 30
0.0
 11
256.25
 21
436.5
 31
0.0
  0
LINE
  5
1B8
330
1E
100
AcDbEntity
  8
0
100
AcDbLine
 10
256.25
 20
437.1999999999999
 30
0.0
 11
256.25
 21
436.5
 31
0.0
  0
LINE
  5
1B9
330
1E
100
AcDbEntity
  8
0
100
AcDbLine
 10
256.25
 20
436.5
 30
0.0
 11
256.25
 21
435.7559999999999
 31
0.0
  0
LINE
  5
1BA
330
1E
100
AcDbEntity
  8
0
100
AcDbLine
 10
256.25
 20
435.0
 30
0.0
 11
256.25
 21
435.7559999999999
 31
0.0
  0
LINE
  5
1BB
330
1E
100
AcDbEntity
  8
0
100
AcDbLine
 10
256.25
 20
435.0
 30
0.0
 11
297.5829999999999
 21
435.0
 31
0.0
  0
LINE
  5
1BC
330
1E
100
AcDbEntity
  8
0
100
AcDbLine
 10
256.25
 20
435.7559999999999
 30
0.0
 11
256.25
 21
437.772
 31
0.0
  0
LINE
  5
1BD
330
1E
100
AcDbEntity
  8
0
100
AcDbLine
 10
256.25
 20
435.7559999999999
 30
0.0
 11
256.25
 21
435.0
 31
0.0
  0
LINE
  5
1BE
330
1E
100
AcDbEntity
  8
0
100
AcDbLine
 10
254.2499999999999
 20
441.1999999999999
 30
0.0
 11
254.2499999999999
 21
437.8
 31
0.0
  0
LINE
  5
1BF
330
1E
100
AcDbEntity
  8
0
100
AcDbLine
 10
254.2499999999999
 20
441.1999999999999
 30
0.0
 11
254.2499999999999
 21
445.5
 31
0.0
  0
LINE
  5
1C0
330
1E
100
AcDbEntity
  8
0
100
AcDbLine
 10
254.2499999999999
 20
437.8
 30
0.0
 11
254.2499999999999
 21
435.8
 31
0.0
  0
LINE
  5
1C1
330
1E
100
AcDbEntity
  8
0
100
AcDbLine
 10
254.2499999999999
 20
437.8
 30
0.0
 11
254.2499999999999
 21
441.1999999999999
 31
0.0
  0
LINE
  5
1C2
330
1E
100
AcDbEntity
  8
0
100
AcDbLine
 10
254.2499999999999
 20
445.5
 30
0.0
 11
254.2499999999999
 21
441.1999999999999
 31
0.0
  0
LINE
  5
1C3
330
1E
100
AcDbEntity
  8
0
100
AcDbLine
 10
254.2499999999999
 20
445.5
 30
0.0
 11
254.2499999999999
 21
450.6
 31
0.0
  0
LINE
  5
1C4
330
1E
100
AcDbEntity
  8
0
100
AcDbLine
 10
256.25
 20
442.1999999999999
 30
0.0
 11
256.25
 21
439.1
 31
0.0
  0
LINE
  5
1C5
330
1E
100
AcDbEntity
  8
0
100
AcDbLine
 10
256.25
 20
439.1
 30
0.0
 11
256.25
 21
437.1999999999999
 31
0.0
  0
LINE
  5
1C6
330
1E
100
AcDbEntity
  8
0
100
AcDbLine
 10
256.25
 20
437.772
 30
0.0
 11
256.25
 21
441.1319999999999
 31
0.0
  0
LINE
  5
1C7
330
1E
100
AcDbEntity
  8
0
100
AcDbLine
 10
256.25
 20
441.1319999999999
 30
0.0
 11
256.25
 21
445.584
 31
0.0
  0
LINE
  5
1C8
330
1E
100
AcDbEntity
  8
0
100
AcDbLine
 10
254.2499999999999
 20
456.0
 30
0.0
 11
254.2499999999999
 21
450.6
 31
0.0
  0
LINE
  5
1C9
330
1E
100
AcDbEntity
  8
0
100
AcDbLine
 10
254.2499999999999
 20
456.0
 30
0.0
 11
254.2499999999999
 21
461.3999999999999
 31
0.0
  0
LINE
  5
1CA
330
1E
100
AcDbEntity
  8
0
100
AcDbLine
 10
254.2499999999999
 20
450.6
 30
0.0
 11
254.2499999999999
 21
445.5
 31
0.0
  0
LINE
  5
1CB
330
1E
100
AcDbEntity
  8
0
100
AcDbLine
 10
254.2499999999999
 20
450.6
 30
0.0
 11
254.2499999999999
 21
456.0
 31
0.0
  0
LINE
  5
1CC
330
1E
100
AcDbEntity
  8
0
100
AcDbLine
 10
256.25
 20
451.0
 30
0.0
 11
256.25
 21
446.3
 31
0.0
  0
LINE
  5
1CD
330
1E
100
AcDbEntity
  8
0
100
AcDbLine
 10
256.25
 20
446.3
 30
0.0
 11
256.25
 21
442.1999999999999
 31
0.0
  0
LINE
  5
1CE
330
1E
100
AcDbEntity
  8
0
100
AcDbLine
 10
256.25
 20
461.0
 30
0.0
 11
256.25
 21
456.0
 31
0.0
  0
LINE
  5
1CF
330
1E
100
AcDbEntity
  8
0
100
AcDbLine
 10
256.25
 20
445.584
 30
0.0
 11
256.25
 21
450.624
 31
0.0
  0
LINE
  5
1D0
330
1E
100
AcDbEntity
  8
0
100
AcDbLine
 10
256.25
 20
450.624
 30
0.0
 11
256.25
 21
456.0
 31
0.0
  0
LINE
  5
1D1
330
1E
100
AcDbEntity
  8
0
100
AcDbLine
 10
254.2499999999999
 20
461.3999999999999
 30
0.0
 11
254.2499999999999
 21
456.0
 31
0.0
  0
LINE
  5
1D2
330
1E
100
AcDbEntity
  8
0
100
AcDbLine
 10
254.2499999999999
 20
461.3999999999999
 30
0.0
 11
254.2499999999999
 21
466.5
 31
0.0
  0
LINE
  5
1D3
330
1E
100
AcDbEntity
  8
0
100
AcDbLine
 10
254.2499999999999
 20
466.5
 30
0.0
 11
254.2499999999999
 21
461.3999999999999
 31
0.0
  0
LINE
  5
1D4
330
1E
100
AcDbEntity
  8
0
100
AcDbLine
 10
254.2499999999999
 20
466.5
 30
0.0
 11
254.2499999999999
 21
470.8
 31
0.0
  0
LINE
  5
1D5
330
1E
100
AcDbEntity
  8
0
100
AcDbLine
 10
254.2499999999999
 20
470.8
 30
0.0
 11
254.2499999999999
 21
466.5
 31
0.0
  0
LINE
  5
1D6
330
1E
100
AcDbEntity
  8
0
100
AcDbLine
 10
254.2499999999999
 20
470.8
 30
0.0
 11
254.2499999999999
 21
474.1999999999999
 31
0.0
  0
LINE
  5
1D7
330
1E
100
AcDbEntity
  8
0
100
AcDbLine
 10
256.25
 20
465.7
 30
0.0
 11
256.25
 21
461.0
 31
0.0
  0
LINE
  5
1D8
330
1E
100
AcDbEntity
  8
0
100
AcDbLine
 10
256.25
 20
469.8
 30
0.0
 11
256.25
 21
465.7
 31
0.0
  0
LINE
  5
1D9
330
1E
100
AcDbEntity
  8
0
100
AcDbLine
 10
254.2499999999999
 20
474.1999999999999
 30
0.0
 11
254.2499999999999
 21
470.8
 31
0.0
  0
LINE
  5
1DA
330
1E
100
AcDbEntity
  8
0
100
AcDbLine
 10
254.2499999999999
 20
474.1999999999999
 30
0.0
 11
254.2499999999999
 21
476.1999999999999
 31
0.0
  0
LINE
  5
1DB
330
1E
100
AcDbEntity
  8
0
100
AcDbLine
 10
256.25
 20
472.9
 30
0.0
 11
256.25
 21
469.8
 31
0.0
  0
LINE
  5
1DC
330
1E
100
AcDbEntity
  8
0
100
AcDbLine
 10
256.25
 20
474.8
 30
0.0
 11
256.25
 21
472.9
 31
0.0
  0
LINE
  5
1DD
330
1E
100
AcDbEntity
  8
0
100
AcDbLine
 10
254.2499999999999
 20
475.4999999999999
 30
0.0
 11
256.25
 21
475.4999999999999
 31
0.0
  0
LINE
  5
1DE
330
1E
100
AcDbEntity
  8
0
100
AcDbLine
 10
220.25
 20
477.0
 30
0.0
 11
220.25
 21
490.0
 31
0.0
  0
LINE
  5
1DF
330
1E
100
AcDbEntity
  8
0
100
AcDbLine
 10
254.2499999999999
 20
476.1999999999999
 30
0.0
 11
254.2499999999999
 21
474.1999999999999
 31
0.0
  0
LINE
  5
1E0
330
1E
100
AcDbEntity
  8
0
100
AcDbLine
 10
254.2499999999999
 20
476.1999999999999
 30
0.0
 11
254.2499999999999
 21
477.0
 31
0.0
  0
LINE
  5
1E1
330
1E
100
AcDbEntity
  8
0
100
AcDbLine
 10
254.2499999999999
 20
477.0
 30
0.0
 11
254.2499999999999
 21
476.1999999999999
 31
0.0
  0
LINE
  5
1E2
330
1E
100
AcDbEntity
  8
0
100
AcDbLine
 10
254.2499999999999
 20
477.0
 30
0.0
 11
254.2499999999999
 21
490.0
 31
0.0
  0
LINE
  5
1E3
330
1E
100
AcDbEntity
  8
0
100
AcDbLine
 10
256.25
 20
475.4999999999999
 30
0.0
 11
256.25
 21
474.8
 31
0.0
  0
LINE
  5
1E4
330
1E
100
AcDbEntity
  8
0
100
AcDbLine
 10
256.25
 20
474.228
 30
0.0
 11
256.25
 21
476.244
 31
0.0
  0
LINE
  5
1E5
330
1E
100
AcDbEntity
  8
0
100
AcDbLine
 10
256.25
 20
470.868
 30
0.0
 11
256.25
 21
474.228
 31
0.0
  0
LINE
  5
1E6
330
1E
100
AcDbEntity
  8
0
100
AcDbLine
 10
256.25
 20
466.4159999999999
 30
0.0
 11
256.25
 21
470.868
 31
0.0
  0
LINE
  5
1E7
330
1E
100
AcDbEntity
  8
0
100
AcDbLine
 10
256.25
 20
461.376
 30
0.0
 11
256.25
 21
466.4159999999999
 31
0.0
  0
LINE
  5
1E8
330
1E
100
AcDbEntity
  8
0
100
AcDbLine
 10
256.25
 20
456.0
 30
0.0
 11
256.25
 21
461.376
 31
0.0
  0
LINE
  5
1E9
330
1E
100
AcDbEntity
  8
0
100
AcDbLine
 10
256.25
 20
456.0
 30
0.0
 11
256.25
 21
451.0
 31
0.0
  0
LINE
  5
1EA
330
1E
100
AcDbEntity
  8
0
100
AcDbLine
 10
256.25
 20
477.0
 30
0.0
 11
256.25
 21
476.244
 31
0.0
  0
LINE
  5
1EB
330
1E
100
AcDbEntity
  8
0
100
AcDbLine
 10
256.25
 20
477.0
 30
0.0
 11
297.5829999999999
 21
477.0
 31
0.0
  0
LINE
  5
1EC
330
1E
100
AcDbEntity
  8
0
100
AcDbLine
 10
282.0479999999999
 20
452.096
 30
0.0
 11
283.0559999999999
 21
452.24
 31
0.0
  0
LINE
  5
1ED
330
1E
100
AcDbEntity
  8
0
100
AcDbLine
 10
281.04
 20
452.24
 30
0.0
 11
282.0479999999999
 21
452.096
 31
0.0
  0
LINE
  5
1EE
330
1E
100
AcDbEntity
  8
0
100
AcDbLine
 10
281.0239999999999
 20
452.144
 30
0.0
 11
282.0479999999999
 21
452.0
 31
0.0
  0
LINE
  5
1EF
330
1E
100
AcDbEntity
  8
0
100
AcDbLine
 10
283.0559999999999
 20
452.24
 30
0.0
 11
283.984
 21
452.624
 31
0.0
  0
LINE
  5
1F0
330
1E
100
AcDbEntity
  8
0
100
AcDbLine
 10
283.0719999999999
 20
452.144
 30
0.0
 11
284.0319999999999
 21
452.528
 31
0.0
  0
LINE
  5
1F1
330
1E
100
AcDbEntity
  8
0
100
AcDbLine
 10
284.0319999999999
 20
452.528
 30
0.0
 11
284.88
 21
453.168
 31
0.0
  0
LINE
  5
1F2
330
1E
100
AcDbEntity
  8
0
100
AcDbLine
 10
282.0479999999999
 20
452.0
 30
0.0
 11
283.0719999999999
 21
452.144
 31
0.0
  0
LINE
  5
1F3
330
1E
100
AcDbEntity
  8
0
100
AcDbLine
 10
283.984
 20
452.624
 30
0.0
 11
284.8
 21
453.248
 31
0.0
  0
LINE
  5
1F4
330
1E
100
AcDbEntity
  8
0
100
AcDbLine
 10
284.8
 20
453.248
 30
0.0
 11
285.424
 21
454.064
 31
0.0
  0
LINE
  5
1F5
330
1E
100
AcDbEntity
  8
0
100
AcDbLine
 10
284.88
 20
453.168
 30
0.0
 11
285.5199999999999
 21
454.0159999999999
 31
0.0
  0
LINE
  5
1F6
330
1E
100
AcDbEntity
  8
0
100
AcDbLine
 10
285.5199999999999
 20
454.0159999999999
 30
0.0
 11
285.9039999999999
 21
454.976
 31
0.0
  0
LINE
  5
1F7
330
1E
100
AcDbEntity
  8
0
100
AcDbLine
 10
280.112
 20
452.624
 30
0.0
 11
281.04
 21
452.24
 31
0.0
  0
LINE
  5
1F8
330
1E
100
AcDbEntity
  8
0
100
AcDbLine
 10
279.2959999999999
 20
453.248
 30
0.0
 11
280.112
 21
452.624
 31
0.0
  0
LINE
  5
1F9
330
1E
100
AcDbEntity
  8
0
100
AcDbLine
 10
280.064
 20
452.528
 30
0.0
 11
281.0239999999999
 21
452.144
 31
0.0
  0
LINE
  5
1FA
330
1E
100
AcDbEntity
  8
0
100
AcDbLine
 10
279.2159999999999
 20
453.168
 30
0.0
 11
280.064
 21
452.528
 31
0.0
  0
LINE
  5
1FB
330
1E
100
AcDbEntity
  8
0
100
AcDbLine
 10
285.424
 20
454.064
 30
0.0
 11
285.808
 21
454.9919999999999
 31
0.0
  0
LINE
  5
1FC
330
1E
100
AcDbEntity
  8
0
100
AcDbLine
 10
285.808
 20
454.9919999999999
 30
0.0
 11
285.9519999999999
 21
456.0
 31
0.0
  0
LINE
  5
1FD
330
1E
100
AcDbEntity
  8
0
100
AcDbLine
 10
278.672
 20
454.064
 30
0.0
 11
279.2959999999999
 21
453.248
 31
0.0
  0
LINE
  5
1FE
330
1E
100
AcDbEntity
  8
0
100
AcDbLine
 10
278.288
 20
454.9919999999999
 30
0.0
 11
278.672
 21
454.064
 31
0.0
  0
LINE
  5
1FF
330
1E
100
AcDbEntity
  8
0
100
AcDbLine
 10
278.1919999999999
 20
454.976
 30
0.0
 11
278.5759999999999
 21
454.0159999999999
 31
0.0
  0
LINE
  5
200
330
1E
100
AcDbEntity
  8
0
100
AcDbLine
 10
278.5759999999999
 20
454.0159999999999
 30
0.0
 11
279.2159999999999
 21
453.168
 31
0.0
  0
LINE
  5
201
330
1E
100
AcDbEntity
  8
0
100
AcDbLine
 10
278.1439999999999
 20
456.0
 30
0.0
 11
278.288
 21
457.008
 31
0.0
  0
LINE
  5
202
330
1E
100
AcDbEntity
  8
0
100
AcDbLine
 10
278.1439999999999
 20
456.0
 30
0.0
 11
278.288
 21
454.9919999999999
 31
0.0
  0
LINE
  5
203
330
1E
100
AcDbEntity
  8
0
100
AcDbLine
 10
278.288
 20
457.008
 30
0.0
 11
278.672
 21
457.936
 31
0.0
  0
LINE
  5
204
330
1E
100
AcDbEntity
  8
0
100
AcDbLine
 10
278.1919999999999
 20
457.024
 30
0.0
 11
278.5759999999999
 21
457.984
 31
0.0
  0
LINE
  5
205
330
1E
100
AcDbEntity
  8
0
100
AcDbLine
 10
278.048
 20
456.0
 30
0.0
 11
278.1919999999999
 21
457.024
 31
0.0
  0
LINE
  5
206
330
1E
100
AcDbEntity
  8
0
100
AcDbLine
 10
278.048
 20
456.0
 30
0.0
 11
278.1919999999999
 21
454.976
 31
0.0
  0
LINE
  5
207
330
1E
100
AcDbEntity
  8
0
100
AcDbLine
 10
285.9039999999999
 20
454.976
 30
0.0
 11
286.0479999999999
 21
456.0
 31
0.0
  0
LINE
  5
208
330
1E
100
AcDbEntity
  8
0
100
AcDbLine
 10
285.808
 20
457.008
 30
0.0
 11
285.9519999999999
 21
456.0
 31
0.0
  0
LINE
  5
209
330
1E
100
AcDbEntity
  8
0
100
AcDbLine
 10
279.2959999999999
 20
458.7519999999999
 30
0.0
 11
280.112
 21
459.3759999999999
 31
0.0
  0
LINE
  5
20A
330
1E
100
AcDbEntity
  8
0
100
AcDbLine
 10
278.672
 20
457.936
 30
0.0
 11
279.2959999999999
 21
458.7519999999999
 31
0.0
  0
LINE
  5
20B
330
1E
100
AcDbEntity
  8
0
100
AcDbLine
 10
278.5759999999999
 20
457.984
 30
0.0
 11
279.2159999999999
 21
458.832
 31
0.0
  0
LINE
  5
20C
330
1E
100
AcDbEntity
  8
0
100
AcDbLine
 10
279.2159999999999
 20
458.832
 30
0.0
 11
280.064
 21
459.4719999999999
 31
0.0
  0
LINE
  5
20D
330
1E
100
AcDbEntity
  8
0
100
AcDbLine
 10
284.8
 20
458.7519999999999
 30
0.0
 11
285.424
 21
457.936
 31
0.0
  0
LINE
  5
20E
330
1E
100
AcDbEntity
  8
0
100
AcDbLine
 10
285.424
 20
457.936
 30
0.0
 11
285.808
 21
457.008
 31
0.0
  0
LINE
  5
20F
330
1E
100
AcDbEntity
  8
0
100
AcDbLine
 10
281.04
 20
459.7599999999999
 30
0.0
 11
282.0479999999999
 21
459.904
 31
0.0
  0
LINE
  5
210
330
1E
100
AcDbEntity
  8
0
100
AcDbLine
 10
280.112
 20
459.3759999999999
 30
0.0
 11
281.04
 21
459.7599999999999
 31
0.0
  0
LINE
  5
211
330
1E
100
AcDbEntity
  8
0
100
AcDbLine
 10
280.064
 20
459.4719999999999
 30
0.0
 11
281.0239999999999
 21
459.8559999999999
 31
0.0
  0
LINE
  5
212
330
1E
100
AcDbEntity
  8
0
100
AcDbLine
 10
281.0239999999999
 20
459.8559999999999
 30
0.0
 11
282.0479999999999
 21
460.0
 31
0.0
  0
LINE
  5
213
330
1E
100
AcDbEntity
  8
0
100
AcDbLine
 10
283.0559999999999
 20
459.7599999999999
 30
0.0
 11
283.984
 21
459.3759999999999
 31
0.0
  0
LINE
  5
214
330
1E
100
AcDbEntity
  8
0
100
AcDbLine
 10
283.984
 20
459.3759999999999
 30
0.0
 11
284.8
 21
458.7519999999999
 31
0.0
  0
LINE
  5
215
330
1E
100
AcDbEntity
  8
0
100
AcDbLine
 10
282.0479999999999
 20
459.904
 30
0.0
 11
283.0559999999999
 21
459.7599999999999
 31
0.0
  0
LINE
  5
216
330
1E
100
AcDbEntity
  8
0
100
AcDbLine
 10
282.0479999999999
 20
460.0
 30
0.0
 11
283.0719999999999
 21
459.8559999999999
 31
0.0
  0
LINE
  5
217
330
1E
100
AcDbEntity
  8
0
100
AcDbLine
 10
283.0719999999999
 20
459.8559999999999
 30
0.0
 11
284.0319999999999
 21
459.4719999999999
 31
0.0
  0
LINE
  5
218
330
1E
100
AcDbEntity
  8
0
100
AcDbLine
 10
284.0319999999999
 20
459.4719999999999
 30
0.0
 11
284.88
 21
458.832
 31
0.0
  0
LINE
  5
219
330
1E
100
AcDbEntity
  8
0
100
AcDbLine
 10
284.88
 20
458.832
 30
0.0
 11
285.5199999999999
 21
457.984
 31
0.0
  0
LINE
  5
21A
330
1E
100
AcDbEntity
  8
0
100
AcDbLine
 10
285.5199999999999
 20
457.984
 30
0.0
 11
285.9039999999999
 21
457.024
 31
0.0
  0
LINE
  5
21B
330
1E
100
AcDbEntity
  8
0
100
AcDbLine
 10
285.9039999999999
 20
457.024
 30
0.0
 11
286.0479999999999
 21
456.0
 31
0.0
  0
LINE
  5
21C
330
1E
100
AcDbEntity
  8
0
100
AcDbLine
 10
256.25
 20
476.244
 30
0.0
 11
256.25
 21
475.4999999999999
 31
0.0
  0
LINE
  5
21D
330
1E
100
AcDbEntity
  8
0
100
AcDbLine
 10
256.25
 20
476.244
 30
0.0
 11
256.25
 21
477.0
 31
0.0
  0
LINE
  5
21E
330
1E
100
AcDbEntity
  8
0
100
AcDbLine
 10
185.35
 20
176.6999999999999
 30
0.0
 11
206.95
 21
167.9
 31
0.0
  0
LINE
  5
21F
330
1E
100
AcDbEntity
  8
0
100
AcDbLine
 10
173.2499999999999
 20
178.428571428571
 30
0.0
 11
185.35
 21
176.6999999999999
 31
0.0
  0
LINE
  5
220
330
1E
100
AcDbEntity
  8
0
100
AcDbLine
 10
139.3499999999999
 20
175.8
 30
0.0
 11
151.25
 21
177.46288209607
 31
0.0
  0
LINE
  5
221
330
1E
100
AcDbEntity
  8
0
100
AcDbLine
 10
139.15
 20
176.6999999999999
 30
0.0
 11
151.25
 21
178.428571428571
 31
0.0
  0
LINE
  5
222
330
1E
100
AcDbEntity
  8
0
100
AcDbLine
 10
117.5499999999999
 20
167.9
 30
0.0
 11
139.15
 21
176.6999999999999
 31
0.0
  0
LINE
  5
223
330
1E
100
AcDbEntity
  8
0
100
AcDbLine
 10
297.5829999999999
 20
435.0
 30
0.0
 11
297.5829999999999
 21
435.7559999999999
 31
0.0
  0
LINE
  5
224
330
1E
100
AcDbEntity
  8
0
100
AcDbLine
 10
297.5829999999999
 20
435.0
 30
0.0
 11
298.2499999999999
 21
435.504
 31
0.0
  0
LINE
  5
225
330
1E
100
AcDbEntity
  8
0
100
AcDbLine
 10
297.5829999999999
 20
435.7559999999999
 30
0.0
 11
297.5829999999999
 21
435.0
 31
0.0
  0
LINE
  5
226
330
1E
100
AcDbEntity
  8
0
100
AcDbLine
 10
297.5829999999999
 20
435.7559999999999
 30
0.0
 11
297.5829999999999
 21
437.772
 31
0.0
  0
LINE
  5
227
330
1E
100
AcDbEntity
  8
0
100
AcDbLine
 10
297.5829999999999
 20
437.772
 30
0.0
 11
297.5829999999999
 21
435.7559999999999
 31
0.0
  0
LINE
  5
228
330
1E
100
AcDbEntity
  8
0
100
AcDbLine
 10
297.5829999999999
 20
437.772
 30
0.0
 11
297.5829999999999
 21
441.1319999999999
 31
0.0
  0
LINE
  5
229
330
1E
100
AcDbEntity
  8
0
100
AcDbLine
 10
297.5829999999999
 20
441.1319999999999
 30
0.0
 11
297.5829999999999
 21
437.772
 31
0.0
  0
LINE
  5
22A
330
1E
100
AcDbEntity
  8
0
100
AcDbLine
 10
297.5829999999999
 20
441.1319999999999
 30
0.0
 11
297.5829999999999
 21
445.584
 31
0.0
  0
LINE
  5
22B
330
1E
100
AcDbEntity
  8
0
100
AcDbLine
 10
297.5829999999999
 20
445.584
 30
0.0
 11
297.5829999999999
 21
441.1319999999999
 31
0.0
  0
LINE
  5
22C
330
1E
100
AcDbEntity
  8
0
100
AcDbLine
 10
297.5829999999999
 20
445.584
 30
0.0
 11
297.5829999999999
 21
450.624
 31
0.0
  0
LINE
  5
22D
330
1E
100
AcDbEntity
  8
0
100
AcDbLine
 10
297.5829999999999
 20
450.624
 30
0.0
 11
297.5829999999999
 21
445.584
 31
0.0
  0
LINE
  5
22E
330
1E
100
AcDbEntity
  8
0
100
AcDbLine
 10
297.5829999999999
 20
450.624
 30
0.0
 11
297.5829999999999
 21
456.0
 31
0.0
  0
LINE
  5
22F
330
1E
100
AcDbEntity
  8
0
100
AcDbLine
 10
297.5829999999999
 20
456.0
 30
0.0
 11
297.5829999999999
 21
461.376
 31
0.0
  0
LINE
  5
230
330
1E
100
AcDbEntity
  8
0
100
AcDbLine
 10
297.5829999999999
 20
456.0
 30
0.0
 11
297.5829999999999
 21
450.624
 31
0.0
  0
LINE
  5
231
330
1E
100
AcDbEntity
  8
0
100
AcDbLine
 10
297.5829999999999
 20
476.244
 30
0.0
 11
297.5829999999999
 21
474.228
 31
0.0
  0
LINE
  5
232
330
1E
100
AcDbEntity
  8
0
100
AcDbLine
 10
297.5829999999999
 20
476.244
 30
0.0
 11
297.5829999999999
 21
477.0
 31
0.0
  0
LINE
  5
233
330
1E
100
AcDbEntity
  8
0
100
AcDbLine
 10
297.5829999999999
 20
474.228
 30
0.0
 11
297.5829999999999
 21
470.868
 31
0.0
  0
LINE
  5
234
330
1E
100
AcDbEntity
  8
0
100
AcDbLine
 10
297.5829999999999
 20
474.228
 30
0.0
 11
297.5829999999999
 21
476.244
 31
0.0
  0
LINE
  5
235
330
1E
100
AcDbEntity
  8
0
100
AcDbLine
 10
297.5829999999999
 20
470.868
 30
0.0
 11
297.5829999999999
 21
466.4159999999999
 31
0.0
  0
LINE
  5
236
330
1E
100
AcDbEntity
  8
0
100
AcDbLine
 10
297.5829999999999
 20
470.868
 30
0.0
 11
297.5829999999999
 21
474.228
 31
0.0
  0
LINE
  5
237
330
1E
100
AcDbEntity
  8
0
100
AcDbLine
 10
297.5829999999999
 20
466.4159999999999
 30
0.0
 11
297.5829999999999
 21
461.376
 31
0.0
  0
LINE
  5
238
330
1E
100
AcDbEntity
  8
0
100
AcDbLine
 10
297.5829999999999
 20
466.4159999999999
 30
0.0
 11
297.5829999999999
 21
470.868
 31
0.0
  0
LINE
  5
239
330
1E
100
AcDbEntity
  8
0
100
AcDbLine
 10
298.2499999999999
 20
435.504
 30
0.0
 11
298.2499999999999
 21
436.2599999999999
 31
0.0
  0
LINE
  5
23A
330
1E
100
AcDbEntity
  8
0
100
AcDbLine
 10
298.2499999999999
 20
436.2599999999999
 30
0.0
 11
298.2499999999999
 21
435.504
 31
0.0
  0
LINE
  5
23B
330
1E
100
AcDbEntity
  8
0
100
AcDbLine
 10
298.2499999999999
 20
436.2599999999999
 30
0.0
 11
298.2499999999999
 21
438.276
 31
0.0
  0
LINE
  5
23C
330
1E
100
AcDbEntity
  8
0
100
AcDbLine
 10
298.2499999999999
 20
438.276
 30
0.0
 11
298.2499999999999
 21
436.2599999999999
 31
0.0
  0
LINE
  5
23D
330
1E
100
AcDbEntity
  8
0
100
AcDbLine
 10
298.2499999999999
 20
438.276
 30
0.0
 11
298.2499999999999
 21
441.5519999999999
 31
0.0
  0
LINE
  5
23E
330
1E
100
AcDbEntity
  8
0
100
AcDbLine
 10
298.2499999999999
 20
441.5519999999999
 30
0.0
 11
298.2499999999999
 21
438.276
 31
0.0
  0
LINE
  5
23F
330
1E
100
AcDbEntity
  8
0
100
AcDbLine
 10
298.2499999999999
 20
441.5519999999999
 30
0.0
 11
298.2499999999999
 21
445.8359999999999
 31
0.0
  0
LINE
  5
240
330
1E
100
AcDbEntity
  8
0
100
AcDbLine
 10
298.2499999999999
 20
445.8359999999999
 30
0.0
 11
298.2499999999999
 21
441.5519999999999
 31
0.0
  0
LINE
  5
241
330
1E
100
AcDbEntity
  8
0
100
AcDbLine
 10
298.2499999999999
 20
445.8359999999999
 30
0.0
 11
298.2499999999999
 21
450.708
 31
0.0
  0
LINE
  5
242
330
1E
100
AcDbEntity
  8
0
100
AcDbLine
 10
298.2499999999999
 20
450.708
 30
0.0
 11
298.2499999999999
 21
445.8359999999999
 31
0.0
  0
LINE
  5
243
330
1E
100
AcDbEntity
  8
0
100
AcDbLine
 10
298.2499999999999
 20
450.708
 30
0.0
 11
298.2499999999999
 21
456.0
 31
0.0
  0
LINE
  5
244
330
1E
100
AcDbEntity
  8
0
100
AcDbLine
 10
298.2499999999999
 20
456.0
 30
0.0
 11
298.2499999999999
 21
461.2919999999999
 31
0.0
  0
LINE
  5
245
330
1E
100
AcDbEntity
  8
0
100
AcDbLine
 10
298.2499999999999
 20
456.0
 30
0.0
 11
298.2499999999999
 21
450.708
 31
0.0
  0
LINE
  5
246
330
1E
100
AcDbEntity
  8
0
100
AcDbLine
 10
298.2499999999999
 20
476.496
 30
0.0
 11
298.2499999999999
 21
475.74
 31
0.0
  0
LINE
  5
247
330
1E
100
AcDbEntity
  8
0
100
AcDbLine
 10
298.2499999999999
 20
475.74
 30
0.0
 11
298.2499999999999
 21
473.7239999999999
 31
0.0
  0
LINE
  5
248
330
1E
100
AcDbEntity
  8
0
100
AcDbLine
 10
298.2499999999999
 20
475.74
 30
0.0
 11
298.2499999999999
 21
476.496
 31
0.0
  0
LINE
  5
249
330
1E
100
AcDbEntity
  8
0
100
AcDbLine
 10
298.2499999999999
 20
473.7239999999999
 30
0.0
 11
298.2499999999999
 21
470.448
 31
0.0
  0
LINE
  5
24A
330
1E
100
AcDbEntity
  8
0
100
AcDbLine
 10
298.2499999999999
 20
473.7239999999999
 30
0.0
 11
298.2499999999999
 21
475.74
 31
0.0
  0
LINE
  5
24B
330
1E
100
AcDbEntity
  8
0
100
AcDbLine
 10
298.2499999999999
 20
470.448
 30
0.0
 11
298.2499999999999
 21
466.164
 31
0.0
  0
LINE
  5
24C
330
1E
100
AcDbEntity
  8
0
100
AcDbLine
 10
298.2499999999999
 20
470.448
 30
0.0
 11
298.2499999999999
 21
473.7239999999999
 31
0.0
  0
LINE
  5
24D
330
1E
100
AcDbEntity
  8
0
100
AcDbLine
 10
298.2499999999999
 20
466.164
 30
0.0
 11
298.2499999999999
 21
461.2919999999999
 31
0.0
  0
LINE
  5
24E
330
1E
100
AcDbEntity
  8
0
100
AcDbLine
 10
298.2499999999999
 20
466.164
 30
0.0
 11
298.2499999999999
 21
470.448
 31
0.0
  0
LINE
  5
24F
330
1E
100
AcDbEntity
  8
0
100
AcDbLine
 10
298.2499999999999
 20
461.2919999999999
 30
0.0
 11
298.2499999999999
 21
456.0
 31
0.0
  0
LINE
  5
250
330
1E
100
AcDbEntity
  8
0
100
AcDbLine
 10
298.2499999999999
 20
461.2919999999999
 30
0.0
 11
298.2499999999999
 21
466.164
 31
0.0
  0
LINE
  5
251
330
1E
100
AcDbEntity
  8
0
100
AcDbLine
 10
297.5829999999999
 20
461.376
 30
0.0
 11
297.5829999999999
 21
456.0
 31
0.0
  0
LINE
  5
252
330
1E
100
AcDbEntity
  8
0
100
AcDbLine
 10
297.5829999999999
 20
461.376
 30
0.0
 11
297.5829999999999
 21
466.4159999999999
 31
0.0
  0
LINE
  5
253
330
1E
100
AcDbEntity
  8
0
100
AcDbLine
 10
297.5829999999999
 20
477.0
 30
0.0
 11
298.2499999999999
 21
476.496
 31
0.0
  0
LINE
  5
254
330
1E
100
AcDbEntity
  8
0
100
AcDbLine
 10
297.5829999999999
 20
477.0
 30
0.0
 11
297.5829999999999
 21
476.244
 31
0.0
  0
LINE
  5
255
330
1E
100
AcDbEntity
  8
0
100
AcDbLine
 10
390.25
 20
352.478
 30
0.0
 11
398.55
 21
351.3859999999999
 31
0.0
  0
LINE
  5
256
330
1E
100
AcDbEntity
  8
0
100
AcDbLine
 10
373.6499999999999
 20
356.721
 30
0.0
 11
381.4499999999999
 21
354.343
 31
0.0
  0
LINE
  5
257
330
1E
100
AcDbEntity
  8
0
100
AcDbLine
 10
352.95
 20
368.35
 30
0.0
 11
358.85
 21
363.979
 31
0.0
  0
LINE
  5
258
330
1E
100
AcDbEntity
  8
0
100
AcDbLine
 10
358.85
 20
363.979
 30
0.0
 11
365.6499999999999
 21
360.1869999999999
 31
0.0
  0
LINE
  5
259
330
1E
100
AcDbEntity
  8
0
100
AcDbLine
 10
367.1341319228289
 20
359.5510000000039
 30
0.0
 11
373.6499999999999
 21
356.721
 31
0.0
  0
LINE
  5
25A
330
1E
100
AcDbEntity
  8
0
100
AcDbLine
 10
365.6499999999999
 20
360.1869999999999
 30
0.0
 11
373.15
 21
356.973
 31
0.0
  0
LINE
  5
25B
330
1E
100
AcDbEntity
  8
0
100
AcDbLine
 10
373.15
 20
356.973
 30
0.0
 11
381.05
 21
354.466
 31
0.0
  0
LINE
  5
25C
330
1E
100
AcDbEntity
  8
0
100
AcDbLine
 10
381.4499999999999
 20
354.343
 30
0.0
 11
390.25
 21
352.478
 31
0.0
  0
LINE
  5
25D
330
1E
100
AcDbEntity
  8
0
100
AcDbLine
 10
381.05
 20
354.466
 30
0.0
 11
389.55
 21
352.666
 31
0.0
  0
LINE
  5
25E
330
1E
100
AcDbEntity
  8
0
100
AcDbLine
 10
389.55
 20
352.666
 30
0.0
 11
398.45
 21
351.509
 31
0.0
  0
LINE
  5
25F
330
1E
100
AcDbEntity
  8
0
100
AcDbLine
 10
398.45
 20
351.509
 30
0.0
 11
407.2499999999999
 21
351.059
 31
0.0
  0
LINE
  5
260
330
1E
100
AcDbEntity
  8
0
100
AcDbLine
 10
389.55
 20
368.753
 30
0.0
 11
398.45
 21
367.5959999999999
 31
0.0
  0
LINE
  5
261
330
1E
100
AcDbEntity
  8
0
100
AcDbLine
 10
398.55
 20
351.3859999999999
 30
0.0
 11
407.2499999999999
 21
350.936
 31
0.0
  0
LINE
  5
262
330
1E
100
AcDbEntity
  8
0
100
AcDbLine
 10
398.45
 20
367.5959999999999
 30
0.0
 11
407.2499999999999
 21
367.1459999999999
 31
0.0
  0
LINE
  5
263
330
1E
100
AcDbEntity
  8
0
100
AcDbLine
 10
347.9499999999999
 20
373.171
 30
0.0
 11
352.95
 21
368.35
 31
0.0
  0
LINE
  5
264
330
1E
100
AcDbEntity
  8
0
100
AcDbLine
 10
373.15
 20
373.0599999999999
 30
0.0
 11
381.05
 21
370.553
 31
0.0
  0
LINE
  5
265
330
1E
100
AcDbEntity
  8
0
100
AcDbLine
 10
381.05
 20
370.553
 30
0.0
 11
389.55
 21
368.753
 31
0.0
  0
LINE
  5
266
330
1E
100
AcDbEntity
  8
0
100
AcDbLine
 10
344.05
 20
378.249
 30
0.0
 11
347.9499999999999
 21
373.171
 31
0.0
  0
LINE
  5
267
330
1E
100
AcDbEntity
  8
0
100
AcDbLine
 10
358.85
 20
380.0659999999999
 30
0.0
 11
365.6499999999999
 21
376.2739999999999
 31
0.0
  0
LINE
  5
268
330
1E
100
AcDbEntity
  8
0
100
AcDbLine
 10
365.6499999999999
 20
376.2739999999999
 30
0.0
 11
373.15
 21
373.0599999999999
 31
0.0
  0
LINE
  5
269
330
1E
100
AcDbEntity
  8
0
100
AcDbLine
 10
339.4499999999999
 20
389.433
 30
0.0
 11
341.25
 21
383.713
 31
0.0
  0
LINE
  5
26A
330
1E
100
AcDbEntity
  8
0
100
AcDbLine
 10
338.75
 20
395.0899999999999
 30
0.0
 11
339.4499999999999
 21
389.433
 31
0.0
  0
LINE
  5
26B
330
1E
100
AcDbEntity
  8
0
100
AcDbLine
 10
338.75
 20
395.0899999999999
 30
0.0
 11
338.75
 21
411.1769999999999
 31
0.0
  0
LINE
  5
26C
330
1E
100
AcDbEntity
  8
0
100
AcDbLine
 10
339.4499999999999
 20
405.52
 30
0.0
 11
341.25
 21
399.8
 31
0.0
  0
LINE
  5
26D
330
1E
100
AcDbEntity
  8
0
100
AcDbLine
 10
339.4499999999999
 20
416.833
 30
0.0
 11
341.25
 21
422.554
 31
0.0
  0
LINE
  5
26E
330
1E
100
AcDbEntity
  8
0
100
AcDbLine
 10
338.75
 20
411.1769999999999
 30
0.0
 11
339.4499999999999
 21
405.52
 31
0.0
  0
LINE
  5
26F
330
1E
100
AcDbEntity
  8
0
100
AcDbLine
 10
338.75
 20
411.1769999999999
 30
0.0
 11
338.75
 21
395.0899999999999
 31
0.0
  0
LINE
  5
270
330
1E
100
AcDbEntity
  8
0
100
AcDbLine
 10
338.75
 20
411.1769999999999
 30
0.0
 11
339.4499999999999
 21
416.833
 31
0.0
  0
LINE
  5
271
330
1E
100
AcDbEntity
  8
0
100
AcDbLine
 10
341.25
 20
383.713
 30
0.0
 11
344.05
 21
378.249
 31
0.0
  0
LINE
  5
272
330
1E
100
AcDbEntity
  8
0
100
AcDbLine
 10
341.25
 20
399.8
 30
0.0
 11
344.05
 21
394.336
 31
0.0
  0
LINE
  5
273
330
1E
100
AcDbEntity
  8
0
100
AcDbLine
 10
347.9499999999999
 20
389.258
 30
0.0
 11
352.95
 21
384.4369999999999
 31
0.0
  0
LINE
  5
274
330
1E
100
AcDbEntity
  8
0
100
AcDbLine
 10
344.05
 20
394.336
 30
0.0
 11
347.9499999999999
 21
389.258
 31
0.0
  0
LINE
  5
275
330
1E
100
AcDbEntity
  8
0
100
AcDbLine
 10
352.95
 20
384.4369999999999
 30
0.0
 11
358.85
 21
380.0659999999999
 31
0.0
  0
LINE
  5
276
330
1E
100
AcDbEntity
  8
0
100
AcDbLine
 10
353.75
 20
385.589
 30
0.0
 11
359.55
 21
381.2819999999999
 31
0.0
  0
LINE
  5
277
330
1E
100
AcDbEntity
  8
0
100
AcDbLine
 10
348.75
 20
390.345
 30
0.0
 11
353.75
 21
385.589
 31
0.0
  0
LINE
  5
278
330
1E
100
AcDbEntity
  8
0
100
AcDbLine
 10
345.05
 20
395.359
 30
0.0
 11
348.75
 21
390.345
 31
0.0
  0
LINE
  5
279
330
1E
100
AcDbEntity
  8
0
100
AcDbLine
 10
342.1499999999999
 20
401.0159999999999
 30
0.0
 11
345.05
 21
395.359
 31
0.0
  0
LINE
  5
27A
330
1E
100
AcDbEntity
  8
0
100
AcDbLine
 10
341.25
 20
422.554
 30
0.0
 11
344.05
 21
428.018
 31
0.0
  0
LINE
  5
27B
330
1E
100
AcDbEntity
  8
0
100
AcDbLine
 10
344.05
 20
428.018
 30
0.0
 11
347.9499999999999
 21
433.096
 31
0.0
  0
LINE
  5
27C
330
1E
100
AcDbEntity
  8
0
100
AcDbLine
 10
347.9499999999999
 20
433.096
 30
0.0
 11
352.95
 21
437.917
 31
0.0
  0
LINE
  5
27D
330
1E
100
AcDbEntity
  8
0
100
AcDbLine
 10
352.95
 20
437.917
 30
0.0
 11
358.85
 21
442.288
 31
0.0
  0
LINE
  5
27E
330
1E
100
AcDbEntity
  8
0
100
AcDbLine
 10
358.85
 20
442.288
 30
0.0
 11
365.6499999999999
 21
446.0799999999999
 31
0.0
  0
LINE
  5
27F
330
1E
100
AcDbEntity
  8
0
100
AcDbLine
 10
365.6499999999999
 20
446.0799999999999
 30
0.0
 11
366.25
 21
446.332
 31
0.0
  0
LINE
  5
280
330
1E
100
AcDbEntity
  8
0
100
AcDbLine
 10
365.6499999999999
 20
446.0799999999999
 30
0.0
 11
367.1341319228389
 21
446.7160000000009
 31
0.0
  0
LINE
  5
281
330
1E
100
AcDbEntity
  8
0
100
AcDbLine
 10
359.55
 20
442.604
 30
0.0
 11
366.25
 21
446.332
 31
0.0
  0
LINE
  5
282
330
1E
100
AcDbEntity
  8
0
100
AcDbLine
 10
366.25
 20
446.332
 30
0.0
 11
373.6499999999999
 21
449.546
 31
0.0
  0
LINE
  5
283
330
1E
100
AcDbEntity
  8
0
100
AcDbLine
 10
353.75
 20
438.2969999999999
 30
0.0
 11
359.55
 21
442.604
 31
0.0
  0
LINE
  5
284
330
1E
100
AcDbEntity
  8
0
100
AcDbLine
 10
348.75
 20
433.541
 30
0.0
 11
353.75
 21
438.2969999999999
 31
0.0
  0
LINE
  5
285
330
1E
100
AcDbEntity
  8
0
100
AcDbLine
 10
345.05
 20
428.5269999999999
 30
0.0
 11
348.75
 21
433.541
 31
0.0
  0
LINE
  5
286
330
1E
100
AcDbEntity
  8
0
100
AcDbLine
 10
342.1499999999999
 20
422.8699999999999
 30
0.0
 11
345.05
 21
428.5269999999999
 31
0.0
  0
LINE
  5
287
330
1E
100
AcDbEntity
  8
0
100
AcDbLine
 10
340.45
 20
417.5349999999999
 30
0.0
 11
342.1499999999999
 21
422.8699999999999
 31
0.0
  0
LINE
  5
288
330
1E
100
AcDbEntity
  8
0
100
AcDbLine
 10
340.45
 20
406.3509999999999
 30
0.0
 11
342.1499999999999
 21
401.0159999999999
 31
0.0
  0
LINE
  5
289
330
1E
100
AcDbEntity
  8
0
100
AcDbLine
 10
339.7499999999999
 20
411.943
 30
0.0
 11
340.45
 21
406.3509999999999
 31
0.0
  0
LINE
  5
28A
330
1E
100
AcDbEntity
  8
0
100
AcDbLine
 10
339.7499999999999
 20
411.943
 30
0.0
 11
340.45
 21
417.5349999999999
 31
0.0
  0
LINE
  5
28B
330
1E
100
AcDbEntity
  8
0
100
AcDbLine
 10
359.55
 20
381.2819999999999
 30
0.0
 11
366.25
 21
377.554
 31
0.0
  0
LINE
  5
28C
330
1E
100
AcDbEntity
  8
0
100
AcDbLine
 10
373.6499999999999
 20
449.546
 30
0.0
 11
381.4499999999999
 21
451.924
 31
0.0
  0
LINE
  5
28D
330
1E
100
AcDbEntity
  8
0
100
AcDbLine
 10
381.4499999999999
 20
451.924
 30
0.0
 11
390.25
 21
453.788
 31
0.0
  0
LINE
  5
28E
330
1E
100
AcDbEntity
  8
0
100
AcDbLine
 10
366.25
 20
377.554
 30
0.0
 11
373.6499999999999
 21
374.3399999999999
 31
0.0
  0
LINE
  5
28F
330
1E
100
AcDbEntity
  8
0
100
AcDbLine
 10
373.6499999999999
 20
374.3399999999999
 30
0.0
 11
381.4499999999999
 21
371.9619999999999
 31
0.0
  0
LINE
  5
290
330
1E
100
AcDbEntity
  8
0
100
AcDbLine
 10
394.75
 20
454.380590361446
 30
0.0
 11
394.75
 21
475.1249999999999
 31
0.0
  0
LINE
  5
291
330
1E
100
AcDbEntity
  8
0
100
AcDbLine
 10
394.904005932075
 20
454.400870901658
 30
0.0
 11
395.1499999999999
 21
456.097
 31
0.0
  0
LINE
  5
292
330
1E
100
AcDbEntity
  8
0
100
AcDbLine
 10
398.4808576611929
 20
454.871894870323
 30
0.0
 11
398.55
 21
455.3309999999999
 31
0.0
  0
LINE
  5
293
330
1E
100
AcDbEntity
  8
0
100
AcDbLine
 10
390.25
 20
453.788
 30
0.0
 11
398.55
 21
454.8809999999999
 31
0.0
  0
LINE
  5
294
330
1E
100
AcDbEntity
  8
0
100
AcDbLine
 10
395.1499999999999
 20
456.097
 30
0.0
 11
396.45
 21
458.6249999999999
 31
0.0
  0
LINE
  5
295
330
1E
100
AcDbEntity
  8
0
100
AcDbLine
 10
396.45
 20
458.6249999999999
 30
0.0
 11
398.45
 21
460.846
 31
0.0
  0
LINE
  5
296
330
1E
100
AcDbEntity
  8
0
100
AcDbLine
 10
398.45
 20
460.846
 30
0.0
 11
401.05
 21
462.5309999999999
 31
0.0
  0
LINE
  5
297
330
1E
100
AcDbEntity
  8
0
100
AcDbLine
 10
398.55
 20
455.3309999999999
 30
0.0
 11
399.45
 21
457.169
 31
0.0
  0
LINE
  5
298
330
1E
100
AcDbEntity
  8
0
100
AcDbLine
 10
398.55
 20
454.8809999999999
 30
0.0
 11
407.2499999999999
 21
455.3309999999999
 31
0.0
  0
LINE
  5
299
330
1E
100
AcDbEntity
  8
0
100
AcDbLine
 10
381.4499999999999
 20
371.9619999999999
 30
0.0
 11
390.25
 21
370.0969999999999
 31
0.0
  0
LINE
  5
29A
330
1E
100
AcDbEntity
  8
0
100
AcDbLine
 10
390.25
 20
370.0969999999999
 30
0.0
 11
398.55
 21
369.0049999999999
 31
0.0
  0
LINE
  5
29B
330
1E
100
AcDbEntity
  8
0
100
AcDbLine
 10
407.2499999999999
 20
350.936
 30
0.0
 11
415.9499999999999
 21
351.3859999999999
 31
0.0
  0
LINE
  5
29C
330
1E
100
AcDbEntity
  8
0
100
AcDbLine
 10
407.2499999999999
 20
351.059
 30
0.0
 11
416.0499999999999
 21
351.509
 31
0.0
  0
LINE
  5
29D
330
1E
100
AcDbEntity
  8
0
100
AcDbLine
 10
407.2499999999999
 20
367.1459999999999
 30
0.0
 11
416.0499999999999
 21
367.5959999999999
 31
0.0
  0
LINE
  5
29E
330
1E
100
AcDbEntity
  8
0
100
AcDbLine
 10
407.2499999999999
 20
368.555
 30
0.0
 11
415.9499999999999
 21
369.0049999999999
 31
0.0
  0
LINE
  5
29F
330
1E
100
AcDbEntity
  8
0
100
AcDbLine
 10
399.45
 20
457.169
 30
0.0
 11
400.85
 21
458.7009999999999
 31
0.0
  0
LINE
  5
2A0
330
1E
100
AcDbEntity
  8
0
100
AcDbLine
 10
400.85
 20
458.7009999999999
 30
0.0
 11
402.7499999999999
 21
459.9269999999999
 31
0.0
  0
LINE
  5
2A1
330
1E
100
AcDbEntity
  8
0
100
AcDbLine
 10
402.7499999999999
 20
459.9269999999999
 30
0.0
 11
404.95
 21
460.693
 31
0.0
  0
LINE
  5
2A2
330
1E
100
AcDbEntity
  8
0
100
AcDbLine
 10
409.55
 20
460.693
 30
0.0
 11
411.7499999999999
 21
459.9269999999999
 31
0.0
  0
LINE
  5
2A3
330
1E
100
AcDbEntity
  8
0
100
AcDbLine
 10
407.2499999999999
 20
460.999
 30
0.0
 11
409.55
 21
460.693
 31
0.0
  0
LINE
  5
2A4
330
1E
100
AcDbEntity
  8
0
100
AcDbLine
 10
404.95
 20
460.693
 30
0.0
 11
407.2499999999999
 21
460.999
 31
0.0
  0
LINE
  5
2A5
330
1E
100
AcDbEntity
  8
0
100
AcDbLine
 10
407.2499999999999
 20
455.3309999999999
 30
0.0
 11
415.9499999999999
 21
454.8809999999999
 31
0.0
  0
LINE
  5
2A6
330
1E
100
AcDbEntity
  8
0
100
AcDbLine
 10
398.55
 20
369.0049999999999
 30
0.0
 11
407.2499999999999
 21
368.555
 31
0.0
  0
LINE
  5
2A7
330
1E
100
AcDbEntity
  8
0
100
AcDbLine
 10
401.05
 20
462.5309999999999
 30
0.0
 11
404.0499999999999
 21
463.527
 31
0.0
  0
LINE
  5
2A8
330
1E
100
AcDbEntity
  8
0
100
AcDbLine
 10
410.4499999999999
 20
463.527
 30
0.0
 11
413.45
 21
462.5309999999999
 31
0.0
  0
LINE
  5
2A9
330
1E
100
AcDbEntity
  8
0
100
AcDbLine
 10
407.2499999999999
 20
463.91
 30
0.0
 11
410.4499999999999
 21
463.527
 31
0.0
  0
LINE
  5
2AA
330
1E
100
AcDbEntity
  8
0
100
AcDbLine
 10
404.0499999999999
 20
463.527
 30
0.0
 11
407.2499999999999
 21
463.91
 31
0.0
  0
LINE
  5
2AB
330
1E
100
AcDbEntity
  8
0
100
AcDbLine
 10
393.754
 20
475.0799999999999
 30
0.0
 11
394.75
 21
472.542571428571
 31
0.0
  0
LINE
  5
2AC
330
1E
100
AcDbEntity
  8
0
100
AcDbLine
 10
394.75
 20
475.1249999999999
 30
0.0
 11
395.1499999999999
 21
478.2459999999999
 31
0.0
  0
LINE
  5
2AD
330
1E
100
AcDbEntity
  8
0
100
AcDbLine
 10
394.75
 20
475.1249999999999
 30
0.0
 11
394.75
 21
454.380590361446
 31
0.0
  0
LINE
  5
2AE
330
1E
100
AcDbEntity
  8
0
100
AcDbLine
 10
384.214
 20
472.407
 30
0.0
 11
394.1978658766069
 21
473.9491988381679
 31
0.0
  0
LINE
  5
2AF
330
1E
100
AcDbEntity
  8
0
100
AcDbLine
 10
373.123
 20
470.781
 30
0.0
 11
384.214
 21
472.407
 31
0.0
  0
LINE
  5
2B0
330
1E
100
AcDbEntity
  8
0
100
AcDbLine
 10
358.3439999999999
 20
468.8
 30
0.0
 11
373.123
 21
470.781
 31
0.0
  0
LINE
  5
2B1
330
1E
100
AcDbEntity
  8
0
100
AcDbLine
 10
339.481
 20
466.344
 30
0.0
 11
358.3439999999999
 21
468.8
 31
0.0
  0
LINE
  5
2B2
330
1E
100
AcDbEntity
  8
0
100
AcDbLine
 10
320.908
 20
464.041
 30
0.0
 11
339.481
 21
466.344
 31
0.0
  0
LINE
  5
2B3
330
1E
100
AcDbEntity
  8
0
100
AcDbLine
 10
299.6449999999999
 20
461.481
 30
0.0
 11
320.908
 21
464.041
 31
0.0
  0
LINE
  5
2B4
330
1E
100
AcDbEntity
  8
0
100
AcDbLine
 10
298.2499999999999
 20
461.317941039866
 30
0.0
 11
299.6449999999999
 21
461.481
 31
0.0
  0
LINE
  5
2B5
330
1E
100
AcDbEntity
  8
0
100
AcDbLine
 10
393.25
 20
478.732
 30
0.0
 11
393.754
 21
475.0799999999999
 31
0.0
  0
LINE
  5
2B6
330
1E
100
AcDbEntity
  8
0
100
AcDbLine
 10
393.25
 20
478.732
 30
0.0
 11
393.754
 21
482.385
 31
0.0
  0
LINE
  5
2B7
330
1E
100
AcDbEntity
  8
0
100
AcDbLine
 10
395.1499999999999
 20
478.2459999999999
 30
0.0
 11
396.45
 21
481.1499999999999
 31
0.0
  0
LINE
  5
2B8
330
1E
100
AcDbEntity
  8
0
100
AcDbLine
 10
396.6459999999999
 20
481.6019999999999
 30
0.0
 11
397.7019999999999
 21
484.2929999999999
 31
0.0
  0
LINE
  5
2B9
330
1E
100
AcDbEntity
  8
0
100
AcDbLine
 10
396.612107146057
 20
481.356362396931
 30
0.0
 11
396.6459999999999
 21
481.6019999999999
 31
0.0
  0
LINE
  5
2BA
330
1E
100
AcDbEntity
  8
0
100
AcDbLine
 10
396.45
 20
481.1499999999999
 30
0.0
 11
398.45
 21
483.6959999999999
 31
0.0
  0
LINE
  5
2BB
330
1E
100
AcDbEntity
  8
0
100
AcDbLine
 10
393.754
 20
482.385
 30
0.0
 11
395.098
 21
485.809
 31
0.0
  0
LINE
  5
2BC
330
1E
100
AcDbEntity
  8
0
100
AcDbLine
 10
397.7019999999999
 20
484.2929999999999
 30
0.0
 11
399.4619999999999
 21
486.669
 31
0.0
  0
LINE
  5
2BD
330
1E
100
AcDbEntity
  8
0
100
AcDbLine
 10
395.098
 20
485.809
 30
0.0
 11
397.25
 21
488.7151607142859
 31
0.0
  0
LINE
  5
2BE
330
1E
100
AcDbEntity
  8
0
100
AcDbLine
 10
395.098
 20
485.809
 30
0.0
 11
397.338
 21
488.834
 31
0.0
  0
LINE
  5
2BF
330
1E
100
AcDbEntity
  8
0
100
AcDbLine
 10
398.45
 20
483.6959999999999
 30
0.0
 11
401.05
 21
485.589
 31
0.0
  0
LINE
  5
2C0
330
1E
100
AcDbEntity
  8
0
100
AcDbLine
 10
401.05
 20
485.589
 30
0.0
 11
404.0499999999999
 21
486.753
 31
0.0
  0
LINE
  5
2C1
330
1E
100
AcDbEntity
  8
0
100
AcDbLine
 10
399.4619999999999
 20
486.669
 30
0.0
 11
401.794
 21
488.463
 31
0.0
  0
LINE
  5
2C2
330
1E
100
AcDbEntity
  8
0
100
AcDbLine
 10
410.4499999999999
 20
486.753
 30
0.0
 11
413.45
 21
485.589
 31
0.0
  0
LINE
  5
2C3
330
1E
100
AcDbEntity
  8
0
100
AcDbLine
 10
397.25
 20
488.7151607142859
 30
0.0
 11
397.25
 21
506.0
 31
0.0
  0
LINE
  5
2C4
330
1E
100
AcDbEntity
  8
0
100
AcDbLine
 10
401.794
 20
488.463
 30
0.0
 11
404.434
 21
489.5389999999999
 31
0.0
  0
LINE
  5
2C5
330
1E
100
AcDbEntity
  8
0
100
AcDbLine
 10
404.434
 20
489.5389999999999
 30
0.0
 11
407.2499999999999
 21
489.943
 31
0.0
  0
LINE
  5
2C6
330
1E
100
AcDbEntity
  8
0
100
AcDbLine
 10
397.338
 20
488.834
 30
0.0
 11
400.3059999999999
 21
491.1169999999999
 31
0.0
  0
LINE
  5
2C7
330
1E
100
AcDbEntity
  8
0
100
AcDbLine
 10
410.0659999999999
 20
489.5389999999999
 30
0.0
 11
412.7059999999999
 21
488.463
 31
0.0
  0
LINE
  5
2C8
330
1E
100
AcDbEntity
  8
0
100
AcDbLine
 10
407.2499999999999
 20
487.188
 30
0.0
 11
410.4499999999999
 21
486.753
 31
0.0
  0
LINE
  5
2C9
330
1E
100
AcDbEntity
  8
0
100
AcDbLine
 10
404.0499999999999
 20
486.753
 30
0.0
 11
407.2499999999999
 21
487.188
 31
0.0
  0
LINE
  5
2CA
330
1E
100
AcDbEntity
  8
0
100
AcDbLine
 10
382.411
 20
488.2799999999999
 30
0.0
 11
392.413
 21
489.8249999999999
 31
0.0
  0
LINE
  5
2CB
330
1E
100
AcDbEntity
  8
0
100
AcDbLine
 10
371.32
 20
486.6539999999999
 30
0.0
 11
382.411
 21
488.2799999999999
 31
0.0
  0
LINE
  5
2CC
330
1E
100
AcDbEntity
  8
0
100
AcDbLine
 10
356.531
 20
484.6719999999999
 30
0.0
 11
371.32
 21
486.6539999999999
 31
0.0
  0
LINE
  5
2CD
330
1E
100
AcDbEntity
  8
0
100
AcDbLine
 10
337.678
 20
482.216
 30
0.0
 11
356.531
 21
484.6719999999999
 31
0.0
  0
LINE
  5
2CE
330
1E
100
AcDbEntity
  8
0
100
AcDbLine
 10
319.105
 20
479.914
 30
0.0
 11
337.678
 21
482.216
 31
0.0
  0
LINE
  5
2CF
330
1E
100
AcDbEntity
  8
0
100
AcDbLine
 10
297.841
 20
477.355
 30
0.0
 11
319.105
 21
479.914
 31
0.0
  0
LINE
  5
2D0
330
1E
100
AcDbEntity
  8
0
100
AcDbLine
 10
294.805779371208
 20
477.0
 30
0.0
 11
297.841
 21
477.355
 31
0.0
  0
LINE
  5
2D1
330
1E
100
AcDbEntity
  8
0
100
AcDbLine
 10
0.250000000000003
 20
490.5
 30
0.0
 11
0.7500000000000031
 21
491.0
 31
0.0
  0
LINE
  5
2D2
330
1E
100
AcDbEntity
  8
0
100
AcDbLine
 10
0.250000000000003
 20
490.5
 30
0.0
 11
0.250000000000003
 21
459.7999999999999
 31
0.0
  0
LINE
  5
2D3
330
1E
100
AcDbEntity
  8
0
100
AcDbLine
 10
0.750000000000004
 20
491.0
 30
0.0
 11
15.75
 21
491.0
 31
0.0
  0
LINE
  5
2D4
330
1E
100
AcDbEntity
  8
0
100
AcDbLine
 10
16.25
 20
490.5
 30
0.0
 11
16.25
 21
459.7999999999999
 31
0.0
  0
LINE
  5
2D5
330
1E
100
AcDbEntity
  8
0
100
AcDbLine
 10
0.7500000000000031
 20
491.0
 30
0.0
 11
15.75
 21
491.0
 31
0.0
  0
LINE
  5
2D6
330
1E
100
AcDbEntity
  8
0
100
AcDbLine
 10
0.7500000000000031
 20
491.0
 30
0.0
 11
0.7500000000000031
 21
460.4
 31
0.0
  0
LINE
  5
2D7
330
1E
100
AcDbEntity
  8
0
100
AcDbLine
 10
15.75
 20
491.0
 30
0.0
 11
16.25
 21
490.5
 31
0.0
  0
LINE
  5
2D8
330
1E
100
AcDbEntity
  8
0
100
AcDbLine
 10
15.75
 20
491.0
 30
0.0
 11
15.75
 21
460.4
 31
0.0
  0
LINE
  5
2D9
330
1E
100
AcDbEntity
  8
0
100
AcDbLine
 10
75.1071
 20
490.0
 30
0.0
 11
75.1071
 21
494.0
 31
0.0
  0
LINE
  5
2DA
330
1E
100
AcDbEntity
  8
0
100
AcDbLine
 10
75.24989999999999
 20
490.0
 30
0.0
 11
78.79999999999999
 21
490.0
 31
0.0
  0
LINE
  5
2DB
330
1E
100
AcDbEntity
  8
0
100
AcDbLine
 10
78.79999999999999
 20
490.0
 30
0.0
 11
82.85
 21
490.0
 31
0.0
  0
LINE
  5
2DC
330
1E
100
AcDbEntity
  8
0
100
AcDbLine
 10
75.2501
 20
490.0
 30
0.0
 11
78.79999999999999
 21
490.0
 31
0.0
  0
LINE
  5
2DD
330
1E
100
AcDbEntity
  8
0
100
AcDbLine
 10
72.54999999999999
 20
490.0
 30
0.0
 11
75.2501
 21
490.0
 31
0.0
  0
LINE
  5
2DE
330
1E
100
AcDbEntity
  8
0
100
AcDbLine
 10
72.54999999999999
 20
490.0
 30
0.0
 11
75.24989999999999
 21
490.0
 31
0.0
  0
LINE
  5
2DF
330
1E
100
AcDbEntity
  8
0
100
AcDbLine
 10
70.84999999999999
 20
490.0
 30
0.0
 11
72.54999999999999
 21
490.0
 31
0.0
  0
LINE
  5
2E0
330
1E
100
AcDbEntity
  8
0
100
AcDbLine
 10
71.46429999999999
 20
504.0
 30
0.0
 11
71.46429999999999
 21
506.0
 31
0.0
  0
LINE
  5
2E1
330
1E
100
AcDbEntity
  8
0
100
AcDbLine
 10
71.46429999999999
 20
504.0
 30
0.0
 11
71.46429999999999
 21
501.0
 31
0.0
  0
LINE
  5
2E2
330
1E
100
AcDbEntity
  8
0
100
AcDbLine
 10
71.46429999999999
 20
506.0
 30
0.0
 11
102.429
 21
506.0
 31
0.0
  0
LINE
  5
2E3
330
1E
100
AcDbEntity
  8
0
100
AcDbLine
 10
71.46429999999999
 20
506.0
 30
0.0
 11
73.89289999999999
 21
508.0
 31
0.0
  0
LINE
  5
2E4
330
1E
100
AcDbEntity
  8
0
100
AcDbLine
 10
71.46429999999999
 20
506.0
 30
0.0
 11
71.46429999999999
 21
504.0
 31
0.0
  0
LINE
  5
2E5
330
1E
100
AcDbEntity
  8
0
100
AcDbLine
 10
71.46429999999999
 20
501.0
 30
0.0
 11
71.46429999999999
 21
498.0
 31
0.0
  0
LINE
  5
2E6
330
1E
100
AcDbEntity
  8
0
100
AcDbLine
 10
71.46429999999999
 20
501.0
 30
0.0
 11
71.46429999999999
 21
504.0
 31
0.0
  0
LINE
  5
2E7
330
1E
100
AcDbEntity
  8
0
100
AcDbLine
 10
71.46429999999999
 20
498.0
 30
0.0
 11
71.46429999999999
 21
496.0
 31
0.0
  0
LINE
  5
2E8
330
1E
100
AcDbEntity
  8
0
100
AcDbLine
 10
71.46429999999999
 20
498.0
 30
0.0
 11
71.46429999999999
 21
501.0
 31
0.0
  0
LINE
  5
2E9
330
1E
100
AcDbEntity
  8
0
100
AcDbLine
 10
75.1071
 20
494.0
 30
0.0
 11
75.5357
 21
494.0
 31
0.0
  0
LINE
  5
2EA
330
1E
100
AcDbEntity
  8
0
100
AcDbLine
 10
75.1071
 20
494.0
 30
0.0
 11
75.1071
 21
490.0
 31
0.0
  0
LINE
  5
2EB
330
1E
100
AcDbEntity
  8
0
100
AcDbLine
 10
75.5357
 20
494.0
 30
0.0
 11
76.7499
 21
494.0
 31
0.0
  0
LINE
  5
2EC
330
1E
100
AcDbEntity
  8
0
100
AcDbLine
 10
76.7499
 20
494.0
 30
0.0
 11
78.6786
 21
494.0
 31
0.0
  0
LINE
  5
2ED
330
1E
100
AcDbEntity
  8
0
100
AcDbLine
 10
78.6786
 20
494.0
 30
0.0
 11
81.2143
 21
494.0
 31
0.0
  0
LINE
  5
2EE
330
1E
100
AcDbEntity
  8
0
100
AcDbLine
 10
73.89289999999999
 20
508.0
 30
0.0
 11
74.3786
 21
508.0
 31
0.0
  0
LINE
  5
2EF
330
1E
100
AcDbEntity
  8
0
100
AcDbLine
 10
74.3786
 20
508.0
 30
0.0
 11
75.71429999999999
 21
508.0
 31
0.0
  0
LINE
  5
2F0
330
1E
100
AcDbEntity
  8
0
100
AcDbLine
 10
75.71429999999999
 20
508.0
 30
0.0
 11
77.7786
 21
508.0
 31
0.0
  0
LINE
  5
2F1
330
1E
100
AcDbEntity
  8
0
100
AcDbLine
 10
77.7786
 20
508.0
 30
0.0
 11
80.5714
 21
508.0
 31
0.0
  0
LINE
  5
2F4
330
1E
100
AcDbEntity
  8
0
100
AcDbLine
 10
71.46429999999999
 20
496.0
 30
0.0
 11
75.1071
 21
494.0
 31
0.0
  0
LINE
  5
2F5
330
1E
100
AcDbEntity
  8
0
100
AcDbLine
 10
71.46429999999999
 20
496.0
 30
0.0
 11
102.429
 21
496.0
 31
0.0
  0
LINE
  5
2F6
330
1E
100
AcDbEntity
  8
0
100
AcDbLine
 10
71.46429999999999
 20
496.0
 30
0.0
 11
71.46429999999999
 21
498.0
 31
0.0
  0
LINE
  5
2F7
330
1E
100
AcDbEntity
  8
0
100
AcDbLine
 10
70.25
 20
490.0
 30
0.0
 11
70.84999999999999
 21
490.0
 31
0.0
  0
LINE
  5
2F8
330
1E
100
AcDbEntity
  8
0
100
AcDbLine
 10
70.25
 20
490.0
 30
0.0
 11
70.25
 21
475.4999999999999
 31
0.0
  0
LINE
  5
2F9
330
1E
100
AcDbEntity
  8
0
100
AcDbLine
 10
87.24999999999999
 20
490.0
 30
0.0
 11
91.65
 21
490.0
 31
0.0
  0
LINE
  5
2FA
330
1E
100
AcDbEntity
  8
0
100
AcDbLine
 10
81.2143
 20
494.0
 30
0.0
 11
84.10720000000001
 21
494.0
 31
0.0
  0
LINE
  5
2FB
330
1E
100
AcDbEntity
  8
0
100
AcDbLine
 10
80.5714
 20
508.0
 30
0.0
 11
83.84999999999999
 21
508.0
 31
0.0
  0
LINE
  5
2FD
330
1E
100
AcDbEntity
  8
0
100
AcDbLine
 10
83.84999999999999
 20
508.0
 30
0.0
 11
87.24999999999999
 21
508.0
 31
0.0
  0
LINE
  5
2FF
330
1E
100
AcDbEntity
  8
0
100
AcDbLine
 10
87.24999999999999
 20
494.0
 30
0.0
 11
90.39279999999999
 21
494.0
 31
0.0
  0
LINE
  5
300
330
1E
100
AcDbEntity
  8
0
100
AcDbLine
 10
84.10720000000001
 20
494.0
 30
0.0
 11
87.24999999999999
 21
494.0
 31
0.0
  0
LINE
  5
301
330
1E
100
AcDbEntity
  8
0
100
AcDbLine
 10
82.85
 20
490.0
 30
0.0
 11
87.24999999999999
 21
490.0
 31
0.0
  0
LINE
  5
302
330
1E
100
AcDbEntity
  8
0
100
AcDbLine
 10
91.65
 20
490.0
 30
0.0
 11
95.7
 21
490.0
 31
0.0
  0
LINE
  5
303
330
1E
100
AcDbEntity
  8
0
100
AcDbLine
 10
99.39289999999999
 20
490.0
 30
0.0
 11
99.39289999999999
 21
494.0
 31
0.0
  0
LINE
  5
304
330
1E
100
AcDbEntity
  8
0
100
AcDbLine
 10
99.2501
 20
490.0
 30
0.0
 11
101.95
 21
490.0
 31
0.0
  0
LINE
  5
305
330
1E
100
AcDbEntity
  8
0
100
AcDbLine
 10
95.7
 20
490.0
 30
0.0
 11
99.24990000000001
 21
490.0
 31
0.0
  0
LINE
  5
306
330
1E
100
AcDbEntity
  8
0
100
AcDbLine
 10
95.7
 20
490.0
 30
0.0
 11
99.2501
 21
490.0
 31
0.0
  0
LINE
  5
307
330
1E
100
AcDbEntity
  8
0
100
AcDbLine
 10
98.9643
 20
494.0
 30
0.0
 11
99.39289999999999
 21
494.0
 31
0.0
  0
LINE
  5
308
330
1E
100
AcDbEntity
  8
0
100
AcDbLine
 10
97.75
 20
494.0
 30
0.0
 11
98.9643
 21
494.0
 31
0.0
  0
LINE
  5
309
330
1E
100
AcDbEntity
  8
0
100
AcDbLine
 10
95.8214
 20
494.0
 30
0.0
 11
97.75
 21
494.0
 31
0.0
  0
LINE
  5
30A
330
1E
100
AcDbEntity
  8
0
100
AcDbLine
 10
93.2857
 20
494.0
 30
0.0
 11
95.8214
 21
494.0
 31
0.0
  0
LINE
  5
30C
330
1E
100
AcDbEntity
  8
0
100
AcDbLine
 10
90.65000000000001
 20
508.0
 30
0.0
 11
93.9286
 21
508.0
 31
0.0
  0
LINE
  5
30D
330
1E
100
AcDbEntity
  8
0
100
AcDbLine
 10
98.78570000000001
 20
508.0
 30
0.0
 11
100.1214
 21
508.0
 31
0.0
  0
LINE
  5
30E
330
1E
100
AcDbEntity
  8
0
100
AcDbLine
 10
96.7214
 20
508.0
 30
0.0
 11
98.78570000000001
 21
508.0
 31
0.0
  0
LINE
  5
310
330
1E
100
AcDbEntity
  8
0
100
AcDbLine
 10
93.9286
 20
508.0
 30
0.0
 11
96.7214
 21
508.0
 31
0.0
  0
LINE
  5
313
330
1E
100
AcDbEntity
  8
0
100
AcDbLine
 10
90.39279999999999
 20
494.0
 30
0.0
 11
93.2857
 21
494.0
 31
0.0
  0
LINE
  5
314
330
1E
100
AcDbEntity
  8
0
100
AcDbLine
 10
100.1214
 20
508.0
 30
0.0
 11
100.607
 21
508.0
 31
0.0
  0
LINE
  5
315
330
1E
100
AcDbEntity
  8
0
100
AcDbLine
 10
99.39289999999999
 20
494.0
 30
0.0
 11
103.0359999999999
 21
496.0
 31
0.0
  0
LINE
  5
316
330
1E
100
AcDbEntity
  8
0
100
AcDbLine
 10
99.39289999999999
 20
494.0
 30
0.0
 11
99.39289999999999
 21
490.0
 31
0.0
  0
LINE
  5
317
330
1E
100
AcDbEntity
  8
0
100
AcDbLine
 10
99.24990000000001
 20
490.0
 30
0.0
 11
101.95
 21
490.0
 31
0.0
  0
LINE
  5
318
330
1E
100
AcDbEntity
  8
0
100
AcDbLine
 10
87.24999999999999
 20
508.0
 30
0.0
 11
95.54999999999999
 21
508.0
 31
0.0
  0
LINE
  5
319
330
1E
100
AcDbEntity
  8
0
100
AcDbLine
 10
87.24999999999999
 20
508.0
 30
0.0
 11
90.65000000000001
 21
508.0
 31
0.0
  0
LINE
  5
31A
330
1E
100
AcDbEntity
  8
0
100
AcDbLine
 10
95.54999999999999
 20
508.0
 30
0.0
 11
103.15
 21
508.0
 31
0.0
  0
LINE
  5
31B
330
1E
100
AcDbEntity
  8
0
100
AcDbLine
 10
104.2499999999999
 20
490.0
 30
0.0
 11
104.2499999999999
 21
477.0
 31
0.0
  0
LINE
  5
31C
330
1E
100
AcDbEntity
  8
0
100
AcDbLine
 10
101.95
 20
490.0
 30
0.0
 11
103.6499999999999
 21
490.0
 31
0.0
  0
LINE
  5
31D
330
1E
100
AcDbEntity
  8
0
100
AcDbLine
 10
103.0359999999999
 20
506.0
 30
0.0
 11
103.0359999999999
 21
496.0
 31
0.0
  0
LINE
  5
31E
330
1E
100
AcDbEntity
  8
0
100
AcDbLine
 10
102.429
 20
506.0
 30
0.0
 11
103.0359999999999
 21
506.0
 31
0.0
  0
LINE
  5
31F
330
1E
100
AcDbEntity
  8
0
100
AcDbLine
 10
102.429
 20
496.0
 30
0.0
 11
103.0359999999999
 21
496.0
 31
0.0
  0
LINE
  5
320
330
1E
100
AcDbEntity
  8
0
100
AcDbLine
 10
103.0359999999999
 20
496.0
 30
0.0
 11
103.0359999999999
 21
506.0
 31
0.0
  0
LINE
  5
321
330
1E
100
AcDbEntity
  8
0
100
AcDbLine
 10
103.6499999999999
 20
490.0
 30
0.0
 11
104.2499999999999
 21
490.0
 31
0.0
  0
LINE
  5
322
330
1E
100
AcDbEntity
  8
0
100
AcDbLine
 10
100.607
 20
508.0
 30
0.0
 11
103.15
 21
508.0
 31
0.0
  0
LINE
  5
323
330
1E
100
AcDbEntity
  8
0
100
AcDbLine
 10
100.607
 20
508.0
 30
0.0
 11
103.0359999999999
 21
506.0
 31
0.0
  0
LINE
  5
324
330
1E
100
AcDbEntity
  8
0
100
AcDbLine
 10
103.15
 20
508.0
 30
0.0
 11
109.85
 21
508.0
 31
0.0
  0
LINE
  5
325
330
1E
100
AcDbEntity
  8
0
100
AcDbLine
 10
109.85
 20
508.0
 30
0.0
 11
114.9499999999999
 21
508.0
 31
0.0
  0
LINE
  5
326
330
1E
100
AcDbEntity
  8
0
100
AcDbLine
 10
114.9499999999999
 20
508.0
 30
0.0
 11
118.05
 21
508.0
 31
0.0
  0
LINE
  5
327
330
1E
100
AcDbEntity
  8
0
100
AcDbLine
 10
225.1069999999999
 20
490.0
 30
0.0
 11
225.1069999999999
 21
494.0
 31
0.0
  0
LINE
  5
328
330
1E
100
AcDbEntity
  8
0
100
AcDbLine
 10
228.8
 20
490.0
 30
0.0
 11
232.85
 21
490.0
 31
0.0
  0
LINE
  5
329
330
1E
100
AcDbEntity
  8
0
100
AcDbLine
 10
225.2499999999999
 20
490.0
 30
0.0
 11
228.8
 21
490.0
 31
0.0
  0
LINE
  5
32A
330
1E
100
AcDbEntity
  8
0
100
AcDbLine
 10
222.55
 20
490.0
 30
0.0
 11
225.2499999999999
 21
490.0
 31
0.0
  0
LINE
  5
32B
330
1E
100
AcDbEntity
  8
0
100
AcDbLine
 10
220.8499999999999
 20
490.0
 30
0.0
 11
222.55
 21
490.0
 31
0.0
  0
LINE
  5
32C
330
1E
100
AcDbEntity
  8
0
100
AcDbLine
 10
221.464
 20
498.0
 30
0.0
 11
221.464
 21
496.0
 31
0.0
  0
LINE
  5
32D
330
1E
100
AcDbEntity
  8
0
100
AcDbLine
 10
221.464
 20
498.0
 30
0.0
 11
221.464
 21
501.0
 31
0.0
  0
LINE
  5
32E
330
1E
100
AcDbEntity
  8
0
100
AcDbLine
 10
221.464
 20
501.0
 30
0.0
 11
221.464
 21
504.0
 31
0.0
  0
LINE
  5
32F
330
1E
100
AcDbEntity
  8
0
100
AcDbLine
 10
221.464
 20
501.0
 30
0.0
 11
221.464
 21
498.0
 31
0.0
  0
LINE
  5
330
330
1E
100
AcDbEntity
  8
0
100
AcDbLine
 10
221.464
 20
504.0
 30
0.0
 11
221.464
 21
506.0
 31
0.0
  0
LINE
  5
331
330
1E
100
AcDbEntity
  8
0
100
AcDbLine
 10
221.464
 20
504.0
 30
0.0
 11
221.464
 21
501.0
 31
0.0
  0
LINE
  5
332
330
1E
100
AcDbEntity
  8
0
100
AcDbLine
 10
221.464
 20
506.0
 30
0.0
 11
223.8929999999999
 21
508.0
 31
0.0
  0
LINE
  5
333
330
1E
100
AcDbEntity
  8
0
100
AcDbLine
 10
221.464
 20
506.0
 30
0.0
 11
252.429
 21
506.0
 31
0.0
  0
LINE
  5
334
330
1E
100
AcDbEntity
  8
0
100
AcDbLine
 10
221.464
 20
506.0
 30
0.0
 11
221.464
 21
504.0
 31
0.0
  0
LINE
  5
335
330
1E
100
AcDbEntity
  8
0
100
AcDbLine
 10
225.1069999999999
 20
494.0
 30
0.0
 11
225.5359999999999
 21
494.0
 31
0.0
  0
LINE
  5
336
330
1E
100
AcDbEntity
  8
0
100
AcDbLine
 10
225.1069999999999
 20
494.0
 30
0.0
 11
225.1069999999999
 21
490.0
 31
0.0
  0
LINE
  5
337
330
1E
100
AcDbEntity
  8
0
100
AcDbLine
 10
225.5359999999999
 20
494.0
 30
0.0
 11
226.75
 21
494.0
 31
0.0
  0
LINE
  5
338
330
1E
100
AcDbEntity
  8
0
100
AcDbLine
 10
226.75
 20
494.0
 30
0.0
 11
228.6789999999999
 21
494.0
 31
0.0
  0
LINE
  5
339
330
1E
100
AcDbEntity
  8
0
100
AcDbLine
 10
228.6789999999999
 20
494.0
 30
0.0
 11
231.214
 21
494.0
 31
0.0
  0
LINE
  5
33A
330
1E
100
AcDbEntity
  8
0
100
AcDbLine
 10
223.8929999999999
 20
508.0
 30
0.0
 11
224.379
 21
508.0
 31
0.0
  0
LINE
  5
33B
330
1E
100
AcDbEntity
  8
0
100
AcDbLine
 10
224.379
 20
508.0
 30
0.0
 11
225.714
 21
508.0
 31
0.0
  0
LINE
  5
33C
330
1E
100
AcDbEntity
  8
0
100
AcDbLine
 10
225.714
 20
508.0
 30
0.0
 11
227.779
 21
508.0
 31
0.0
  0
LINE
  5
33D
330
1E
100
AcDbEntity
  8
0
100
AcDbLine
 10
227.779
 20
508.0
 30
0.0
 11
230.5709999999999
 21
508.0
 31
0.0
  0
LINE
  5
340
330
1E
100
AcDbEntity
  8
0
100
AcDbLine
 10
221.464
 20
496.0
 30
0.0
 11
225.1069999999999
 21
494.0
 31
0.0
  0
LINE
  5
341
330
1E
100
AcDbEntity
  8
0
100
AcDbLine
 10
221.464
 20
496.0
 30
0.0
 11
221.464
 21
498.0
 31
0.0
  0
LINE
  5
342
330
1E
100
AcDbEntity
  8
0
100
AcDbLine
 10
221.464
 20
496.0
 30
0.0
 11
252.429
 21
496.0
 31
0.0
  0
LINE
  5
343
330
1E
100
AcDbEntity
  8
0
100
AcDbLine
 10
220.25
 20
490.0
 30
0.0
 11
220.8499999999999
 21
490.0
 31
0.0
  0
LINE
  5
344
330
1E
100
AcDbEntity
  8
0
100
AcDbLine
 10
220.25
 20
490.0
 30
0.0
 11
220.25
 21
477.0
 31
0.0
  0
LINE
  5
345
330
1E
100
AcDbEntity
  8
0
100
AcDbLine
 10
232.85
 20
490.0
 30
0.0
 11
237.25
 21
490.0
 31
0.0
  0
LINE
  5
346
330
1E
100
AcDbEntity
  8
0
100
AcDbLine
 10
231.214
 20
494.0
 30
0.0
 11
234.107
 21
494.0
 31
0.0
  0
LINE
  5
348
330
1E
100
AcDbEntity
  8
0
100
AcDbLine
 10
230.5709999999999
 20
508.0
 30
0.0
 11
233.8499999999999
 21
508.0
 31
0.0
  0
LINE
  5
349
330
1E
100
AcDbEntity
  8
0
100
AcDbLine
 10
233.8499999999999
 20
508.0
 30
0.0
 11
237.25
 21
508.0
 31
0.0
  0
LINE
  5
34B
330
1E
100
AcDbEntity
  8
0
100
AcDbLine
 10
234.107
 20
494.0
 30
0.0
 11
237.25
 21
494.0
 31
0.0
  0
LINE
  5
34C
330
1E
100
AcDbEntity
  8
0
100
AcDbLine
 10
237.25
 20
494.0
 30
0.0
 11
240.3929999999999
 21
494.0
 31
0.0
  0
LINE
  5
34D
330
1E
100
AcDbEntity
  8
0
100
AcDbLine
 10
237.25
 20
490.0
 30
0.0
 11
241.65
 21
490.0
 31
0.0
  0
LINE
  5
34E
330
1E
100
AcDbEntity
  8
0
100
AcDbLine
 10
228.9499999999999
 20
508.0
 30
0.0
 11
237.25
 21
508.0
 31
0.0
  0
LINE
  5
34F
330
1E
100
AcDbEntity
  8
0
100
AcDbLine
 10
221.3499999999999
 20
508.0
 30
0.0
 11
223.8929999999999
 21
508.0
 31
0.0
  0
LINE
  5
350
330
1E
100
AcDbEntity
  8
0
100
AcDbLine
 10
221.3499999999999
 20
508.0
 30
0.0
 11
228.9499999999999
 21
508.0
 31
0.0
  0
LINE
  5
351
330
1E
100
AcDbEntity
  8
0
100
AcDbLine
 10
214.65
 20
508.0
 30
0.0
 11
221.3499999999999
 21
508.0
 31
0.0
  0
LINE
  5
352
330
1E
100
AcDbEntity
  8
0
100
AcDbLine
 10
209.55
 20
508.0
 30
0.0
 11
214.65
 21
508.0
 31
0.0
  0
LINE
  5
353
330
1E
100
AcDbEntity
  8
0
100
AcDbLine
 10
206.4499999999999
 20
508.0
 30
0.0
 11
209.55
 21
508.0
 31
0.0
  0
LINE
  5
354
330
1E
100
AcDbEntity
  8
0
100
AcDbLine
 10
205.25
 20
508.0
 30
0.0
 11
206.4499999999999
 21
508.0
 31
0.0
  0
LINE
  5
355
330
1E
100
AcDbEntity
  8
0
100
AcDbLine
 10
241.65
 20
490.0
 30
0.0
 11
245.6999999999999
 21
490.0
 31
0.0
  0
LINE
  5
356
330
1E
100
AcDbEntity
  8
0
100
AcDbLine
 10
249.393
 20
490.0
 30
0.0
 11
249.393
 21
494.0
 31
0.0
  0
LINE
  5
357
330
1E
100
AcDbEntity
  8
0
100
AcDbLine
 10
245.6999999999999
 20
490.0
 30
0.0
 11
249.25
 21
490.0
 31
0.0
  0
LINE
  5
358
330
1E
100
AcDbEntity
  8
0
100
AcDbLine
 10
248.964
 20
494.0
 30
0.0
 11
249.393
 21
494.0
 31
0.0
  0
LINE
  5
359
330
1E
100
AcDbEntity
  8
0
100
AcDbLine
 10
247.75
 20
494.0
 30
0.0
 11
248.964
 21
494.0
 31
0.0
  0
LINE
  5
35A
330
1E
100
AcDbEntity
  8
0
100
AcDbLine
 10
245.821
 20
494.0
 30
0.0
 11
247.75
 21
494.0
 31
0.0
  0
LINE
  5
35B
330
1E
100
AcDbEntity
  8
0
100
AcDbLine
 10
243.2859999999999
 20
494.0
 30
0.0
 11
245.821
 21
494.0
 31
0.0
  0
LINE
  5
35D
330
1E
100
AcDbEntity
  8
0
100
AcDbLine
 10
240.65
 20
508.0
 30
0.0
 11
243.929
 21
508.0
 31
0.0
  0
LINE
  5
35E
330
1E
100
AcDbEntity
  8
0
100
AcDbLine
 10
248.7859999999999
 20
508.0
 30
0.0
 11
250.1209999999999
 21
508.0
 31
0.0
  0
LINE
  5
35F
330
1E
100
AcDbEntity
  8
0
100
AcDbLine
 10
246.7209999999999
 20
508.0
 30
0.0
 11
248.7859999999999
 21
508.0
 31
0.0
  0
LINE
  5
361
330
1E
100
AcDbEntity
  8
0
100
AcDbLine
 10
243.929
 20
508.0
 30
0.0
 11
246.7209999999999
 21
508.0
 31
0.0
  0
LINE
  5
364
330
1E
100
AcDbEntity
  8
0
100
AcDbLine
 10
240.3929999999999
 20
494.0
 30
0.0
 11
243.2859999999999
 21
494.0
 31
0.0
  0
LINE
  5
365
330
1E
100
AcDbEntity
  8
0
100
AcDbLine
 10
250.1209999999999
 20
508.0
 30
0.0
 11
250.607
 21
508.0
 31
0.0
  0
LINE
  5
366
330
1E
100
AcDbEntity
  8
0
100
AcDbLine
 10
249.393
 20
494.0
 30
0.0
 11
253.0359999999999
 21
496.0
 31
0.0
  0
LINE
  5
367
330
1E
100
AcDbEntity
  8
0
100
AcDbLine
 10
249.393
 20
494.0
 30
0.0
 11
249.393
 21
490.0
 31
0.0
  0
LINE
  5
368
330
1E
100
AcDbEntity
  8
0
100
AcDbLine
 10
249.25
 20
490.0
 30
0.0
 11
251.9499999999999
 21
490.0
 31
0.0
  0
LINE
  5
369
330
1E
100
AcDbEntity
  8
0
100
AcDbLine
 10
237.25
 20
508.0
 30
0.0
 11
245.55
 21
508.0
 31
0.0
  0
LINE
  5
36A
330
1E
100
AcDbEntity
  8
0
100
AcDbLine
 10
237.25
 20
508.0
 30
0.0
 11
240.65
 21
508.0
 31
0.0
  0
LINE
  5
36B
330
1E
100
AcDbEntity
  8
0
100
AcDbLine
 10
245.55
 20
508.0
 30
0.0
 11
253.15
 21
508.0
 31
0.0
  0
LINE
  5
36C
330
1E
100
AcDbEntity
  8
0
100
AcDbLine
 10
254.2499999999999
 20
490.0
 30
0.0
 11
254.2499999999999
 21
477.0
 31
0.0
  0
LINE
  5
36D
330
1E
100
AcDbEntity
  8
0
100
AcDbLine
 10
251.9499999999999
 20
490.0
 30
0.0
 11
253.65
 21
490.0
 31
0.0
  0
LINE
  5
36E
330
1E
100
AcDbEntity
  8
0
100
AcDbLine
 10
253.0359999999999
 20
496.0
 30
0.0
 11
253.0359999999999
 21
506.0
 31
0.0
  0
LINE
  5
371
330
1E
100
AcDbEntity
  8
0
100
AcDbLine
 10
252.429
 20
506.0
 30
0.0
 11
253.0359999999999
 21
506.0
 31
0.0
  0
LINE
  5
372
330
1E
100
AcDbEntity
  8
0
100
AcDbLine
 10
252.429
 20
496.0
 30
0.0
 11
253.0359999999999
 21
496.0
 31
0.0
  0
LINE
  5
373
330
1E
100
AcDbEntity
  8
0
100
AcDbLine
 10
253.0359999999999
 20
506.0
 30
0.0
 11
253.0359999999999
 21
496.0
 31
0.0
  0
LINE
  5
374
330
1E
100
AcDbEntity
  8
0
100
AcDbLine
 10
253.65
 20
490.0
 30
0.0
 11
254.2499999999999
 21
490.0
 31
0.0
  0
LINE
  5
375
330
1E
100
AcDbEntity
  8
0
100
AcDbLine
 10
250.607
 20
508.0
 30
0.0
 11
253.15
 21
508.0
 31
0.0
  0
LINE
  5
376
330
1E
100
AcDbEntity
  8
0
100
AcDbLine
 10
250.607
 20
508.0
 30
0.0
 11
253.0359999999999
 21
506.0
 31
0.0
  0
LINE
  5
377
330
1E
100
AcDbEntity
  8
0
100
AcDbLine
 10
253.15
 20
508.0
 30
0.0
 11
259.85
 21
508.0
 31
0.0
  0
LINE
  5
378
330
1E
100
AcDbEntity
  8
0
100
AcDbLine
 10
259.85
 20
508.0
 30
0.0
 11
264.9499999999999
 21
508.0
 31
0.0
  0
LINE
  5
379
330
1E
100
AcDbEntity
  8
0
100
AcDbLine
 10
264.9499999999999
 20
508.0
 30
0.0
 11
268.05
 21
508.0
 31
0.0
  0
LINE
  5
37A
330
1E
100
AcDbEntity
  8
0
100
AcDbLine
 10
269.2499999999999
 20
508.0
 30
0.0
 11
271.2499999999999
 21
510.0
 31
0.0
  0
LINE
  5
37B
330
1E
100
AcDbEntity
  8
0
100
AcDbLine
 10
268.05
 20
508.0
 30
0.0
 11
269.2499999999999
 21
508.0
 31
0.0
  0
LINE
  5
37C
330
1E
100
AcDbEntity
  8
0
100
AcDbLine
 10
118.05
 20
508.0
 30
0.0
 11
119.25
 21
508.0
 31
0.0
  0
LINE
  5
37D
330
1E
100
AcDbEntity
  8
0
100
AcDbLine
 10
119.25
 20
508.0
 30
0.0
 11
121.25
 21
510.0
 31
0.0
  0
LINE
  5
37E
330
1E
100
AcDbEntity
  8
0
100
AcDbLine
 10
78.95
 20
508.0
 30
0.0
 11
87.24999999999999
 21
508.0
 31
0.0
  0
LINE
  5
37F
330
1E
100
AcDbEntity
  8
0
100
AcDbLine
 10
71.34999999999999
 20
508.0
 30
0.0
 11
73.89289999999999
 21
508.0
 31
0.0
  0
LINE
  5
380
330
1E
100
AcDbEntity
  8
0
100
AcDbLine
 10
71.34999999999999
 20
508.0
 30
0.0
 11
78.95
 21
508.0
 31
0.0
  0
LINE
  5
381
330
1E
100
AcDbEntity
  8
0
100
AcDbLine
 10
64.65
 20
508.0
 30
0.0
 11
71.34999999999999
 21
508.0
 31
0.0
  0
LINE
  5
382
330
1E
100
AcDbEntity
  8
0
100
AcDbLine
 10
59.55
 20
508.0
 30
0.0
 11
64.65
 21
508.0
 31
0.0
  0
LINE
  5
383
330
1E
100
AcDbEntity
  8
0
100
AcDbLine
 10
56.45
 20
508.0
 30
0.0
 11
59.55
 21
508.0
 31
0.0
  0
LINE
  5
384
330
1E
100
AcDbEntity
  8
0
100
AcDbLine
 10
87.24999999999999
 20
510.0
 30
0.0
 11
96.05
 21
510.0
 31
0.0
  0
LINE
  5
385
330
1E
100
AcDbEntity
  8
0
100
AcDbLine
 10
96.05
 20
510.0
 30
0.0
 11
104.15
 21
510.0
 31
0.0
  0
LINE
  5
386
330
1E
100
AcDbEntity
  8
0
100
AcDbLine
 10
104.15
 20
510.0
 30
0.0
 11
111.25
 21
510.0
 31
0.0
  0
LINE
  5
387
330
1E
100
AcDbEntity
  8
0
100
AcDbLine
 10
111.25
 20
510.0
 30
0.0
 11
116.65
 21
510.0
 31
0.0
  0
LINE
  5
388
330
1E
100
AcDbEntity
  8
0
100
AcDbLine
 10
116.65
 20
510.0
 30
0.0
 11
120.0499999999999
 21
510.0
 31
0.0
  0
LINE
  5
389
330
1E
100
AcDbEntity
  8
0
100
AcDbLine
 10
120.0499999999999
 20
510.0
 30
0.0
 11
121.25
 21
510.0
 31
0.0
  0
LINE
  5
38A
330
1E
100
AcDbEntity
  8
0
100
AcDbLine
 10
228.4499999999999
 20
510.0
 30
0.0
 11
237.25
 21
510.0
 31
0.0
  0
LINE
  5
38B
330
1E
100
AcDbEntity
  8
0
100
AcDbLine
 10
220.35
 20
510.0
 30
0.0
 11
228.4499999999999
 21
510.0
 31
0.0
  0
LINE
  5
38C
330
1E
100
AcDbEntity
  8
0
100
AcDbLine
 10
213.2499999999999
 20
510.0
 30
0.0
 11
220.35
 21
510.0
 31
0.0
  0
LINE
  5
38D
330
1E
100
AcDbEntity
  8
0
100
AcDbLine
 10
207.85
 20
510.0
 30
0.0
 11
213.2499999999999
 21
510.0
 31
0.0
  0
LINE
  5
38E
330
1E
100
AcDbEntity
  8
0
100
AcDbLine
 10
204.4499999999999
 20
510.0
 30
0.0
 11
207.85
 21
510.0
 31
0.0
  0
LINE
  5
38F
330
1E
100
AcDbEntity
  8
0
100
AcDbLine
 10
203.25
 20
510.0
 30
0.0
 11
203.25
 21
534.0
 31
0.0
  0
LINE
  5
390
330
1E
100
AcDbEntity
  8
0
100
AcDbLine
 10
203.25
 20
510.0
 30
0.0
 11
205.25
 21
508.0
 31
0.0
  0
LINE
  5
391
330
1E
100
AcDbEntity
  8
0
100
AcDbLine
 10
203.25
 20
510.0
 30
0.0
 11
204.4499999999999
 21
510.0
 31
0.0
  0
LINE
  5
392
330
1E
100
AcDbEntity
  8
0
100
AcDbLine
 10
237.25
 20
510.0
 30
0.0
 11
246.05
 21
510.0
 31
0.0
  0
LINE
  5
393
330
1E
100
AcDbEntity
  8
0
100
AcDbLine
 10
246.05
 20
510.0
 30
0.0
 11
254.15
 21
510.0
 31
0.0
  0
LINE
  5
394
330
1E
100
AcDbEntity
  8
0
100
AcDbLine
 10
254.15
 20
510.0
 30
0.0
 11
261.25
 21
510.0
 31
0.0
  0
LINE
  5
395
330
1E
100
AcDbEntity
  8
0
100
AcDbLine
 10
261.25
 20
510.0
 30
0.0
 11
266.6499999999999
 21
510.0
 31
0.0
  0
LINE
  5
396
330
1E
100
AcDbEntity
  8
0
100
AcDbLine
 10
266.6499999999999
 20
510.0
 30
0.0
 11
270.05
 21
510.0
 31
0.0
  0
LINE
  5
397
330
1E
100
AcDbEntity
  8
0
100
AcDbLine
 10
270.05
 20
510.0
 30
0.0
 11
271.2499999999999
 21
510.0
 31
0.0
  0
LINE
  5
398
330
1E
100
AcDbEntity
  8
0
100
AcDbLine
 10
271.2499999999999
 20
510.0
 30
0.0
 11
271.2499999999999
 21
534.0
 31
0.0
  0
LINE
  5
399
330
1E
100
AcDbEntity
  8
0
100
AcDbLine
 10
121.25
 20
510.0
 30
0.0
 11
121.25
 21
534.0
 31
0.0
  0
LINE
  5
39A
330
1E
100
AcDbEntity
  8
0
100
AcDbLine
 10
78.45
 20
510.0
 30
0.0
 11
87.24999999999999
 21
510.0
 31
0.0
  0
LINE
  5
39B
330
1E
100
AcDbEntity
  8
0
100
AcDbLine
 10
70.35
 20
510.0
 30
0.0
 11
78.45
 21
510.0
 31
0.0
  0
LINE
  5
39C
330
1E
100
AcDbEntity
  8
0
100
AcDbLine
 10
63.25
 20
510.0
 30
0.0
 11
70.35
 21
510.0
 31
0.0
  0
LINE
  5
39D
330
1E
100
AcDbEntity
  8
0
100
AcDbLine
 10
57.85
 20
510.0
 30
0.0
 11
63.25
 21
510.0
 31
0.0
  0
LINE
  5
39E
330
1E
100
AcDbEntity
  8
0
100
AcDbLine
 10
54.45
 20
510.0
 30
0.0
 11
57.85
 21
510.0
 31
0.0
  0
LINE
  5
39F
330
1E
100
AcDbEntity
  8
0
100
AcDbLine
 10
53.25
 20
510.0
 30
0.0
 11
55.25
 21
508.0
 31
0.0
  0
LINE
  5
3A0
330
1E
100
AcDbEntity
  8
0
100
AcDbLine
 10
53.25
 20
510.0
 30
0.0
 11
53.25
 21
534.0
 31
0.0
  0
LINE
  5
3A1
330
1E
100
AcDbEntity
  8
0
100
AcDbLine
 10
53.25
 20
510.0
 30
0.0
 11
54.45
 21
510.0
 31
0.0
  0
LINE
  5
3A2
330
1E
100
AcDbEntity
  8
0
100
AcDbLine
 10
55.25
 20
508.0
 30
0.0
 11
56.45
 21
508.0
 31
0.0
  0
LINE
  5
3A3
330
1E
100
AcDbEntity
  8
0
100
AcDbLine
 10
377.97
 20
524.0
 30
0.0
 11
379.05
 21
524.0
 31
0.0
  0
LINE
  5
3A4
330
1E
100
AcDbEntity
  8
0
100
AcDbLine
 10
87.24999999999999
 20
534.0
 30
0.0
 11
96.05
 21
534.0
 31
0.0
  0
LINE
  5
3A5
330
1E
100
AcDbEntity
  8
0
100
AcDbLine
 10
96.05
 20
534.0
 30
0.0
 11
104.15
 21
534.0
 31
0.0
  0
LINE
  5
3A6
330
1E
100
AcDbEntity
  8
0
100
AcDbLine
 10
104.15
 20
534.0
 30
0.0
 11
111.25
 21
534.0
 31
0.0
  0
LINE
  5
3A7
330
1E
100
AcDbEntity
  8
0
100
AcDbLine
 10
111.25
 20
534.0
 30
0.0
 11
116.65
 21
534.0
 31
0.0
  0
LINE
  5
3A8
330
1E
100
AcDbEntity
  8
0
100
AcDbLine
 10
116.65
 20
534.0
 30
0.0
 11
120.0499999999999
 21
534.0
 31
0.0
  0
LINE
  5
3A9
330
1E
100
AcDbEntity
  8
0
100
AcDbLine
 10
120.0499999999999
 20
534.0
 30
0.0
 11
121.25
 21
534.0
 31
0.0
  0
LINE
  5
3AA
330
1E
100
AcDbEntity
  8
0
100
AcDbLine
 10
162.25
 20
526.0
 30
0.0
 11
164.3229999999999
 21
526.0
 31
0.0
  0
LINE
  5
3AB
330
1E
100
AcDbEntity
  8
0
100
AcDbLine
 10
164.3229999999999
 20
526.0
 30
0.0
 11
166.214
 21
526.0
 31
0.0
  0
LINE
  5
3AC
330
1E
100
AcDbEntity
  8
0
100
AcDbLine
 10
166.214
 20
526.0
 30
0.0
 11
167.886
 21
526.0
 31
0.0
  0
LINE
  5
3AD
330
1E
100
AcDbEntity
  8
0
100
AcDbLine
 10
167.886
 20
526.0
 30
0.0
 11
169.195
 21
526.0
 31
0.0
  0
LINE
  5
3AE
330
1E
100
AcDbEntity
  8
0
100
AcDbLine
 10
169.195
 20
526.0
 30
0.0
 11
169.959
 21
526.0
 31
0.0
  0
LINE
  5
3AF
330
1E
100
AcDbEntity
  8
0
100
AcDbLine
 10
169.959
 20
526.0
 30
0.0
 11
170.25
 21
526.0
 31
0.0
  0
LINE
  5
3B0
330
1E
100
AcDbEntity
  8
0
100
AcDbLine
 10
160.177
 20
526.0
 30
0.0
 11
162.25
 21
526.0
 31
0.0
  0
LINE
  5
3B1
330
1E
100
AcDbEntity
  8
0
100
AcDbLine
 10
158.286
 20
526.0
 30
0.0
 11
160.177
 21
526.0
 31
0.0
  0
LINE
  5
3B2
330
1E
100
AcDbEntity
  8
0
100
AcDbLine
 10
156.614
 20
526.0
 30
0.0
 11
158.286
 21
526.0
 31
0.0
  0
LINE
  5
3B3
330
1E
100
AcDbEntity
  8
0
100
AcDbLine
 10
155.304
 20
526.0
 30
0.0
 11
156.614
 21
526.0
 31
0.0
  0
LINE
  5
3B4
330
1E
100
AcDbEntity
  8
0
100
AcDbLine
 10
154.5409999999999
 20
526.0
 30
0.0
 11
155.304
 21
526.0
 31
0.0
  0
LINE
  5
3B5
330
1E
100
AcDbEntity
  8
0
100
AcDbLine
 10
154.2499999999999
 20
526.0
 30
0.0
 11
154.2499999999999
 21
479.5071
 31
0.0
  0
LINE
  5
3B6
330
1E
100
AcDbEntity
  8
0
100
AcDbLine
 10
154.2499999999999
 20
526.0
 30
0.0
 11
154.5409999999999
 21
526.0
 31
0.0
  0
LINE
  5
3B7
330
1E
100
AcDbEntity
  8
0
100
AcDbLine
 10
170.25
 20
526.0
 30
0.0
 11
176.8409999999999
 21
526.0
 31
0.0
  0
LINE
  5
3B8
330
1E
100
AcDbEntity
  8
0
100
AcDbLine
 10
170.25
 20
526.0
 30
0.0
 11
170.25
 21
479.5071
 31
0.0
  0
LINE
  5
3B9
330
1E
100
AcDbEntity
  8
0
100
AcDbLine
 10
176.8409999999999
 20
526.0
 30
0.0
 11
182.977
 21
526.0
 31
0.0
  0
LINE
  5
3BA
330
1E
100
AcDbEntity
  8
0
100
AcDbLine
 10
182.977
 20
526.0
 30
0.0
 11
187.614
 21
526.0
 31
0.0
  0
LINE
  5
3BB
330
1E
100
AcDbEntity
  8
0
100
AcDbLine
 10
187.614
 20
526.0
 30
0.0
 11
190.477
 21
526.0
 31
0.0
  0
LINE
  5
3BC
330
1E
100
AcDbEntity
  8
0
100
AcDbLine
 10
191.5679999999999
 20
526.0
 30
0.0
 11
192.25
 21
526.105
 31
0.0
  0
LINE
  5
3BD
330
1E
100
AcDbEntity
  8
0
100
AcDbLine
 10
190.477
 20
526.0
 30
0.0
 11
191.5679999999999
 21
526.0
 31
0.0
  0
LINE
  5
3BE
330
1E
100
AcDbEntity
  8
0
100
AcDbLine
 10
147.6589999999999
 20
526.0
 30
0.0
 11
154.2499999999999
 21
526.0
 31
0.0
  0
LINE
  5
3BF
330
1E
100
AcDbEntity
  8
0
100
AcDbLine
 10
141.5226999999999
 20
526.0
 30
0.0
 11
147.6589999999999
 21
526.0
 31
0.0
  0
LINE
  5
3C0
330
1E
100
AcDbEntity
  8
0
100
AcDbLine
 10
136.8864
 20
526.0
 30
0.0
 11
141.5226999999999
 21
526.0
 31
0.0
  0
LINE
  5
3C1
330
1E
100
AcDbEntity
  8
0
100
AcDbLine
 10
134.0226999999999
 20
526.0
 30
0.0
 11
136.8864
 21
526.0
 31
0.0
  0
LINE
  5
3C2
330
1E
100
AcDbEntity
  8
0
100
AcDbLine
 10
162.25
 20
526.105
 30
0.0
 11
170.0229999999999
 21
526.105
 31
0.0
  0
LINE
  5
3C3
330
1E
100
AcDbEntity
  8
0
100
AcDbLine
 10
170.0229999999999
 20
526.105
 30
0.0
 11
177.114
 21
526.105
 31
0.0
  0
LINE
  5
3C4
330
1E
100
AcDbEntity
  8
0
100
AcDbLine
 10
177.114
 20
526.105
 30
0.0
 11
183.3859999999999
 21
526.105
 31
0.0
  0
LINE
  5
3C5
330
1E
100
AcDbEntity
  8
0
100
AcDbLine
 10
183.3859999999999
 20
526.105
 30
0.0
 11
188.2949999999999
 21
526.105
 31
0.0
  0
LINE
  5
3C6
330
1E
100
AcDbEntity
  8
0
100
AcDbLine
 10
188.2949999999999
 20
526.105
 30
0.0
 11
191.159
 21
526.105
 31
0.0
  0
LINE
  5
3C7
330
1E
100
AcDbEntity
  8
0
100
AcDbLine
 10
192.25
 20
526.105
 30
0.0
 11
192.25
 21
534.0
 31
0.0
  0
LINE
  5
3C8
330
1E
100
AcDbEntity
  8
0
100
AcDbLine
 10
191.159
 20
526.105
 30
0.0
 11
192.25
 21
526.105
 31
0.0
  0
LINE
  5
3C9
330
1E
100
AcDbEntity
  8
0
100
AcDbLine
 10
154.4769999999999
 20
526.105
 30
0.0
 11
162.25
 21
526.105
 31
0.0
  0
LINE
  5
3CA
330
1E
100
AcDbEntity
  8
0
100
AcDbLine
 10
147.3859999999999
 20
526.105
 30
0.0
 11
154.4769999999999
 21
526.105
 31
0.0
  0
LINE
  5
3CB
330
1E
100
AcDbEntity
  8
0
100
AcDbLine
 10
141.1135999999999
 20
526.105
 30
0.0
 11
147.3859999999999
 21
526.105
 31
0.0
  0
LINE
  5
3CC
330
1E
100
AcDbEntity
  8
0
100
AcDbLine
 10
136.2044999999999
 20
526.105
 30
0.0
 11
141.1135999999999
 21
526.105
 31
0.0
  0
LINE
  5
3CD
330
1E
100
AcDbEntity
  8
0
100
AcDbLine
 10
133.3409
 20
526.105
 30
0.0
 11
136.2044999999999
 21
526.105
 31
0.0
  0
LINE
  5
3CE
330
1E
100
AcDbEntity
  8
0
100
AcDbLine
 10
132.25
 20
526.105
 30
0.0
 11
132.9318
 21
526.0
 31
0.0
  0
LINE
  5
3CF
330
1E
100
AcDbEntity
  8
0
100
AcDbLine
 10
132.25
 20
526.105
 30
0.0
 11
132.25
 21
534.0
 31
0.0
  0
LINE
  5
3D0
330
1E
100
AcDbEntity
  8
0
100
AcDbLine
 10
132.25
 20
526.105
 30
0.0
 11
133.3409
 21
526.105
 31
0.0
  0
LINE
  5
3D1
330
1E
100
AcDbEntity
  8
0
100
AcDbLine
 10
132.9318
 20
526.0
 30
0.0
 11
134.0226999999999
 21
526.0
 31
0.0
  0
LINE
  5
3D2
330
1E
100
AcDbEntity
  8
0
100
AcDbLine
 10
228.4499999999999
 20
534.0
 30
0.0
 11
237.25
 21
534.0
 31
0.0
  0
LINE
  5
3D3
330
1E
100
AcDbEntity
  8
0
100
AcDbLine
 10
220.35
 20
534.0
 30
0.0
 11
228.4499999999999
 21
534.0
 31
0.0
  0
LINE
  5
3D4
330
1E
100
AcDbEntity
  8
0
100
AcDbLine
 10
213.2499999999999
 20
534.0
 30
0.0
 11
220.35
 21
534.0
 31
0.0
  0
LINE
  5
3D5
330
1E
100
AcDbEntity
  8
0
100
AcDbLine
 10
207.85
 20
534.0
 30
0.0
 11
213.2499999999999
 21
534.0
 31
0.0
  0
LINE
  5
3D6
330
1E
100
AcDbEntity
  8
0
100
AcDbLine
 10
204.4499999999999
 20
534.0
 30
0.0
 11
207.85
 21
534.0
 31
0.0
  0
LINE
  5
3D7
330
1E
100
AcDbEntity
  8
0
100
AcDbLine
 10
203.25
 20
534.0
 30
0.0
 11
203.25
 21
510.0
 31
0.0
  0
LINE
  5
3D8
330
1E
100
AcDbEntity
  8
0
100
AcDbLine
 10
203.25
 20
534.0
 30
0.0
 11
204.4499999999999
 21
534.0
 31
0.0
  0
LINE
  5
3D9
330
1E
100
AcDbEntity
  8
0
100
AcDbLine
 10
237.25
 20
534.0
 30
0.0
 11
246.05
 21
534.0
 31
0.0
  0
LINE
  5
3DA
330
1E
100
AcDbEntity
  8
0
100
AcDbLine
 10
246.05
 20
534.0
 30
0.0
 11
254.15
 21
534.0
 31
0.0
  0
LINE
  5
3DB
330
1E
100
AcDbEntity
  8
0
100
AcDbLine
 10
254.15
 20
534.0
 30
0.0
 11
261.25
 21
534.0
 31
0.0
  0
LINE
  5
3DC
330
1E
100
AcDbEntity
  8
0
100
AcDbLine
 10
261.25
 20
534.0
 30
0.0
 11
266.6499999999999
 21
534.0
 31
0.0
  0
LINE
  5
3DD
330
1E
100
AcDbEntity
  8
0
100
AcDbLine
 10
266.6499999999999
 20
534.0
 30
0.0
 11
270.05
 21
534.0
 31
0.0
  0
LINE
  5
3DE
330
1E
100
AcDbEntity
  8
0
100
AcDbLine
 10
270.05
 20
534.0
 30
0.0
 11
271.2499999999999
 21
534.0
 31
0.0
  0
LINE
  5
3DF
330
1E
100
AcDbEntity
  8
0
100
AcDbLine
 10
271.2499999999999
 20
534.0
 30
0.0
 11
271.2499999999999
 21
510.0
 31
0.0
  0
LINE
  5
3E0
330
1E
100
AcDbEntity
  8
0
100
AcDbLine
 10
121.25
 20
534.0
 30
0.0
 11
121.25
 21
510.0
 31
0.0
  0
LINE
  5
3E1
330
1E
100
AcDbEntity
  8
0
100
AcDbLine
 10
78.45
 20
534.0
 30
0.0
 11
87.24999999999999
 21
534.0
 31
0.0
  0
LINE
  5
3E2
330
1E
100
AcDbEntity
  8
0
100
AcDbLine
 10
70.35
 20
534.0
 30
0.0
 11
78.45
 21
534.0
 31
0.0
  0
LINE
  5
3E3
330
1E
100
AcDbEntity
  8
0
100
AcDbLine
 10
63.25
 20
534.0
 30
0.0
 11
70.35
 21
534.0
 31
0.0
  0
LINE
  5
3E4
330
1E
100
AcDbEntity
  8
0
100
AcDbLine
 10
57.85
 20
534.0
 30
0.0
 11
63.25
 21
534.0
 31
0.0
  0
LINE
  5
3E5
330
1E
100
AcDbEntity
  8
0
100
AcDbLine
 10
54.45
 20
534.0
 30
0.0
 11
57.85
 21
534.0
 31
0.0
  0
LINE
  5
3E6
330
1E
100
AcDbEntity
  8
0
100
AcDbLine
 10
53.25
 20
534.0
 30
0.0
 11
53.25
 21
510.0
 31
0.0
  0
LINE
  5
3E7
330
1E
100
AcDbEntity
  8
0
100
AcDbLine
 10
53.25
 20
534.0
 30
0.0
 11
54.45
 21
534.0
 31
0.0
  0
LINE
  5
3E8
330
1E
100
AcDbEntity
  8
0
100
AcDbLine
 10
377.2499999999999
 20
524.6
 30
0.0
 11
377.2499999999999
 21
534.0
 31
0.0
  0
LINE
  5
3E9
330
1E
100
AcDbEntity
  8
0
100
AcDbLine
 10
377.2499999999999
 20
524.6
 30
0.0
 11
378.33
 21
524.6
 31
0.0
  0
LINE
  5
3EA
330
1E
100
AcDbEntity
  8
0
100
AcDbLine
 10
377.2499999999999
 20
524.6
 30
0.0
 11
377.97
 21
524.0
 31
0.0
  0
LINE
  5
3EB
330
1E
100
AcDbEntity
  8
0
100
AcDbLine
 10
378.33
 20
524.6
 30
0.0
 11
381.21
 21
524.6
 31
0.0
  0
LINE
  5
3EC
330
1E
100
AcDbEntity
  8
0
100
AcDbLine
 10
377.2499999999999
 20
534.0
 30
0.0
 11
378.33
 21
534.0
 31
0.0
  0
LINE
  5
3ED
330
1E
100
AcDbEntity
  8
0
100
AcDbLine
 10
377.2499999999999
 20
534.0
 30
0.0
 11
377.2499999999999
 21
524.6
 31
0.0
  0
LINE
  5
3EE
330
1E
100
AcDbEntity
  8
0
100
AcDbLine
 10
379.05
 20
524.0
 30
0.0
 11
381.93
 21
524.0
 31
0.0
  0
LINE
  5
3EF
330
1E
100
AcDbEntity
  8
0
100
AcDbLine
 10
381.93
 20
524.0
 30
0.0
 11
386.61
 21
524.0
 31
0.0
  0
LINE
  5
3F0
330
1E
100
AcDbEntity
  8
0
100
AcDbLine
 10
381.21
 20
524.6
 30
0.0
 11
386.01
 21
524.6
 31
0.0
  0
LINE
  5
3F1
330
1E
100
AcDbEntity
  8
0
100
AcDbLine
 10
386.01
 20
524.6
 30
0.0
 11
392.37
 21
524.6
 31
0.0
  0
LINE
  5
3F2
330
1E
100
AcDbEntity
  8
0
100
AcDbLine
 10
378.33
 20
534.0
 30
0.0
 11
381.21
 21
534.0
 31
0.0
  0
LINE
  5
3F3
330
1E
100
AcDbEntity
  8
0
100
AcDbLine
 10
381.21
 20
534.0
 30
0.0
 11
386.01
 21
534.0
 31
0.0
  0
LINE
  5
3F4
330
1E
100
AcDbEntity
  8
0
100
AcDbLine
 10
388.7059999999999
 20
506.0
 30
0.0
 11
389.39
 21
506.0
 31
0.0
  0
LINE
  5
3F5
330
1E
100
AcDbEntity
  8
0
100
AcDbLine
 10
388.25
 20
524.0
 30
0.0
 11
388.934
 21
524.0
 31
0.0
  0
LINE
  5
3F6
330
1E
100
AcDbEntity
  8
0
100
AcDbLine
 10
388.25
 20
524.0
 30
0.0
 11
388.25
 21
506.443
 31
0.0
  0
LINE
  5
3F7
330
1E
100
AcDbEntity
  8
0
100
AcDbLine
 10
388.25
 20
506.443
 30
0.0
 11
388.25
 21
524.0
 31
0.0
  0
LINE
  5
3F8
330
1E
100
AcDbEntity
  8
0
100
AcDbLine
 10
388.25
 20
506.443
 30
0.0
 11
388.934
 21
506.443
 31
0.0
  0
LINE
  5
3F9
330
1E
100
AcDbEntity
  8
0
100
AcDbLine
 10
388.25
 20
506.443
 30
0.0
 11
388.7059999999999
 21
506.0
 31
0.0
  0
LINE
  5
3FA
330
1E
100
AcDbEntity
  8
0
100
AcDbLine
 10
389.39
 20
506.0
 30
0.0
 11
391.2139999999999
 21
506.0
 31
0.0
  0
LINE
  5
3FB
330
1E
100
AcDbEntity
  8
0
100
AcDbLine
 10
388.934
 20
506.443
 30
0.0
 11
390.758
 21
506.443
 31
0.0
  0
LINE
  5
3FC
330
1E
100
AcDbEntity
  8
0
100
AcDbLine
 10
388.934
 20
524.0
 30
0.0
 11
390.758
 21
524.0
 31
0.0
  0
LINE
  5
3FD
330
1E
100
AcDbEntity
  8
0
100
AcDbLine
 10
391.2139999999999
 20
506.0
 30
0.0
 11
394.178
 21
506.0
 31
0.0
  0
LINE
  5
3FE
330
1E
100
AcDbEntity
  8
0
100
AcDbLine
 10
390.758
 20
506.443
 30
0.0
 11
393.7979999999999
 21
506.443
 31
0.0
  0
LINE
  5
3FF
330
1E
100
AcDbEntity
  8
0
100
AcDbLine
 10
390.758
 20
524.0
 30
0.0
 11
393.7979999999999
 21
524.0
 31
0.0
  0
LINE
  5
400
330
1E
100
AcDbEntity
  8
0
100
AcDbLine
 10
386.61
 20
524.0
 30
0.0
 11
392.73
 21
524.0
 31
0.0
  0
LINE
  5
401
330
1E
100
AcDbEntity
  8
0
100
AcDbLine
 10
386.61
 20
524.0
 30
0.0
 11
388.25
 21
524.0
 31
0.0
  0
LINE
  5
402
330
1E
100
AcDbEntity
  8
0
100
AcDbLine
 10
392.37
 20
524.6
 30
0.0
 11
399.5699999999999
 21
524.6
 31
0.0
  0
LINE
  5
403
330
1E
100
AcDbEntity
  8
0
100
AcDbLine
 10
386.01
 20
534.0
 30
0.0
 11
392.37
 21
534.0
 31
0.0
  0
LINE
  5
404
330
1E
100
AcDbEntity
  8
0
100
AcDbLine
 10
162.25
 20
534.0
 30
0.0
 11
170.0229999999999
 21
534.0
 31
0.0
  0
LINE
  5
405
330
1E
100
AcDbEntity
  8
0
100
AcDbLine
 10
170.0229999999999
 20
534.0
 30
0.0
 11
177.114
 21
534.0
 31
0.0
  0
LINE
  5
406
330
1E
100
AcDbEntity
  8
0
100
AcDbLine
 10
177.114
 20
534.0
 30
0.0
 11
183.3859999999999
 21
534.0
 31
0.0
  0
LINE
  5
407
330
1E
100
AcDbEntity
  8
0
100
AcDbLine
 10
183.3859999999999
 20
534.0
 30
0.0
 11
188.2949999999999
 21
534.0
 31
0.0
  0
LINE
  5
408
330
1E
100
AcDbEntity
  8
0
100
AcDbLine
 10
188.2949999999999
 20
534.0
 30
0.0
 11
191.159
 21
534.0
 31
0.0
  0
LINE
  5
409
330
1E
100
AcDbEntity
  8
0
100
AcDbLine
 10
191.159
 20
534.0
 30
0.0
 11
192.25
 21
534.0
 31
0.0
  0
LINE
  5
40A
330
1E
100
AcDbEntity
  8
0
100
AcDbLine
 10
154.4769999999999
 20
534.0
 30
0.0
 11
162.25
 21
534.0
 31
0.0
  0
LINE
  5
40B
330
1E
100
AcDbEntity
  8
0
100
AcDbLine
 10
147.3859999999999
 20
534.0
 30
0.0
 11
154.4769999999999
 21
534.0
 31
0.0
  0
LINE
  5
40C
330
1E
100
AcDbEntity
  8
0
100
AcDbLine
 10
141.1135999999999
 20
534.0
 30
0.0
 11
147.3859999999999
 21
534.0
 31
0.0
  0
LINE
  5
40D
330
1E
100
AcDbEntity
  8
0
100
AcDbLine
 10
136.2044999999999
 20
534.0
 30
0.0
 11
141.1135999999999
 21
534.0
 31
0.0
  0
LINE
  5
40E
330
1E
100
AcDbEntity
  8
0
100
AcDbLine
 10
133.3409
 20
534.0
 30
0.0
 11
136.2044999999999
 21
534.0
 31
0.0
  0
LINE
  5
40F
330
1E
100
AcDbEntity
  8
0
100
AcDbLine
 10
132.25
 20
534.0
 30
0.0
 11
132.25
 21
526.105
 31
0.0
  0
LINE
  5
410
330
1E
100
AcDbEntity
  8
0
100
AcDbLine
 10
132.25
 20
534.0
 30
0.0
 11
133.3409
 21
534.0
 31
0.0
  0
LINE
  5
411
330
1E
100
AcDbEntity
  8
0
100
AcDbLine
 10
192.25
 20
534.0
 30
0.0
 11
192.25
 21
526.105
 31
0.0
  0
LINE
  5
412
330
1E
100
AcDbEntity
  8
0
100
AcDbLine
 10
392.37
 20
534.0
 30
0.0
 11
399.5699999999999
 21
534.0
 31
0.0
  0
LINE
  5
413
330
1E
100
AcDbEntity
  8
0
100
AcDbLine
 10
407.2499999999999
 20
489.943
 30
0.0
 11
410.0659999999999
 21
489.5389999999999
 31
0.0
  0
LINE
  5
414
330
1E
100
AcDbEntity
  8
0
100
AcDbLine
 10
406.840461849954
 20
489.884245236996
 30
0.0
 11
407.2499999999999
 21
489.943
 31
0.0
  0
LINE
  5
415
330
1E
100
AcDbEntity
  8
0
100
AcDbLine
 10
394.178
 20
506.0
 30
0.0
 11
398.054
 21
506.0
 31
0.0
  0
LINE
  5
416
330
1E
100
AcDbEntity
  8
0
100
AcDbLine
 10
394.178
 20
506.0
 30
0.0
 11
397.25
 21
506.0
 31
0.0
  0
LINE
  5
417
330
1E
100
AcDbEntity
  8
0
100
AcDbLine
 10
397.25
 20
506.0
 30
0.0
 11
397.61
 21
506.0
 31
0.0
  0
LINE
  5
418
330
1E
100
AcDbEntity
  8
0
100
AcDbLine
 10
397.25
 20
506.0
 30
0.0
 11
397.25
 21
488.7151607142859
 31
0.0
  0
LINE
  5
419
330
1E
100
AcDbEntity
  8
0
100
AcDbLine
 10
398.054
 20
506.0
 30
0.0
 11
402.4619999999999
 21
506.0
 31
0.0
  0
LINE
  5
41A
330
1E
100
AcDbEntity
  8
0
100
AcDbLine
 10
397.61
 20
506.0
 30
0.0
 11
398.5699999999999
 21
506.0
 31
0.0
  0
LINE
  5
41B
330
1E
100
AcDbEntity
  8
0
100
AcDbLine
 10
398.5699999999999
 20
506.0
 30
0.0
 11
400.17
 21
506.0
 31
0.0
  0
LINE
  5
41C
330
1E
100
AcDbEntity
  8
0
100
AcDbLine
 10
402.4619999999999
 20
506.0
 30
0.0
 11
407.2499999999999
 21
506.0
 31
0.0
  0
LINE
  5
41D
330
1E
100
AcDbEntity
  8
0
100
AcDbLine
 10
400.17
 20
506.0
 30
0.0
 11
402.2899999999999
 21
506.0
 31
0.0
  0
LINE
  5
41E
330
1E
100
AcDbEntity
  8
0
100
AcDbLine
 10
393.7979999999999
 20
506.443
 30
0.0
 11
397.8259999999999
 21
506.443
 31
0.0
  0
LINE
  5
41F
330
1E
100
AcDbEntity
  8
0
100
AcDbLine
 10
393.7979999999999
 20
524.0
 30
0.0
 11
397.8259999999999
 21
524.0
 31
0.0
  0
LINE
  5
420
330
1E
100
AcDbEntity
  8
0
100
AcDbLine
 10
397.8259999999999
 20
506.443
 30
0.0
 11
402.3859999999999
 21
506.443
 31
0.0
  0
LINE
  5
421
330
1E
100
AcDbEntity
  8
0
100
AcDbLine
 10
397.8259999999999
 20
524.0
 30
0.0
 11
402.3859999999999
 21
524.0
 31
0.0
  0
LINE
  5
422
330
1E
100
AcDbEntity
  8
0
100
AcDbLine
 10
392.73
 20
524.0
 30
0.0
 11
399.69
 21
524.0
 31
0.0
  0
LINE
  5
423
330
1E
100
AcDbEntity
  8
0
100
AcDbLine
 10
399.5699999999999
 20
524.6
 30
0.0
 11
407.2499999999999
 21
524.6
 31
0.0
  0
LINE
  5
424
330
1E
100
AcDbEntity
  8
0
100
AcDbLine
 10
402.3859999999999
 20
506.443
 30
0.0
 11
407.2499999999999
 21
506.443
 31
0.0
  0
LINE
  5
425
330
1E
100
AcDbEntity
  8
0
100
AcDbLine
 10
402.3859999999999
 20
524.0
 30
0.0
 11
407.2499999999999
 21
524.0
 31
0.0
  0
LINE
  5
426
330
1E
100
AcDbEntity
  8
0
100
AcDbLine
 10
399.69
 20
524.0
 30
0.0
 11
407.2499999999999
 21
524.0
 31
0.0
  0
LINE
  5
427
330
1E
100
AcDbEntity
  8
0
100
AcDbLine
 10
399.5699999999999
 20
534.0
 30
0.0
 11
407.2499999999999
 21
534.0
 31
0.0
  0
LINE
  5
428
330
1E
100
AcDbEntity
  8
0
100
AcDbLine
 10
402.2899999999999
 20
506.0
 30
0.0
 11
404.6899999999999
 21
506.0
 31
0.0
  0
LINE
  5
429
330
1E
100
AcDbEntity
  8
0
100
AcDbLine
 10
407.2499999999999
 20
493.0
 30
0.0
 11
410.834
 21
492.4859999999999
 31
0.0
  0
LINE
  5
42A
330
1E
100
AcDbEntity
  8
0
100
AcDbLine
 10
410.834
 20
492.4859999999999
 30
0.0
 11
414.1939999999999
 21
491.1169999999999
 31
0.0
  0
LINE
  5
42B
330
1E
100
AcDbEntity
  8
0
100
AcDbLine
 10
409.81
 20
506.0
 30
0.0
 11
412.2099999999999
 21
506.0
 31
0.0
  0
LINE
  5
42C
330
1E
100
AcDbEntity
  8
0
100
AcDbLine
 10
407.2499999999999
 20
506.0
 30
0.0
 11
409.81
 21
506.0
 31
0.0
  0
LINE
  5
42D
330
1E
100
AcDbEntity
  8
0
100
AcDbLine
 10
407.2499999999999
 20
506.0
 30
0.0
 11
412.0379999999999
 21
506.0
 31
0.0
  0
LINE
  5
42E
330
1E
100
AcDbEntity
  8
0
100
AcDbLine
 10
407.2499999999999
 20
506.443
 30
0.0
 11
412.114
 21
506.443
 31
0.0
  0
LINE
  5
42F
330
1E
100
AcDbEntity
  8
0
100
AcDbLine
 10
407.2499999999999
 20
524.0
 30
0.0
 11
414.81
 21
524.0
 31
0.0
  0
LINE
  5
430
330
1E
100
AcDbEntity
  8
0
100
AcDbLine
 10
407.2499999999999
 20
524.0
 30
0.0
 11
412.114
 21
524.0
 31
0.0
  0
LINE
  5
431
330
1E
100
AcDbEntity
  8
0
100
AcDbLine
 10
407.2499999999999
 20
524.6
 30
0.0
 11
414.93
 21
524.6
 31
0.0
  0
LINE
  5
432
330
1E
100
AcDbEntity
  8
0
100
AcDbLine
 10
407.2499999999999
 20
534.0
 30
0.0
 11
414.93
 21
534.0
 31
0.0
  0
LINE
  5
433
330
1E
100
AcDbEntity
  8
0
100
AcDbLine
 10
404.6899999999999
 20
506.0
 30
0.0
 11
407.2499999999999
 21
506.0
 31
0.0
  0
LINE
  5
434
330
1E
100
AcDbEntity
  8
0
100
AcDbLine
 10
403.666
 20
492.4859999999999
 30
0.0
 11
407.2499999999999
 21
493.0
 31
0.0
  0
LINE
  5
435
330
1E
100
AcDbEntity
  8
0
100
AcDbLine
 10
400.3059999999999
 20
491.1169999999999
 30
0.0
 11
403.666
 21
492.4859999999999
 31
0.0
  0
LINE
  5
436
330
1E
100
AcDbEntity
  8
0
100
AcDbLine
 10
392.413
 20
489.8249999999999
 30
0.0
 11
397.25
 21
490.698168550532
 31
0.0
  0
LINE
  5
438
330
1E
100
AcDbEntity
  8
0
100
AcDbLine
 10
415.9499999999999
 20
351.3859999999999
 30
0.0
 11
424.2499999999999
 21
352.478
 31
0.0
  0
LINE
  5
439
330
1E
100
AcDbEntity
  8
0
100
AcDbLine
 10
416.0499999999999
 20
351.509
 30
0.0
 11
424.95
 21
352.666
 31
0.0
  0
LINE
  5
43A
330
1E
100
AcDbEntity
  8
0
100
AcDbLine
 10
424.2499999999999
 20
352.478
 30
0.0
 11
433.0499999999999
 21
354.343
 31
0.0
  0
LINE
  5
43B
330
1E
100
AcDbEntity
  8
0
100
AcDbLine
 10
416.0499999999999
 20
367.5959999999999
 30
0.0
 11
424.95
 21
368.753
 31
0.0
  0
LINE
  5
43C
330
1E
100
AcDbEntity
  8
0
100
AcDbLine
 10
419.7499999999999
 20
454.380590361446
 30
0.0
 11
419.7499999999999
 21
475.1249999999999
 31
0.0
  0
LINE
  5
43D
330
1E
100
AcDbEntity
  8
0
100
AcDbLine
 10
424.2499999999999
 20
370.0969999999999
 30
0.0
 11
433.0499999999999
 21
371.9619999999999
 31
0.0
  0
LINE
  5
43E
330
1E
100
AcDbEntity
  8
0
100
AcDbLine
 10
415.9499999999999
 20
369.0049999999999
 30
0.0
 11
424.2499999999999
 21
370.0969999999999
 31
0.0
  0
LINE
  5
43F
330
1E
100
AcDbEntity
  8
0
100
AcDbLine
 10
424.95
 20
352.666
 30
0.0
 11
433.45
 21
354.466
 31
0.0
  0
LINE
  5
440
330
1E
100
AcDbEntity
  8
0
100
AcDbLine
 10
433.0499999999999
 20
354.343
 30
0.0
 11
440.85
 21
356.721
 31
0.0
  0
LINE
  5
441
330
1E
100
AcDbEntity
  8
0
100
AcDbLine
 10
440.85
 20
356.721
 30
0.0
 11
447.365868077174
 21
359.551000000005
 31
0.0
  0
LINE
  5
442
330
1E
100
AcDbEntity
  8
0
100
AcDbLine
 10
433.45
 20
354.466
 30
0.0
 11
441.3499999999999
 21
356.973
 31
0.0
  0
LINE
  5
443
330
1E
100
AcDbEntity
  8
0
100
AcDbLine
 10
433.45
 20
370.553
 30
0.0
 11
441.3499999999999
 21
373.0599999999999
 31
0.0
  0
LINE
  5
444
330
1E
100
AcDbEntity
  8
0
100
AcDbLine
 10
424.95
 20
368.753
 30
0.0
 11
433.45
 21
370.553
 31
0.0
  0
LINE
  5
445
330
1E
100
AcDbEntity
  8
0
100
AcDbLine
 10
440.85
 20
374.3399999999999
 30
0.0
 11
448.2499999999999
 21
377.554
 31
0.0
  0
LINE
  5
446
330
1E
100
AcDbEntity
  8
0
100
AcDbLine
 10
433.0499999999999
 20
371.9619999999999
 30
0.0
 11
440.85
 21
374.3399999999999
 31
0.0
  0
LINE
  5
447
330
1E
100
AcDbEntity
  8
0
100
AcDbLine
 10
441.3499999999999
 20
356.973
 30
0.0
 11
448.85
 21
360.1869999999999
 31
0.0
  0
LINE
  5
448
330
1E
100
AcDbEntity
  8
0
100
AcDbLine
 10
448.85
 20
360.1869999999999
 30
0.0
 11
455.6499999999999
 21
363.979
 31
0.0
  0
LINE
  5
449
330
1E
100
AcDbEntity
  8
0
100
AcDbLine
 10
448.85
 20
376.2739999999999
 30
0.0
 11
455.6499999999999
 21
380.0659999999999
 31
0.0
  0
LINE
  5
44A
330
1E
100
AcDbEntity
  8
0
100
AcDbLine
 10
441.3499999999999
 20
373.0599999999999
 30
0.0
 11
448.85
 21
376.2739999999999
 31
0.0
  0
LINE
  5
44B
330
1E
100
AcDbEntity
  8
0
100
AcDbLine
 10
448.2499999999999
 20
377.554
 30
0.0
 11
454.95
 21
381.2819999999999
 31
0.0
  0
LINE
  5
44C
330
1E
100
AcDbEntity
  8
0
100
AcDbLine
 10
455.6499999999999
 20
363.979
 30
0.0
 11
461.5499999999999
 21
368.35
 31
0.0
  0
LINE
  5
44D
330
1E
100
AcDbEntity
  8
0
100
AcDbLine
 10
461.5499999999999
 20
368.35
 30
0.0
 11
466.55
 21
373.171
 31
0.0
  0
LINE
  5
44E
330
1E
100
AcDbEntity
  8
0
100
AcDbLine
 10
455.6499999999999
 20
380.0659999999999
 30
0.0
 11
461.5499999999999
 21
384.4369999999999
 31
0.0
  0
LINE
  5
44F
330
1E
100
AcDbEntity
  8
0
100
AcDbLine
 10
461.5499999999999
 20
384.4369999999999
 30
0.0
 11
466.55
 21
389.258
 31
0.0
  0
LINE
  5
450
330
1E
100
AcDbEntity
  8
0
100
AcDbLine
 10
454.95
 20
381.2819999999999
 30
0.0
 11
460.7499999999999
 21
385.589
 31
0.0
  0
LINE
  5
451
330
1E
100
AcDbEntity
  8
0
100
AcDbLine
 10
460.7499999999999
 20
385.589
 30
0.0
 11
465.7499999999999
 21
390.345
 31
0.0
  0
LINE
  5
452
330
1E
100
AcDbEntity
  8
0
100
AcDbLine
 10
466.55
 20
373.171
 30
0.0
 11
470.45
 21
378.249
 31
0.0
  0
LINE
  5
453
330
1E
100
AcDbEntity
  8
0
100
AcDbLine
 10
470.45
 20
378.249
 30
0.0
 11
473.2499999999999
 21
383.713
 31
0.0
  0
LINE
  5
454
330
1E
100
AcDbEntity
  8
0
100
AcDbLine
 10
466.55
 20
389.258
 30
0.0
 11
470.45
 21
394.336
 31
0.0
  0
LINE
  5
455
330
1E
100
AcDbEntity
  8
0
100
AcDbLine
 10
470.45
 20
394.336
 30
0.0
 11
473.2499999999999
 21
399.8
 31
0.0
  0
LINE
  5
456
330
1E
100
AcDbEntity
  8
0
100
AcDbLine
 10
465.7499999999999
 20
390.345
 30
0.0
 11
469.4499999999999
 21
395.359
 31
0.0
  0
LINE
  5
457
330
1E
100
AcDbEntity
  8
0
100
AcDbLine
 10
469.4499999999999
 20
395.359
 30
0.0
 11
472.35
 21
401.0159999999999
 31
0.0
  0
LINE
  5
458
330
1E
100
AcDbEntity
  8
0
100
AcDbLine
 10
473.2499999999999
 20
383.713
 30
0.0
 11
475.05
 21
389.433
 31
0.0
  0
LINE
  5
459
330
1E
100
AcDbEntity
  8
0
100
AcDbLine
 10
475.05
 20
389.433
 30
0.0
 11
475.75
 21
395.0899999999999
 31
0.0
  0
LINE
  5
45A
330
1E
100
AcDbEntity
  8
0
100
AcDbLine
 10
473.2499999999999
 20
399.8
 30
0.0
 11
475.05
 21
405.52
 31
0.0
  0
LINE
  5
45B
330
1E
100
AcDbEntity
  8
0
100
AcDbLine
 10
475.05
 20
405.52
 30
0.0
 11
475.75
 21
411.1769999999999
 31
0.0
  0
LINE
  5
45C
330
1E
100
AcDbEntity
  8
0
100
AcDbLine
 10
472.35
 20
401.0159999999999
 30
0.0
 11
474.0499999999999
 21
406.3509999999999
 31
0.0
  0
LINE
  5
45D
330
1E
100
AcDbEntity
  8
0
100
AcDbLine
 10
474.0499999999999
 20
406.3509999999999
 30
0.0
 11
474.75
 21
411.943
 31
0.0
  0
LINE
  5
45E
330
1E
100
AcDbEntity
  8
0
100
AcDbLine
 10
475.75
 20
395.0899999999999
 30
0.0
 11
475.75
 21
411.1769999999999
 31
0.0
  0
LINE
  5
45F
330
1E
100
AcDbEntity
  8
0
100
AcDbLine
 10
475.75
 20
411.1769999999999
 30
0.0
 11
475.75
 21
395.0899999999999
 31
0.0
  0
LINE
  5
460
330
1E
100
AcDbEntity
  8
0
100
AcDbLine
 10
475.05
 20
416.833
 30
0.0
 11
475.75
 21
411.1769999999999
 31
0.0
  0
LINE
  5
461
330
1E
100
AcDbEntity
  8
0
100
AcDbLine
 10
470.45
 20
428.018
 30
0.0
 11
473.2499999999999
 21
422.554
 31
0.0
  0
LINE
  5
462
330
1E
100
AcDbEntity
  8
0
100
AcDbLine
 10
461.5499999999999
 20
437.917
 30
0.0
 11
466.55
 21
433.096
 31
0.0
  0
LINE
  5
463
330
1E
100
AcDbEntity
  8
0
100
AcDbLine
 10
455.6499999999999
 20
442.288
 30
0.0
 11
461.5499999999999
 21
437.917
 31
0.0
  0
LINE
  5
464
330
1E
100
AcDbEntity
  8
0
100
AcDbLine
 10
454.95
 20
442.604
 30
0.0
 11
460.7499999999999
 21
438.2969999999999
 31
0.0
  0
LINE
  5
465
330
1E
100
AcDbEntity
  8
0
100
AcDbLine
 10
460.7499999999999
 20
438.2969999999999
 30
0.0
 11
465.7499999999999
 21
433.541
 31
0.0
  0
LINE
  5
466
330
1E
100
AcDbEntity
  8
0
100
AcDbLine
 10
466.55
 20
433.096
 30
0.0
 11
470.45
 21
428.018
 31
0.0
  0
LINE
  5
467
330
1E
100
AcDbEntity
  8
0
100
AcDbLine
 10
465.7499999999999
 20
433.541
 30
0.0
 11
469.4499999999999
 21
428.5269999999999
 31
0.0
  0
LINE
  5
468
330
1E
100
AcDbEntity
  8
0
100
AcDbLine
 10
469.4499999999999
 20
428.5269999999999
 30
0.0
 11
472.35
 21
422.8699999999999
 31
0.0
  0
LINE
  5
469
330
1E
100
AcDbEntity
  8
0
100
AcDbLine
 10
473.2499999999999
 20
422.554
 30
0.0
 11
475.05
 21
416.833
 31
0.0
  0
LINE
  5
46A
330
1E
100
AcDbEntity
  8
0
100
AcDbLine
 10
472.35
 20
422.8699999999999
 30
0.0
 11
474.0499999999999
 21
417.5349999999999
 31
0.0
  0
LINE
  5
46B
330
1E
100
AcDbEntity
  8
0
100
AcDbLine
 10
474.0499999999999
 20
417.5349999999999
 30
0.0
 11
474.75
 21
411.943
 31
0.0
  0
LINE
  5
46C
330
1E
100
AcDbEntity
  8
0
100
AcDbLine
 10
448.85
 20
446.0799999999999
 30
0.0
 11
455.6499999999999
 21
442.288
 31
0.0
  0
LINE
  5
46D
330
1E
100
AcDbEntity
  8
0
100
AcDbLine
 10
447.3658680771629
 20
446.7159999999999
 30
0.0
 11
448.85
 21
446.0799999999999
 31
0.0
  0
LINE
  5
46E
330
1E
100
AcDbEntity
  8
0
100
AcDbLine
 10
448.2499999999999
 20
446.332
 30
0.0
 11
454.95
 21
442.604
 31
0.0
  0
LINE
  5
46F
330
1E
100
AcDbEntity
  8
0
100
AcDbLine
 10
448.2499999999999
 20
446.332
 30
0.0
 11
448.85
 21
446.0799999999999
 31
0.0
  0
LINE
  5
470
330
1E
100
AcDbEntity
  8
0
100
AcDbLine
 10
440.85
 20
449.546
 30
0.0
 11
448.2499999999999
 21
446.332
 31
0.0
  0
LINE
  5
471
330
1E
100
AcDbEntity
  8
0
100
AcDbLine
 10
433.0499999999999
 20
451.924
 30
0.0
 11
440.85
 21
449.546
 31
0.0
  0
LINE
  5
472
330
1E
100
AcDbEntity
  8
0
100
AcDbLine
 10
424.2499999999999
 20
453.788
 30
0.0
 11
433.0499999999999
 21
451.924
 31
0.0
  0
LINE
  5
473
330
1E
100
AcDbEntity
  8
0
100
AcDbLine
 10
419.35
 20
456.097
 30
0.0
 11
419.595994067925
 21
454.400870901658
 31
0.0
  0
LINE
  5
474
330
1E
100
AcDbEntity
  8
0
100
AcDbLine
 10
418.05
 20
458.6249999999999
 30
0.0
 11
419.35
 21
456.097
 31
0.0
  0
LINE
  5
475
330
1E
100
AcDbEntity
  8
0
100
AcDbLine
 10
415.9499999999999
 20
455.3309999999999
 30
0.0
 11
416.0191423388069
 21
454.871894870323
 31
0.0
  0
LINE
  5
476
330
1E
100
AcDbEntity
  8
0
100
AcDbLine
 10
415.05
 20
457.169
 30
0.0
 11
415.9499999999999
 21
455.3309999999999
 31
0.0
  0
LINE
  5
477
330
1E
100
AcDbEntity
  8
0
100
AcDbLine
 10
412.0379999999999
 20
506.0
 30
0.0
 11
416.446
 21
506.0
 31
0.0
  0
LINE
  5
478
330
1E
100
AcDbEntity
  8
0
100
AcDbLine
 10
412.114
 20
506.443
 30
0.0
 11
416.674
 21
506.443
 31
0.0
  0
LINE
  5
479
330
1E
100
AcDbEntity
  8
0
100
AcDbLine
 10
412.114
 20
524.0
 30
0.0
 11
416.674
 21
524.0
 31
0.0
  0
LINE
  5
47A
330
1E
100
AcDbEntity
  8
0
100
AcDbLine
 10
412.7059999999999
 20
488.463
 30
0.0
 11
415.038
 21
486.669
 31
0.0
  0
LINE
  5
47B
330
1E
100
AcDbEntity
  8
0
100
AcDbLine
 10
412.2099999999999
 20
506.0
 30
0.0
 11
414.3299999999999
 21
506.0
 31
0.0
  0
LINE
  5
47C
330
1E
100
AcDbEntity
  8
0
100
AcDbLine
 10
413.45
 20
485.589
 30
0.0
 11
416.0499999999999
 21
483.6959999999999
 31
0.0
  0
LINE
  5
47D
330
1E
100
AcDbEntity
  8
0
100
AcDbLine
 10
415.038
 20
486.669
 30
0.0
 11
416.798
 21
484.2929999999999
 31
0.0
  0
LINE
  5
47E
330
1E
100
AcDbEntity
  8
0
100
AcDbLine
 10
414.1939999999999
 20
491.1169999999999
 30
0.0
 11
417.1619999999999
 21
488.834
 31
0.0
  0
LINE
  5
47F
330
1E
100
AcDbEntity
  8
0
100
AcDbLine
 10
415.9299999999999
 20
506.0
 30
0.0
 11
416.8899999999999
 21
506.0
 31
0.0
  0
LINE
  5
480
330
1E
100
AcDbEntity
  8
0
100
AcDbLine
 10
414.81
 20
524.0
 30
0.0
 11
421.7699999999999
 21
524.0
 31
0.0
  0
LINE
  5
481
330
1E
100
AcDbEntity
  8
0
100
AcDbLine
 10
414.93
 20
524.6
 30
0.0
 11
422.13
 21
524.6
 31
0.0
  0
LINE
  5
482
330
1E
100
AcDbEntity
  8
0
100
AcDbLine
 10
414.93
 20
534.0
 30
0.0
 11
422.13
 21
534.0
 31
0.0
  0
LINE
  5
483
330
1E
100
AcDbEntity
  8
0
100
AcDbLine
 10
414.3299999999999
 20
506.0
 30
0.0
 11
415.9299999999999
 21
506.0
 31
0.0
  0
LINE
  5
484
330
1E
100
AcDbEntity
  8
0
100
AcDbLine
 10
419.7499999999999
 20
472.542571428571
 30
0.0
 11
420.746
 21
475.0799999999999
 31
0.0
  0
LINE
  5
485
330
1E
100
AcDbEntity
  8
0
100
AcDbLine
 10
419.35
 20
478.2459999999999
 30
0.0
 11
419.7499999999999
 21
475.1249999999999
 31
0.0
  0
LINE
  5
486
330
1E
100
AcDbEntity
  8
0
100
AcDbLine
 10
420.746
 20
475.0799999999999
 30
0.0
 11
421.25
 21
478.732
 31
0.0
  0
LINE
  5
487
330
1E
100
AcDbEntity
  8
0
100
AcDbLine
 10
419.7499999999999
 20
475.1249999999999
 30
0.0
 11
419.7499999999999
 21
454.380590361446
 31
0.0
  0
LINE
  5
488
330
1E
100
AcDbEntity
  8
0
100
AcDbLine
 10
416.798
 20
484.2929999999999
 30
0.0
 11
417.854
 21
481.6019999999999
 31
0.0
  0
LINE
  5
489
330
1E
100
AcDbEntity
  8
0
100
AcDbLine
 10
416.446
 20
506.0
 30
0.0
 11
420.3219999999999
 21
506.0
 31
0.0
  0
LINE
  5
48A
330
1E
100
AcDbEntity
  8
0
100
AcDbLine
 10
417.1619999999999
 20
488.834
 30
0.0
 11
419.402
 21
485.809
 31
0.0
  0
LINE
  5
48B
330
1E
100
AcDbEntity
  8
0
100
AcDbLine
 10
417.25
 20
488.7151607142859
 30
0.0
 11
417.25
 21
506.0
 31
0.0
  0
LINE
  5
48C
330
1E
100
AcDbEntity
  8
0
100
AcDbLine
 10
416.674
 20
506.443
 30
0.0
 11
420.7019999999999
 21
506.443
 31
0.0
  0
LINE
  5
48D
330
1E
100
AcDbEntity
  8
0
100
AcDbLine
 10
416.674
 20
524.0
 30
0.0
 11
420.7019999999999
 21
524.0
 31
0.0
  0
LINE
  5
48E
330
1E
100
AcDbEntity
  8
0
100
AcDbLine
 10
416.8899999999999
 20
506.0
 30
0.0
 11
417.25
 21
506.0
 31
0.0
  0
LINE
  5
48F
330
1E
100
AcDbEntity
  8
0
100
AcDbLine
 10
417.854
 20
481.6019999999999
 30
0.0
 11
417.887892853943
 21
481.356362396931
 31
0.0
  0
LINE
  5
490
330
1E
100
AcDbEntity
  8
0
100
AcDbLine
 10
420.7019999999999
 20
506.443
 30
0.0
 11
423.7419999999999
 21
506.443
 31
0.0
  0
LINE
  5
491
330
1E
100
AcDbEntity
  8
0
100
AcDbLine
 10
420.7019999999999
 20
524.0
 30
0.0
 11
423.7419999999999
 21
524.0
 31
0.0
  0
LINE
  5
492
330
1E
100
AcDbEntity
  8
0
100
AcDbLine
 10
420.3219999999999
 20
506.0
 30
0.0
 11
423.286
 21
506.0
 31
0.0
  0
LINE
  5
493
330
1E
100
AcDbEntity
  8
0
100
AcDbLine
 10
425.11
 20
506.0
 30
0.0
 11
425.794
 21
506.0
 31
0.0
  0
LINE
  5
494
330
1E
100
AcDbEntity
  8
0
100
AcDbLine
 10
425.5659999999999
 20
506.443
 30
0.0
 11
426.25
 21
506.443
 31
0.0
  0
LINE
  5
495
330
1E
100
AcDbEntity
  8
0
100
AcDbLine
 10
425.794
 20
506.0
 30
0.0
 11
426.25
 21
506.443
 31
0.0
  0
LINE
  5
496
330
1E
100
AcDbEntity
  8
0
100
AcDbLine
 10
423.286
 20
506.0
 30
0.0
 11
425.11
 21
506.0
 31
0.0
  0
LINE
  5
497
330
1E
100
AcDbEntity
  8
0
100
AcDbLine
 10
423.7419999999999
 20
506.443
 30
0.0
 11
425.5659999999999
 21
506.443
 31
0.0
  0
LINE
  5
498
330
1E
100
AcDbEntity
  8
0
100
AcDbLine
 10
425.5659999999999
 20
524.0
 30
0.0
 11
426.25
 21
524.0
 31
0.0
  0
LINE
  5
499
330
1E
100
AcDbEntity
  8
0
100
AcDbLine
 10
423.7419999999999
 20
524.0
 30
0.0
 11
425.5659999999999
 21
524.0
 31
0.0
  0
LINE
  5
49A
330
1E
100
AcDbEntity
  8
0
100
AcDbLine
 10
426.25
 20
506.443
 30
0.0
 11
426.25
 21
524.0
 31
0.0
  0
LINE
  5
49B
330
1E
100
AcDbEntity
  8
0
100
AcDbLine
 10
421.7699999999999
 20
524.0
 30
0.0
 11
427.89
 21
524.0
 31
0.0
  0
LINE
  5
49C
330
1E
100
AcDbEntity
  8
0
100
AcDbLine
 10
422.13
 20
524.6
 30
0.0
 11
428.49
 21
524.6
 31
0.0
  0
LINE
  5
49D
330
1E
100
AcDbEntity
  8
0
100
AcDbLine
 10
435.4499999999999
 20
524.0
 30
0.0
 11
436.5299999999999
 21
524.0
 31
0.0
  0
LINE
  5
49E
330
1E
100
AcDbEntity
  8
0
100
AcDbLine
 10
436.5299999999999
 20
524.0
 30
0.0
 11
437.25
 21
524.6
 31
0.0
  0
LINE
  5
49F
330
1E
100
AcDbEntity
  8
0
100
AcDbLine
 10
432.57
 20
524.0
 30
0.0
 11
435.4499999999999
 21
524.0
 31
0.0
  0
LINE
  5
4A0
330
1E
100
AcDbEntity
  8
0
100
AcDbLine
 10
436.1699999999999
 20
524.6
 30
0.0
 11
437.25
 21
524.6
 31
0.0
  0
LINE
  5
4A1
330
1E
100
AcDbEntity
  8
0
100
AcDbLine
 10
433.29
 20
524.6
 30
0.0
 11
436.1699999999999
 21
524.6
 31
0.0
  0
LINE
  5
4A2
330
1E
100
AcDbEntity
  8
0
100
AcDbLine
 10
428.49
 20
524.6
 30
0.0
 11
433.29
 21
524.6
 31
0.0
  0
LINE
  5
4A3
330
1E
100
AcDbEntity
  8
0
100
AcDbLine
 10
427.89
 20
524.0
 30
0.0
 11
432.57
 21
524.0
 31
0.0
  0
LINE
  5
4A4
330
1E
100
AcDbEntity
  8
0
100
AcDbLine
 10
426.25
 20
524.0
 30
0.0
 11
427.89
 21
524.0
 31
0.0
  0
LINE
  5
4A5
330
1E
100
AcDbEntity
  8
0
100
AcDbLine
 10
426.25
 20
524.0
 30
0.0
 11
426.25
 21
506.443
 31
0.0
  0
LINE
  5
4A6
330
1E
100
AcDbEntity
  8
0
100
AcDbLine
 10
437.25
 20
534.0
 30
0.0
 11
437.25
 21
524.6
 31
0.0
  0
LINE
  5
4A7
330
1E
100
AcDbEntity
  8
0
100
AcDbLine
 10
436.1699999999999
 20
534.0
 30
0.0
 11
437.25
 21
534.0
 31
0.0
  0
LINE
  5
4A8
330
1E
100
AcDbEntity
  8
0
100
AcDbLine
 10
433.29
 20
534.0
 30
0.0
 11
436.1699999999999
 21
534.0
 31
0.0
  0
LINE
  5
4A9
330
1E
100
AcDbEntity
  8
0
100
AcDbLine
 10
428.49
 20
534.0
 30
0.0
 11
433.29
 21
534.0
 31
0.0
  0
LINE
  5
4AA
330
1E
100
AcDbEntity
  8
0
100
AcDbLine
 10
422.13
 20
534.0
 30
0.0
 11
428.49
 21
534.0
 31
0.0
  0
LINE
  5
4AB
330
1E
100
AcDbEntity
  8
0
100
AcDbLine
 10
437.25
 20
524.6
 30
0.0
 11
437.25
 21
534.0
 31
0.0
  0
LINE
  5
4AC
330
1E
100
AcDbEntity
  8
0
100
AcDbLine
 10
419.402
 20
485.809
 30
0.0
 11
420.746
 21
482.385
 31
0.0
  0
LINE
  5
4AD
330
1E
100
AcDbEntity
  8
0
100
AcDbLine
 10
420.746
 20
482.385
 30
0.0
 11
421.25
 21
478.732
 31
0.0
  0
LINE
  5
4AE
330
1E
100
AcDbEntity
  8
0
100
AcDbLine
 10
417.25
 20
506.0
 30
0.0
 11
417.25
 21
488.7151607142859
 31
0.0
  0
LINE
  5
4AF
330
1E
100
AcDbEntity
  8
0
100
AcDbLine
 10
417.25
 20
506.0
 30
0.0
 11
420.3219999999999
 21
506.0
 31
0.0
  0
LINE
  5
4B0
330
1E
100
AcDbEntity
  8
0
100
AcDbLine
 10
418.05
 20
481.1499999999999
 30
0.0
 11
419.35
 21
478.2459999999999
 31
0.0
  0
LINE
  5
4B1
330
1E
100
AcDbEntity
  8
0
100
AcDbLine
 10
416.0499999999999
 20
483.6959999999999
 30
0.0
 11
418.05
 21
481.1499999999999
 31
0.0
  0
LINE
  5
4B2
330
1E
100
AcDbEntity
  8
0
100
AcDbLine
 10
416.0499999999999
 20
460.846
 30
0.0
 11
418.05
 21
458.6249999999999
 31
0.0
  0
LINE
  5
4B3
330
1E
100
AcDbEntity
  8
0
100
AcDbLine
 10
413.45
 20
462.5309999999999
 30
0.0
 11
416.0499999999999
 21
460.846
 31
0.0
  0
LINE
  5
4B4
330
1E
100
AcDbEntity
  8
0
100
AcDbLine
 10
413.6499999999999
 20
458.7009999999999
 30
0.0
 11
415.05
 21
457.169
 31
0.0
  0
LINE
  5
4B5
330
1E
100
AcDbEntity
  8
0
100
AcDbLine
 10
411.7499999999999
 20
459.9269999999999
 30
0.0
 11
413.6499999999999
 21
458.7009999999999
 31
0.0
  0
LINE
  5
4B6
330
1E
100
AcDbEntity
  8
0
100
AcDbLine
 10
415.9499999999999
 20
454.8809999999999
 30
0.0
 11
424.2499999999999
 21
453.788
 31
0.0
  0
LINE
  5
4BC
330
1E
100
AcDbEntity
  8
0
100
AcDbLine
 10
151.25
 20
472.0
 30
0.0
 11
151.646
 21
474.8159999999999
 31
0.0
  0
LINE
  5
4BD
330
1E
100
AcDbEntity
  8
0
100
AcDbLine
 10
152.5196
 20
477.0
 30
0.0
 11
154.2499999999999
 21
479.5071
 31
0.0
  0
LINE
  5
4BE
330
1E
100
AcDbEntity
  8
0
100
AcDbLine
 10
156.7939999999999
 20
481.5479999999999
 30
0.0
 11
159.434
 21
482.604
 31
0.0
  0
LINE
  5
4BF
330
1E
100
AcDbEntity
  8
0
100
AcDbLine
 10
170.0379999999999
 20
479.788
 30
0.0
 11
171.798
 21
477.456
 31
0.0
  0
LINE
  5
4C0
330
1E
100
AcDbEntity
  8
0
100
AcDbLine
 10
156.7939999999999
 20
80.45199999999999
 30
0.0
 11
158.3359297783072
 21
79.86631976072181
 31
0.0
  0
LINE
  5
4C1
330
1E
100
AcDbEntity
  8
0
100
AcDbLine
 10
158.3359297783072
 20
79.86631976072181
 30
0.0
 11
160.3676126309151
 21
79.57627001337596
 31
0.0
  0
LINE
  5
4C2
330
1E
100
AcDbEntity
  8
0
100
AcDbLine
 10
160.3676126309151
 20
79.57627001337596
 30
0.0
 11
162.7862801332912
 21
79.51181437475975
 31
0.0
  0
LINE
  5
4C3
330
1E
100
AcDbEntity
  8
0
100
AcDbLine
 10
162.7862801332912
 20
79.51181437475975
 30
0.0
 11
164.9792076567405
 21
79.73740848348916
 31
0.0
  0
LINE
  5
4C4
330
1E
100
AcDbEntity
  8
0
100
AcDbLine
 10
164.9792076567405
 20
79.73740848348916
 30
0.0
 11
166.5594028707387
 21
80.05968792942576
 31
0.0
  0
LINE
  5
4C5
330
1E
100
AcDbEntity
  8
0
100
AcDbLine
 10
166.5594028707387
 20
80.05968792942576
 30
0.0
 11
167.7059999999999
 21
80.45199999999999
 31
0.0
  0
ENDSEC
  0
SECTION
  2
OBJECTS
  0
DICTIONARY
  5
C
330
0
100
AcDbDictionary
281
     1
  3
ACAD_GROUP
350
D
  3
ACAD_LAYOUT
350
19
  3
ACAD_MLINESTYLE
350
16
  3
ACAD_PLOTSETTINGS
350
18
  3
ACAD_PLOTSTYLENAME
350
E
  3
AcDbVariableDictionary
350
4C6
  0
DICTIONARY
  5
D
102
{ACAD_REACTORS
330
C
102
}
330
C
100
AcDbDictionary
281
     1
  0
DICTIONARY
  5
19
102
{ACAD_REACTORS
330
C
102
}
330
C
100
AcDbDictionary
281
     1
  3
Layout1
350
1D
  3
Model
350
21
  0
DICTIONARY
  5
16
102
{ACAD_REACTORS
330
C
102
}
330
C
100
AcDbDictionary
281
     1
  3
Standard
350
17
  0
DICTIONARY
  5
18
102
{ACAD_REACTORS
330
C
102
}
330
C
100
AcDbDictionary
281
     1
  0
ACDBDICTIONARYWDFLT
  5
E
102
{ACAD_REACTORS
330
C
102
}
330
C
100
AcDbDictionary
281
     1
  3
Normal
350
F
100
AcDbDictionaryWithDefault
340
F
  0
DICTIONARY
  5
4C6
102
{ACAD_REACTORS
330
C
102
}
330
C
100
AcDbDictionary
281
     1
  3
DIMASSOC
350
4C7
  0
LAYOUT
  5
1D
102
{ACAD_REACTORS
330
19
102
}
330
19
100
AcDbPlotSettings
  1

  2
hp deskjet 980c series
  4

  6

 40
0.0
 41
0.0
 42
0.0
 43
0.0
 44
0.0
 45
0.0
 46
0.0
 47
0.0
 48
0.0
 49
0.0
140
0.0
141
0.0
142
1.0
143
1.0
 70
   688
 72
     0
 73
     0
 74
     5
  7

 75
    16
147
1.0
148
0.0
149
0.0
100
AcDbLayout
  1
Layout1
 70
     1
 71
     1
 10
0.0
 20
0.0
 11
12.0
 21
9.0
 12
0.0
 22
0.0
 32
0.0
 14
1.000000000000000E+20
 24
1.000000000000000E+20
 34
1.000000000000000E+20
 15
-1.000000000000000E+20
 25
-1.000000000000000E+20
 35
-1.000000000000000E+20
146
0.0
 13
0.0
 23
0.0
 33
0.0
 16
1.0
 26
0.0
 36
0.0
 17
0.0
 27
1.0
 37
0.0
 76
     0
330
1A
  0
LAYOUT
  5
21
102
{ACAD_REACTORS
330
19
102
}
330
19
100
AcDbPlotSettings
  1

  2
hp deskjet 980c series
  4

  6

 40
0.0
 41
0.0
 42
0.0
 43
0.0
 44
0.0
 45
0.0
 46
0.0
 47
0.0
 48
0.0
 49
0.0
140
0.0
141
0.0
142
1.0
143
1.0
 70
  1712
 72
     0
 73
     0
 74
     0
  7

 75
     0
147
1.0
148
0.0
149
0.0
100
AcDbLayout
  1
Model
 70
     1
 71
     0
 10
0.0
 20
0.0
 11
12.0
 21
9.0
 12
0.0
 22
0.0
 32
0.0
 14
0.0
 24
0.0
 34
0.0
 15
0.0
 25
0.0
 35
0.0
146
0.0
 13
0.0
 23
0.0
 33
0.0
 16
1.0
 26
0.0
 36
0.0
 17
0.0
 27
1.0
 37
0.0
 76
     0
330
1E
  0
MLINESTYLE
  5
17
102
{ACAD_REACTORS
330
16
102
}
330
16
100
AcDbMlineStyle
  2
STANDARD
 70
     0
  3

 62
   256
 51
90.0
 52
90.0
 71
     2
 49
0.5
 62
   256
  6
BYLAYER
 49
-0.5
 62
   256
  6
BYLAYER
  0
ACDBPLACEHOLDER
  5
F
102
{ACAD_REACTORS
330
E
102
}
330
E
  0
DICTIONARYVAR
  5
4C7
102
{ACAD_REACTORS
330
4C6
102
}
330
4C6
100
DictionaryVariables
280
     0
  1
1
  0
ENDSEC
  0
EOF
