  0
SECTION
  2
HEADER
  9
$ACADVER
  1
AC1014
  9
$ACADMAINTVER
 70
     9
  9
$DWGCODEPAGE
  3
ANSI_1252
  9
$INSBASE
 10
0.0
 20
0.0
 30
0.0
  9
$EXTMIN
 10
-0.0000000000000014
 20
0.165000000000022
 30
0.0
  9
$EXTMAX
 10
534.0
 20
1638.835
 30
0.0
  9
$LIMMIN
 10
0.0
 20
0.0
  9
$LIMMAX
 10
12.0
 20
9.0
  9
$ORTHOMODE
 70
     0
  9
$REGENMODE
 70
     1
  9
$FILLMODE
 70
     1
  9
$QTEXTMODE
 70
     0
  9
$MIRRTEXT
 70
     1
  9
$DRAGMODE
 70
     2
  9
$LTSCALE
 40
1.0
  9
$OSMODE
 70
    37
  9
$ATTMODE
 70
     1
  9
$TEXTSIZE
 40
0.2
  9
$TRACEWID
 40
0.05
  9
$TEXTSTYLE
  7
STANDARD
  9
$CLAYER
  8
0
  9
$CELTYPE
  6
CONTINUOUS
  9
$CECOLOR
 62
   256
  9
$CELTSCALE
 40
1.0
  9
$DELOBJ
 70
     1
  9
$DISPSILH
 70
     0
  9
$DIMSCALE
 40
1.0
  9
$DIMASZ
 40
0.18
  9
$DIMEXO
 40
0.0625
  9
$DIMDLI
 40
0.38
  9
$DIMRND
 40
0.0
  9
$DIMDLE
 40
0.0
  9
$DIMEXE
 40
0.18
  9
$DIMTP
 40
0.0
  9
$DIMTM
 40
0.0
  9
$DIMTXT
 40
0.18
  9
$DIMCEN
 40
0.09
  9
$DIMTSZ
 40
0.0
  9
$DIMTOL
 70
     0
  9
$DIMLIM
 70
     0
  9
$DIMTIH
 70
     1
  9
$DIMTOH
 70
     1
  9
$DIMSE1
 70
     0
  9
$DIMSE2
 70
     0
  9
$DIMTAD
 70
     0
  9
$DIMZIN
 70
     0
  9
$DIMBLK
  1

  9
$DIMASO
 70
     1
  9
$DIMSHO
 70
     1
  9
$DIMPOST
  1

  9
$DIMAPOST
  1

  9
$DIMALT
 70
     0
  9
$DIMALTD
 70
     2
  9
$DIMALTF
 40
25.4
  9
$DIMLFAC
 40
1.0
  9
$DIMTOFL
 70
     0
  9
$DIMTVP
 40
0.0
  9
$DIMTIX
 70
     0
  9
$DIMSOXD
 70
     0
  9
$DIMSAH
 70
     0
  9
$DIMBLK1
  1

  9
$DIMBLK2
  1

  9
$DIMSTYLE
  2
STANDARD
  9
$DIMCLRD
 70
     0
  9
$DIMCLRE
 70
     0
  9
$DIMCLRT
 70
     0
  9
$DIMTFAC
 40
1.0
  9
$DIMGAP
 40
0.09
  9
$DIMJUST
 70
     0
  9
$DIMSD1
 70
     0
  9
$DIMSD2
 70
     0
  9
$DIMTOLJ
 70
     1
  9
$DIMTZIN
 70
     0
  9
$DIMALTZ
 70
     0
  9
$DIMALTTZ
 70
     0
  9
$DIMFIT
 70
     3
  9
$DIMUPT
 70
     0
  9
$DIMUNIT
 70
     2
  9
$DIMDEC
 70
     4
  9
$DIMTDEC
 70
     4
  9
$DIMALTU
 70
     2
  9
$DIMALTTD
 70
     2
  9
$DIMTXSTY
  7
STANDARD
  9
$DIMAUNIT
 70
     0
  9
$LUNITS
 70
     2
  9
$LUPREC
 70
     4
  9
$SKETCHINC
 40
0.1
  9
$FILLETRAD
 40
0.0
  9
$AUNITS
 70
     0
  9
$AUPREC
 70
     0
  9
$MENU
  1
.
  9
$ELEVATION
 40
0.0
  9
$PELEVATION
 40
0.0
  9
$THICKNESS
 40
0.0
  9
$LIMCHECK
 70
     0
  9
$BLIPMODE
 70
     0
  9
$CHAMFERA
 40
0.0
  9
$CHAMFERB
 40
0.0
  9
$CHAMFERC
 40
0.0
  9
$CHAMFERD
 40
0.0
  9
$SKPOLY
 70
     0
  9
$TDCREATE
 40
2454688.700362592
  9
$TDUPDATE
 40
2454688.701977176
  9
$TDINDWG
 40
0.0016147569
  9
$TDUSRTIMER
 40
0.0016147569
  9
$USRTIMER
 70
     1
  9
$ANGBASE
 50
0.0
  9
$ANGDIR
 70
     0
  9
$PDMODE
 70
     0
  9
$PDSIZE
 40
0.0
  9
$PLINEWID
 40
0.0
  9
$COORDS
 70
     1
  9
$SPLFRAME
 70
     0
  9
$SPLINETYPE
 70
     6
  9
$SPLINESEGS
 70
     8
  9
$ATTDIA
 70
     0
  9
$ATTREQ
 70
     1
  9
$HANDLING
 70
 22529
  9
$HANDSEED
  5
7D5
  9
$SURFTAB1
 70
     6
  9
$SURFTAB2
 70
     6
  9
$SURFTYPE
 70
     6
  9
$SURFU
 70
     6
  9
$SURFV
 70
     6
  9
$UCSNAME
  2

  9
$UCSORG
 10
0.0
 20
0.0
 30
0.0
  9
$UCSXDIR
 10
1.0
 20
0.0
 30
0.0
  9
$UCSYDIR
 10
0.0
 20
1.0
 30
0.0
  9
$PUCSNAME
  2

  9
$PUCSORG
 10
0.0
 20
0.0
 30
0.0
  9
$PUCSXDIR
 10
1.0
 20
0.0
 30
0.0
  9
$PUCSYDIR
 10
0.0
 20
1.0
 30
0.0
  9
$USERI1
 70
     0
  9
$USERI2
 70
     0
  9
$USERI3
 70
     0
  9
$USERI4
 70
     0
  9
$USERI5
 70
     0
  9
$USERR1
 40
0.0
  9
$USERR2
 40
0.0
  9
$USERR3
 40
0.0
  9
$USERR4
 40
0.0
  9
$USERR5
 40
0.0
  9
$WORLDVIEW
 70
     1
  9
$SHADEDGE
 70
     3
  9
$SHADEDIF
 70
    70
  9
$TILEMODE
 70
     1
  9
$MAXACTVP
 70
    64
  9
$PINSBASE
 10
0.0
 20
0.0
 30
0.0
  9
$PLIMCHECK
 70
     0
  9
$PEXTMIN
 10
1.000000000000000E+20
 20
1.000000000000000E+20
 30
1.000000000000000E+20
  9
$PEXTMAX
 10
-1.000000000000000E+20
 20
-1.000000000000000E+20
 30
-1.000000000000000E+20
  9
$PLIMMIN
 10
0.0
 20
0.0
  9
$PLIMMAX
 10
12.0
 20
9.0
  9
$UNITMODE
 70
     0
  9
$VISRETAIN
 70
     1
  9
$PLINEGEN
 70
     0
  9
$PSLTSCALE
 70
     1
  9
$TREEDEPTH
 70
  3020
  9
$PICKSTYLE
 70
     1
  9
$CMLSTYLE
  2
STANDARD
  9
$CMLJUST
 70
     0
  9
$CMLSCALE
 40
1.0
  9
$PROXYGRAPHICS
 70
     1
  9
$MEASUREMENT
 70
     0
  0
ENDSEC
  0
SECTION
  2
CLASSES
  0
CLASS
  1
ACDBDICTIONARYWDFLT
  2
AcDbDictionaryWithDefault
  3
AutoCAD 2000
 90
        0
280
     0
281
     0
  0
CLASS
  1
ACDBPLACEHOLDER
  2
AcDbPlaceHolder
  3
AutoCAD 2000
 90
        0
280
     0
281
     0
  0
CLASS
  1
LAYOUT
  2
AcDbLayout
  3
AutoCAD 2000
 90
        0
280
     0
281
     0
  0
CLASS
  1
DICTIONARYVAR
  2
AcDbDictionaryVar
  3
AutoCAD 2000
 90
        0
280
     0
281
     0
  0
CLASS
  1
LONG_TRANSACTION
  2
AcDbLongTransaction
  3
AutoCAD 2000
 90
        0
280
     0
281
     0
  0
CLASS
  1
LWPOLYLINE
  2
AcDbPolyline
  3
AutoCAD 2000
 90
        0
280
     0
281
     1
  0
CLASS
  1
HATCH
  2
AcDbHatch
  3
AutoCAD 2000
 90
        0
280
     0
281
     1
  0
CLASS
  1
XRECORD
  2
AcDbXrecord
  3
AutoCAD 2000
 90
        0
280
     0
281
     0
  0
ENDSEC
  0
SECTION
  2
TABLES
  0
TABLE
  2
VPORT
  5
8
330
0
100
AcDbSymbolTable
 70
     2
  0
VPORT
  5
7B0
330
8
100
AcDbSymbolTableRecord
100
AcDbViewportTableRecord
  2
*ACTIVE
 70
     0
 10
0.0
 20
0.0
 11
1.0
 21
1.0
 12
267.0
 22
819.5000000000002
 13
0.0
 23
0.0
 14
1.0
 24
1.0
 15
0.0
 25
0.0
 16
0.0
 26
0.0
 36
1.0
 17
0.0
 27
0.0
 37
0.0
 40
1651.242915601023
 41
2.043533930857874
 42
50.0
 43
0.0
 44
0.0
 50
0.0
 51
0.0
 71
     0
 72
   100
 73
     1
 74
     3
 75
     0
 76
     0
 77
     0
 78
     0
  0
ENDTAB
  0
TABLE
  2
LTYPE
  5
5
330
0
100
AcDbSymbolTable
 70
     1
  0
LTYPE
  5
13
330
5
100
AcDbSymbolTableRecord
100
AcDbLinetypeTableRecord
  2
BYBLOCK
 70
     0
  3

 72
    65
 73
     0
 40
0.0
  0
LTYPE
  5
14
330
5
100
AcDbSymbolTableRecord
100
AcDbLinetypeTableRecord
  2
BYLAYER
 70
     0
  3

 72
    65
 73
     0
 40
0.0
  0
LTYPE
  5
15
330
5
100
AcDbSymbolTableRecord
100
AcDbLinetypeTableRecord
  2
CONTINUOUS
 70
     0
  3
Solid line
 72
    65
 73
     0
 40
0.0
  0
ENDTAB
  0
TABLE
  2
LAYER
  5
2
330
0
100
AcDbSymbolTable
 70
     1
  0
LAYER
  5
10
330
2
100
AcDbSymbolTableRecord
100
AcDbLayerTableRecord
  2
0
 70
     0
 62
     7
  6
CONTINUOUS
  0
ENDTAB
  0
TABLE
  2
STYLE
  5
3
330
0
100
AcDbSymbolTable
 70
     1
  0
STYLE
  5
11
330
3
100
AcDbSymbolTableRecord
100
AcDbTextStyleTableRecord
  2
STANDARD
 70
     0
 40
0.0
 41
1.0
 50
0.0
 71
     0
 42
0.2
  3
txt
  4

  0
ENDTAB
  0
TABLE
  2
VIEW
  5
6
330
0
100
AcDbSymbolTable
 70
     0
  0
ENDTAB
  0
TABLE
  2
UCS
  5
7
330
0
100
AcDbSymbolTable
 70
     0
  0
ENDTAB
  0
TABLE
  2
APPID
  5
9
330
0
100
AcDbSymbolTable
 70
     1
  0
APPID
  5
12
330
9
100
AcDbSymbolTableRecord
100
AcDbRegAppTableRecord
  2
ACAD
 70
     0
  0
ENDTAB
  0
TABLE
  2
DIMSTYLE
  5
A
330
0
100
AcDbSymbolTable
 70
     1
  0
DIMSTYLE
105
7AA
330
A
100
AcDbSymbolTableRecord
100
AcDbDimStyleTableRecord
  2
STANDARD
 70
     0
  3

  4

  5

  6

  7

 40
1.0
 41
0.18
 42
0.0625
 43
0.38
 44
0.18
 45
0.0
 46
0.0
 47
0.0
 48
0.0
140
0.18
141
0.09
142
0.0
143
25.4
144
1.0
145
0.0
146
1.0
147
0.09
 71
     0
 72
     0
 73
     1
 74
     1
 75
     0
 76
     0
 77
     0
 78
     0
170
     0
171
     2
172
     0
173
     0
174
     0
175
     0
176
     0
177
     0
178
     0
270
     2
271
     4
272
     4
273
     2
274
     2
340
11
275
     0
280
     0
281
     0
282
     0
283
     1
284
     0
285
     0
286
     0
287
     3
288
     0
  0
ENDTAB
  0
TABLE
  2
BLOCK_RECORD
  5
1
330
0
100
AcDbSymbolTable
 70
     0
  0
BLOCK_RECORD
  5
1E
102
{ACAD_XDICTIONARY
360
7D3
102
}
330
1
100
AcDbSymbolTableRecord
100
AcDbBlockTableRecord
  2
*MODEL_SPACE
  0
BLOCK_RECORD
  5
1A
102
{ACAD_XDICTIONARY
360
7D1
102
}
330
1
100
AcDbSymbolTableRecord
100
AcDbBlockTableRecord
  2
*PAPER_SPACE
  0
ENDTAB
  0
ENDSEC
  0
SECTION
  2
BLOCKS
  0
BLOCK
  5
1F
330
1E
100
AcDbEntity
  8
0
100
AcDbBlockBegin
  2
*MODEL_SPACE
 70
     0
 10
0.0
 20
0.0
 30
0.0
  3
*MODEL_SPACE
  1

  0
ENDBLK
  5
20
330
1E
100
AcDbEntity
  8
0
100
AcDbBlockEnd
  0
BLOCK
  5
1B
330
1A
100
AcDbEntity
 67
     1
  8
0
100
AcDbBlockBegin
  2
*PAPER_SPACE
 70
     0
 10
0.0
 20
0.0
 30
0.0
  3
*PAPER_SPACE
  1

  0
ENDBLK
  5
1C
330
1A
100
AcDbEntity
 67
     1
  8
0
100
AcDbBlockEnd
  0
ENDSEC
  0
SECTION
  2
ENTITIES
  0
LINE
  5
22
330
1E
100
AcDbEntity
  8
0
100
AcDbLine
 10
470.5519999999999
 20
0.711000000000014
 30
0.0
 11
473.064
 21
2.466000000000009
 31
0.0
  0
LINE
  5
23
330
1E
100
AcDbEntity
  8
0
100
AcDbLine
 10
470.5519999999999
 20
0.711000000000014
 30
0.0
 11
473.064
 21
2.466000000000009
 31
0.0
  0
LINE
  5
24
330
1E
100
AcDbEntity
  8
0
100
AcDbLine
 10
467.466
 20
0.165000000000022
 30
0.0
 11
470.5519999999999
 21
0.711000000000014
 31
0.0
  0
LINE
  5
25
330
1E
100
AcDbEntity
  8
0
100
AcDbLine
 10
421.0
 20
337.8349999999999
 30
0.0
 11
421.0
 21
341.8349999999999
 31
0.0
  0
LINE
  5
26
330
1E
100
AcDbEntity
  8
0
100
AcDbLine
 10
421.0
 20
337.8349999999999
 30
0.0
 11
421.4999999999999
 21
338.335
 31
0.0
  0
LINE
  5
27
330
1E
100
AcDbEntity
  8
0
100
AcDbLine
 10
421.0
 20
337.8349999999999
 30
0.0
 11
435.5624999999999
 21
337.8349999999999
 31
0.0
  0
LINE
  5
28
330
1E
100
AcDbEntity
  8
0
100
AcDbLine
 10
421.0
 20
341.8349999999999
 30
0.0
 11
421.0
 21
337.8349999999999
 31
0.0
  0
LINE
  5
29
330
1E
100
AcDbEntity
  8
0
100
AcDbLine
 10
421.0
 20
341.8349999999999
 30
0.0
 11
421.0
 21
345.8349999999999
 31
0.0
  0
LINE
  5
2A
330
1E
100
AcDbEntity
  8
0
100
AcDbLine
 10
421.4999999999999
 20
341.8349999999999
 30
0.0
 11
421.4999999999999
 21
338.335
 31
0.0
  0
LINE
  5
2B
330
1E
100
AcDbEntity
  8
0
100
AcDbLine
 10
421.4999999999999
 20
341.8349999999999
 30
0.0
 11
421.4999999999999
 21
345.3349999999999
 31
0.0
  0
LINE
  5
2C
330
1E
100
AcDbEntity
  8
0
100
AcDbLine
 10
421.4999999999999
 20
338.335
 30
0.0
 11
421.4999999999999
 21
341.8349999999999
 31
0.0
  0
LINE
  5
2D
330
1E
100
AcDbEntity
  8
0
100
AcDbLine
 10
421.4999999999999
 20
338.335
 30
0.0
 11
435.4921875
 21
338.335
 31
0.0
  0
LINE
  5
2E
330
1E
100
AcDbEntity
  8
0
100
AcDbLine
 10
435.7559999999999
 20
336.459
 30
0.0
 11
437.772
 21
331.419
 31
0.0
  0
LINE
  5
2F
330
1E
100
AcDbEntity
  8
0
100
AcDbLine
 10
435.504
 20
341.8349999999999
 30
0.0
 11
436.2599999999999
 21
347.1269999999999
 31
0.0
  0
LINE
  5
30
330
1E
100
AcDbEntity
  8
0
100
AcDbLine
 10
435.504
 20
341.8349999999999
 30
0.0
 11
436.2599999999999
 21
336.5429999999999
 31
0.0
  0
LINE
  5
31
330
1E
100
AcDbEntity
  8
0
100
AcDbLine
 10
421.0
 20
345.8349999999999
 30
0.0
 11
421.4999999999999
 21
345.3349999999999
 31
0.0
  0
LINE
  5
32
330
1E
100
AcDbEntity
  8
0
100
AcDbLine
 10
421.0
 20
345.8349999999999
 30
0.0
 11
435.5624999999999
 21
345.8349999999999
 31
0.0
  0
LINE
  5
33
330
1E
100
AcDbEntity
  8
0
100
AcDbLine
 10
421.0
 20
345.8349999999999
 30
0.0
 11
421.0
 21
341.8349999999999
 31
0.0
  0
LINE
  5
34
330
1E
100
AcDbEntity
  8
0
100
AcDbLine
 10
421.4999999999999
 20
345.3349999999999
 30
0.0
 11
435.4921875
 21
345.3349999999999
 31
0.0
  0
LINE
  5
35
330
1E
100
AcDbEntity
  8
0
100
AcDbLine
 10
421.4999999999999
 20
345.3349999999999
 30
0.0
 11
421.4999999999999
 21
341.8349999999999
 31
0.0
  0
LINE
  5
36
330
1E
100
AcDbEntity
  8
0
100
AcDbLine
 10
435.0
 20
341.8349999999999
 30
0.0
 11
435.7559999999999
 21
347.211
 31
0.0
  0
LINE
  5
37
330
1E
100
AcDbEntity
  8
0
100
AcDbLine
 10
435.0
 20
341.8349999999999
 30
0.0
 11
435.7559999999999
 21
336.459
 31
0.0
  0
LINE
  5
38
330
1E
100
AcDbEntity
  8
0
100
AcDbLine
 10
436.2599999999999
 20
336.5429999999999
 30
0.0
 11
438.276
 21
331.671
 31
0.0
  0
LINE
  5
39
330
1E
100
AcDbEntity
  8
0
100
AcDbLine
 10
437.5200000000019
 20
351.621000000006
 30
0.0
 11
437.8
 21
352.3349999999999
 31
0.0
  0
LINE
  5
3A
330
1E
100
AcDbEntity
  8
0
100
AcDbLine
 10
437.5200000000019
 20
332.0489999999949
 30
0.0
 11
437.8
 21
331.3349999999999
 31
0.0
  0
LINE
  5
3B
330
1E
100
AcDbEntity
  8
0
100
AcDbLine
 10
437.8
 20
331.3349999999999
 30
0.0
 11
438.577853658536
 21
330.3512439024399
 31
0.0
  0
LINE
  5
3C
330
1E
100
AcDbEntity
  8
0
100
AcDbLine
 10
438.276
 20
331.671
 30
0.0
 11
441.5519999999999
 21
327.387
 31
0.0
  0
LINE
  5
3D
330
1E
100
AcDbEntity
  8
0
100
AcDbLine
 10
437.772
 20
331.419
 30
0.0
 11
441.1319999999999
 21
326.967
 31
0.0
  0
LINE
  5
3E
330
1E
100
AcDbEntity
  8
0
100
AcDbLine
 10
441.1319999999999
 20
326.967
 30
0.0
 11
445.584
 21
323.607
 31
0.0
  0
LINE
  5
3F
330
1E
100
AcDbEntity
  8
0
100
AcDbLine
 10
441.1319999999999
 20
326.967
 30
0.0
 11
444.5162439024379
 21
324.4128536585369
 31
0.0
  0
LINE
  5
40
330
1E
100
AcDbEntity
  8
0
100
AcDbLine
 10
436.2599999999999
 20
347.1269999999999
 30
0.0
 11
438.276
 21
351.999
 31
0.0
  0
LINE
  5
41
330
1E
100
AcDbEntity
  8
0
100
AcDbLine
 10
438.276
 20
351.999
 30
0.0
 11
441.5519999999999
 21
356.283
 31
0.0
  0
LINE
  5
42
330
1E
100
AcDbEntity
  8
0
100
AcDbLine
 10
435.7559999999999
 20
347.211
 30
0.0
 11
437.772
 21
352.251
 31
0.0
  0
LINE
  5
43
330
1E
100
AcDbEntity
  8
0
100
AcDbLine
 10
437.8
 20
352.3349999999999
 30
0.0
 11
438.577853658536
 21
353.31875609756
 31
0.0
  0
LINE
  5
44
330
1E
100
AcDbEntity
  8
0
100
AcDbLine
 10
437.772
 20
352.251
 30
0.0
 11
441.1319999999999
 21
356.703
 31
0.0
  0
LINE
  5
45
330
1E
100
AcDbEntity
  8
0
100
AcDbLine
 10
441.5519999999999
 20
327.387
 30
0.0
 11
445.8359999999999
 21
324.1109999999999
 31
0.0
  0
LINE
  5
46
330
1E
100
AcDbEntity
  8
0
100
AcDbLine
 10
445.216
 20
323.1791999999999
 30
0.0
 11
446.316
 21
323.1791999999999
 31
0.0
  0
LINE
  5
47
330
1E
100
AcDbEntity
  8
0
100
AcDbLine
 10
444.8159999999999
 20
323.1791999999999
 30
0.0
 11
445.8159999999999
 21
293.1791999999999
 31
0.0
  0
LINE
  5
48
330
1E
100
AcDbEntity
  8
0
100
AcDbLine
 10
444.8159999999999
 20
323.1791999999999
 30
0.0
 11
445.216
 21
323.1791999999999
 31
0.0
  0
LINE
  5
49
330
1E
100
AcDbEntity
  8
0
100
AcDbLine
 10
445.8159999999999
 20
293.1791999999999
 30
0.0
 11
446.2159999999999
 21
293.1791999999999
 31
0.0
  0
LINE
  5
4A
330
1E
100
AcDbEntity
  8
0
100
AcDbLine
 10
446.0
 20
323.1791999999999
 30
0.0
 11
446.0
 21
323.4389215686269
 31
0.0
  0
LINE
  5
4B
330
1E
100
AcDbEntity
  8
0
100
AcDbLine
 10
446.2159999999999
 20
293.1791999999999
 30
0.0
 11
447.216
 21
293.1791999999999
 31
0.0
  0
LINE
  5
4C
330
1E
100
AcDbEntity
  8
0
100
AcDbLine
 10
446.316
 20
323.1791999999999
 30
0.0
 11
446.6535
 21
323.1791999999999
 31
0.0
  0
LINE
  5
4D
330
1E
100
AcDbEntity
  8
0
100
AcDbLine
 10
447.216
 20
293.1791999999999
 30
0.0
 11
448.437298751558
 21
293.1791999999999
 31
0.0
  0
LINE
  5
4E
330
1E
100
AcDbEntity
  8
0
100
AcDbLine
 10
447.216
 20
293.1791999999999
 30
0.0
 11
448.916
 21
293.1791999999999
 31
0.0
  0
LINE
  5
4F
330
1E
100
AcDbEntity
  8
0
100
AcDbLine
 10
446.0
 20
323.4389215686269
 30
0.0
 11
446.0
 21
323.1791999999999
 31
0.0
  0
LINE
  5
50
330
1E
100
AcDbEntity
  8
0
100
AcDbLine
 10
444.5162439024379
 20
359.257146341463
 30
0.0
 11
445.5
 21
360.035
 31
0.0
  0
LINE
  5
51
330
1E
100
AcDbEntity
  8
0
100
AcDbLine
 10
444.5162439024379
 20
324.4128536585369
 30
0.0
 11
445.5
 21
323.6349999999999
 31
0.0
  0
LINE
  5
52
330
1E
100
AcDbEntity
  8
0
100
AcDbLine
 10
445.5
 20
323.6349999999999
 30
0.0
 11
446.0
 21
323.4389215686269
 31
0.0
  0
LINE
  5
53
330
1E
100
AcDbEntity
  8
0
100
AcDbLine
 10
445.5
 20
323.6349999999999
 30
0.0
 11
446.2140000000039
 21
323.354999999998
 31
0.0
  0
LINE
  5
54
330
1E
100
AcDbEntity
  8
0
100
AcDbLine
 10
445.8359999999999
 20
324.1109999999999
 30
0.0
 11
450.708
 21
322.095
 31
0.0
  0
LINE
  5
55
330
1E
100
AcDbEntity
  8
0
100
AcDbLine
 10
445.584
 20
323.607
 30
0.0
 11
450.624
 21
321.591
 31
0.0
  0
LINE
  5
56
330
1E
100
AcDbEntity
  8
0
100
AcDbLine
 10
441.5519999999999
 20
356.283
 30
0.0
 11
445.8359999999999
 21
359.559
 31
0.0
  0
LINE
  5
57
330
1E
100
AcDbEntity
  8
0
100
AcDbLine
 10
445.5
 20
360.035
 30
0.0
 11
446.2140000000039
 21
360.3150000000019
 31
0.0
  0
LINE
  5
58
330
1E
100
AcDbEntity
  8
0
100
AcDbLine
 10
445.8359999999999
 20
359.559
 30
0.0
 11
450.708
 21
361.5749999999999
 31
0.0
  0
LINE
  5
59
330
1E
100
AcDbEntity
  8
0
100
AcDbLine
 10
441.1319999999999
 20
356.703
 30
0.0
 11
445.584
 21
360.063
 31
0.0
  0
LINE
  5
5A
330
1E
100
AcDbEntity
  8
0
100
AcDbLine
 10
441.1319999999999
 20
356.703
 30
0.0
 11
444.5162439024379
 21
359.257146341463
 31
0.0
  0
LINE
  5
5B
330
1E
100
AcDbEntity
  8
0
100
AcDbLine
 10
445.584
 20
360.063
 30
0.0
 11
450.624
 21
362.0789999999999
 31
0.0
  0
LINE
  5
5C
330
1E
100
AcDbEntity
  8
0
100
AcDbLine
 10
448.239
 20
145.6029999999999
 30
0.0
 11
448.285
 21
123.2189999999999
 31
0.0
  0
LINE
  5
5D
330
1E
100
AcDbEntity
  8
0
100
AcDbLine
 10
448.239
 20
145.6029999999999
 30
0.0
 11
448.437298751558
 21
293.1791999999999
 31
0.0
  0
LINE
  5
5E
330
1E
100
AcDbEntity
  8
0
100
AcDbLine
 10
448.285
 20
123.2189999999999
 30
0.0
 11
448.594
 21
100.834
 31
0.0
  0
LINE
  5
5F
330
1E
100
AcDbEntity
  8
0
100
AcDbLine
 10
448.916
 20
293.1791999999999
 30
0.0
 11
451.116
 21
293.1791999999999
 31
0.0
  0
LINE
  5
60
330
1E
100
AcDbEntity
  8
0
100
AcDbLine
 10
448.594
 20
100.834
 30
0.0
 11
449.359
 21
78.35000000000009
 31
0.0
  0
LINE
  5
61
330
1E
100
AcDbEntity
  8
0
100
AcDbLine
 10
449.359
 20
78.35000000000009
 30
0.0
 11
450.294
 21
58.3640000000001
 31
0.0
  0
LINE
  5
62
330
1E
100
AcDbEntity
  8
0
100
AcDbLine
 10
450.708
 20
322.095
 30
0.0
 11
456.0
 21
321.3389999999999
 31
0.0
  0
LINE
  5
63
330
1E
100
AcDbEntity
  8
0
100
AcDbLine
 10
450.624
 20
321.591
 30
0.0
 11
456.0
 21
320.8349999999999
 31
0.0
  0
LINE
  5
64
330
1E
100
AcDbEntity
  8
0
100
AcDbLine
 10
451.116
 20
293.1791999999999
 30
0.0
 11
453.6159999999999
 21
293.1791999999999
 31
0.0
  0
LINE
  5
65
330
1E
100
AcDbEntity
  8
0
100
AcDbLine
 10
450.708
 20
361.5749999999999
 30
0.0
 11
456.0
 21
362.3309999999999
 31
0.0
  0
LINE
  5
66
330
1E
100
AcDbEntity
  8
0
100
AcDbLine
 10
452.0
 20
376.8349999999999
 30
0.0
 11
452.5
 21
376.3349999999999
 31
0.0
  0
LINE
  5
67
330
1E
100
AcDbEntity
  8
0
100
AcDbLine
 10
452.0
 20
376.8349999999999
 30
0.0
 11
456.0
 21
376.8349999999999
 31
0.0
  0
LINE
  5
68
330
1E
100
AcDbEntity
  8
0
100
AcDbLine
 10
452.0
 20
376.8349999999999
 30
0.0
 11
452.0
 21
362.2724999999999
 31
0.0
  0
LINE
  5
69
330
1E
100
AcDbEntity
  8
0
100
AcDbLine
 10
452.0
 20
362.2724999999999
 30
0.0
 11
452.0
 21
366.459
 31
0.0
  0
LINE
  5
6A
330
1E
100
AcDbEntity
  8
0
100
AcDbLine
 10
452.0
 20
362.2724999999999
 30
0.0
 11
452.0
 21
376.8349999999999
 31
0.0
  0
LINE
  5
6B
330
1E
100
AcDbEntity
  8
0
100
AcDbLine
 10
452.144
 20
366.459
 30
0.0
 11
452.528
 21
366.459
 31
0.0
  0
LINE
  5
6C
330
1E
100
AcDbEntity
  8
0
100
AcDbLine
 10
452.5
 20
366.5541999999999
 30
0.0
 11
452.5
 21
376.3349999999999
 31
0.0
  0
LINE
  5
6D
330
1E
100
AcDbEntity
  8
0
100
AcDbLine
 10
452.24
 20
366.5541999999999
 30
0.0
 11
452.624
 21
366.5541999999999
 31
0.0
  0
LINE
  5
6E
330
1E
100
AcDbEntity
  8
0
100
AcDbLine
 10
452.624
 20
366.5541999999999
 30
0.0
 11
453.248
 21
366.5541999999999
 31
0.0
  0
LINE
  5
6F
330
1E
100
AcDbEntity
  8
0
100
AcDbLine
 10
452.528
 20
366.459
 30
0.0
 11
453.168
 21
366.459
 31
0.0
  0
LINE
  5
70
330
1E
100
AcDbEntity
  8
0
100
AcDbLine
 10
453.248
 20
366.5541999999999
 30
0.0
 11
454.064
 21
366.5541999999999
 31
0.0
  0
LINE
  5
71
330
1E
100
AcDbEntity
  8
0
100
AcDbLine
 10
453.168
 20
366.459
 30
0.0
 11
454.0159999999999
 21
366.459
 31
0.0
  0
LINE
  5
72
330
1E
100
AcDbEntity
  8
0
100
AcDbLine
 10
452.5
 20
376.3349999999999
 30
0.0
 11
456.0
 21
376.3349999999999
 31
0.0
  0
LINE
  5
73
330
1E
100
AcDbEntity
  8
0
100
AcDbLine
 10
452.5
 20
376.3349999999999
 30
0.0
 11
452.5
 21
366.5541999999999
 31
0.0
  0
LINE
  5
74
330
1E
100
AcDbEntity
  8
0
100
AcDbLine
 10
452.096
 20
366.5541999999999
 30
0.0
 11
452.24
 21
366.5541999999999
 31
0.0
  0
LINE
  5
75
330
1E
100
AcDbEntity
  8
0
100
AcDbLine
 10
452.0
 20
366.459
 30
0.0
 11
452.0
 21
362.2724999999999
 31
0.0
  0
LINE
  5
76
330
1E
100
AcDbEntity
  8
0
100
AcDbLine
 10
452.0
 20
366.459
 30
0.0
 11
452.096
 21
366.5541999999999
 31
0.0
  0
LINE
  5
77
330
1E
100
AcDbEntity
  8
0
100
AcDbLine
 10
452.0
 20
366.459
 30
0.0
 11
452.144
 21
366.459
 31
0.0
  0
LINE
  5
78
330
1E
100
AcDbEntity
  8
0
100
AcDbLine
 10
450.624
 20
362.0789999999999
 30
0.0
 11
456.0
 21
362.8349999999999
 31
0.0
  0
LINE
  5
79
330
1E
100
AcDbEntity
  8
0
100
AcDbLine
 10
450.624
 20
362.0789999999999
 30
0.0
 11
452.0
 21
362.2724999999999
 31
0.0
  0
LINE
  5
7A
330
1E
100
AcDbEntity
  8
0
100
AcDbLine
 10
450.294
 20
58.3640000000001
 30
0.0
 11
451.719
 21
42.3750000000001
 31
0.0
  0
LINE
  5
7B
330
1E
100
AcDbEntity
  8
0
100
AcDbLine
 10
451.719
 20
42.3750000000001
 30
0.0
 11
453.608
 21
25.986
 31
0.0
  0
LINE
  5
7C
330
1E
100
AcDbEntity
  8
0
100
AcDbLine
 10
453.6159999999999
 20
293.1791999999999
 30
0.0
 11
456.3159999999999
 21
293.1791999999999
 31
0.0
  0
LINE
  5
7D
330
1E
100
AcDbEntity
  8
0
100
AcDbLine
 10
456.0
 20
362.3309999999999
 30
0.0
 11
461.2919999999999
 21
361.5749999999999
 31
0.0
  0
LINE
  5
7E
330
1E
100
AcDbEntity
  8
0
100
AcDbLine
 10
454.064
 20
366.5541999999999
 30
0.0
 11
454.9919999999999
 21
366.5541999999999
 31
0.0
  0
LINE
  5
7F
330
1E
100
AcDbEntity
  8
0
100
AcDbLine
 10
454.0159999999999
 20
366.459
 30
0.0
 11
454.976
 21
366.459
 31
0.0
  0
LINE
  5
80
330
1E
100
AcDbEntity
  8
0
100
AcDbLine
 10
454.9919999999999
 20
366.5541999999999
 30
0.0
 11
456.0
 21
366.5541999999999
 31
0.0
  0
LINE
  5
81
330
1E
100
AcDbEntity
  8
0
100
AcDbLine
 10
454.976
 20
366.459
 30
0.0
 11
456.0
 21
366.459
 31
0.0
  0
LINE
  5
82
330
1E
100
AcDbEntity
  8
0
100
AcDbLine
 10
456.0
 20
376.8349999999999
 30
0.0
 11
460.0
 21
376.8349999999999
 31
0.0
  0
LINE
  5
83
330
1E
100
AcDbEntity
  8
0
100
AcDbLine
 10
456.0
 20
376.3349999999999
 30
0.0
 11
459.4999999999999
 21
376.3349999999999
 31
0.0
  0
LINE
  5
84
330
1E
100
AcDbEntity
  8
0
100
AcDbLine
 10
456.0
 20
366.5541999999999
 30
0.0
 11
457.008
 21
366.5541999999999
 31
0.0
  0
LINE
  5
85
330
1E
100
AcDbEntity
  8
0
100
AcDbLine
 10
456.0
 20
366.459
 30
0.0
 11
457.024
 21
366.459
 31
0.0
  0
LINE
  5
86
330
1E
100
AcDbEntity
  8
0
100
AcDbLine
 10
456.0
 20
362.8349999999999
 30
0.0
 11
461.376
 21
362.0789999999999
 31
0.0
  0
LINE
  5
87
330
1E
100
AcDbEntity
  8
0
100
AcDbLine
 10
456.0
 20
321.3389999999999
 30
0.0
 11
461.2919999999999
 21
322.095
 31
0.0
  0
LINE
  5
88
330
1E
100
AcDbEntity
  8
0
100
AcDbLine
 10
456.0
 20
320.8349999999999
 30
0.0
 11
461.376
 21
321.591
 31
0.0
  0
LINE
  5
89
330
1E
100
AcDbEntity
  8
0
100
AcDbLine
 10
453.608
 20
25.986
 30
0.0
 11
453.9719999999999
 21
23.278
 31
0.0
  0
LINE
  5
8A
330
1E
100
AcDbEntity
  8
0
100
AcDbLine
 10
453.9719999999999
 20
23.278
 30
0.0
 11
456.0119999999999
 21
13.585
 31
0.0
  0
LINE
  5
8B
330
1E
100
AcDbEntity
  8
0
100
AcDbLine
 10
456.3159999999999
 20
293.1791999999999
 30
0.0
 11
459.016
 21
293.1791999999999
 31
0.0
  0
LINE
  5
8C
330
1E
100
AcDbEntity
  8
0
100
AcDbLine
 10
459.016
 20
293.1791999999999
 30
0.0
 11
461.5159999999999
 21
293.1791999999999
 31
0.0
  0
LINE
  5
8D
330
1E
100
AcDbEntity
  8
0
100
AcDbLine
 10
460.0
 20
362.2724999999999
 30
0.0
 11
460.0
 21
366.459
 31
0.0
  0
LINE
  5
8E
330
1E
100
AcDbEntity
  8
0
100
AcDbLine
 10
459.8559999999999
 20
366.459
 30
0.0
 11
460.0
 21
366.459
 31
0.0
  0
LINE
  5
8F
330
1E
100
AcDbEntity
  8
0
100
AcDbLine
 10
460.0
 20
366.459
 30
0.0
 11
460.0
 21
362.2724999999999
 31
0.0
  0
LINE
  5
90
330
1E
100
AcDbEntity
  8
0
100
AcDbLine
 10
460.0
 20
366.459
 30
0.0
 11
460.0
 21
376.8349999999999
 31
0.0
  0
LINE
  5
91
330
1E
100
AcDbEntity
  8
0
100
AcDbLine
 10
459.4719999999999
 20
366.459
 30
0.0
 11
459.8559999999999
 21
366.459
 31
0.0
  0
LINE
  5
92
330
1E
100
AcDbEntity
  8
0
100
AcDbLine
 10
458.832
 20
366.459
 30
0.0
 11
459.4719999999999
 21
366.459
 31
0.0
  0
LINE
  5
93
330
1E
100
AcDbEntity
  8
0
100
AcDbLine
 10
457.984
 20
366.459
 30
0.0
 11
458.832
 21
366.459
 31
0.0
  0
LINE
  5
94
330
1E
100
AcDbEntity
  8
0
100
AcDbLine
 10
459.4999999999999
 20
366.5541999999999
 30
0.0
 11
459.4999999999999
 21
376.3349999999999
 31
0.0
  0
LINE
  5
95
330
1E
100
AcDbEntity
  8
0
100
AcDbLine
 10
459.7599999999999
 20
366.5541999999999
 30
0.0
 11
459.904
 21
366.5541999999999
 31
0.0
  0
LINE
  5
96
330
1E
100
AcDbEntity
  8
0
100
AcDbLine
 10
459.904
 20
366.5541999999999
 30
0.0
 11
460.0
 21
366.459
 31
0.0
  0
LINE
  5
97
330
1E
100
AcDbEntity
  8
0
100
AcDbLine
 10
459.3759999999999
 20
366.5541999999999
 30
0.0
 11
459.7599999999999
 21
366.5541999999999
 31
0.0
  0
LINE
  5
98
330
1E
100
AcDbEntity
  8
0
100
AcDbLine
 10
458.7519999999999
 20
366.5541999999999
 30
0.0
 11
459.3759999999999
 21
366.5541999999999
 31
0.0
  0
LINE
  5
99
330
1E
100
AcDbEntity
  8
0
100
AcDbLine
 10
460.0
 20
376.8349999999999
 30
0.0
 11
460.0
 21
366.459
 31
0.0
  0
LINE
  5
9A
330
1E
100
AcDbEntity
  8
0
100
AcDbLine
 10
459.4999999999999
 20
376.3349999999999
 30
0.0
 11
459.4999999999999
 21
366.5541999999999
 31
0.0
  0
LINE
  5
9B
330
1E
100
AcDbEntity
  8
0
100
AcDbLine
 10
459.4999999999999
 20
376.3349999999999
 30
0.0
 11
460.0
 21
376.8349999999999
 31
0.0
  0
LINE
  5
9C
330
1E
100
AcDbEntity
  8
0
100
AcDbLine
 10
457.936
 20
366.5541999999999
 30
0.0
 11
458.7519999999999
 21
366.5541999999999
 31
0.0
  0
LINE
  5
9D
330
1E
100
AcDbEntity
  8
0
100
AcDbLine
 10
457.008
 20
366.5541999999999
 30
0.0
 11
457.936
 21
366.5541999999999
 31
0.0
  0
LINE
  5
9E
330
1E
100
AcDbEntity
  8
0
100
AcDbLine
 10
457.024
 20
366.459
 30
0.0
 11
457.984
 21
366.459
 31
0.0
  0
LINE
  5
9F
330
1E
100
AcDbEntity
  8
0
100
AcDbLine
 10
456.0119999999999
 20
13.585
 30
0.0
 11
458.3999999999999
 21
6.990000000000009
 31
0.0
  0
LINE
  5
A0
330
1E
100
AcDbEntity
  8
0
100
AcDbLine
 10
458.3999999999999
 20
6.990000000000009
 30
0.0
 11
460.085
 21
4.360000000000069
 31
0.0
  0
LINE
  5
A1
330
1E
100
AcDbEntity
  8
0
100
AcDbLine
 10
473.064
 20
2.466000000000009
 30
0.0
 11
474.9919999999999
 21
4.16400000000005
 31
0.0
  0
LINE
  5
A2
330
1E
100
AcDbEntity
  8
0
100
AcDbLine
 10
462.073
 20
12.98499999999999
 30
0.0
 11
464.559
 21
19.28099999999999
 31
0.0
  0
LINE
  5
A3
330
1E
100
AcDbEntity
  8
0
100
AcDbLine
 10
466.344
 20
25.986
 30
0.0
 11
468.8
 21
42.3750000000001
 31
0.0
  0
LINE
  5
A4
330
1E
100
AcDbEntity
  8
0
100
AcDbLine
 10
464.559
 20
19.28099999999999
 30
0.0
 11
466.602419674979
 21
27.7104462757461
 31
0.0
  0
LINE
  5
A5
330
1E
100
AcDbEntity
  8
0
100
AcDbLine
 10
462.1459999999999
 20
13.8530000000001
 30
0.0
 11
462.575396783021
 21
14.2573612815379
 31
0.0
  0
LINE
  5
A6
330
1E
100
AcDbEntity
  8
0
100
AcDbLine
 10
461.5159999999999
 20
293.1791999999999
 30
0.0
 11
463.716
 21
293.1791999999999
 31
0.0
  0
LINE
  5
A7
330
1E
100
AcDbEntity
  8
0
100
AcDbLine
 10
461.0
 20
362.1318749999999
 30
0.0
 11
461.0
 21
568.3151985011339
 31
0.0
  0
LINE
  5
A8
330
1E
100
AcDbEntity
  8
0
100
AcDbLine
 10
461.0
 20
362.1318749999999
 30
0.0
 11
461.0
 21
568.3151985011339
 31
0.0
  0
LINE
  5
A9
330
1E
100
AcDbEntity
  8
0
100
AcDbLine
 10
461.2919999999999
 20
361.5749999999999
 30
0.0
 11
466.164
 21
359.559
 31
0.0
  0
LINE
  5
AA
330
1E
100
AcDbEntity
  8
0
100
AcDbLine
 10
461.376
 20
362.0789999999999
 30
0.0
 11
466.4159999999999
 21
360.063
 31
0.0
  0
LINE
  5
AB
330
1E
100
AcDbEntity
  8
0
100
AcDbLine
 10
461.2919999999999
 20
322.095
 30
0.0
 11
466.164
 21
324.1109999999999
 31
0.0
  0
LINE
  5
AC
330
1E
100
AcDbEntity
  8
0
100
AcDbLine
 10
461.376
 20
321.591
 30
0.0
 11
466.4159999999999
 21
323.607
 31
0.0
  0
LINE
  5
AD
330
1E
100
AcDbEntity
  8
0
100
AcDbLine
 10
463.716
 20
293.1791999999999
 30
0.0
 11
465.416
 21
293.1791999999999
 31
0.0
  0
LINE
  5
AE
330
1E
100
AcDbEntity
  8
0
100
AcDbLine
 10
463.5609999999999
 20
560.84
 30
0.0
 11
464.725
 21
561.164
 31
0.0
  0
LINE
  5
AF
330
1E
100
AcDbEntity
  8
0
100
AcDbLine
 10
463.049
 20
560.6709999999999
 30
0.0
 11
464.268
 21
559.9969999999999
 31
0.0
  0
LINE
  5
B0
330
1E
100
AcDbEntity
  8
0
100
AcDbLine
 10
463.049
 20
560.6709999999999
 30
0.0
 11
463.5609999999999
 21
560.84
 31
0.0
  0
LINE
  5
B1
330
1E
100
AcDbEntity
  8
0
100
AcDbLine
 10
464.111
 20
145.3239999999999
 30
0.0
 11
464.156
 21
122.9389999999999
 31
0.0
  0
LINE
  5
B2
330
1E
100
AcDbEntity
  8
0
100
AcDbLine
 10
464.111
 20
145.3239999999999
 30
0.0
 11
464.310662071109
 21
293.1791999999999
 31
0.0
  0
LINE
  5
B3
330
1E
100
AcDbEntity
  8
0
100
AcDbLine
 10
464.310662071109
 20
293.1791999999999
 30
0.0
 11
465.416
 21
293.1791999999999
 31
0.0
  0
LINE
  5
B4
330
1E
100
AcDbEntity
  8
0
100
AcDbLine
 10
464.268
 20
559.9969999999999
 30
0.0
 11
464.7029999999999
 21
560.101
 31
0.0
  0
LINE
  5
B5
330
1E
100
AcDbEntity
  8
0
100
AcDbLine
 10
464.725
 20
561.164
 30
0.0
 11
466.618
 21
561.708
 31
0.0
  0
LINE
  5
B6
330
1E
100
AcDbEntity
  8
0
100
AcDbLine
 10
464.7029999999999
 20
560.101
 30
0.0
 11
465.79
 21
560.3609999999999
 31
0.0
  0
LINE
  5
B7
330
1E
100
AcDbEntity
  8
0
100
AcDbLine
 10
464.156
 20
122.9389999999999
 30
0.0
 11
464.466
 21
100.555
 31
0.0
  0
LINE
  5
B8
330
1E
100
AcDbEntity
  8
0
100
AcDbLine
 10
464.466
 20
100.555
 30
0.0
 11
465.23
 21
78.071
 31
0.0
  0
LINE
  5
B9
330
1E
100
AcDbEntity
  8
0
100
AcDbLine
 10
465.3464999999999
 20
323.1791999999999
 30
0.0
 11
466.3159999999999
 21
323.1791999999999
 31
0.0
  0
LINE
  5
BA
330
1E
100
AcDbEntity
  8
0
100
AcDbLine
 10
465.416
 20
293.1791999999999
 30
0.0
 11
466.4159999999999
 21
293.1791999999999
 31
0.0
  0
LINE
  5
BB
330
1E
100
AcDbEntity
  8
0
100
AcDbLine
 10
465.785999999996
 20
323.354999999998
 30
0.0
 11
466.5
 21
323.6349999999999
 31
0.0
  0
LINE
  5
BC
330
1E
100
AcDbEntity
  8
0
100
AcDbLine
 10
465.785999999996
 20
360.3150000000019
 30
0.0
 11
466.5
 21
360.035
 31
0.0
  0
LINE
  5
BD
330
1E
100
AcDbEntity
  8
0
100
AcDbLine
 10
466.0
 20
323.1791999999999
 30
0.0
 11
466.0
 21
323.4389215686269
 31
0.0
  0
LINE
  5
BE
330
1E
100
AcDbEntity
  8
0
100
AcDbLine
 10
466.3159999999999
 20
323.1791999999999
 30
0.0
 11
467.4159999999999
 21
323.1791999999999
 31
0.0
  0
LINE
  5
BF
330
1E
100
AcDbEntity
  8
0
100
AcDbLine
 10
466.4159999999999
 20
293.1791999999999
 30
0.0
 11
466.8159999999999
 21
293.1791999999999
 31
0.0
  0
LINE
  5
C0
330
1E
100
AcDbEntity
  8
0
100
AcDbLine
 10
466.0
 20
323.4389215686269
 30
0.0
 11
466.5
 21
323.6349999999999
 31
0.0
  0
LINE
  5
C1
330
1E
100
AcDbEntity
  8
0
100
AcDbLine
 10
466.0
 20
323.4389215686269
 30
0.0
 11
466.0
 21
323.1791999999999
 31
0.0
  0
LINE
  5
C2
330
1E
100
AcDbEntity
  8
0
100
AcDbLine
 10
466.164
 20
359.559
 30
0.0
 11
470.448
 21
356.283
 31
0.0
  0
LINE
  5
C3
330
1E
100
AcDbEntity
  8
0
100
AcDbLine
 10
466.4159999999999
 20
360.063
 30
0.0
 11
470.868
 21
356.703
 31
0.0
  0
LINE
  5
C4
330
1E
100
AcDbEntity
  8
0
100
AcDbLine
 10
466.164
 20
324.1109999999999
 30
0.0
 11
470.448
 21
327.387
 31
0.0
  0
LINE
  5
C5
330
1E
100
AcDbEntity
  8
0
100
AcDbLine
 10
467.4159999999999
 20
323.1791999999999
 30
0.0
 11
467.816
 21
323.1791999999999
 31
0.0
  0
LINE
  5
C6
330
1E
100
AcDbEntity
  8
0
100
AcDbLine
 10
466.8159999999999
 20
293.1791999999999
 30
0.0
 11
467.816
 21
323.1791999999999
 31
0.0
  0
LINE
  5
C7
330
1E
100
AcDbEntity
  8
0
100
AcDbLine
 10
466.5
 20
323.6349999999999
 30
0.0
 11
467.483756097562
 21
324.412853658538
 31
0.0
  0
LINE
  5
C8
330
1E
100
AcDbEntity
  8
0
100
AcDbLine
 10
466.5
 20
360.035
 30
0.0
 11
467.483756097562
 21
359.257146341462
 31
0.0
  0
LINE
  5
C9
330
1E
100
AcDbEntity
  8
0
100
AcDbLine
 10
466.4159999999999
 20
323.607
 30
0.0
 11
470.868
 21
326.967
 31
0.0
  0
LINE
  5
CA
330
1E
100
AcDbEntity
  8
0
100
AcDbLine
 10
466.9063701576349
 20
560.715079753363
 30
0.0
 11
469.099891557958
 21
561.31208593977
 31
0.0
  0
LINE
  5
CB
330
1E
100
AcDbEntity
  8
0
100
AcDbLine
 10
465.79
 20
560.3609999999999
 30
0.0
 11
468.7134473395619
 21
561.1720802482479
 31
0.0
  0
LINE
  5
CC
330
1E
100
AcDbEntity
  8
0
100
AcDbLine
 10
465.79
 20
560.3609999999999
 30
0.0
 11
467.543
 21
560.9169999999998
 31
0.0
  0
LINE
  5
CD
330
1E
100
AcDbEntity
  8
0
100
AcDbLine
 10
465.79
 20
560.3609999999999
 30
0.0
 11
469.9083217488349
 21
561.5035858031389
 31
0.0
  0
LINE
  5
CE
330
1E
100
AcDbEntity
  8
0
100
AcDbLine
 10
467.543
 20
560.9169999999998
 30
0.0
 11
468.7015692330639
 21
561.239488343224
 31
0.0
  0
LINE
  5
CF
330
1E
100
AcDbEntity
  8
0
100
AcDbLine
 10
467.543
 20
560.9169999999998
 30
0.0
 11
469.871
 21
561.565
 31
0.0
  0
LINE
  5
D0
330
1E
100
AcDbEntity
  8
0
100
AcDbLine
 10
465.23
 20
78.071
 30
0.0
 11
466.165
 21
58.085
 31
0.0
  0
LINE
  5
D1
330
1E
100
AcDbEntity
  8
0
100
AcDbLine
 10
466.165
 20
58.085
 30
0.0
 11
467.593
 21
42.0970000000001
 31
0.0
  0
LINE
  5
D2
330
1E
100
AcDbEntity
  8
0
100
AcDbLine
 10
468.0430999999999
 20
324.8349999999999
 30
0.0
 11
476.208709612534
 21
324.8349999999999
 31
0.0
  0
LINE
  5
D3
330
1E
100
AcDbEntity
  8
0
100
AcDbLine
 10
468.0430999999999
 20
358.8349999999999
 30
0.0
 11
476.062722087485
 21
358.8349999999999
 31
0.0
  0
LINE
  5
D4
330
1E
100
AcDbEntity
  8
0
100
AcDbLine
 10
470.448
 20
356.283
 30
0.0
 11
473.7239999999999
 21
351.999
 31
0.0
  0
LINE
  5
D5
330
1E
100
AcDbEntity
  8
0
100
AcDbLine
 10
470.448
 20
327.387
 30
0.0
 11
473.7239999999999
 21
331.671
 31
0.0
  0
LINE
  5
D6
330
1E
100
AcDbEntity
  8
0
100
AcDbLine
 10
469.0
 20
557.835
 30
0.0
 11
469.0
 21
507.8349999999999
 31
0.0
  0
LINE
  5
D7
330
1E
100
AcDbEntity
  8
0
100
AcDbLine
 10
469.0
 20
557.835
 30
0.0
 11
471.656
 21
557.835
 31
0.0
  0
LINE
  5
D8
330
1E
100
AcDbEntity
  8
0
100
AcDbLine
 10
469.0
 20
507.8349999999999
 30
0.0
 11
471.656
 21
507.8349999999999
 31
0.0
  0
LINE
  5
D9
330
1E
100
AcDbEntity
  8
0
100
AcDbLine
 10
469.0
 20
507.8349999999999
 30
0.0
 11
469.0
 21
557.835
 31
0.0
  0
LINE
  5
DA
330
1E
100
AcDbEntity
  8
0
100
AcDbLine
 10
469.0
 20
507.8349999999999
 30
0.0
 11
471.356
 21
507.8349999999999
 31
0.0
  0
LINE
  5
DB
330
1E
100
AcDbEntity
  8
0
100
AcDbLine
 10
470.868
 20
356.703
 30
0.0
 11
474.228
 21
352.251
 31
0.0
  0
LINE
  5
DC
330
1E
100
AcDbEntity
  8
0
100
AcDbLine
 10
470.868
 20
326.967
 30
0.0
 11
474.228
 21
331.419
 31
0.0
  0
LINE
  5
DD
330
1E
100
AcDbEntity
  8
0
100
AcDbLine
 10
471.356
 20
507.8349999999999
 30
0.0
 11
473.172
 21
507.8349999999999
 31
0.0
  0
LINE
  5
DE
330
1E
100
AcDbEntity
  8
0
100
AcDbLine
 10
473.422146341463
 20
330.3512439024379
 30
0.0
 11
474.1999999999999
 21
331.3349999999999
 31
0.0
  0
LINE
  5
DF
330
1E
100
AcDbEntity
  8
0
100
AcDbLine
 10
473.422146341462
 20
353.318756097563
 30
0.0
 11
474.1999999999999
 21
352.3349999999999
 31
0.0
  0
LINE
  5
E0
330
1E
100
AcDbEntity
  8
0
100
AcDbLine
 10
473.7239999999999
 20
351.999
 30
0.0
 11
475.74
 21
347.1269999999999
 31
0.0
  0
LINE
  5
E1
330
1E
100
AcDbEntity
  8
0
100
AcDbLine
 10
473.7239999999999
 20
331.671
 30
0.0
 11
475.74
 21
336.5429999999999
 31
0.0
  0
LINE
  5
E2
330
1E
100
AcDbEntity
  8
0
100
AcDbLine
 10
473.172
 20
507.8349999999999
 30
0.0
 11
474.780118865006
 21
507.8349999999999
 31
0.0
  0
LINE
  5
E3
330
1E
100
AcDbEntity
  8
0
100
AcDbLine
 10
473.172
 20
507.8349999999999
 30
0.0
 11
475.8619999999999
 21
507.8349999999999
 31
0.0
  0
LINE
  5
E4
330
1E
100
AcDbEntity
  8
0
100
AcDbLine
 10
471.656
 20
557.835
 30
0.0
 11
475.0799999999999
 21
557.835
 31
0.0
  0
LINE
  5
E5
330
1E
100
AcDbEntity
  8
0
100
AcDbLine
 10
471.656
 20
507.8349999999999
 30
0.0
 11
474.780118865006
 21
507.8349999999999
 31
0.0
  0
LINE
  5
E6
330
1E
100
AcDbEntity
  8
0
100
AcDbLine
 10
471.656
 20
507.8349999999999
 30
0.0
 11
475.0799999999999
 21
507.8349999999999
 31
0.0
  0
LINE
  5
E7
330
1E
100
AcDbEntity
  8
0
100
AcDbLine
 10
474.1999999999999
 20
331.3349999999999
 30
0.0
 11
474.48
 21
332.049
 31
0.0
  0
LINE
  5
E8
330
1E
100
AcDbEntity
  8
0
100
AcDbLine
 10
474.1999999999999
 20
352.3349999999999
 30
0.0
 11
474.4800000000029
 21
351.6209999999929
 31
0.0
  0
LINE
  5
E9
330
1E
100
AcDbEntity
  8
0
100
AcDbLine
 10
474.228
 20
352.251
 30
0.0
 11
476.111207198071
 21
347.542982004822
 31
0.0
  0
LINE
  5
EA
330
1E
100
AcDbEntity
  8
0
100
AcDbLine
 10
474.228
 20
331.419
 30
0.0
 11
476.1597039198609
 21
336.2482597996519
 31
0.0
  0
LINE
  5
EB
330
1E
100
AcDbEntity
  8
0
100
AcDbLine
 10
473.9519999999999
 20
100.834
 30
0.0
 11
475.0359999999999
 21
123.2189999999999
 31
0.0
  0
LINE
  5
EC
330
1E
100
AcDbEntity
  8
0
100
AcDbLine
 10
472.407
 20
78.35000000000009
 30
0.0
 11
473.9519999999999
 21
100.834
 31
0.0
  0
LINE
  5
ED
330
1E
100
AcDbEntity
  8
0
100
AcDbLine
 10
470.781
 20
58.3640000000001
 30
0.0
 11
472.407
 21
78.35000000000009
 31
0.0
  0
LINE
  5
EE
330
1E
100
AcDbEntity
  8
0
100
AcDbLine
 10
468.8
 20
42.3750000000001
 30
0.0
 11
470.781
 21
58.3640000000001
 31
0.0
  0
LINE
  5
EF
330
1E
100
AcDbEntity
  8
0
100
AcDbLine
 10
467.593
 20
42.0970000000001
 30
0.0
 11
468.0991794057869
 21
37.6983922155687
 31
0.0
  0
LINE
  5
F0
330
1E
100
AcDbEntity
  8
0
100
AcDbLine
 10
467.593
 20
42.0970000000001
 30
0.0
 11
468.0991794057869
 21
37.6983922155687
 31
0.0
  0
LINE
  5
F1
330
1E
100
AcDbEntity
  8
0
100
AcDbLine
 10
461.952
 20
2.661
 30
0.0
 11
464.402
 21
0.819000000000075
 31
0.0
  0
LINE
  5
F2
330
1E
100
AcDbEntity
  8
0
100
AcDbLine
 10
460.085
 20
4.360000000000069
 30
0.0
 11
461.952
 21
2.661
 31
0.0
  0
LINE
  5
F3
330
1E
100
AcDbEntity
  8
0
100
AcDbLine
 10
464.402
 20
0.819000000000075
 30
0.0
 11
467.466
 21
0.165000000000022
 31
0.0
  0
LINE
  5
F4
330
1E
100
AcDbEntity
  8
0
100
AcDbLine
 10
475.74
 20
347.1269999999999
 30
0.0
 11
476.1245514990879
 21
344.43513950638
 31
0.0
  0
LINE
  5
F5
330
1E
100
AcDbEntity
  8
0
100
AcDbLine
 10
475.74
 20
336.5429999999999
 30
0.0
 11
476.146228666457
 21
339.386600665201
 31
0.0
  0
LINE
  5
F6
330
1E
100
AcDbEntity
  8
0
100
AcDbLine
 10
475.86
 20
145.6029999999999
 30
0.0
 11
476.336
 21
295.1895
 31
0.0
  0
LINE
  5
F7
330
1E
100
AcDbEntity
  8
0
100
AcDbLine
 10
475.0359999999999
 20
123.2189999999999
 30
0.0
 11
475.86
 21
145.6029999999999
 31
0.0
  0
LINE
  5
F8
330
1E
100
AcDbEntity
  8
0
100
AcDbLine
 10
482.216
 20
25.708
 30
0.0
 11
484.6719999999999
 21
42.0970000000001
 31
0.0
  0
LINE
  5
F9
330
1E
100
AcDbEntity
  8
0
100
AcDbLine
 10
481.7569999999999
 20
23.02
 30
0.0
 11
482.216
 21
25.708
 31
0.0
  0
LINE
  5
FA
330
1E
100
AcDbEntity
  8
0
100
AcDbLine
 10
479.384
 20
13.32700000000009
 30
0.0
 11
481.7569999999999
 21
23.02
 31
0.0
  0
LINE
  5
FB
330
1E
100
AcDbEntity
  8
0
100
AcDbLine
 10
476.764
 20
6.732000000000029
 30
0.0
 11
479.384
 21
13.32700000000009
 31
0.0
  0
LINE
  5
FC
330
1E
100
AcDbEntity
  8
0
100
AcDbLine
 10
474.9919999999999
 20
4.16400000000005
 30
0.0
 11
476.764
 21
6.732000000000029
 31
0.0
  0
LINE
  5
FD
330
1E
100
AcDbEntity
  8
0
100
AcDbLine
 10
475.0799999999999
 20
507.8349999999999
 30
0.0
 11
478.732
 21
507.8349999999999
 31
0.0
  0
LINE
  5
FE
330
1E
100
AcDbEntity
  8
0
100
AcDbLine
 10
475.8619999999999
 20
507.8349999999999
 30
0.0
 11
478.732
 21
507.8349999999999
 31
0.0
  0
LINE
  5
FF
330
1E
100
AcDbEntity
  8
0
100
AcDbLine
 10
481.6019999999999
 20
507.8349999999999
 30
0.0
 11
484.2929999999999
 21
507.8349999999999
 31
0.0
  0
LINE
  5
100
330
1E
100
AcDbEntity
  8
0
100
AcDbLine
 10
482.385
 20
507.8349999999999
 30
0.0
 11
485.809
 21
507.8349999999999
 31
0.0
  0
LINE
  5
101
330
1E
100
AcDbEntity
  8
0
100
AcDbLine
 10
482.385
 20
557.835
 30
0.0
 11
485.809
 21
557.835
 31
0.0
  0
LINE
  5
102
330
1E
100
AcDbEntity
  8
0
100
AcDbLine
 10
478.732
 20
507.8349999999999
 30
0.0
 11
482.385
 21
507.8349999999999
 31
0.0
  0
LINE
  5
103
330
1E
100
AcDbEntity
  8
0
100
AcDbLine
 10
478.732
 20
507.8349999999999
 30
0.0
 11
481.6019999999999
 21
507.8349999999999
 31
0.0
  0
LINE
  5
104
330
1E
100
AcDbEntity
  8
0
100
AcDbLine
 10
478.732
 20
557.835
 30
0.0
 11
482.385
 21
557.835
 31
0.0
  0
LINE
  5
105
330
1E
100
AcDbEntity
  8
0
100
AcDbLine
 10
475.0799999999999
 20
557.835
 30
0.0
 11
478.732
 21
557.835
 31
0.0
  0
LINE
  5
106
330
1E
100
AcDbEntity
  8
0
100
AcDbLine
 10
475.48
 20
494.549
 30
0.0
 11
476.336
 21
295.1895
 31
0.0
  0
LINE
  5
107
330
1E
100
AcDbEntity
  8
0
100
AcDbLine
 10
474.780118865006
 20
507.8349999999999
 30
0.0
 11
475.48
 21
494.549
 31
0.0
  0
LINE
  5
108
330
1E
100
AcDbEntity
  8
0
100
AcDbLine
 10
5.0
 20
1345.835
 30
0.0
 11
5.0
 21
1343.835
 31
0.0
  0
LINE
  5
109
330
1E
100
AcDbEntity
  8
0
100
AcDbLine
 10
5.0
 20
1345.835
 30
0.0
 11
7.0
 21
1345.835
 31
0.0
  0
LINE
  5
10A
330
1E
100
AcDbEntity
  8
0
100
AcDbLine
 10
7.0
 20
1343.835
 30
0.0
 11
7.0
 21
1345.835
 31
0.0
  0
LINE
  5
10B
330
1E
100
AcDbEntity
  8
0
100
AcDbLine
 10
5.0
 20
1343.835
 30
0.0
 11
5.0
 21
1345.835
 31
0.0
  0
LINE
  5
10C
330
1E
100
AcDbEntity
  8
0
100
AcDbLine
 10
5.0
 20
1343.835
 30
0.0
 11
7.0
 21
1343.835
 31
0.0
  0
LINE
  5
10D
330
1E
100
AcDbEntity
  8
0
100
AcDbLine
 10
4.2
 20
1345.835
 30
0.0
 11
5.0
 21
1345.835
 31
0.0
  0
LINE
  5
10E
330
1E
100
AcDbEntity
  8
0
100
AcDbLine
 10
4.2
 20
1345.835
 30
0.0
 11
12.9
 21
1345.835
 31
0.0
  0
LINE
  5
10F
330
1E
100
AcDbEntity
  8
0
100
AcDbLine
 10
9.5693
 20
1343.835
 30
0.0
 11
10.08699999999999
 21
1343.835
 31
0.0
  0
LINE
  5
110
330
1E
100
AcDbEntity
  8
0
100
AcDbLine
 10
10.08699999999999
 20
1343.835
 30
0.0
 11
10.08699999999999
 21
1345.835
 31
0.0
  0
LINE
  5
111
330
1E
100
AcDbEntity
  8
0
100
AcDbLine
 10
8.15509999999999
 20
1343.835
 30
0.0
 11
8.15509999999999
 21
1345.835
 31
0.0
  0
LINE
  5
112
330
1E
100
AcDbEntity
  8
0
100
AcDbLine
 10
8.15509999999999
 20
1343.835
 30
0.0
 11
10.08699999999999
 21
1343.835
 31
0.0
  0
LINE
  5
113
330
1E
100
AcDbEntity
  8
0
100
AcDbLine
 10
7.6375
 20
1343.835
 30
0.0
 11
7.6375
 21
1345.835
 31
0.0
  0
LINE
  5
114
330
1E
100
AcDbEntity
  8
0
100
AcDbLine
 10
7.6375
 20
1343.835
 30
0.0
 11
9.5693
 21
1343.835
 31
0.0
  0
LINE
  5
115
330
1E
100
AcDbEntity
  8
0
100
AcDbLine
 10
7.6375
 20
1343.835
 30
0.0
 11
8.15509999999999
 21
1343.835
 31
0.0
  0
LINE
  5
116
330
1E
100
AcDbEntity
  8
0
100
AcDbLine
 10
17.6199
 20
1343.835
 30
0.0
 11
18.6199
 21
1343.835
 31
0.0
  0
LINE
  5
117
330
1E
100
AcDbEntity
  8
0
100
AcDbLine
 10
18.6199
 20
1343.835
 30
0.0
 11
18.6199
 21
1345.835
 31
0.0
  0
LINE
  5
118
330
1E
100
AcDbEntity
  8
0
100
AcDbLine
 10
16.88779999999999
 20
1343.835
 30
0.0
 11
16.88779999999999
 21
1345.835
 31
0.0
  0
LINE
  5
119
330
1E
100
AcDbEntity
  8
0
100
AcDbLine
 10
16.88779999999999
 20
1343.835
 30
0.0
 11
18.6199
 21
1343.835
 31
0.0
  0
LINE
  5
11A
330
1E
100
AcDbEntity
  8
0
100
AcDbLine
 10
8.15509999999999
 20
1345.835
 30
0.0
 11
8.15509999999999
 21
1343.835
 31
0.0
  0
LINE
  5
11B
330
1E
100
AcDbEntity
  8
0
100
AcDbLine
 10
8.15509999999999
 20
1345.835
 30
0.0
 11
10.08699999999999
 21
1345.835
 31
0.0
  0
LINE
  5
11C
330
1E
100
AcDbEntity
  8
0
100
AcDbLine
 10
7.6375
 20
1345.835
 30
0.0
 11
7.6375
 21
1343.835
 31
0.0
  0
LINE
  5
11D
330
1E
100
AcDbEntity
  8
0
100
AcDbLine
 10
7.6375
 20
1345.835
 30
0.0
 11
8.15509999999999
 21
1345.835
 31
0.0
  0
LINE
  5
11E
330
1E
100
AcDbEntity
  8
0
100
AcDbLine
 10
16.88779999999999
 20
1345.835
 30
0.0
 11
16.88779999999999
 21
1343.835
 31
0.0
  0
LINE
  5
11F
330
1E
100
AcDbEntity
  8
0
100
AcDbLine
 10
16.88779999999999
 20
1345.835
 30
0.0
 11
18.6199
 21
1345.835
 31
0.0
  0
LINE
  5
120
330
1E
100
AcDbEntity
  8
0
100
AcDbLine
 10
15.8878
 20
1345.835
 30
0.0
 11
15.8878
 21
1343.835
 31
0.0
  0
LINE
  5
121
330
1E
100
AcDbEntity
  8
0
100
AcDbLine
 10
15.8878
 20
1345.835
 30
0.0
 11
16.88779999999999
 21
1345.835
 31
0.0
  0
LINE
  5
122
330
1E
100
AcDbEntity
  8
0
100
AcDbLine
 10
15.8878
 20
1343.835
 30
0.0
 11
15.8878
 21
1345.835
 31
0.0
  0
LINE
  5
123
330
1E
100
AcDbEntity
  8
0
100
AcDbLine
 10
15.8878
 20
1343.835
 30
0.0
 11
17.6199
 21
1343.835
 31
0.0
  0
LINE
  5
124
330
1E
100
AcDbEntity
  8
0
100
AcDbLine
 10
15.8878
 20
1343.835
 30
0.0
 11
16.88779999999999
 21
1343.835
 31
0.0
  0
LINE
  5
125
330
1E
100
AcDbEntity
  8
0
100
AcDbLine
 10
22.0
 20
1343.835
 30
0.0
 11
22.0
 21
1345.835
 31
0.0
  0
LINE
  5
126
330
1E
100
AcDbEntity
  8
0
100
AcDbLine
 10
20.0
 20
1345.835
 30
0.0
 11
22.0
 21
1345.835
 31
0.0
  0
LINE
  5
127
330
1E
100
AcDbEntity
  8
0
100
AcDbLine
 10
20.0
 20
1343.835
 30
0.0
 11
20.0
 21
1345.835
 31
0.0
  0
LINE
  5
128
330
1E
100
AcDbEntity
  8
0
100
AcDbLine
 10
20.0
 20
1343.835
 30
0.0
 11
22.0
 21
1343.835
 31
0.0
  0
LINE
  5
129
330
1E
100
AcDbEntity
  8
0
100
AcDbLine
 10
29.8782
 20
1343.835
 30
0.0
 11
31.6103
 21
1343.835
 31
0.0
  0
LINE
  5
12A
330
1E
100
AcDbEntity
  8
0
100
AcDbLine
 10
28.87819999999999
 20
1343.835
 30
0.0
 11
28.87819999999999
 21
1345.835
 31
0.0
  0
LINE
  5
12B
330
1E
100
AcDbEntity
  8
0
100
AcDbLine
 10
28.87819999999999
 20
1343.835
 30
0.0
 11
30.6103
 21
1343.835
 31
0.0
  0
LINE
  5
12C
330
1E
100
AcDbEntity
  8
0
100
AcDbLine
 10
28.87819999999999
 20
1343.835
 30
0.0
 11
29.8782
 21
1343.835
 31
0.0
  0
LINE
  5
12D
330
1E
100
AcDbEntity
  8
0
100
AcDbLine
 10
24.0582
 20
1343.835
 30
0.0
 11
24.5759
 21
1343.835
 31
0.0
  0
LINE
  5
12E
330
1E
100
AcDbEntity
  8
0
100
AcDbLine
 10
24.5759
 20
1343.835
 30
0.0
 11
24.5759
 21
1345.835
 31
0.0
  0
LINE
  5
12F
330
1E
100
AcDbEntity
  8
0
100
AcDbLine
 10
22.644
 20
1343.835
 30
0.0
 11
22.644
 21
1345.835
 31
0.0
  0
LINE
  5
130
330
1E
100
AcDbEntity
  8
0
100
AcDbLine
 10
22.644
 20
1343.835
 30
0.0
 11
24.5759
 21
1343.835
 31
0.0
  0
LINE
  5
131
330
1E
100
AcDbEntity
  8
0
100
AcDbLine
 10
22.12639999999999
 20
1343.835
 30
0.0
 11
22.12639999999999
 21
1345.835
 31
0.0
  0
LINE
  5
132
330
1E
100
AcDbEntity
  8
0
100
AcDbLine
 10
22.12639999999999
 20
1343.835
 30
0.0
 11
24.0582
 21
1343.835
 31
0.0
  0
LINE
  5
133
330
1E
100
AcDbEntity
  8
0
100
AcDbLine
 10
22.12639999999999
 20
1343.835
 30
0.0
 11
22.644
 21
1343.835
 31
0.0
  0
LINE
  5
134
330
1E
100
AcDbEntity
  8
0
100
AcDbLine
 10
30.6103
 20
1343.835
 30
0.0
 11
31.6103
 21
1343.835
 31
0.0
  0
LINE
  5
135
330
1E
100
AcDbEntity
  8
0
100
AcDbLine
 10
32.0172
 20
1343.835
 30
0.0
 11
32.0172
 21
1345.835
 31
0.0
  0
LINE
  5
136
330
1E
100
AcDbEntity
  8
0
100
AcDbLine
 10
30.603
 20
1343.835
 30
0.0
 11
30.603
 21
1345.835
 31
0.0
  0
LINE
  5
137
330
1E
100
AcDbEntity
  8
0
100
AcDbLine
 10
30.603
 20
1343.835
 30
0.0
 11
32.0172
 21
1343.835
 31
0.0
  0
LINE
  5
138
330
1E
100
AcDbEntity
  8
0
100
AcDbLine
 10
28.87819999999999
 20
1345.835
 30
0.0
 11
28.87819999999999
 21
1343.835
 31
0.0
  0
LINE
  5
139
330
1E
100
AcDbEntity
  8
0
100
AcDbLine
 10
28.87819999999999
 20
1345.835
 30
0.0
 11
29.1888
 21
1345.835
 31
0.0
  0
LINE
  5
13A
330
1E
100
AcDbEntity
  8
0
100
AcDbLine
 10
22.644
 20
1345.835
 30
0.0
 11
22.644
 21
1343.835
 31
0.0
  0
LINE
  5
13B
330
1E
100
AcDbEntity
  8
0
100
AcDbLine
 10
22.644
 20
1345.835
 30
0.0
 11
24.5759
 21
1345.835
 31
0.0
  0
LINE
  5
13C
330
1E
100
AcDbEntity
  8
0
100
AcDbLine
 10
22.12639999999999
 20
1345.835
 30
0.0
 11
22.12639999999999
 21
1343.835
 31
0.0
  0
LINE
  5
13D
330
1E
100
AcDbEntity
  8
0
100
AcDbLine
 10
22.12639999999999
 20
1345.835
 30
0.0
 11
22.644
 21
1345.835
 31
0.0
  0
LINE
  5
13E
330
1E
100
AcDbEntity
  8
0
100
AcDbLine
 10
30.603
 20
1345.835
 30
0.0
 11
30.603
 21
1343.835
 31
0.0
  0
LINE
  5
13F
330
1E
100
AcDbEntity
  8
0
100
AcDbLine
 10
30.603
 20
1345.835
 30
0.0
 11
32.0172
 21
1345.835
 31
0.0
  0
LINE
  5
140
330
1E
100
AcDbEntity
  8
0
100
AcDbLine
 10
29.1888
 20
1345.835
 30
0.0
 11
29.1888
 21
1343.835
 31
0.0
  0
LINE
  5
141
330
1E
100
AcDbEntity
  8
0
100
AcDbLine
 10
29.1888
 20
1345.835
 30
0.0
 11
30.603
 21
1345.835
 31
0.0
  0
LINE
  5
142
330
1E
100
AcDbEntity
  8
0
100
AcDbLine
 10
29.1888
 20
1343.835
 30
0.0
 11
29.1888
 21
1345.835
 31
0.0
  0
LINE
  5
143
330
1E
100
AcDbEntity
  8
0
100
AcDbLine
 10
29.1888
 20
1343.835
 30
0.0
 11
30.603
 21
1343.835
 31
0.0
  0
LINE
  5
144
330
1E
100
AcDbEntity
  8
0
100
AcDbLine
 10
35.0
 20
1343.835
 30
0.0
 11
35.0
 21
1345.835
 31
0.0
  0
LINE
  5
145
330
1E
100
AcDbEntity
  8
0
100
AcDbLine
 10
35.0
 20
1343.835
 30
0.0
 11
37.0
 21
1343.835
 31
0.0
  0
LINE
  5
146
330
1E
100
AcDbEntity
  8
0
100
AcDbLine
 10
38.5471
 20
1343.835
 30
0.0
 11
39.0648
 21
1343.835
 31
0.0
  0
LINE
  5
147
330
1E
100
AcDbEntity
  8
0
100
AcDbLine
 10
39.0648
 20
1343.835
 30
0.0
 11
39.0648
 21
1345.835
 31
0.0
  0
LINE
  5
148
330
1E
100
AcDbEntity
  8
0
100
AcDbLine
 10
37.1329
 20
1343.835
 30
0.0
 11
37.1329
 21
1345.835
 31
0.0
  0
LINE
  5
149
330
1E
100
AcDbEntity
  8
0
100
AcDbLine
 10
37.1329
 20
1343.835
 30
0.0
 11
39.0648
 21
1343.835
 31
0.0
  0
LINE
  5
14A
330
1E
100
AcDbEntity
  8
0
100
AcDbLine
 10
35.0
 20
1345.835
 30
0.0
 11
35.0
 21
1343.835
 31
0.0
  0
LINE
  5
14B
330
1E
100
AcDbEntity
  8
0
100
AcDbLine
 10
35.0
 20
1345.835
 30
0.0
 11
36.61529999999999
 21
1345.835
 31
0.0
  0
LINE
  5
14C
330
1E
100
AcDbEntity
  8
0
100
AcDbLine
 10
37.1329
 20
1345.835
 30
0.0
 11
37.1329
 21
1343.835
 31
0.0
  0
LINE
  5
14D
330
1E
100
AcDbEntity
  8
0
100
AcDbLine
 10
37.1329
 20
1345.835
 30
0.0
 11
39.0648
 21
1345.835
 31
0.0
  0
LINE
  5
14E
330
1E
100
AcDbEntity
  8
0
100
AcDbLine
 10
36.61529999999999
 20
1345.835
 30
0.0
 11
36.61529999999999
 21
1343.835
 31
0.0
  0
LINE
  5
14F
330
1E
100
AcDbEntity
  8
0
100
AcDbLine
 10
36.61529999999999
 20
1345.835
 30
0.0
 11
37.1329
 21
1345.835
 31
0.0
  0
LINE
  5
150
330
1E
100
AcDbEntity
  8
0
100
AcDbLine
 10
36.61529999999999
 20
1343.835
 30
0.0
 11
36.61529999999999
 21
1345.835
 31
0.0
  0
LINE
  5
151
330
1E
100
AcDbEntity
  8
0
100
AcDbLine
 10
36.61529999999999
 20
1343.835
 30
0.0
 11
38.5471
 21
1343.835
 31
0.0
  0
LINE
  5
152
330
1E
100
AcDbEntity
  8
0
100
AcDbLine
 10
36.61529999999999
 20
1343.835
 30
0.0
 11
37.1329
 21
1343.835
 31
0.0
  0
LINE
  5
153
330
1E
100
AcDbEntity
  8
0
100
AcDbLine
 10
42.6238
 20
1343.835
 30
0.0
 11
42.6238
 21
1345.835
 31
0.0
  0
LINE
  5
154
330
1E
100
AcDbEntity
  8
0
100
AcDbLine
 10
41.2096
 20
1343.835
 30
0.0
 11
41.2096
 21
1345.835
 31
0.0
  0
LINE
  5
155
330
1E
100
AcDbEntity
  8
0
100
AcDbLine
 10
41.2096
 20
1343.835
 30
0.0
 11
42.6238
 21
1343.835
 31
0.0
  0
LINE
  5
156
330
1E
100
AcDbEntity
  8
0
100
AcDbLine
 10
39.7954
 20
1343.835
 30
0.0
 11
39.7954
 21
1345.835
 31
0.0
  0
LINE
  5
157
330
1E
100
AcDbEntity
  8
0
100
AcDbLine
 10
39.7954
 20
1343.835
 30
0.0
 11
41.2096
 21
1343.835
 31
0.0
  0
LINE
  5
158
330
1E
100
AcDbEntity
  8
0
100
AcDbLine
 10
47.63399999999999
 20
1343.835
 30
0.0
 11
49.36600000000001
 21
1343.835
 31
0.0
  0
LINE
  5
159
330
1E
100
AcDbEntity
  8
0
100
AcDbLine
 10
49.36600000000001
 20
1343.835
 30
0.0
 11
49.36600000000001
 21
1345.835
 31
0.0
  0
LINE
  5
15A
330
1E
100
AcDbEntity
  8
0
100
AcDbLine
 10
48.366
 20
1343.835
 30
0.0
 11
48.366
 21
1345.835
 31
0.0
  0
LINE
  5
15B
330
1E
100
AcDbEntity
  8
0
100
AcDbLine
 10
48.366
 20
1343.835
 30
0.0
 11
49.36600000000001
 21
1343.835
 31
0.0
  0
LINE
  5
15C
330
1E
100
AcDbEntity
  8
0
100
AcDbLine
 10
46.63399999999999
 20
1343.835
 30
0.0
 11
46.63399999999999
 21
1345.835
 31
0.0
  0
LINE
  5
15D
330
1E
100
AcDbEntity
  8
0
100
AcDbLine
 10
46.63399999999999
 20
1343.835
 30
0.0
 11
47.63399999999999
 21
1343.835
 31
0.0
  0
LINE
  5
15E
330
1E
100
AcDbEntity
  8
0
100
AcDbLine
 10
46.63399999999999
 20
1343.835
 30
0.0
 11
48.366
 21
1343.835
 31
0.0
  0
LINE
  5
15F
330
1E
100
AcDbEntity
  8
0
100
AcDbLine
 10
43.6007
 20
1343.835
 30
0.0
 11
44.6007
 21
1343.835
 31
0.0
  0
LINE
  5
160
330
1E
100
AcDbEntity
  8
0
100
AcDbLine
 10
44.6007
 20
1343.835
 30
0.0
 11
44.6007
 21
1345.835
 31
0.0
  0
LINE
  5
161
330
1E
100
AcDbEntity
  8
0
100
AcDbLine
 10
42.86859999999999
 20
1343.835
 30
0.0
 11
42.86859999999999
 21
1345.835
 31
0.0
  0
LINE
  5
162
330
1E
100
AcDbEntity
  8
0
100
AcDbLine
 10
42.86859999999999
 20
1343.835
 30
0.0
 11
44.6007
 21
1343.835
 31
0.0
  0
LINE
  5
163
330
1E
100
AcDbEntity
  8
0
100
AcDbLine
 10
41.2096
 20
1345.835
 30
0.0
 11
41.2096
 21
1343.835
 31
0.0
  0
LINE
  5
164
330
1E
100
AcDbEntity
  8
0
100
AcDbLine
 10
41.2096
 20
1345.835
 30
0.0
 11
42.6238
 21
1345.835
 31
0.0
  0
LINE
  5
165
330
1E
100
AcDbEntity
  8
0
100
AcDbLine
 10
39.7954
 20
1345.835
 30
0.0
 11
39.7954
 21
1343.835
 31
0.0
  0
LINE
  5
166
330
1E
100
AcDbEntity
  8
0
100
AcDbLine
 10
39.7954
 20
1345.835
 30
0.0
 11
41.2096
 21
1345.835
 31
0.0
  0
LINE
  5
167
330
1E
100
AcDbEntity
  8
0
100
AcDbLine
 10
48.366
 20
1345.835
 30
0.0
 11
48.366
 21
1343.835
 31
0.0
  0
LINE
  5
168
330
1E
100
AcDbEntity
  8
0
100
AcDbLine
 10
48.366
 20
1345.835
 30
0.0
 11
49.36600000000001
 21
1345.835
 31
0.0
  0
LINE
  5
169
330
1E
100
AcDbEntity
  8
0
100
AcDbLine
 10
46.63399999999999
 20
1345.835
 30
0.0
 11
46.63399999999999
 21
1343.835
 31
0.0
  0
LINE
  5
16A
330
1E
100
AcDbEntity
  8
0
100
AcDbLine
 10
46.63399999999999
 20
1345.835
 30
0.0
 11
48.366
 21
1345.835
 31
0.0
  0
LINE
  5
16B
330
1E
100
AcDbEntity
  8
0
100
AcDbLine
 10
42.86859999999999
 20
1345.835
 30
0.0
 11
42.86859999999999
 21
1343.835
 31
0.0
  0
LINE
  5
16C
330
1E
100
AcDbEntity
  8
0
100
AcDbLine
 10
42.86859999999999
 20
1345.835
 30
0.0
 11
44.6007
 21
1345.835
 31
0.0
  0
LINE
  5
16D
330
1E
100
AcDbEntity
  8
0
100
AcDbLine
 10
42.6238
 20
1345.835
 30
0.0
 11
42.86859999999999
 21
1345.835
 31
0.0
  0
LINE
  5
16E
330
1E
100
AcDbEntity
  8
0
100
AcDbLine
 10
42.6238
 20
1345.835
 30
0.0
 11
42.6238
 21
1343.835
 31
0.0
  0
LINE
  5
16F
330
1E
100
AcDbEntity
  8
0
100
AcDbLine
 10
41.8686
 20
1343.835
 30
0.0
 11
43.6007
 21
1343.835
 31
0.0
  0
LINE
  5
170
330
1E
100
AcDbEntity
  8
0
100
AcDbLine
 10
41.8686
 20
1343.835
 30
0.0
 11
42.86859999999999
 21
1343.835
 31
0.0
  0
LINE
  5
171
330
1E
100
AcDbEntity
  8
0
100
AcDbLine
 10
50.0
 20
1343.835
 30
0.0
 11
50.0
 21
1345.835
 31
0.0
  0
LINE
  5
172
330
1E
100
AcDbEntity
  8
0
100
AcDbLine
 10
50.0
 20
1343.835
 30
0.0
 11
52.0
 21
1343.835
 31
0.0
  0
LINE
  5
173
330
1E
100
AcDbEntity
  8
0
100
AcDbLine
 10
50.402
 20
1343.835
 30
0.0
 11
50.402
 21
1345.835
 31
0.0
  0
LINE
  5
174
330
1E
100
AcDbEntity
  8
0
100
AcDbLine
 10
50.402
 20
1343.835
 30
0.0
 11
51.8162
 21
1343.835
 31
0.0
  0
LINE
  5
175
330
1E
100
AcDbEntity
  8
0
100
AcDbLine
 10
53.2304
 20
1343.835
 30
0.0
 11
53.2304
 21
1345.835
 31
0.0
  0
LINE
  5
176
330
1E
100
AcDbEntity
  8
0
100
AcDbLine
 10
51.8162
 20
1343.835
 30
0.0
 11
51.8162
 21
1345.835
 31
0.0
  0
LINE
  5
177
330
1E
100
AcDbEntity
  8
0
100
AcDbLine
 10
51.8162
 20
1343.835
 30
0.0
 11
53.2304
 21
1343.835
 31
0.0
  0
LINE
  5
178
330
1E
100
AcDbEntity
  8
0
100
AcDbLine
 10
53.036
 20
1343.835
 30
0.0
 11
53.55360000000001
 21
1343.835
 31
0.0
  0
LINE
  5
179
330
1E
100
AcDbEntity
  8
0
100
AcDbLine
 10
55.85899999999999
 20
1343.835
 30
0.0
 11
57.591
 21
1343.835
 31
0.0
  0
LINE
  5
17A
330
1E
100
AcDbEntity
  8
0
100
AcDbLine
 10
54.85899999999999
 20
1343.835
 30
0.0
 11
56.591
 21
1343.835
 31
0.0
  0
LINE
  5
17B
330
1E
100
AcDbEntity
  8
0
100
AcDbLine
 10
54.85899999999999
 20
1343.835
 30
0.0
 11
55.85899999999999
 21
1343.835
 31
0.0
  0
LINE
  5
17C
330
1E
100
AcDbEntity
  8
0
100
AcDbLine
 10
53.55360000000001
 20
1343.835
 30
0.0
 11
53.55360000000001
 21
1345.835
 31
0.0
  0
LINE
  5
17D
330
1E
100
AcDbEntity
  8
0
100
AcDbLine
 10
51.6218
 20
1343.835
 30
0.0
 11
53.55360000000001
 21
1343.835
 31
0.0
  0
LINE
  5
17E
330
1E
100
AcDbEntity
  8
0
100
AcDbLine
 10
51.1041
 20
1343.835
 30
0.0
 11
53.036
 21
1343.835
 31
0.0
  0
LINE
  5
17F
330
1E
100
AcDbEntity
  8
0
100
AcDbLine
 10
51.1041
 20
1343.835
 30
0.0
 11
51.6218
 21
1343.835
 31
0.0
  0
LINE
  5
180
330
1E
100
AcDbEntity
  8
0
100
AcDbLine
 10
55.13399999999999
 20
1343.835
 30
0.0
 11
56.86600000000001
 21
1343.835
 31
0.0
  0
LINE
  5
181
330
1E
100
AcDbEntity
  8
0
100
AcDbLine
 10
56.591
 20
1343.835
 30
0.0
 11
57.591
 21
1343.835
 31
0.0
  0
LINE
  5
182
330
1E
100
AcDbEntity
  8
0
100
AcDbLine
 10
57.591
 20
1343.835
 30
0.0
 11
57.591
 21
1345.835
 31
0.0
  0
LINE
  5
183
330
1E
100
AcDbEntity
  8
0
100
AcDbLine
 10
56.86600000000001
 20
1343.835
 30
0.0
 11
56.86600000000001
 21
1345.835
 31
0.0
  0
LINE
  5
184
330
1E
100
AcDbEntity
  8
0
100
AcDbLine
 10
55.866
 20
1343.835
 30
0.0
 11
55.866
 21
1345.835
 31
0.0
  0
LINE
  5
185
330
1E
100
AcDbEntity
  8
0
100
AcDbLine
 10
55.866
 20
1343.835
 30
0.0
 11
56.86600000000001
 21
1343.835
 31
0.0
  0
LINE
  5
186
330
1E
100
AcDbEntity
  8
0
100
AcDbLine
 10
50.0
 20
1345.835
 30
0.0
 11
50.0
 21
1343.835
 31
0.0
  0
LINE
  5
187
330
1E
100
AcDbEntity
  8
0
100
AcDbLine
 10
50.0
 20
1345.835
 30
0.0
 11
50.402
 21
1345.835
 31
0.0
  0
LINE
  5
188
330
1E
100
AcDbEntity
  8
0
100
AcDbLine
 10
51.8162
 20
1345.835
 30
0.0
 11
51.8162
 21
1343.835
 31
0.0
  0
LINE
  5
189
330
1E
100
AcDbEntity
  8
0
100
AcDbLine
 10
51.8162
 20
1345.835
 30
0.0
 11
53.2304
 21
1345.835
 31
0.0
  0
LINE
  5
18A
330
1E
100
AcDbEntity
  8
0
100
AcDbLine
 10
50.402
 20
1345.835
 30
0.0
 11
50.402
 21
1343.835
 31
0.0
  0
LINE
  5
18B
330
1E
100
AcDbEntity
  8
0
100
AcDbLine
 10
50.402
 20
1345.835
 30
0.0
 11
51.8162
 21
1345.835
 31
0.0
  0
LINE
  5
18C
330
1E
100
AcDbEntity
  8
0
100
AcDbLine
 10
53.2304
 20
1345.835
 30
0.0
 11
53.55360000000001
 21
1345.835
 31
0.0
  0
LINE
  5
18D
330
1E
100
AcDbEntity
  8
0
100
AcDbLine
 10
53.2304
 20
1345.835
 30
0.0
 11
53.2304
 21
1343.835
 31
0.0
  0
LINE
  5
18E
330
1E
100
AcDbEntity
  8
0
100
AcDbLine
 10
56.86600000000001
 20
1345.835
 30
0.0
 11
56.86600000000001
 21
1343.835
 31
0.0
  0
LINE
  5
18F
330
1E
100
AcDbEntity
  8
0
100
AcDbLine
 10
56.86600000000001
 20
1345.835
 30
0.0
 11
57.591
 21
1345.835
 31
0.0
  0
LINE
  5
190
330
1E
100
AcDbEntity
  8
0
100
AcDbLine
 10
55.866
 20
1345.835
 30
0.0
 11
55.866
 21
1343.835
 31
0.0
  0
LINE
  5
191
330
1E
100
AcDbEntity
  8
0
100
AcDbLine
 10
55.866
 20
1345.835
 30
0.0
 11
56.86600000000001
 21
1345.835
 31
0.0
  0
LINE
  5
192
330
1E
100
AcDbEntity
  8
0
100
AcDbLine
 10
54.13399999999999
 20
1345.835
 30
0.0
 11
54.13399999999999
 21
1343.835
 31
0.0
  0
LINE
  5
193
330
1E
100
AcDbEntity
  8
0
100
AcDbLine
 10
54.13399999999999
 20
1345.835
 30
0.0
 11
55.866
 21
1345.835
 31
0.0
  0
LINE
  5
194
330
1E
100
AcDbEntity
  8
0
100
AcDbLine
 10
54.13399999999999
 20
1343.835
 30
0.0
 11
54.13399999999999
 21
1345.835
 31
0.0
  0
LINE
  5
195
330
1E
100
AcDbEntity
  8
0
100
AcDbLine
 10
54.13399999999999
 20
1343.835
 30
0.0
 11
55.13399999999999
 21
1343.835
 31
0.0
  0
LINE
  5
196
330
1E
100
AcDbEntity
  8
0
100
AcDbLine
 10
54.13399999999999
 20
1343.835
 30
0.0
 11
55.866
 21
1343.835
 31
0.0
  0
LINE
  5
197
330
1E
100
AcDbEntity
  8
0
100
AcDbLine
 10
49.36600000000001
 20
1345.835
 30
0.0
 11
50.0
 21
1345.835
 31
0.0
  0
LINE
  5
198
330
1E
100
AcDbEntity
  8
0
100
AcDbLine
 10
49.36600000000001
 20
1345.835
 30
0.0
 11
49.36600000000001
 21
1343.835
 31
0.0
  0
LINE
  5
199
330
1E
100
AcDbEntity
  8
0
100
AcDbLine
 10
53.55360000000001
 20
1345.835
 30
0.0
 11
54.13399999999999
 21
1345.835
 31
0.0
  0
LINE
  5
19A
330
1E
100
AcDbEntity
  8
0
100
AcDbLine
 10
53.55360000000001
 20
1345.835
 30
0.0
 11
53.55360000000001
 21
1343.835
 31
0.0
  0
LINE
  5
19B
330
1E
100
AcDbEntity
  8
0
100
AcDbLine
 10
62.4228
 20
1343.835
 30
0.0
 11
63.837
 21
1343.835
 31
0.0
  0
LINE
  5
19C
330
1E
100
AcDbEntity
  8
0
100
AcDbLine
 10
61.0086
 20
1343.835
 30
0.0
 11
61.0086
 21
1345.835
 31
0.0
  0
LINE
  5
19D
330
1E
100
AcDbEntity
  8
0
100
AcDbLine
 10
61.0086
 20
1343.835
 30
0.0
 11
62.4228
 21
1343.835
 31
0.0
  0
LINE
  5
19E
330
1E
100
AcDbEntity
  8
0
100
AcDbLine
 10
62.63399999999999
 20
1343.835
 30
0.0
 11
64.366
 21
1343.835
 31
0.0
  0
LINE
  5
19F
330
1E
100
AcDbEntity
  8
0
100
AcDbLine
 10
65.0
 20
1343.835
 30
0.0
 11
65.0
 21
1345.835
 31
0.0
  0
LINE
  5
1A0
330
1E
100
AcDbEntity
  8
0
100
AcDbLine
 10
65.0
 20
1343.835
 30
0.0
 11
67.0
 21
1343.835
 31
0.0
  0
LINE
  5
1A1
330
1E
100
AcDbEntity
  8
0
100
AcDbLine
 10
64.366
 20
1343.835
 30
0.0
 11
64.366
 21
1345.835
 31
0.0
  0
LINE
  5
1A2
330
1E
100
AcDbEntity
  8
0
100
AcDbLine
 10
63.366
 20
1343.835
 30
0.0
 11
63.366
 21
1345.835
 31
0.0
  0
LINE
  5
1A3
330
1E
100
AcDbEntity
  8
0
100
AcDbLine
 10
63.366
 20
1343.835
 30
0.0
 11
64.366
 21
1343.835
 31
0.0
  0
LINE
  5
1A4
330
1E
100
AcDbEntity
  8
0
100
AcDbLine
 10
61.63399999999999
 20
1343.835
 30
0.0
 11
61.63399999999999
 21
1345.835
 31
0.0
  0
LINE
  5
1A5
330
1E
100
AcDbEntity
  8
0
100
AcDbLine
 10
61.63399999999999
 20
1343.835
 30
0.0
 11
62.63399999999999
 21
1343.835
 31
0.0
  0
LINE
  5
1A6
330
1E
100
AcDbEntity
  8
0
100
AcDbLine
 10
61.63399999999999
 20
1343.835
 30
0.0
 11
63.366
 21
1343.835
 31
0.0
  0
LINE
  5
1A7
330
1E
100
AcDbEntity
  8
0
100
AcDbLine
 10
67.55209999999999
 20
1343.835
 30
0.0
 11
69.4839
 21
1343.835
 31
0.0
  0
LINE
  5
1A8
330
1E
100
AcDbEntity
  8
0
100
AcDbLine
 10
67.0345
 20
1343.835
 30
0.0
 11
67.0345
 21
1345.835
 31
0.0
  0
LINE
  5
1A9
330
1E
100
AcDbEntity
  8
0
100
AcDbLine
 10
67.0345
 20
1343.835
 30
0.0
 11
67.55209999999999
 21
1343.835
 31
0.0
  0
LINE
  5
1AA
330
1E
100
AcDbEntity
  8
0
100
AcDbLine
 10
67.0345
 20
1343.835
 30
0.0
 11
68.9663
 21
1343.835
 31
0.0
  0
LINE
  5
1AB
330
1E
100
AcDbEntity
  8
0
100
AcDbLine
 10
67.5249
 20
1343.835
 30
0.0
 11
68.0425
 21
1343.835
 31
0.0
  0
LINE
  5
1AC
330
1E
100
AcDbEntity
  8
0
100
AcDbLine
 10
66.11069999999999
 20
1343.835
 30
0.0
 11
66.11069999999999
 21
1345.835
 31
0.0
  0
LINE
  5
1AD
330
1E
100
AcDbEntity
  8
0
100
AcDbLine
 10
66.11069999999999
 20
1343.835
 30
0.0
 11
68.0425
 21
1343.835
 31
0.0
  0
LINE
  5
1AE
330
1E
100
AcDbEntity
  8
0
100
AcDbLine
 10
61.0086
 20
1345.835
 30
0.0
 11
61.0086
 21
1343.835
 31
0.0
  0
LINE
  5
1AF
330
1E
100
AcDbEntity
  8
0
100
AcDbLine
 10
61.0086
 20
1345.835
 30
0.0
 11
61.63399999999999
 21
1345.835
 31
0.0
  0
LINE
  5
1B0
330
1E
100
AcDbEntity
  8
0
100
AcDbLine
 10
65.0
 20
1345.835
 30
0.0
 11
65.0
 21
1343.835
 31
0.0
  0
LINE
  5
1B1
330
1E
100
AcDbEntity
  8
0
100
AcDbLine
 10
65.0
 20
1345.835
 30
0.0
 11
65.593
 21
1345.835
 31
0.0
  0
LINE
  5
1B2
330
1E
100
AcDbEntity
  8
0
100
AcDbLine
 10
63.366
 20
1345.835
 30
0.0
 11
63.366
 21
1343.835
 31
0.0
  0
LINE
  5
1B3
330
1E
100
AcDbEntity
  8
0
100
AcDbLine
 10
63.366
 20
1345.835
 30
0.0
 11
64.366
 21
1345.835
 31
0.0
  0
LINE
  5
1B4
330
1E
100
AcDbEntity
  8
0
100
AcDbLine
 10
61.63399999999999
 20
1345.835
 30
0.0
 11
61.63399999999999
 21
1343.835
 31
0.0
  0
LINE
  5
1B5
330
1E
100
AcDbEntity
  8
0
100
AcDbLine
 10
61.63399999999999
 20
1345.835
 30
0.0
 11
63.366
 21
1345.835
 31
0.0
  0
LINE
  5
1B6
330
1E
100
AcDbEntity
  8
0
100
AcDbLine
 10
67.0345
 20
1345.835
 30
0.0
 11
67.0345
 21
1343.835
 31
0.0
  0
LINE
  5
1B7
330
1E
100
AcDbEntity
  8
0
100
AcDbLine
 10
67.0345
 20
1345.835
 30
0.0
 11
68.9663
 21
1345.835
 31
0.0
  0
LINE
  5
1B8
330
1E
100
AcDbEntity
  8
0
100
AcDbLine
 10
66.11069999999999
 20
1345.835
 30
0.0
 11
66.11069999999999
 21
1343.835
 31
0.0
  0
LINE
  5
1B9
330
1E
100
AcDbEntity
  8
0
100
AcDbLine
 10
66.11069999999999
 20
1345.835
 30
0.0
 11
67.0345
 21
1345.835
 31
0.0
  0
LINE
  5
1BA
330
1E
100
AcDbEntity
  8
0
100
AcDbLine
 10
65.593
 20
1345.835
 30
0.0
 11
65.593
 21
1343.835
 31
0.0
  0
LINE
  5
1BB
330
1E
100
AcDbEntity
  8
0
100
AcDbLine
 10
65.593
 20
1345.835
 30
0.0
 11
66.11069999999999
 21
1345.835
 31
0.0
  0
LINE
  5
1BC
330
1E
100
AcDbEntity
  8
0
100
AcDbLine
 10
65.593
 20
1343.835
 30
0.0
 11
65.593
 21
1345.835
 31
0.0
  0
LINE
  5
1BD
330
1E
100
AcDbEntity
  8
0
100
AcDbLine
 10
65.593
 20
1343.835
 30
0.0
 11
67.5249
 21
1343.835
 31
0.0
  0
LINE
  5
1BE
330
1E
100
AcDbEntity
  8
0
100
AcDbLine
 10
65.593
 20
1343.835
 30
0.0
 11
66.11069999999999
 21
1343.835
 31
0.0
  0
LINE
  5
1BF
330
1E
100
AcDbEntity
  8
0
100
AcDbLine
 10
69.4839
 20
1343.835
 30
0.0
 11
69.4839
 21
1345.835
 31
0.0
  0
LINE
  5
1C0
330
1E
100
AcDbEntity
  8
0
100
AcDbLine
 10
68.9663
 20
1343.835
 30
0.0
 11
68.9663
 21
1345.835
 31
0.0
  0
LINE
  5
1C1
330
1E
100
AcDbEntity
  8
0
100
AcDbLine
 10
68.9663
 20
1343.835
 30
0.0
 11
69.4839
 21
1343.835
 31
0.0
  0
LINE
  5
1C2
330
1E
100
AcDbEntity
  8
0
100
AcDbLine
 10
69.134
 20
1343.835
 30
0.0
 11
70.134
 21
1343.835
 31
0.0
  0
LINE
  5
1C3
330
1E
100
AcDbEntity
  8
0
100
AcDbLine
 10
69.134
 20
1343.835
 30
0.0
 11
70.866
 21
1343.835
 31
0.0
  0
LINE
  5
1C4
330
1E
100
AcDbEntity
  8
0
100
AcDbLine
 10
71.4344
 20
1343.835
 30
0.0
 11
73.3662
 21
1343.835
 31
0.0
  0
LINE
  5
1C5
330
1E
100
AcDbEntity
  8
0
100
AcDbLine
 10
73.3662
 20
1343.835
 30
0.0
 11
73.3662
 21
1345.835
 31
0.0
  0
LINE
  5
1C6
330
1E
100
AcDbEntity
  8
0
100
AcDbLine
 10
72.84860000000001
 20
1343.835
 30
0.0
 11
72.84860000000001
 21
1345.835
 31
0.0
  0
LINE
  5
1C7
330
1E
100
AcDbEntity
  8
0
100
AcDbLine
 10
72.84860000000001
 20
1343.835
 30
0.0
 11
73.3662
 21
1343.835
 31
0.0
  0
LINE
  5
1C8
330
1E
100
AcDbEntity
  8
0
100
AcDbLine
 10
70.9167
 20
1343.835
 30
0.0
 11
70.9167
 21
1345.835
 31
0.0
  0
LINE
  5
1C9
330
1E
100
AcDbEntity
  8
0
100
AcDbLine
 10
70.9167
 20
1343.835
 30
0.0
 11
71.4344
 21
1343.835
 31
0.0
  0
LINE
  5
1CA
330
1E
100
AcDbEntity
  8
0
100
AcDbLine
 10
70.9167
 20
1343.835
 30
0.0
 11
72.84860000000001
 21
1343.835
 31
0.0
  0
LINE
  5
1CB
330
1E
100
AcDbEntity
  8
0
100
AcDbLine
 10
73.02939999999999
 20
1343.835
 30
0.0
 11
74.44370000000001
 21
1343.835
 31
0.0
  0
LINE
  5
1CC
330
1E
100
AcDbEntity
  8
0
100
AcDbLine
 10
74.44370000000001
 20
1343.835
 30
0.0
 11
74.44370000000001
 21
1345.835
 31
0.0
  0
LINE
  5
1CD
330
1E
100
AcDbEntity
  8
0
100
AcDbLine
 10
71.6152
 20
1343.835
 30
0.0
 11
73.02939999999999
 21
1343.835
 31
0.0
  0
LINE
  5
1CE
330
1E
100
AcDbEntity
  8
0
100
AcDbLine
 10
70.134
 20
1343.835
 30
0.0
 11
71.866
 21
1343.835
 31
0.0
  0
LINE
  5
1CF
330
1E
100
AcDbEntity
  8
0
100
AcDbLine
 10
70.866
 20
1343.835
 30
0.0
 11
70.866
 21
1345.835
 31
0.0
  0
LINE
  5
1D0
330
1E
100
AcDbEntity
  8
0
100
AcDbLine
 10
70.866
 20
1343.835
 30
0.0
 11
71.866
 21
1343.835
 31
0.0
  0
LINE
  5
1D1
330
1E
100
AcDbEntity
  8
0
100
AcDbLine
 10
69.5814
 20
1343.835
 30
0.0
 11
70.5814
 21
1343.835
 31
0.0
  0
LINE
  5
1D2
330
1E
100
AcDbEntity
  8
0
100
AcDbLine
 10
68.9663
 20
1345.835
 30
0.0
 11
68.9663
 21
1343.835
 31
0.0
  0
LINE
  5
1D3
330
1E
100
AcDbEntity
  8
0
100
AcDbLine
 10
68.9663
 20
1345.835
 30
0.0
 11
69.4839
 21
1345.835
 31
0.0
  0
LINE
  5
1D4
330
1E
100
AcDbEntity
  8
0
100
AcDbLine
 10
72.84860000000001
 20
1345.835
 30
0.0
 11
72.84860000000001
 21
1343.835
 31
0.0
  0
LINE
  5
1D5
330
1E
100
AcDbEntity
  8
0
100
AcDbLine
 10
72.84860000000001
 20
1345.835
 30
0.0
 11
73.3662
 21
1345.835
 31
0.0
  0
LINE
  5
1D6
330
1E
100
AcDbEntity
  8
0
100
AcDbLine
 10
70.9167
 20
1345.835
 30
0.0
 11
70.9167
 21
1343.835
 31
0.0
  0
LINE
  5
1D7
330
1E
100
AcDbEntity
  8
0
100
AcDbLine
 10
70.9167
 20
1345.835
 30
0.0
 11
72.84860000000001
 21
1345.835
 31
0.0
  0
LINE
  5
1D8
330
1E
100
AcDbEntity
  8
0
100
AcDbLine
 10
73.3662
 20
1345.835
 30
0.0
 11
74.44370000000001
 21
1345.835
 31
0.0
  0
LINE
  5
1D9
330
1E
100
AcDbEntity
  8
0
100
AcDbLine
 10
73.3662
 20
1345.835
 30
0.0
 11
73.3662
 21
1343.835
 31
0.0
  0
LINE
  5
1DA
330
1E
100
AcDbEntity
  8
0
100
AcDbLine
 10
70.866
 20
1345.835
 30
0.0
 11
70.866
 21
1343.835
 31
0.0
  0
LINE
  5
1DB
330
1E
100
AcDbEntity
  8
0
100
AcDbLine
 10
70.866
 20
1345.835
 30
0.0
 11
70.9167
 21
1345.835
 31
0.0
  0
LINE
  5
1DC
330
1E
100
AcDbEntity
  8
0
100
AcDbLine
 10
69.4839
 20
1345.835
 30
0.0
 11
70.866
 21
1345.835
 31
0.0
  0
LINE
  5
1DD
330
1E
100
AcDbEntity
  8
0
100
AcDbLine
 10
69.4839
 20
1345.835
 30
0.0
 11
69.4839
 21
1343.835
 31
0.0
  0
LINE
  5
1DE
330
1E
100
AcDbEntity
  8
0
100
AcDbLine
 10
68.8494
 20
1343.835
 30
0.0
 11
70.5814
 21
1343.835
 31
0.0
  0
LINE
  5
1DF
330
1E
100
AcDbEntity
  8
0
100
AcDbLine
 10
67.8494
 20
1343.835
 30
0.0
 11
69.5814
 21
1343.835
 31
0.0
  0
LINE
  5
1E0
330
1E
100
AcDbEntity
  8
0
100
AcDbLine
 10
67.8494
 20
1343.835
 30
0.0
 11
68.8494
 21
1343.835
 31
0.0
  0
LINE
  5
1E1
330
1E
100
AcDbEntity
  8
0
100
AcDbLine
 10
67.09999999999999
 20
1345.835
 30
0.0
 11
90.0
 21
1345.835
 31
0.0
  0
LINE
  5
1E2
330
1E
100
AcDbEntity
  8
0
100
AcDbLine
 10
75.3167
 20
1343.835
 30
0.0
 11
77.2485
 21
1343.835
 31
0.0
  0
LINE
  5
1E3
330
1E
100
AcDbEntity
  8
0
100
AcDbLine
 10
77.2485
 20
1343.835
 30
0.0
 11
77.2485
 21
1345.835
 31
0.0
  0
LINE
  5
1E4
330
1E
100
AcDbEntity
  8
0
100
AcDbLine
 10
76.73090000000001
 20
1343.835
 30
0.0
 11
76.73090000000001
 21
1345.835
 31
0.0
  0
LINE
  5
1E5
330
1E
100
AcDbEntity
  8
0
100
AcDbLine
 10
76.73090000000001
 20
1343.835
 30
0.0
 11
77.2485
 21
1343.835
 31
0.0
  0
LINE
  5
1E6
330
1E
100
AcDbEntity
  8
0
100
AcDbLine
 10
74.79899999999999
 20
1343.835
 30
0.0
 11
74.79899999999999
 21
1345.835
 31
0.0
  0
LINE
  5
1E7
330
1E
100
AcDbEntity
  8
0
100
AcDbLine
 10
74.79899999999999
 20
1343.835
 30
0.0
 11
75.3167
 21
1343.835
 31
0.0
  0
LINE
  5
1E8
330
1E
100
AcDbEntity
  8
0
100
AcDbLine
 10
74.79899999999999
 20
1343.835
 30
0.0
 11
76.73090000000001
 21
1343.835
 31
0.0
  0
LINE
  5
1E9
330
1E
100
AcDbEntity
  8
0
100
AcDbLine
 10
77.634
 20
1343.835
 30
0.0
 11
79.366
 21
1343.835
 31
0.0
  0
LINE
  5
1EA
330
1E
100
AcDbEntity
  8
0
100
AcDbLine
 10
79.19889999999999
 20
1343.835
 30
0.0
 11
81.1308
 21
1343.835
 31
0.0
  0
LINE
  5
1EB
330
1E
100
AcDbEntity
  8
0
100
AcDbLine
 10
83.08124000000001
 20
1343.835
 30
0.0
 11
85.01309
 21
1343.835
 31
0.0
  0
LINE
  5
1EC
330
1E
100
AcDbEntity
  8
0
100
AcDbLine
 10
85.01309
 20
1343.835
 30
0.0
 11
85.01309
 21
1345.835
 31
0.0
  0
LINE
  5
1ED
330
1E
100
AcDbEntity
  8
0
100
AcDbLine
 10
84.49545
 20
1343.835
 30
0.0
 11
84.49545
 21
1345.835
 31
0.0
  0
LINE
  5
1EE
330
1E
100
AcDbEntity
  8
0
100
AcDbLine
 10
84.49545
 20
1343.835
 30
0.0
 11
85.01309
 21
1343.835
 31
0.0
  0
LINE
  5
1EF
330
1E
100
AcDbEntity
  8
0
100
AcDbLine
 10
82.56359999999999
 20
1343.835
 30
0.0
 11
82.56359999999999
 21
1345.835
 31
0.0
  0
LINE
  5
1F0
330
1E
100
AcDbEntity
  8
0
100
AcDbLine
 10
82.56359999999999
 20
1343.835
 30
0.0
 11
83.08124000000001
 21
1343.835
 31
0.0
  0
LINE
  5
1F1
330
1E
100
AcDbEntity
  8
0
100
AcDbLine
 10
82.56359999999999
 20
1343.835
 30
0.0
 11
84.49545
 21
1343.835
 31
0.0
  0
LINE
  5
1F2
330
1E
100
AcDbEntity
  8
0
100
AcDbLine
 10
81.1308
 20
1343.835
 30
0.0
 11
81.1308
 21
1345.835
 31
0.0
  0
LINE
  5
1F3
330
1E
100
AcDbEntity
  8
0
100
AcDbLine
 10
80.61315999999999
 20
1343.835
 30
0.0
 11
80.61315999999999
 21
1345.835
 31
0.0
  0
LINE
  5
1F4
330
1E
100
AcDbEntity
  8
0
100
AcDbLine
 10
80.61315999999999
 20
1343.835
 30
0.0
 11
81.1308
 21
1343.835
 31
0.0
  0
LINE
  5
1F5
330
1E
100
AcDbEntity
  8
0
100
AcDbLine
 10
78.68129999999999
 20
1343.835
 30
0.0
 11
78.68129999999999
 21
1345.835
 31
0.0
  0
LINE
  5
1F6
330
1E
100
AcDbEntity
  8
0
100
AcDbLine
 10
78.68129999999999
 20
1343.835
 30
0.0
 11
79.19889999999999
 21
1343.835
 31
0.0
  0
LINE
  5
1F7
330
1E
100
AcDbEntity
  8
0
100
AcDbLine
 10
78.68129999999999
 20
1343.835
 30
0.0
 11
80.61315999999999
 21
1343.835
 31
0.0
  0
LINE
  5
1F8
330
1E
100
AcDbEntity
  8
0
100
AcDbLine
 10
78.366
 20
1343.835
 30
0.0
 11
78.366
 21
1345.835
 31
0.0
  0
LINE
  5
1F9
330
1E
100
AcDbEntity
  8
0
100
AcDbLine
 10
78.366
 20
1343.835
 30
0.0
 11
79.366
 21
1343.835
 31
0.0
  0
LINE
  5
1FA
330
1E
100
AcDbEntity
  8
0
100
AcDbLine
 10
76.73090000000001
 20
1345.835
 30
0.0
 11
76.73090000000001
 21
1343.835
 31
0.0
  0
LINE
  5
1FB
330
1E
100
AcDbEntity
  8
0
100
AcDbLine
 10
76.73090000000001
 20
1345.835
 30
0.0
 11
77.2485
 21
1345.835
 31
0.0
  0
LINE
  5
1FC
330
1E
100
AcDbEntity
  8
0
100
AcDbLine
 10
74.79899999999999
 20
1345.835
 30
0.0
 11
74.79899999999999
 21
1343.835
 31
0.0
  0
LINE
  5
1FD
330
1E
100
AcDbEntity
  8
0
100
AcDbLine
 10
74.79899999999999
 20
1345.835
 30
0.0
 11
76.73090000000001
 21
1345.835
 31
0.0
  0
LINE
  5
1FE
330
1E
100
AcDbEntity
  8
0
100
AcDbLine
 10
84.49545
 20
1345.835
 30
0.0
 11
84.49545
 21
1343.835
 31
0.0
  0
LINE
  5
1FF
330
1E
100
AcDbEntity
  8
0
100
AcDbLine
 10
84.49545
 20
1345.835
 30
0.0
 11
85.01309
 21
1345.835
 31
0.0
  0
LINE
  5
200
330
1E
100
AcDbEntity
  8
0
100
AcDbLine
 10
82.56359999999999
 20
1345.835
 30
0.0
 11
82.56359999999999
 21
1343.835
 31
0.0
  0
LINE
  5
201
330
1E
100
AcDbEntity
  8
0
100
AcDbLine
 10
82.56359999999999
 20
1345.835
 30
0.0
 11
84.49545
 21
1345.835
 31
0.0
  0
LINE
  5
202
330
1E
100
AcDbEntity
  8
0
100
AcDbLine
 10
80.61315999999999
 20
1345.835
 30
0.0
 11
80.61315999999999
 21
1343.835
 31
0.0
  0
LINE
  5
203
330
1E
100
AcDbEntity
  8
0
100
AcDbLine
 10
80.61315999999999
 20
1345.835
 30
0.0
 11
81.1308
 21
1345.835
 31
0.0
  0
LINE
  5
204
330
1E
100
AcDbEntity
  8
0
100
AcDbLine
 10
78.68129999999999
 20
1345.835
 30
0.0
 11
78.68129999999999
 21
1343.835
 31
0.0
  0
LINE
  5
205
330
1E
100
AcDbEntity
  8
0
100
AcDbLine
 10
78.68129999999999
 20
1345.835
 30
0.0
 11
80.61315999999999
 21
1345.835
 31
0.0
  0
LINE
  5
206
330
1E
100
AcDbEntity
  8
0
100
AcDbLine
 10
78.366
 20
1345.835
 30
0.0
 11
78.366
 21
1343.835
 31
0.0
  0
LINE
  5
207
330
1E
100
AcDbEntity
  8
0
100
AcDbLine
 10
78.366
 20
1345.835
 30
0.0
 11
78.68129999999999
 21
1345.835
 31
0.0
  0
LINE
  5
208
330
1E
100
AcDbEntity
  8
0
100
AcDbLine
 10
77.2485
 20
1345.835
 30
0.0
 11
78.366
 21
1345.835
 31
0.0
  0
LINE
  5
209
330
1E
100
AcDbEntity
  8
0
100
AcDbLine
 10
77.2485
 20
1345.835
 30
0.0
 11
77.2485
 21
1343.835
 31
0.0
  0
LINE
  5
20A
330
1E
100
AcDbEntity
  8
0
100
AcDbLine
 10
76.634
 20
1343.835
 30
0.0
 11
77.634
 21
1343.835
 31
0.0
  0
LINE
  5
20B
330
1E
100
AcDbEntity
  8
0
100
AcDbLine
 10
76.634
 20
1343.835
 30
0.0
 11
78.366
 21
1343.835
 31
0.0
  0
LINE
  5
20C
330
1E
100
AcDbEntity
  8
0
100
AcDbLine
 10
89.0
 20
1343.835
 30
0.0
 11
89.0
 21
1345.835
 31
0.0
  0
LINE
  5
20D
330
1E
100
AcDbEntity
  8
0
100
AcDbLine
 10
89.0
 20
1343.835
 30
0.0
 11
91.0
 21
1343.835
 31
0.0
  0
LINE
  5
20E
330
1E
100
AcDbEntity
  8
0
100
AcDbLine
 10
91.0
 20
1343.835
 30
0.0
 11
91.0
 21
1345.835
 31
0.0
  0
LINE
  5
20F
330
1E
100
AcDbEntity
  8
0
100
AcDbLine
 10
94.98690999999999
 20
1343.835
 30
0.0
 11
94.98690999999999
 21
1345.835
 31
0.0
  0
LINE
  5
210
330
1E
100
AcDbEntity
  8
0
100
AcDbLine
 10
94.98690999999999
 20
1343.835
 30
0.0
 11
95.50454999999999
 21
1343.835
 31
0.0
  0
LINE
  5
211
330
1E
100
AcDbEntity
  8
0
100
AcDbLine
 10
94.98690999999999
 20
1343.835
 30
0.0
 11
96.91876
 21
1343.835
 31
0.0
  0
LINE
  5
212
330
1E
100
AcDbEntity
  8
0
100
AcDbLine
 10
95.50454999999999
 20
1343.835
 30
0.0
 11
95.50454999999999
 21
1345.835
 31
0.0
  0
LINE
  5
213
330
1E
100
AcDbEntity
  8
0
100
AcDbLine
 10
95.50454999999999
 20
1343.835
 30
0.0
 11
97.4364
 21
1343.835
 31
0.0
  0
LINE
  5
214
330
1E
100
AcDbEntity
  8
0
100
AcDbLine
 10
89.0
 20
1345.835
 30
0.0
 11
89.0
 21
1343.835
 31
0.0
  0
LINE
  5
215
330
1E
100
AcDbEntity
  8
0
100
AcDbLine
 10
89.0
 20
1345.835
 30
0.0
 11
91.0
 21
1345.835
 31
0.0
  0
LINE
  5
216
330
1E
100
AcDbEntity
  8
0
100
AcDbLine
 10
94.98690999999999
 20
1345.835
 30
0.0
 11
95.50454999999999
 21
1345.835
 31
0.0
  0
LINE
  5
217
330
1E
100
AcDbEntity
  8
0
100
AcDbLine
 10
94.98690999999999
 20
1345.835
 30
0.0
 11
94.98690999999999
 21
1343.835
 31
0.0
  0
LINE
  5
218
330
1E
100
AcDbEntity
  8
0
100
AcDbLine
 10
95.50454999999999
 20
1345.835
 30
0.0
 11
97.4364
 21
1345.835
 31
0.0
  0
LINE
  5
219
330
1E
100
AcDbEntity
  8
0
100
AcDbLine
 10
95.50454999999999
 20
1345.835
 30
0.0
 11
95.50454999999999
 21
1343.835
 31
0.0
  0
LINE
  5
21A
330
1E
100
AcDbEntity
  8
0
100
AcDbLine
 10
96.91876
 20
1343.835
 30
0.0
 11
97.4364
 21
1343.835
 31
0.0
  0
LINE
  5
21B
330
1E
100
AcDbEntity
  8
0
100
AcDbLine
 10
97.4364
 20
1343.835
 30
0.0
 11
97.4364
 21
1345.835
 31
0.0
  0
LINE
  5
21C
330
1E
100
AcDbEntity
  8
0
100
AcDbLine
 10
90.0
 20
1345.835
 30
0.0
 11
112.9
 21
1345.835
 31
0.0
  0
LINE
  5
21D
330
1E
100
AcDbEntity
  8
0
100
AcDbLine
 10
85.01309
 20
1345.835
 30
0.0
 11
89.0
 21
1345.835
 31
0.0
  0
LINE
  5
21E
330
1E
100
AcDbEntity
  8
0
100
AcDbLine
 10
85.01309
 20
1345.835
 30
0.0
 11
85.01309
 21
1343.835
 31
0.0
  0
LINE
  5
21F
330
1E
100
AcDbEntity
  8
0
100
AcDbLine
 10
81.1308
 20
1345.835
 30
0.0
 11
82.56359999999999
 21
1345.835
 31
0.0
  0
LINE
  5
220
330
1E
100
AcDbEntity
  8
0
100
AcDbLine
 10
81.1308
 20
1345.835
 30
0.0
 11
81.1308
 21
1343.835
 31
0.0
  0
LINE
  5
221
330
1E
100
AcDbEntity
  8
0
100
AcDbLine
 10
74.44370000000001
 20
1345.835
 30
0.0
 11
74.79899999999999
 21
1345.835
 31
0.0
  0
LINE
  5
222
330
1E
100
AcDbEntity
  8
0
100
AcDbLine
 10
74.44370000000001
 20
1345.835
 30
0.0
 11
74.44370000000001
 21
1343.835
 31
0.0
  0
LINE
  5
223
330
1E
100
AcDbEntity
  8
0
100
AcDbLine
 10
64.366
 20
1345.835
 30
0.0
 11
65.0
 21
1345.835
 31
0.0
  0
LINE
  5
224
330
1E
100
AcDbEntity
  8
0
100
AcDbLine
 10
64.366
 20
1345.835
 30
0.0
 11
64.366
 21
1343.835
 31
0.0
  0
LINE
  5
225
330
1E
100
AcDbEntity
  8
0
100
AcDbLine
 10
57.591
 20
1345.835
 30
0.0
 11
61.0086
 21
1345.835
 31
0.0
  0
LINE
  5
226
330
1E
100
AcDbEntity
  8
0
100
AcDbLine
 10
57.591
 20
1345.835
 30
0.0
 11
57.591
 21
1343.835
 31
0.0
  0
LINE
  5
227
330
1E
100
AcDbEntity
  8
0
100
AcDbLine
 10
45.8
 20
1345.835
 30
0.0
 11
46.63399999999999
 21
1345.835
 31
0.0
  0
LINE
  5
228
330
1E
100
AcDbEntity
  8
0
100
AcDbLine
 10
45.8
 20
1345.835
 30
0.0
 11
67.09999999999999
 21
1345.835
 31
0.0
  0
LINE
  5
229
330
1E
100
AcDbEntity
  8
0
100
AcDbLine
 10
39.0648
 20
1345.835
 30
0.0
 11
39.7954
 21
1345.835
 31
0.0
  0
LINE
  5
22A
330
1E
100
AcDbEntity
  8
0
100
AcDbLine
 10
39.0648
 20
1345.835
 30
0.0
 11
39.0648
 21
1343.835
 31
0.0
  0
LINE
  5
22B
330
1E
100
AcDbEntity
  8
0
100
AcDbLine
 10
44.6007
 20
1345.835
 30
0.0
 11
45.8
 21
1345.835
 31
0.0
  0
LINE
  5
22C
330
1E
100
AcDbEntity
  8
0
100
AcDbLine
 10
44.6007
 20
1345.835
 30
0.0
 11
44.6007
 21
1343.835
 31
0.0
  0
LINE
  5
22D
330
1E
100
AcDbEntity
  8
0
100
AcDbLine
 10
32.0172
 20
1345.835
 30
0.0
 11
35.0
 21
1345.835
 31
0.0
  0
LINE
  5
22E
330
1E
100
AcDbEntity
  8
0
100
AcDbLine
 10
32.0172
 20
1345.835
 30
0.0
 11
32.0172
 21
1343.835
 31
0.0
  0
LINE
  5
22F
330
1E
100
AcDbEntity
  8
0
100
AcDbLine
 10
27.2
 20
1345.835
 30
0.0
 11
28.87819999999999
 21
1345.835
 31
0.0
  0
LINE
  5
230
330
1E
100
AcDbEntity
  8
0
100
AcDbLine
 10
27.2
 20
1345.835
 30
0.0
 11
45.8
 21
1345.835
 31
0.0
  0
LINE
  5
231
330
1E
100
AcDbEntity
  8
0
100
AcDbLine
 10
22.0
 20
1345.835
 30
0.0
 11
22.12639999999999
 21
1345.835
 31
0.0
  0
LINE
  5
232
330
1E
100
AcDbEntity
  8
0
100
AcDbLine
 10
22.0
 20
1345.835
 30
0.0
 11
22.0
 21
1343.835
 31
0.0
  0
LINE
  5
233
330
1E
100
AcDbEntity
  8
0
100
AcDbLine
 10
24.5759
 20
1345.835
 30
0.0
 11
27.2
 21
1345.835
 31
0.0
  0
LINE
  5
234
330
1E
100
AcDbEntity
  8
0
100
AcDbLine
 10
24.5759
 20
1345.835
 30
0.0
 11
24.5759
 21
1343.835
 31
0.0
  0
LINE
  5
235
330
1E
100
AcDbEntity
  8
0
100
AcDbLine
 10
18.6199
 20
1345.835
 30
0.0
 11
20.0
 21
1345.835
 31
0.0
  0
LINE
  5
236
330
1E
100
AcDbEntity
  8
0
100
AcDbLine
 10
12.9
 20
1345.835
 30
0.0
 11
15.8878
 21
1345.835
 31
0.0
  0
LINE
  5
237
330
1E
100
AcDbEntity
  8
0
100
AcDbLine
 10
12.9
 20
1345.835
 30
0.0
 11
27.2
 21
1345.835
 31
0.0
  0
LINE
  5
238
330
1E
100
AcDbEntity
  8
0
100
AcDbLine
 10
7.0
 20
1345.835
 30
0.0
 11
7.6375
 21
1345.835
 31
0.0
  0
LINE
  5
239
330
1E
100
AcDbEntity
  8
0
100
AcDbLine
 10
7.0
 20
1345.835
 30
0.0
 11
7.0
 21
1343.835
 31
0.0
  0
LINE
  5
23A
330
1E
100
AcDbEntity
  8
0
100
AcDbLine
 10
10.08699999999999
 20
1345.835
 30
0.0
 11
12.9
 21
1345.835
 31
0.0
  0
LINE
  5
23B
330
1E
100
AcDbEntity
  8
0
100
AcDbLine
 10
10.08699999999999
 20
1345.835
 30
0.0
 11
10.08699999999999
 21
1343.835
 31
0.0
  0
LINE
  5
23C
330
1E
100
AcDbEntity
  8
0
100
AcDbLine
 10
4.2
 20
1345.835
 30
0.0
 11
5.0
 21
1345.835
 31
0.0
  0
LINE
  5
23D
330
1E
100
AcDbEntity
  8
0
100
AcDbLine
 10
4.2
 20
1345.835
 30
0.0
 11
12.9
 21
1345.835
 31
0.0
  0
LINE
  5
23E
330
1E
100
AcDbEntity
  8
0
100
AcDbLine
 10
0.9999999999999989
 20
1345.835
 30
0.0
 11
4.2
 21
1345.835
 31
0.0
  0
LINE
  5
23F
330
1E
100
AcDbEntity
  8
0
100
AcDbLine
 10
98.86920000000001
 20
1343.835
 30
0.0
 11
98.86920000000001
 21
1345.835
 31
0.0
  0
LINE
  5
240
330
1E
100
AcDbEntity
  8
0
100
AcDbLine
 10
98.86920000000001
 20
1343.835
 30
0.0
 11
99.38684000000002
 21
1343.835
 31
0.0
  0
LINE
  5
241
330
1E
100
AcDbEntity
  8
0
100
AcDbLine
 10
98.86920000000001
 20
1343.835
 30
0.0
 11
100.8010999999999
 21
1343.835
 31
0.0
  0
LINE
  5
242
330
1E
100
AcDbEntity
  8
0
100
AcDbLine
 10
100.634
 20
1343.835
 30
0.0
 11
101.634
 21
1343.835
 31
0.0
  0
LINE
  5
243
330
1E
100
AcDbEntity
  8
0
100
AcDbLine
 10
100.634
 20
1343.835
 30
0.0
 11
102.366
 21
1343.835
 31
0.0
  0
LINE
  5
244
330
1E
100
AcDbEntity
  8
0
100
AcDbLine
 10
99.38684000000002
 20
1343.835
 30
0.0
 11
99.38684000000002
 21
1345.835
 31
0.0
  0
LINE
  5
245
330
1E
100
AcDbEntity
  8
0
100
AcDbLine
 10
99.38684000000002
 20
1343.835
 30
0.0
 11
101.3187
 21
1343.835
 31
0.0
  0
LINE
  5
246
330
1E
100
AcDbEntity
  8
0
100
AcDbLine
 10
100.8010999999999
 20
1343.835
 30
0.0
 11
101.3187
 21
1343.835
 31
0.0
  0
LINE
  5
247
330
1E
100
AcDbEntity
  8
0
100
AcDbLine
 10
101.634
 20
1343.835
 30
0.0
 11
101.634
 21
1345.835
 31
0.0
  0
LINE
  5
248
330
1E
100
AcDbEntity
  8
0
100
AcDbLine
 10
101.634
 20
1343.835
 30
0.0
 11
103.366
 21
1343.835
 31
0.0
  0
LINE
  5
249
330
1E
100
AcDbEntity
  8
0
100
AcDbLine
 10
102.366
 20
1343.835
 30
0.0
 11
103.366
 21
1343.835
 31
0.0
  0
LINE
  5
24A
330
1E
100
AcDbEntity
  8
0
100
AcDbLine
 10
102.7514999999999
 20
1343.835
 30
0.0
 11
102.7514999999999
 21
1345.835
 31
0.0
  0
LINE
  5
24B
330
1E
100
AcDbEntity
  8
0
100
AcDbLine
 10
102.7514999999999
 20
1343.835
 30
0.0
 11
103.2691
 21
1343.835
 31
0.0
  0
LINE
  5
24C
330
1E
100
AcDbEntity
  8
0
100
AcDbLine
 10
102.7514999999999
 20
1343.835
 30
0.0
 11
104.6833
 21
1343.835
 31
0.0
  0
LINE
  5
24D
330
1E
100
AcDbEntity
  8
0
100
AcDbLine
 10
103.2691
 20
1343.835
 30
0.0
 11
103.2691
 21
1345.835
 31
0.0
  0
LINE
  5
24E
330
1E
100
AcDbEntity
  8
0
100
AcDbLine
 10
103.2691
 20
1343.835
 30
0.0
 11
105.201
 21
1343.835
 31
0.0
  0
LINE
  5
24F
330
1E
100
AcDbEntity
  8
0
100
AcDbLine
 10
106.6338
 20
1343.835
 30
0.0
 11
106.6338
 21
1345.835
 31
0.0
  0
LINE
  5
250
330
1E
100
AcDbEntity
  8
0
100
AcDbLine
 10
106.6338
 20
1343.835
 30
0.0
 11
107.1514
 21
1343.835
 31
0.0
  0
LINE
  5
251
330
1E
100
AcDbEntity
  8
0
100
AcDbLine
 10
106.6338
 20
1343.835
 30
0.0
 11
108.5655999999999
 21
1343.835
 31
0.0
  0
LINE
  5
252
330
1E
100
AcDbEntity
  8
0
100
AcDbLine
 10
104.6833
 20
1343.835
 30
0.0
 11
105.201
 21
1343.835
 31
0.0
  0
LINE
  5
253
330
1E
100
AcDbEntity
  8
0
100
AcDbLine
 10
105.201
 20
1343.835
 30
0.0
 11
105.201
 21
1345.835
 31
0.0
  0
LINE
  5
254
330
1E
100
AcDbEntity
  8
0
100
AcDbLine
 10
101.3187
 20
1343.835
 30
0.0
 11
101.3187
 21
1345.835
 31
0.0
  0
LINE
  5
255
330
1E
100
AcDbEntity
  8
0
100
AcDbLine
 10
105.5563
 20
1343.835
 30
0.0
 11
105.5563
 21
1345.835
 31
0.0
  0
LINE
  5
256
330
1E
100
AcDbEntity
  8
0
100
AcDbLine
 10
105.5563
 20
1343.835
 30
0.0
 11
106.9706
 21
1343.835
 31
0.0
  0
LINE
  5
257
330
1E
100
AcDbEntity
  8
0
100
AcDbLine
 10
107.1514
 20
1343.835
 30
0.0
 11
107.1514
 21
1345.835
 31
0.0
  0
LINE
  5
258
330
1E
100
AcDbEntity
  8
0
100
AcDbLine
 10
107.1514
 20
1343.835
 30
0.0
 11
109.0832999999999
 21
1343.835
 31
0.0
  0
LINE
  5
259
330
1E
100
AcDbEntity
  8
0
100
AcDbLine
 10
108.5655999999999
 20
1343.835
 30
0.0
 11
109.0832999999999
 21
1343.835
 31
0.0
  0
LINE
  5
25A
330
1E
100
AcDbEntity
  8
0
100
AcDbLine
 10
109.0832999999999
 20
1343.835
 30
0.0
 11
109.0832999999999
 21
1345.835
 31
0.0
  0
LINE
  5
25B
330
1E
100
AcDbEntity
  8
0
100
AcDbLine
 10
108.1339999999999
 20
1343.835
 30
0.0
 11
109.1339999999999
 21
1343.835
 31
0.0
  0
LINE
  5
25C
330
1E
100
AcDbEntity
  8
0
100
AcDbLine
 10
108.1339999999999
 20
1343.835
 30
0.0
 11
109.8659999999999
 21
1343.835
 31
0.0
  0
LINE
  5
25D
330
1E
100
AcDbEntity
  8
0
100
AcDbLine
 10
110.5161
 20
1343.835
 30
0.0
 11
110.5161
 21
1345.835
 31
0.0
  0
LINE
  5
25E
330
1E
100
AcDbEntity
  8
0
100
AcDbLine
 10
110.5161
 20
1343.835
 30
0.0
 11
111.0336999999999
 21
1343.835
 31
0.0
  0
LINE
  5
25F
330
1E
100
AcDbEntity
  8
0
100
AcDbLine
 10
110.5161
 20
1343.835
 30
0.0
 11
112.4479
 21
1343.835
 31
0.0
  0
LINE
  5
260
330
1E
100
AcDbEntity
  8
0
100
AcDbLine
 10
111.0336999999999
 20
1343.835
 30
0.0
 11
111.0336999999999
 21
1345.835
 31
0.0
  0
LINE
  5
261
330
1E
100
AcDbEntity
  8
0
100
AcDbLine
 10
111.0336999999999
 20
1343.835
 30
0.0
 11
112.9655
 21
1343.835
 31
0.0
  0
LINE
  5
262
330
1E
100
AcDbEntity
  8
0
100
AcDbLine
 10
109.1339999999999
 20
1343.835
 30
0.0
 11
109.1339999999999
 21
1345.835
 31
0.0
  0
LINE
  5
263
330
1E
100
AcDbEntity
  8
0
100
AcDbLine
 10
109.1339999999999
 20
1343.835
 30
0.0
 11
110.8659999999999
 21
1343.835
 31
0.0
  0
LINE
  5
264
330
1E
100
AcDbEntity
  8
0
100
AcDbLine
 10
109.8659999999999
 20
1343.835
 30
0.0
 11
110.8659999999999
 21
1343.835
 31
0.0
  0
LINE
  5
265
330
1E
100
AcDbEntity
  8
0
100
AcDbLine
 10
106.9706
 20
1343.835
 30
0.0
 11
108.3847999999999
 21
1343.835
 31
0.0
  0
LINE
  5
266
330
1E
100
AcDbEntity
  8
0
100
AcDbLine
 10
109.4186
 20
1343.835
 30
0.0
 11
111.1506
 21
1343.835
 31
0.0
  0
LINE
  5
267
330
1E
100
AcDbEntity
  8
0
100
AcDbLine
 10
109.4186
 20
1343.835
 30
0.0
 11
110.4186
 21
1343.835
 31
0.0
  0
LINE
  5
268
330
1E
100
AcDbEntity
  8
0
100
AcDbLine
 10
111.1506
 20
1343.835
 30
0.0
 11
112.1505999999999
 21
1343.835
 31
0.0
  0
LINE
  5
269
330
1E
100
AcDbEntity
  8
0
100
AcDbLine
 10
110.4186
 20
1343.835
 30
0.0
 11
112.1505999999999
 21
1343.835
 31
0.0
  0
LINE
  5
26A
330
1E
100
AcDbEntity
  8
0
100
AcDbLine
 10
112.4479
 20
1343.835
 30
0.0
 11
112.9655
 21
1343.835
 31
0.0
  0
LINE
  5
26B
330
1E
100
AcDbEntity
  8
0
100
AcDbLine
 10
111.9574999999999
 20
1343.835
 30
0.0
 11
113.8893
 21
1343.835
 31
0.0
  0
LINE
  5
26C
330
1E
100
AcDbEntity
  8
0
100
AcDbLine
 10
111.9574999999999
 20
1343.835
 30
0.0
 11
112.4751
 21
1343.835
 31
0.0
  0
LINE
  5
26D
330
1E
100
AcDbEntity
  8
0
100
AcDbLine
 10
98.86920000000001
 20
1345.835
 30
0.0
 11
99.38684000000002
 21
1345.835
 31
0.0
  0
LINE
  5
26E
330
1E
100
AcDbEntity
  8
0
100
AcDbLine
 10
98.86920000000001
 20
1345.835
 30
0.0
 11
98.86920000000001
 21
1343.835
 31
0.0
  0
LINE
  5
26F
330
1E
100
AcDbEntity
  8
0
100
AcDbLine
 10
101.634
 20
1345.835
 30
0.0
 11
102.7514999999999
 21
1345.835
 31
0.0
  0
LINE
  5
270
330
1E
100
AcDbEntity
  8
0
100
AcDbLine
 10
101.634
 20
1345.835
 30
0.0
 11
101.634
 21
1343.835
 31
0.0
  0
LINE
  5
271
330
1E
100
AcDbEntity
  8
0
100
AcDbLine
 10
102.7514999999999
 20
1345.835
 30
0.0
 11
103.2691
 21
1345.835
 31
0.0
  0
LINE
  5
272
330
1E
100
AcDbEntity
  8
0
100
AcDbLine
 10
102.7514999999999
 20
1345.835
 30
0.0
 11
102.7514999999999
 21
1343.835
 31
0.0
  0
LINE
  5
273
330
1E
100
AcDbEntity
  8
0
100
AcDbLine
 10
103.2691
 20
1345.835
 30
0.0
 11
105.201
 21
1345.835
 31
0.0
  0
LINE
  5
274
330
1E
100
AcDbEntity
  8
0
100
AcDbLine
 10
103.2691
 20
1345.835
 30
0.0
 11
103.2691
 21
1343.835
 31
0.0
  0
LINE
  5
275
330
1E
100
AcDbEntity
  8
0
100
AcDbLine
 10
101.3187
 20
1345.835
 30
0.0
 11
101.3187
 21
1343.835
 31
0.0
  0
LINE
  5
276
330
1E
100
AcDbEntity
  8
0
100
AcDbLine
 10
101.3187
 20
1345.835
 30
0.0
 11
101.634
 21
1345.835
 31
0.0
  0
LINE
  5
277
330
1E
100
AcDbEntity
  8
0
100
AcDbLine
 10
99.38684000000002
 20
1345.835
 30
0.0
 11
101.3187
 21
1345.835
 31
0.0
  0
LINE
  5
278
330
1E
100
AcDbEntity
  8
0
100
AcDbLine
 10
99.38684000000002
 20
1345.835
 30
0.0
 11
99.38684000000002
 21
1343.835
 31
0.0
  0
LINE
  5
279
330
1E
100
AcDbEntity
  8
0
100
AcDbLine
 10
106.6338
 20
1345.835
 30
0.0
 11
107.1514
 21
1345.835
 31
0.0
  0
LINE
  5
27A
330
1E
100
AcDbEntity
  8
0
100
AcDbLine
 10
106.6338
 20
1345.835
 30
0.0
 11
106.6338
 21
1343.835
 31
0.0
  0
LINE
  5
27B
330
1E
100
AcDbEntity
  8
0
100
AcDbLine
 10
107.1514
 20
1345.835
 30
0.0
 11
109.0832999999999
 21
1345.835
 31
0.0
  0
LINE
  5
27C
330
1E
100
AcDbEntity
  8
0
100
AcDbLine
 10
107.1514
 20
1345.835
 30
0.0
 11
107.1514
 21
1343.835
 31
0.0
  0
LINE
  5
27D
330
1E
100
AcDbEntity
  8
0
100
AcDbLine
 10
110.5161
 20
1345.835
 30
0.0
 11
111.0336999999999
 21
1345.835
 31
0.0
  0
LINE
  5
27E
330
1E
100
AcDbEntity
  8
0
100
AcDbLine
 10
110.5161
 20
1345.835
 30
0.0
 11
110.5161
 21
1343.835
 31
0.0
  0
LINE
  5
27F
330
1E
100
AcDbEntity
  8
0
100
AcDbLine
 10
111.0336999999999
 20
1345.835
 30
0.0
 11
112.9655
 21
1345.835
 31
0.0
  0
LINE
  5
280
330
1E
100
AcDbEntity
  8
0
100
AcDbLine
 10
111.0336999999999
 20
1345.835
 30
0.0
 11
111.0336999999999
 21
1343.835
 31
0.0
  0
LINE
  5
281
330
1E
100
AcDbEntity
  8
0
100
AcDbLine
 10
109.0832999999999
 20
1345.835
 30
0.0
 11
109.1339999999999
 21
1345.835
 31
0.0
  0
LINE
  5
282
330
1E
100
AcDbEntity
  8
0
100
AcDbLine
 10
109.0832999999999
 20
1345.835
 30
0.0
 11
109.0832999999999
 21
1343.835
 31
0.0
  0
LINE
  5
283
330
1E
100
AcDbEntity
  8
0
100
AcDbLine
 10
109.1339999999999
 20
1345.835
 30
0.0
 11
110.5161
 21
1345.835
 31
0.0
  0
LINE
  5
284
330
1E
100
AcDbEntity
  8
0
100
AcDbLine
 10
109.1339999999999
 20
1345.835
 30
0.0
 11
109.1339999999999
 21
1343.835
 31
0.0
  0
LINE
  5
285
330
1E
100
AcDbEntity
  8
0
100
AcDbLine
 10
105.5563
 20
1345.835
 30
0.0
 11
106.6338
 21
1345.835
 31
0.0
  0
LINE
  5
286
330
1E
100
AcDbEntity
  8
0
100
AcDbLine
 10
105.5563
 20
1345.835
 30
0.0
 11
105.5563
 21
1343.835
 31
0.0
  0
LINE
  5
287
330
1E
100
AcDbEntity
  8
0
100
AcDbLine
 10
112.4751
 20
1343.835
 30
0.0
 11
114.407
 21
1343.835
 31
0.0
  0
LINE
  5
288
330
1E
100
AcDbEntity
  8
0
100
AcDbLine
 10
112.9655
 20
1343.835
 30
0.0
 11
112.9655
 21
1345.835
 31
0.0
  0
LINE
  5
289
330
1E
100
AcDbEntity
  8
0
100
AcDbLine
 10
113.8893
 20
1343.835
 30
0.0
 11
113.8893
 21
1345.835
 31
0.0
  0
LINE
  5
28A
330
1E
100
AcDbEntity
  8
0
100
AcDbLine
 10
113.8893
 20
1343.835
 30
0.0
 11
114.407
 21
1343.835
 31
0.0
  0
LINE
  5
28B
330
1E
100
AcDbEntity
  8
0
100
AcDbLine
 10
114.407
 20
1343.835
 30
0.0
 11
114.407
 21
1345.835
 31
0.0
  0
LINE
  5
28C
330
1E
100
AcDbEntity
  8
0
100
AcDbLine
 10
115.6339999999999
 20
1343.835
 30
0.0
 11
115.6339999999999
 21
1345.835
 31
0.0
  0
LINE
  5
28D
330
1E
100
AcDbEntity
  8
0
100
AcDbLine
 10
115.6339999999999
 20
1343.835
 30
0.0
 11
116.6339999999999
 21
1343.835
 31
0.0
  0
LINE
  5
28E
330
1E
100
AcDbEntity
  8
0
100
AcDbLine
 10
115.6339999999999
 20
1343.835
 30
0.0
 11
117.3659999999999
 21
1343.835
 31
0.0
  0
LINE
  5
28F
330
1E
100
AcDbEntity
  8
0
100
AcDbLine
 10
116.6339999999999
 20
1343.835
 30
0.0
 11
116.6339999999999
 21
1345.835
 31
0.0
  0
LINE
  5
290
330
1E
100
AcDbEntity
  8
0
100
AcDbLine
 10
116.6339999999999
 20
1343.835
 30
0.0
 11
118.3659999999999
 21
1343.835
 31
0.0
  0
LINE
  5
291
330
1E
100
AcDbEntity
  8
0
100
AcDbLine
 10
117.3659999999999
 20
1343.835
 30
0.0
 11
118.3659999999999
 21
1343.835
 31
0.0
  0
LINE
  5
292
330
1E
100
AcDbEntity
  8
0
100
AcDbLine
 10
116.1629999999999
 20
1343.835
 30
0.0
 11
117.5772
 21
1343.835
 31
0.0
  0
LINE
  5
293
330
1E
100
AcDbEntity
  8
0
100
AcDbLine
 10
118.3659999999999
 20
1343.835
 30
0.0
 11
118.3659999999999
 21
1345.835
 31
0.0
  0
LINE
  5
294
330
1E
100
AcDbEntity
  8
0
100
AcDbLine
 10
117.5772
 20
1343.835
 30
0.0
 11
118.9913999999999
 21
1343.835
 31
0.0
  0
LINE
  5
295
330
1E
100
AcDbEntity
  8
0
100
AcDbLine
 10
118.9913999999999
 20
1343.835
 30
0.0
 11
118.9913999999999
 21
1345.835
 31
0.0
  0
LINE
  5
296
330
1E
100
AcDbEntity
  8
0
100
AcDbLine
 10
115.0
 20
1343.835
 30
0.0
 11
115.0
 21
1345.835
 31
0.0
  0
LINE
  5
297
330
1E
100
AcDbEntity
  8
0
100
AcDbLine
 10
112.9655
 20
1345.835
 30
0.0
 11
113.8893
 21
1345.835
 31
0.0
  0
LINE
  5
298
330
1E
100
AcDbEntity
  8
0
100
AcDbLine
 10
112.9655
 20
1345.835
 30
0.0
 11
112.9655
 21
1343.835
 31
0.0
  0
LINE
  5
299
330
1E
100
AcDbEntity
  8
0
100
AcDbLine
 10
113.8893
 20
1345.835
 30
0.0
 11
114.407
 21
1345.835
 31
0.0
  0
LINE
  5
29A
330
1E
100
AcDbEntity
  8
0
100
AcDbLine
 10
113.8893
 20
1345.835
 30
0.0
 11
113.8893
 21
1343.835
 31
0.0
  0
LINE
  5
29B
330
1E
100
AcDbEntity
  8
0
100
AcDbLine
 10
115.6339999999999
 20
1345.835
 30
0.0
 11
116.6339999999999
 21
1345.835
 31
0.0
  0
LINE
  5
29C
330
1E
100
AcDbEntity
  8
0
100
AcDbLine
 10
115.6339999999999
 20
1345.835
 30
0.0
 11
115.6339999999999
 21
1343.835
 31
0.0
  0
LINE
  5
29D
330
1E
100
AcDbEntity
  8
0
100
AcDbLine
 10
116.6339999999999
 20
1345.835
 30
0.0
 11
118.3659999999999
 21
1345.835
 31
0.0
  0
LINE
  5
29E
330
1E
100
AcDbEntity
  8
0
100
AcDbLine
 10
116.6339999999999
 20
1345.835
 30
0.0
 11
116.6339999999999
 21
1343.835
 31
0.0
  0
LINE
  5
29F
330
1E
100
AcDbEntity
  8
0
100
AcDbLine
 10
118.3659999999999
 20
1345.835
 30
0.0
 11
118.9913999999999
 21
1345.835
 31
0.0
  0
LINE
  5
2A0
330
1E
100
AcDbEntity
  8
0
100
AcDbLine
 10
118.3659999999999
 20
1345.835
 30
0.0
 11
118.3659999999999
 21
1343.835
 31
0.0
  0
LINE
  5
2A1
330
1E
100
AcDbEntity
  8
0
100
AcDbLine
 10
114.407
 20
1345.835
 30
0.0
 11
115.0
 21
1345.835
 31
0.0
  0
LINE
  5
2A2
330
1E
100
AcDbEntity
  8
0
100
AcDbLine
 10
114.407
 20
1345.835
 30
0.0
 11
114.407
 21
1343.835
 31
0.0
  0
LINE
  5
2A3
330
1E
100
AcDbEntity
  8
0
100
AcDbLine
 10
113.0
 20
1343.835
 30
0.0
 11
115.0
 21
1343.835
 31
0.0
  0
LINE
  5
2A4
330
1E
100
AcDbEntity
  8
0
100
AcDbLine
 10
112.9
 20
1345.835
 30
0.0
 11
134.1999999999999
 21
1345.835
 31
0.0
  0
LINE
  5
2A5
330
1E
100
AcDbEntity
  8
0
100
AcDbLine
 10
105.201
 20
1345.835
 30
0.0
 11
105.5563
 21
1345.835
 31
0.0
  0
LINE
  5
2A6
330
1E
100
AcDbEntity
  8
0
100
AcDbLine
 10
105.201
 20
1345.835
 30
0.0
 11
105.201
 21
1343.835
 31
0.0
  0
LINE
  5
2A7
330
1E
100
AcDbEntity
  8
0
100
AcDbLine
 10
97.4364
 20
1345.835
 30
0.0
 11
98.86920000000001
 21
1345.835
 31
0.0
  0
LINE
  5
2A8
330
1E
100
AcDbEntity
  8
0
100
AcDbLine
 10
97.4364
 20
1345.835
 30
0.0
 11
97.4364
 21
1343.835
 31
0.0
  0
LINE
  5
2A9
330
1E
100
AcDbEntity
  8
0
100
AcDbLine
 10
91.0
 20
1345.835
 30
0.0
 11
94.98690999999999
 21
1345.835
 31
0.0
  0
LINE
  5
2AA
330
1E
100
AcDbEntity
  8
0
100
AcDbLine
 10
91.0
 20
1345.835
 30
0.0
 11
91.0
 21
1343.835
 31
0.0
  0
LINE
  5
2AB
330
1E
100
AcDbEntity
  8
0
100
AcDbLine
 10
123.134
 20
1343.835
 30
0.0
 11
123.134
 21
1345.835
 31
0.0
  0
LINE
  5
2AC
330
1E
100
AcDbEntity
  8
0
100
AcDbLine
 10
123.134
 20
1343.835
 30
0.0
 11
124.134
 21
1343.835
 31
0.0
  0
LINE
  5
2AD
330
1E
100
AcDbEntity
  8
0
100
AcDbLine
 10
123.134
 20
1343.835
 30
0.0
 11
124.866
 21
1343.835
 31
0.0
  0
LINE
  5
2AE
330
1E
100
AcDbEntity
  8
0
100
AcDbLine
 10
124.134
 20
1343.835
 30
0.0
 11
124.134
 21
1345.835
 31
0.0
  0
LINE
  5
2AF
330
1E
100
AcDbEntity
  8
0
100
AcDbLine
 10
124.134
 20
1343.835
 30
0.0
 11
125.866
 21
1343.835
 31
0.0
  0
LINE
  5
2B0
330
1E
100
AcDbEntity
  8
0
100
AcDbLine
 10
122.4089999999999
 20
1343.835
 30
0.0
 11
122.4089999999999
 21
1345.835
 31
0.0
  0
LINE
  5
2B1
330
1E
100
AcDbEntity
  8
0
100
AcDbLine
 10
122.4089999999999
 20
1343.835
 30
0.0
 11
124.141
 21
1343.835
 31
0.0
  0
LINE
  5
2B2
330
1E
100
AcDbEntity
  8
0
100
AcDbLine
 10
122.4089999999999
 20
1343.835
 30
0.0
 11
123.4089999999999
 21
1343.835
 31
0.0
  0
LINE
  5
2B3
330
1E
100
AcDbEntity
  8
0
100
AcDbLine
 10
124.866
 20
1343.835
 30
0.0
 11
125.866
 21
1343.835
 31
0.0
  0
LINE
  5
2B4
330
1E
100
AcDbEntity
  8
0
100
AcDbLine
 10
125.866
 20
1343.835
 30
0.0
 11
125.866
 21
1345.835
 31
0.0
  0
LINE
  5
2B5
330
1E
100
AcDbEntity
  8
0
100
AcDbLine
 10
124.141
 20
1343.835
 30
0.0
 11
125.141
 21
1343.835
 31
0.0
  0
LINE
  5
2B6
330
1E
100
AcDbEntity
  8
0
100
AcDbLine
 10
123.4089999999999
 20
1343.835
 30
0.0
 11
125.141
 21
1343.835
 31
0.0
  0
LINE
  5
2B7
330
1E
100
AcDbEntity
  8
0
100
AcDbLine
 10
126.7695999999999
 20
1343.835
 30
0.0
 11
126.7695999999999
 21
1345.835
 31
0.0
  0
LINE
  5
2B8
330
1E
100
AcDbEntity
  8
0
100
AcDbLine
 10
126.7695999999999
 20
1343.835
 30
0.0
 11
128.1838
 21
1343.835
 31
0.0
  0
LINE
  5
2B9
330
1E
100
AcDbEntity
  8
0
100
AcDbLine
 10
126.4464
 20
1343.835
 30
0.0
 11
126.4464
 21
1345.835
 31
0.0
  0
LINE
  5
2BA
330
1E
100
AcDbEntity
  8
0
100
AcDbLine
 10
126.4464
 20
1343.835
 30
0.0
 11
128.3781999999999
 21
1343.835
 31
0.0
  0
LINE
  5
2BB
330
1E
100
AcDbEntity
  8
0
100
AcDbLine
 10
126.4464
 20
1343.835
 30
0.0
 11
126.964
 21
1343.835
 31
0.0
  0
LINE
  5
2BC
330
1E
100
AcDbEntity
  8
0
100
AcDbLine
 10
123.134
 20
1345.835
 30
0.0
 11
124.134
 21
1345.835
 31
0.0
  0
LINE
  5
2BD
330
1E
100
AcDbEntity
  8
0
100
AcDbLine
 10
123.134
 20
1345.835
 30
0.0
 11
123.134
 21
1343.835
 31
0.0
  0
LINE
  5
2BE
330
1E
100
AcDbEntity
  8
0
100
AcDbLine
 10
124.134
 20
1345.835
 30
0.0
 11
125.866
 21
1345.835
 31
0.0
  0
LINE
  5
2BF
330
1E
100
AcDbEntity
  8
0
100
AcDbLine
 10
124.134
 20
1345.835
 30
0.0
 11
124.134
 21
1343.835
 31
0.0
  0
LINE
  5
2C0
330
1E
100
AcDbEntity
  8
0
100
AcDbLine
 10
122.4089999999999
 20
1345.835
 30
0.0
 11
123.134
 21
1345.835
 31
0.0
  0
LINE
  5
2C1
330
1E
100
AcDbEntity
  8
0
100
AcDbLine
 10
122.4089999999999
 20
1345.835
 30
0.0
 11
122.4089999999999
 21
1343.835
 31
0.0
  0
LINE
  5
2C2
330
1E
100
AcDbEntity
  8
0
100
AcDbLine
 10
126.7695999999999
 20
1345.835
 30
0.0
 11
128.1838
 21
1345.835
 31
0.0
  0
LINE
  5
2C3
330
1E
100
AcDbEntity
  8
0
100
AcDbLine
 10
126.7695999999999
 20
1345.835
 30
0.0
 11
126.7695999999999
 21
1343.835
 31
0.0
  0
LINE
  5
2C4
330
1E
100
AcDbEntity
  8
0
100
AcDbLine
 10
126.4464
 20
1345.835
 30
0.0
 11
126.7695999999999
 21
1345.835
 31
0.0
  0
LINE
  5
2C5
330
1E
100
AcDbEntity
  8
0
100
AcDbLine
 10
126.4464
 20
1345.835
 30
0.0
 11
126.4464
 21
1343.835
 31
0.0
  0
LINE
  5
2C6
330
1E
100
AcDbEntity
  8
0
100
AcDbLine
 10
126.964
 20
1343.835
 30
0.0
 11
128.8959
 21
1343.835
 31
0.0
  0
LINE
  5
2C7
330
1E
100
AcDbEntity
  8
0
100
AcDbLine
 10
128.1838
 20
1343.835
 30
0.0
 11
129.5979999999999
 21
1343.835
 31
0.0
  0
LINE
  5
2C8
330
1E
100
AcDbEntity
  8
0
100
AcDbLine
 10
128.1838
 20
1343.835
 30
0.0
 11
128.1838
 21
1345.835
 31
0.0
  0
LINE
  5
2C9
330
1E
100
AcDbEntity
  8
0
100
AcDbLine
 10
129.5979999999999
 20
1343.835
 30
0.0
 11
129.5979999999999
 21
1345.835
 31
0.0
  0
LINE
  5
2CA
330
1E
100
AcDbEntity
  8
0
100
AcDbLine
 10
128.3781999999999
 20
1343.835
 30
0.0
 11
128.8959
 21
1343.835
 31
0.0
  0
LINE
  5
2CB
330
1E
100
AcDbEntity
  8
0
100
AcDbLine
 10
128.1838
 20
1345.835
 30
0.0
 11
129.5979999999999
 21
1345.835
 31
0.0
  0
LINE
  5
2CC
330
1E
100
AcDbEntity
  8
0
100
AcDbLine
 10
128.1838
 20
1345.835
 30
0.0
 11
128.1838
 21
1343.835
 31
0.0
  0
LINE
  5
2CD
330
1E
100
AcDbEntity
  8
0
100
AcDbLine
 10
129.5979999999999
 20
1345.835
 30
0.0
 11
130.0
 21
1345.835
 31
0.0
  0
LINE
  5
2CE
330
1E
100
AcDbEntity
  8
0
100
AcDbLine
 10
129.5979999999999
 20
1345.835
 30
0.0
 11
129.5979999999999
 21
1343.835
 31
0.0
  0
LINE
  5
2CF
330
1E
100
AcDbEntity
  8
0
100
AcDbLine
 10
130.0
 20
1343.835
 30
0.0
 11
130.0
 21
1345.835
 31
0.0
  0
LINE
  5
2D0
330
1E
100
AcDbEntity
  8
0
100
AcDbLine
 10
128.0
 20
1343.835
 30
0.0
 11
130.0
 21
1343.835
 31
0.0
  0
LINE
  5
2D1
330
1E
100
AcDbEntity
  8
0
100
AcDbLine
 10
125.866
 20
1345.835
 30
0.0
 11
126.4464
 21
1345.835
 31
0.0
  0
LINE
  5
2D2
330
1E
100
AcDbEntity
  8
0
100
AcDbLine
 10
125.866
 20
1345.835
 30
0.0
 11
125.866
 21
1343.835
 31
0.0
  0
LINE
  5
2D3
330
1E
100
AcDbEntity
  8
0
100
AcDbLine
 10
118.9913999999999
 20
1345.835
 30
0.0
 11
122.4089999999999
 21
1345.835
 31
0.0
  0
LINE
  5
2D4
330
1E
100
AcDbEntity
  8
0
100
AcDbLine
 10
118.9913999999999
 20
1345.835
 30
0.0
 11
118.9913999999999
 21
1343.835
 31
0.0
  0
LINE
  5
2D5
330
1E
100
AcDbEntity
  8
0
100
AcDbLine
 10
115.0
 20
1345.835
 30
0.0
 11
115.6339999999999
 21
1345.835
 31
0.0
  0
LINE
  5
2D6
330
1E
100
AcDbEntity
  8
0
100
AcDbLine
 10
115.0
 20
1345.835
 30
0.0
 11
115.0
 21
1343.835
 31
0.0
  0
LINE
  5
2D7
330
1E
100
AcDbEntity
  8
0
100
AcDbLine
 10
130.6339999999999
 20
1343.835
 30
0.0
 11
130.6339999999999
 21
1345.835
 31
0.0
  0
LINE
  5
2D8
330
1E
100
AcDbEntity
  8
0
100
AcDbLine
 10
130.6339999999999
 20
1343.835
 30
0.0
 11
131.6339999999999
 21
1343.835
 31
0.0
  0
LINE
  5
2D9
330
1E
100
AcDbEntity
  8
0
100
AcDbLine
 10
130.6339999999999
 20
1343.835
 30
0.0
 11
132.366
 21
1343.835
 31
0.0
  0
LINE
  5
2DA
330
1E
100
AcDbEntity
  8
0
100
AcDbLine
 10
131.6339999999999
 20
1343.835
 30
0.0
 11
131.6339999999999
 21
1345.835
 31
0.0
  0
LINE
  5
2DB
330
1E
100
AcDbEntity
  8
0
100
AcDbLine
 10
131.6339999999999
 20
1343.835
 30
0.0
 11
133.366
 21
1343.835
 31
0.0
  0
LINE
  5
2DC
330
1E
100
AcDbEntity
  8
0
100
AcDbLine
 10
132.366
 20
1343.835
 30
0.0
 11
133.366
 21
1343.835
 31
0.0
  0
LINE
  5
2DD
330
1E
100
AcDbEntity
  8
0
100
AcDbLine
 10
133.366
 20
1343.835
 30
0.0
 11
133.366
 21
1345.835
 31
0.0
  0
LINE
  5
2DE
330
1E
100
AcDbEntity
  8
0
100
AcDbLine
 10
135.3993
 20
1343.835
 30
0.0
 11
135.3993
 21
1345.835
 31
0.0
  0
LINE
  5
2DF
330
1E
100
AcDbEntity
  8
0
100
AcDbLine
 10
135.3993
 20
1343.835
 30
0.0
 11
137.1314
 21
1343.835
 31
0.0
  0
LINE
  5
2E0
330
1E
100
AcDbEntity
  8
0
100
AcDbLine
 10
135.3993
 20
1343.835
 30
0.0
 11
136.3993
 21
1343.835
 31
0.0
  0
LINE
  5
2E1
330
1E
100
AcDbEntity
  8
0
100
AcDbLine
 10
137.1314
 20
1343.835
 30
0.0
 11
137.1314
 21
1345.835
 31
0.0
  0
LINE
  5
2E2
330
1E
100
AcDbEntity
  8
0
100
AcDbLine
 10
137.1314
 20
1343.835
 30
0.0
 11
138.1314
 21
1343.835
 31
0.0
  0
LINE
  5
2E3
330
1E
100
AcDbEntity
  8
0
100
AcDbLine
 10
136.3993
 20
1343.835
 30
0.0
 11
138.1314
 21
1343.835
 31
0.0
  0
LINE
  5
2E4
330
1E
100
AcDbEntity
  8
0
100
AcDbLine
 10
137.3762
 20
1343.835
 30
0.0
 11
137.3762
 21
1345.835
 31
0.0
  0
LINE
  5
2E5
330
1E
100
AcDbEntity
  8
0
100
AcDbLine
 10
137.3762
 20
1343.835
 30
0.0
 11
138.7904
 21
1343.835
 31
0.0
  0
LINE
  5
2E6
330
1E
100
AcDbEntity
  8
0
100
AcDbLine
 10
138.7904
 20
1343.835
 30
0.0
 11
140.2046
 21
1343.835
 31
0.0
  0
LINE
  5
2E7
330
1E
100
AcDbEntity
  8
0
100
AcDbLine
 10
138.7904
 20
1343.835
 30
0.0
 11
138.7904
 21
1345.835
 31
0.0
  0
LINE
  5
2E8
330
1E
100
AcDbEntity
  8
0
100
AcDbLine
 10
140.2046
 20
1343.835
 30
0.0
 11
140.2046
 21
1345.835
 31
0.0
  0
LINE
  5
2E9
330
1E
100
AcDbEntity
  8
0
100
AcDbLine
 10
140.9352
 20
1343.835
 30
0.0
 11
140.9352
 21
1345.835
 31
0.0
  0
LINE
  5
2EA
330
1E
100
AcDbEntity
  8
0
100
AcDbLine
 10
140.9352
 20
1343.835
 30
0.0
 11
142.8671
 21
1343.835
 31
0.0
  0
LINE
  5
2EB
330
1E
100
AcDbEntity
  8
0
100
AcDbLine
 10
140.9352
 20
1343.835
 30
0.0
 11
141.4528999999999
 21
1343.835
 31
0.0
  0
LINE
  5
2EC
330
1E
100
AcDbEntity
  8
0
100
AcDbLine
 10
142.8671
 20
1343.835
 30
0.0
 11
142.8671
 21
1345.835
 31
0.0
  0
LINE
  5
2ED
330
1E
100
AcDbEntity
  8
0
100
AcDbLine
 10
142.8671
 20
1343.835
 30
0.0
 11
143.3847
 21
1343.835
 31
0.0
  0
LINE
  5
2EE
330
1E
100
AcDbEntity
  8
0
100
AcDbLine
 10
130.6339999999999
 20
1345.835
 30
0.0
 11
131.6339999999999
 21
1345.835
 31
0.0
  0
LINE
  5
2EF
330
1E
100
AcDbEntity
  8
0
100
AcDbLine
 10
130.6339999999999
 20
1345.835
 30
0.0
 11
130.6339999999999
 21
1343.835
 31
0.0
  0
LINE
  5
2F0
330
1E
100
AcDbEntity
  8
0
100
AcDbLine
 10
131.6339999999999
 20
1345.835
 30
0.0
 11
133.366
 21
1345.835
 31
0.0
  0
LINE
  5
2F1
330
1E
100
AcDbEntity
  8
0
100
AcDbLine
 10
131.6339999999999
 20
1345.835
 30
0.0
 11
131.6339999999999
 21
1343.835
 31
0.0
  0
LINE
  5
2F2
330
1E
100
AcDbEntity
  8
0
100
AcDbLine
 10
135.3993
 20
1345.835
 30
0.0
 11
137.1314
 21
1345.835
 31
0.0
  0
LINE
  5
2F3
330
1E
100
AcDbEntity
  8
0
100
AcDbLine
 10
135.3993
 20
1345.835
 30
0.0
 11
135.3993
 21
1343.835
 31
0.0
  0
LINE
  5
2F4
330
1E
100
AcDbEntity
  8
0
100
AcDbLine
 10
137.1314
 20
1345.835
 30
0.0
 11
137.3762
 21
1345.835
 31
0.0
  0
LINE
  5
2F5
330
1E
100
AcDbEntity
  8
0
100
AcDbLine
 10
137.1314
 20
1345.835
 30
0.0
 11
137.1314
 21
1343.835
 31
0.0
  0
LINE
  5
2F6
330
1E
100
AcDbEntity
  8
0
100
AcDbLine
 10
137.3762
 20
1345.835
 30
0.0
 11
138.7904
 21
1345.835
 31
0.0
  0
LINE
  5
2F7
330
1E
100
AcDbEntity
  8
0
100
AcDbLine
 10
137.3762
 20
1345.835
 30
0.0
 11
137.3762
 21
1343.835
 31
0.0
  0
LINE
  5
2F8
330
1E
100
AcDbEntity
  8
0
100
AcDbLine
 10
138.7904
 20
1345.835
 30
0.0
 11
140.2046
 21
1345.835
 31
0.0
  0
LINE
  5
2F9
330
1E
100
AcDbEntity
  8
0
100
AcDbLine
 10
138.7904
 20
1345.835
 30
0.0
 11
138.7904
 21
1343.835
 31
0.0
  0
LINE
  5
2FA
330
1E
100
AcDbEntity
  8
0
100
AcDbLine
 10
140.9352
 20
1345.835
 30
0.0
 11
142.8671
 21
1345.835
 31
0.0
  0
LINE
  5
2FB
330
1E
100
AcDbEntity
  8
0
100
AcDbLine
 10
140.9352
 20
1345.835
 30
0.0
 11
140.9352
 21
1343.835
 31
0.0
  0
LINE
  5
2FC
330
1E
100
AcDbEntity
  8
0
100
AcDbLine
 10
142.8671
 20
1345.835
 30
0.0
 11
143.3847
 21
1345.835
 31
0.0
  0
LINE
  5
2FD
330
1E
100
AcDbEntity
  8
0
100
AcDbLine
 10
142.8671
 20
1345.835
 30
0.0
 11
142.8671
 21
1343.835
 31
0.0
  0
LINE
  5
2FE
330
1E
100
AcDbEntity
  8
0
100
AcDbLine
 10
141.4528999999999
 20
1343.835
 30
0.0
 11
143.3847
 21
1343.835
 31
0.0
  0
LINE
  5
2FF
330
1E
100
AcDbEntity
  8
0
100
AcDbLine
 10
143.3847
 20
1343.835
 30
0.0
 11
143.3847
 21
1345.835
 31
0.0
  0
LINE
  5
300
330
1E
100
AcDbEntity
  8
0
100
AcDbLine
 10
143.3847
 20
1345.835
 30
0.0
 11
145.0
 21
1345.835
 31
0.0
  0
LINE
  5
301
330
1E
100
AcDbEntity
  8
0
100
AcDbLine
 10
143.3847
 20
1345.835
 30
0.0
 11
143.3847
 21
1343.835
 31
0.0
  0
LINE
  5
302
330
1E
100
AcDbEntity
  8
0
100
AcDbLine
 10
145.0
 20
1343.835
 30
0.0
 11
145.0
 21
1345.835
 31
0.0
  0
LINE
  5
303
330
1E
100
AcDbEntity
  8
0
100
AcDbLine
 10
143.0
 20
1343.835
 30
0.0
 11
145.0
 21
1343.835
 31
0.0
  0
LINE
  5
304
330
1E
100
AcDbEntity
  8
0
100
AcDbLine
 10
133.366
 20
1345.835
 30
0.0
 11
134.1999999999999
 21
1345.835
 31
0.0
  0
LINE
  5
305
330
1E
100
AcDbEntity
  8
0
100
AcDbLine
 10
133.366
 20
1345.835
 30
0.0
 11
133.366
 21
1343.835
 31
0.0
  0
LINE
  5
306
330
1E
100
AcDbEntity
  8
0
100
AcDbLine
 10
130.0
 20
1345.835
 30
0.0
 11
130.6339999999999
 21
1345.835
 31
0.0
  0
LINE
  5
307
330
1E
100
AcDbEntity
  8
0
100
AcDbLine
 10
130.0
 20
1345.835
 30
0.0
 11
130.0
 21
1343.835
 31
0.0
  0
LINE
  5
308
330
1E
100
AcDbEntity
  8
0
100
AcDbLine
 10
140.2046
 20
1345.835
 30
0.0
 11
140.9352
 21
1345.835
 31
0.0
  0
LINE
  5
309
330
1E
100
AcDbEntity
  8
0
100
AcDbLine
 10
140.2046
 20
1345.835
 30
0.0
 11
140.2046
 21
1343.835
 31
0.0
  0
LINE
  5
30A
330
1E
100
AcDbEntity
  8
0
100
AcDbLine
 10
148.3896999999999
 20
1343.835
 30
0.0
 11
150.1218
 21
1343.835
 31
0.0
  0
LINE
  5
30B
330
1E
100
AcDbEntity
  8
0
100
AcDbLine
 10
148.3896999999999
 20
1343.835
 30
0.0
 11
149.3897
 21
1343.835
 31
0.0
  0
LINE
  5
30C
330
1E
100
AcDbEntity
  8
0
100
AcDbLine
 10
150.1218
 20
1343.835
 30
0.0
 11
151.1218
 21
1343.835
 31
0.0
  0
LINE
  5
30D
330
1E
100
AcDbEntity
  8
0
100
AcDbLine
 10
149.3897
 20
1343.835
 30
0.0
 11
151.1218
 21
1343.835
 31
0.0
  0
LINE
  5
30E
330
1E
100
AcDbEntity
  8
0
100
AcDbLine
 10
147.9827999999999
 20
1343.835
 30
0.0
 11
147.9827999999999
 21
1345.835
 31
0.0
  0
LINE
  5
30F
330
1E
100
AcDbEntity
  8
0
100
AcDbLine
 10
147.9827999999999
 20
1343.835
 30
0.0
 11
149.397
 21
1343.835
 31
0.0
  0
LINE
  5
310
330
1E
100
AcDbEntity
  8
0
100
AcDbLine
 10
147.9827999999999
 20
1345.835
 30
0.0
 11
149.397
 21
1345.835
 31
0.0
  0
LINE
  5
311
330
1E
100
AcDbEntity
  8
0
100
AcDbLine
 10
147.9827999999999
 20
1345.835
 30
0.0
 11
147.9827999999999
 21
1343.835
 31
0.0
  0
LINE
  5
312
330
1E
100
AcDbEntity
  8
0
100
AcDbLine
 10
149.397
 20
1345.835
 30
0.0
 11
150.8112
 21
1345.835
 31
0.0
  0
LINE
  5
313
330
1E
100
AcDbEntity
  8
0
100
AcDbLine
 10
149.397
 20
1345.835
 30
0.0
 11
149.397
 21
1343.835
 31
0.0
  0
LINE
  5
314
330
1E
100
AcDbEntity
  8
0
100
AcDbLine
 10
150.8112
 20
1345.835
 30
0.0
 11
150.8112
 21
1343.835
 31
0.0
  0
LINE
  5
315
330
1E
100
AcDbEntity
  8
0
100
AcDbLine
 10
150.8112
 20
1345.835
 30
0.0
 11
151.1218
 21
1345.835
 31
0.0
  0
LINE
  5
316
330
1E
100
AcDbEntity
  8
0
100
AcDbLine
 10
149.397
 20
1343.835
 30
0.0
 11
150.8112
 21
1343.835
 31
0.0
  0
LINE
  5
317
330
1E
100
AcDbEntity
  8
0
100
AcDbLine
 10
149.397
 20
1343.835
 30
0.0
 11
149.397
 21
1345.835
 31
0.0
  0
LINE
  5
318
330
1E
100
AcDbEntity
  8
0
100
AcDbLine
 10
151.1218
 20
1343.835
 30
0.0
 11
151.1218
 21
1345.835
 31
0.0
  0
LINE
  5
319
330
1E
100
AcDbEntity
  8
0
100
AcDbLine
 10
150.8112
 20
1343.835
 30
0.0
 11
150.8112
 21
1345.835
 31
0.0
  0
LINE
  5
31A
330
1E
100
AcDbEntity
  8
0
100
AcDbLine
 10
151.1218
 20
1345.835
 30
0.0
 11
152.8
 21
1345.835
 31
0.0
  0
LINE
  5
31B
330
1E
100
AcDbEntity
  8
0
100
AcDbLine
 10
151.1218
 20
1345.835
 30
0.0
 11
151.1218
 21
1343.835
 31
0.0
  0
LINE
  5
31C
330
1E
100
AcDbEntity
  8
0
100
AcDbLine
 10
145.0
 20
1345.835
 30
0.0
 11
147.9827999999999
 21
1345.835
 31
0.0
  0
LINE
  5
31D
330
1E
100
AcDbEntity
  8
0
100
AcDbLine
 10
145.0
 20
1345.835
 30
0.0
 11
145.0
 21
1343.835
 31
0.0
  0
LINE
  5
31E
330
1E
100
AcDbEntity
  8
0
100
AcDbLine
 10
134.1999999999999
 20
1345.835
 30
0.0
 11
135.3993
 21
1345.835
 31
0.0
  0
LINE
  5
31F
330
1E
100
AcDbEntity
  8
0
100
AcDbLine
 10
134.1999999999999
 20
1345.835
 30
0.0
 11
152.8
 21
1345.835
 31
0.0
  0
LINE
  5
320
330
1E
100
AcDbEntity
  8
0
100
AcDbLine
 10
155.4241
 20
1343.835
 30
0.0
 11
155.4241
 21
1345.835
 31
0.0
  0
LINE
  5
321
330
1E
100
AcDbEntity
  8
0
100
AcDbLine
 10
155.4241
 20
1343.835
 30
0.0
 11
157.356
 21
1343.835
 31
0.0
  0
LINE
  5
322
330
1E
100
AcDbEntity
  8
0
100
AcDbLine
 10
155.4241
 20
1343.835
 30
0.0
 11
155.9417999999999
 21
1343.835
 31
0.0
  0
LINE
  5
323
330
1E
100
AcDbEntity
  8
0
100
AcDbLine
 10
157.356
 20
1343.835
 30
0.0
 11
157.356
 21
1345.835
 31
0.0
  0
LINE
  5
324
330
1E
100
AcDbEntity
  8
0
100
AcDbLine
 10
157.356
 20
1343.835
 30
0.0
 11
157.8736
 21
1343.835
 31
0.0
  0
LINE
  5
325
330
1E
100
AcDbEntity
  8
0
100
AcDbLine
 10
157.8736
 20
1343.835
 30
0.0
 11
157.8736
 21
1345.835
 31
0.0
  0
LINE
  5
326
330
1E
100
AcDbEntity
  8
0
100
AcDbLine
 10
155.4241
 20
1345.835
 30
0.0
 11
157.356
 21
1345.835
 31
0.0
  0
LINE
  5
327
330
1E
100
AcDbEntity
  8
0
100
AcDbLine
 10
155.4241
 20
1345.835
 30
0.0
 11
155.4241
 21
1343.835
 31
0.0
  0
LINE
  5
328
330
1E
100
AcDbEntity
  8
0
100
AcDbLine
 10
157.356
 20
1345.835
 30
0.0
 11
157.8736
 21
1345.835
 31
0.0
  0
LINE
  5
329
330
1E
100
AcDbEntity
  8
0
100
AcDbLine
 10
157.356
 20
1345.835
 30
0.0
 11
157.356
 21
1343.835
 31
0.0
  0
LINE
  5
32A
330
1E
100
AcDbEntity
  8
0
100
AcDbLine
 10
155.9417999999999
 20
1343.835
 30
0.0
 11
157.8736
 21
1343.835
 31
0.0
  0
LINE
  5
32B
330
1E
100
AcDbEntity
  8
0
100
AcDbLine
 10
158.0
 20
1345.835
 30
0.0
 11
158.0
 21
1343.835
 31
0.0
  0
LINE
  5
32C
330
1E
100
AcDbEntity
  8
0
100
AcDbLine
 10
158.0
 20
1345.835
 30
0.0
 11
160.0
 21
1345.835
 31
0.0
  0
LINE
  5
32D
330
1E
100
AcDbEntity
  8
0
100
AcDbLine
 10
161.3801
 20
1343.835
 30
0.0
 11
161.3801
 21
1345.835
 31
0.0
  0
LINE
  5
32E
330
1E
100
AcDbEntity
  8
0
100
AcDbLine
 10
161.3801
 20
1343.835
 30
0.0
 11
163.1121999999999
 21
1343.835
 31
0.0
  0
LINE
  5
32F
330
1E
100
AcDbEntity
  8
0
100
AcDbLine
 10
161.3801
 20
1343.835
 30
0.0
 11
162.3801
 21
1343.835
 31
0.0
  0
LINE
  5
330
330
1E
100
AcDbEntity
  8
0
100
AcDbLine
 10
163.1121999999999
 20
1343.835
 30
0.0
 11
163.1121999999999
 21
1345.835
 31
0.0
  0
LINE
  5
331
330
1E
100
AcDbEntity
  8
0
100
AcDbLine
 10
163.1121999999999
 20
1343.835
 30
0.0
 11
164.1122
 21
1343.835
 31
0.0
  0
LINE
  5
332
330
1E
100
AcDbEntity
  8
0
100
AcDbLine
 10
164.1122
 20
1343.835
 30
0.0
 11
164.1122
 21
1345.835
 31
0.0
  0
LINE
  5
333
330
1E
100
AcDbEntity
  8
0
100
AcDbLine
 10
162.3801
 20
1343.835
 30
0.0
 11
164.1122
 21
1343.835
 31
0.0
  0
LINE
  5
334
330
1E
100
AcDbEntity
  8
0
100
AcDbLine
 10
169.9129999999999
 20
1343.835
 30
0.0
 11
169.9129999999999
 21
1345.835
 31
0.0
  0
LINE
  5
335
330
1E
100
AcDbEntity
  8
0
100
AcDbLine
 10
169.9129999999999
 20
1343.835
 30
0.0
 11
171.8448999999999
 21
1343.835
 31
0.0
  0
LINE
  5
336
330
1E
100
AcDbEntity
  8
0
100
AcDbLine
 10
169.9129999999999
 20
1343.835
 30
0.0
 11
170.4307
 21
1343.835
 31
0.0
  0
LINE
  5
337
330
1E
100
AcDbEntity
  8
0
100
AcDbLine
 10
171.8448999999999
 20
1343.835
 30
0.0
 11
171.8448999999999
 21
1345.835
 31
0.0
  0
LINE
  5
338
330
1E
100
AcDbEntity
  8
0
100
AcDbLine
 10
171.8448999999999
 20
1343.835
 30
0.0
 11
172.3625
 21
1343.835
 31
0.0
  0
LINE
  5
339
330
1E
100
AcDbEntity
  8
0
100
AcDbLine
 10
172.3625
 20
1343.835
 30
0.0
 11
172.3625
 21
1345.835
 31
0.0
  0
LINE
  5
33A
330
1E
100
AcDbEntity
  8
0
100
AcDbLine
 10
170.4307
 20
1343.835
 30
0.0
 11
172.3625
 21
1343.835
 31
0.0
  0
LINE
  5
33B
330
1E
100
AcDbEntity
  8
0
100
AcDbLine
 10
161.3801
 20
1345.835
 30
0.0
 11
163.1121999999999
 21
1345.835
 31
0.0
  0
LINE
  5
33C
330
1E
100
AcDbEntity
  8
0
100
AcDbLine
 10
161.3801
 20
1345.835
 30
0.0
 11
161.3801
 21
1343.835
 31
0.0
  0
LINE
  5
33D
330
1E
100
AcDbEntity
  8
0
100
AcDbLine
 10
163.1121999999999
 20
1345.835
 30
0.0
 11
164.1122
 21
1345.835
 31
0.0
  0
LINE
  5
33E
330
1E
100
AcDbEntity
  8
0
100
AcDbLine
 10
163.1121999999999
 20
1345.835
 30
0.0
 11
163.1121999999999
 21
1343.835
 31
0.0
  0
LINE
  5
33F
330
1E
100
AcDbEntity
  8
0
100
AcDbLine
 10
169.9129999999999
 20
1345.835
 30
0.0
 11
171.8448999999999
 21
1345.835
 31
0.0
  0
LINE
  5
340
330
1E
100
AcDbEntity
  8
0
100
AcDbLine
 10
169.9129999999999
 20
1345.835
 30
0.0
 11
169.9129999999999
 21
1343.835
 31
0.0
  0
LINE
  5
341
330
1E
100
AcDbEntity
  8
0
100
AcDbLine
 10
171.8448999999999
 20
1345.835
 30
0.0
 11
172.3625
 21
1345.835
 31
0.0
  0
LINE
  5
342
330
1E
100
AcDbEntity
  8
0
100
AcDbLine
 10
171.8448999999999
 20
1345.835
 30
0.0
 11
171.8448999999999
 21
1343.835
 31
0.0
  0
LINE
  5
343
330
1E
100
AcDbEntity
  8
0
100
AcDbLine
 10
160.0
 20
1343.835
 30
0.0
 11
160.0
 21
1345.835
 31
0.0
  0
LINE
  5
344
330
1E
100
AcDbEntity
  8
0
100
AcDbLine
 10
158.0
 20
1343.835
 30
0.0
 11
160.0
 21
1343.835
 31
0.0
  0
LINE
  5
345
330
1E
100
AcDbEntity
  8
0
100
AcDbLine
 10
158.0
 20
1343.835
 30
0.0
 11
158.0
 21
1345.835
 31
0.0
  0
LINE
  5
346
330
1E
100
AcDbEntity
  8
0
100
AcDbLine
 10
173.0
 20
1345.835
 30
0.0
 11
173.0
 21
1343.835
 31
0.0
  0
LINE
  5
347
330
1E
100
AcDbEntity
  8
0
100
AcDbLine
 10
173.0
 20
1345.835
 30
0.0
 11
175.0
 21
1345.835
 31
0.0
  0
LINE
  5
348
330
1E
100
AcDbEntity
  8
0
100
AcDbLine
 10
175.0
 20
1343.835
 30
0.0
 11
175.0
 21
1345.835
 31
0.0
  0
LINE
  5
349
330
1E
100
AcDbEntity
  8
0
100
AcDbLine
 10
173.0
 20
1343.835
 30
0.0
 11
175.0
 21
1343.835
 31
0.0
  0
LINE
  5
34A
330
1E
100
AcDbEntity
  8
0
100
AcDbLine
 10
173.0
 20
1343.835
 30
0.0
 11
173.0
 21
1345.835
 31
0.0
  0
LINE
  5
34B
330
1E
100
AcDbEntity
  8
0
100
AcDbLine
 10
164.1122
 20
1345.835
 30
0.0
 11
167.1
 21
1345.835
 31
0.0
  0
LINE
  5
34C
330
1E
100
AcDbEntity
  8
0
100
AcDbLine
 10
164.1122
 20
1345.835
 30
0.0
 11
164.1122
 21
1343.835
 31
0.0
  0
LINE
  5
34D
330
1E
100
AcDbEntity
  8
0
100
AcDbLine
 10
157.8736
 20
1345.835
 30
0.0
 11
158.0
 21
1345.835
 31
0.0
  0
LINE
  5
34E
330
1E
100
AcDbEntity
  8
0
100
AcDbLine
 10
157.8736
 20
1345.835
 30
0.0
 11
157.8736
 21
1343.835
 31
0.0
  0
LINE
  5
34F
330
1E
100
AcDbEntity
  8
0
100
AcDbLine
 10
160.0
 20
1345.835
 30
0.0
 11
161.3801
 21
1345.835
 31
0.0
  0
LINE
  5
350
330
1E
100
AcDbEntity
  8
0
100
AcDbLine
 10
160.0
 20
1345.835
 30
0.0
 11
160.0
 21
1343.835
 31
0.0
  0
LINE
  5
351
330
1E
100
AcDbEntity
  8
0
100
AcDbLine
 10
152.8
 20
1345.835
 30
0.0
 11
155.4241
 21
1345.835
 31
0.0
  0
LINE
  5
352
330
1E
100
AcDbEntity
  8
0
100
AcDbLine
 10
152.8
 20
1345.835
 30
0.0
 11
167.1
 21
1345.835
 31
0.0
  0
LINE
  5
353
330
1E
100
AcDbEntity
  8
0
100
AcDbLine
 10
172.3625
 20
1345.835
 30
0.0
 11
173.0
 21
1345.835
 31
0.0
  0
LINE
  5
354
330
1E
100
AcDbEntity
  8
0
100
AcDbLine
 10
172.3625
 20
1345.835
 30
0.0
 11
172.3625
 21
1343.835
 31
0.0
  0
LINE
  5
355
330
1E
100
AcDbEntity
  8
0
100
AcDbLine
 10
175.0
 20
1345.835
 30
0.0
 11
175.8
 21
1345.835
 31
0.0
  0
LINE
  5
356
330
1E
100
AcDbEntity
  8
0
100
AcDbLine
 10
175.0
 20
1345.835
 30
0.0
 11
175.0
 21
1343.835
 31
0.0
  0
LINE
  5
357
330
1E
100
AcDbEntity
  8
0
100
AcDbLine
 10
-0.0000000000000014
 20
1346.835
 30
0.0
 11
3.299999999999999
 21
1346.835
 31
0.0
  0
LINE
  5
358
330
1E
100
AcDbEntity
  8
0
100
AcDbLine
 10
90.0
 20
1346.835
 30
0.0
 11
113.1
 21
1346.835
 31
0.0
  0
LINE
  5
359
330
1E
100
AcDbEntity
  8
0
100
AcDbLine
 10
113.1
 20
1346.835
 30
0.0
 11
134.6999999999999
 21
1346.835
 31
0.0
  0
LINE
  5
35A
330
1E
100
AcDbEntity
  8
0
100
AcDbLine
 10
134.6999999999999
 20
1346.835
 30
0.0
 11
153.6
 21
1346.835
 31
0.0
  0
LINE
  5
35B
330
1E
100
AcDbEntity
  8
0
100
AcDbLine
 10
153.6
 20
1346.835
 30
0.0
 11
167.9
 21
1346.835
 31
0.0
  0
LINE
  5
35C
330
1E
100
AcDbEntity
  8
0
100
AcDbLine
 10
167.9
 20
1346.835
 30
0.0
 11
176.6999999999999
 21
1346.835
 31
0.0
  0
LINE
  5
35D
330
1E
100
AcDbEntity
  8
0
100
AcDbLine
 10
66.90000000000001
 20
1346.835
 30
0.0
 11
90.0
 21
1346.835
 31
0.0
  0
LINE
  5
35E
330
1E
100
AcDbEntity
  8
0
100
AcDbLine
 10
45.3
 20
1346.835
 30
0.0
 11
66.90000000000001
 21
1346.835
 31
0.0
  0
LINE
  5
35F
330
1E
100
AcDbEntity
  8
0
100
AcDbLine
 10
26.4
 20
1346.835
 30
0.0
 11
45.3
 21
1346.835
 31
0.0
  0
LINE
  5
360
330
1E
100
AcDbEntity
  8
0
100
AcDbLine
 10
12.09999999999999
 20
1346.835
 30
0.0
 11
26.4
 21
1346.835
 31
0.0
  0
LINE
  5
361
330
1E
100
AcDbEntity
  8
0
100
AcDbLine
 10
3.299999999999999
 20
1346.835
 30
0.0
 11
12.09999999999999
 21
1346.835
 31
0.0
  0
LINE
  5
362
330
1E
100
AcDbEntity
  8
0
100
AcDbLine
 10
-0.0000000000000007
 20
1355.835
 30
0.0
 11
0.9999999999999989
 21
1356.835
 31
0.0
  0
LINE
  5
363
330
1E
100
AcDbEntity
  8
0
100
AcDbLine
 10
3.299999999999999
 20
1355.835
 30
0.0
 11
12.09999999999999
 21
1355.835
 31
0.0
  0
LINE
  5
364
330
1E
100
AcDbEntity
  8
0
100
AcDbLine
 10
90.0
 20
1355.835
 30
0.0
 11
113.1
 21
1355.835
 31
0.0
  0
LINE
  5
365
330
1E
100
AcDbEntity
  8
0
100
AcDbLine
 10
113.1
 20
1355.835
 30
0.0
 11
134.6999999999999
 21
1355.835
 31
0.0
  0
LINE
  5
366
330
1E
100
AcDbEntity
  8
0
100
AcDbLine
 10
134.6999999999999
 20
1355.835
 30
0.0
 11
153.6
 21
1355.835
 31
0.0
  0
LINE
  5
367
330
1E
100
AcDbEntity
  8
0
100
AcDbLine
 10
153.6
 20
1355.835
 30
0.0
 11
167.9
 21
1355.835
 31
0.0
  0
LINE
  5
368
330
1E
100
AcDbEntity
  8
0
100
AcDbLine
 10
167.9
 20
1355.835
 30
0.0
 11
176.6999999999999
 21
1355.835
 31
0.0
  0
LINE
  5
369
330
1E
100
AcDbEntity
  8
0
100
AcDbLine
 10
66.90000000000001
 20
1355.835
 30
0.0
 11
90.0
 21
1355.835
 31
0.0
  0
LINE
  5
36A
330
1E
100
AcDbEntity
  8
0
100
AcDbLine
 10
45.3
 20
1355.835
 30
0.0
 11
66.90000000000001
 21
1355.835
 31
0.0
  0
LINE
  5
36B
330
1E
100
AcDbEntity
  8
0
100
AcDbLine
 10
26.4
 20
1355.835
 30
0.0
 11
45.3
 21
1355.835
 31
0.0
  0
LINE
  5
36C
330
1E
100
AcDbEntity
  8
0
100
AcDbLine
 10
12.09999999999999
 20
1355.835
 30
0.0
 11
26.4
 21
1355.835
 31
0.0
  0
LINE
  5
36D
330
1E
100
AcDbEntity
  8
0
100
AcDbLine
 10
3.299999999999999
 20
1355.835
 30
0.0
 11
12.09999999999999
 21
1355.835
 31
0.0
  0
LINE
  5
36E
330
1E
100
AcDbEntity
  8
0
100
AcDbLine
 10
0.9999999999999989
 20
1356.835
 30
0.0
 11
4.2
 21
1356.835
 31
0.0
  0
LINE
  5
36F
330
1E
100
AcDbEntity
  8
0
100
AcDbLine
 10
-0.0000000000000005
 20
1357.835
 30
0.0
 11
3.299999999999999
 21
1357.835
 31
0.0
  0
LINE
  5
370
330
1E
100
AcDbEntity
  8
0
100
AcDbLine
 10
90.0
 20
1356.835
 30
0.0
 11
112.9
 21
1356.835
 31
0.0
  0
LINE
  5
371
330
1E
100
AcDbEntity
  8
0
100
AcDbLine
 10
112.9
 20
1356.835
 30
0.0
 11
134.1999999999999
 21
1356.835
 31
0.0
  0
LINE
  5
372
330
1E
100
AcDbEntity
  8
0
100
AcDbLine
 10
134.1999999999999
 20
1356.835
 30
0.0
 11
152.8
 21
1356.835
 31
0.0
  0
LINE
  5
373
330
1E
100
AcDbEntity
  8
0
100
AcDbLine
 10
152.8
 20
1356.835
 30
0.0
 11
167.1
 21
1356.835
 31
0.0
  0
LINE
  5
374
330
1E
100
AcDbEntity
  8
0
100
AcDbLine
 10
167.1
 20
1356.835
 30
0.0
 11
175.8
 21
1356.835
 31
0.0
  0
LINE
  5
375
330
1E
100
AcDbEntity
  8
0
100
AcDbLine
 10
175.8
 20
1356.835
 30
0.0
 11
179.0
 21
1356.835
 31
0.0
  0
LINE
  5
376
330
1E
100
AcDbEntity
  8
0
100
AcDbLine
 10
67.09999999999999
 20
1356.835
 30
0.0
 11
90.0
 21
1356.835
 31
0.0
  0
LINE
  5
377
330
1E
100
AcDbEntity
  8
0
100
AcDbLine
 10
45.8
 20
1356.835
 30
0.0
 11
67.09999999999999
 21
1356.835
 31
0.0
  0
LINE
  5
378
330
1E
100
AcDbEntity
  8
0
100
AcDbLine
 10
27.2
 20
1356.835
 30
0.0
 11
45.8
 21
1356.835
 31
0.0
  0
LINE
  5
379
330
1E
100
AcDbEntity
  8
0
100
AcDbLine
 10
12.9
 20
1356.835
 30
0.0
 11
27.2
 21
1356.835
 31
0.0
  0
LINE
  5
37A
330
1E
100
AcDbEntity
  8
0
100
AcDbLine
 10
3.299999999999999
 20
1357.835
 30
0.0
 11
12.09999999999999
 21
1357.835
 31
0.0
  0
LINE
  5
37B
330
1E
100
AcDbEntity
  8
0
100
AcDbLine
 10
90.0
 20
1357.835
 30
0.0
 11
113.1
 21
1357.835
 31
0.0
  0
LINE
  5
37C
330
1E
100
AcDbEntity
  8
0
100
AcDbLine
 10
113.1
 20
1357.835
 30
0.0
 11
134.6999999999999
 21
1357.835
 31
0.0
  0
LINE
  5
37D
330
1E
100
AcDbEntity
  8
0
100
AcDbLine
 10
134.6999999999999
 20
1357.835
 30
0.0
 11
153.6
 21
1357.835
 31
0.0
  0
LINE
  5
37E
330
1E
100
AcDbEntity
  8
0
100
AcDbLine
 10
153.6
 20
1357.835
 30
0.0
 11
167.9
 21
1357.835
 31
0.0
  0
LINE
  5
37F
330
1E
100
AcDbEntity
  8
0
100
AcDbLine
 10
167.9
 20
1357.835
 30
0.0
 11
176.6999999999999
 21
1357.835
 31
0.0
  0
LINE
  5
380
330
1E
100
AcDbEntity
  8
0
100
AcDbLine
 10
66.90000000000001
 20
1357.835
 30
0.0
 11
90.0
 21
1357.835
 31
0.0
  0
LINE
  5
381
330
1E
100
AcDbEntity
  8
0
100
AcDbLine
 10
45.3
 20
1357.835
 30
0.0
 11
66.90000000000001
 21
1357.835
 31
0.0
  0
LINE
  5
382
330
1E
100
AcDbEntity
  8
0
100
AcDbLine
 10
26.4
 20
1357.835
 30
0.0
 11
45.3
 21
1357.835
 31
0.0
  0
LINE
  5
383
330
1E
100
AcDbEntity
  8
0
100
AcDbLine
 10
12.09999999999999
 20
1357.835
 30
0.0
 11
26.4
 21
1357.835
 31
0.0
  0
LINE
  5
384
330
1E
100
AcDbEntity
  8
0
100
AcDbLine
 10
3.299999999999999
 20
1357.835
 30
0.0
 11
12.09999999999999
 21
1357.835
 31
0.0
  0
LINE
  5
385
330
1E
100
AcDbEntity
  8
0
100
AcDbLine
 10
4.2
 20
1356.835
 30
0.0
 11
12.9
 21
1356.835
 31
0.0
  0
LINE
  5
386
330
1E
100
AcDbEntity
  8
0
100
AcDbLine
 10
1.0
 20
1356.835
 30
0.0
 11
4.2
 21
1356.835
 31
0.0
  0
LINE
  5
387
330
1E
100
AcDbEntity
  8
0
100
AcDbLine
 10
-0.0000000000000005
 20
1355.835
 30
0.0
 11
3.299999999999999
 21
1355.835
 31
0.0
  0
LINE
  5
388
330
1E
100
AcDbEntity
  8
0
100
AcDbLine
 10
-0.0000000000000006
 20
1357.835
 30
0.0
 11
0.0000000000000018
 21
1396.835
 31
0.0
  0
LINE
  5
389
330
1E
100
AcDbEntity
  8
0
100
AcDbLine
 10
-0.0000000000000006
 20
1357.835
 30
0.0
 11
0.9999999999999989
 21
1356.835
 31
0.0
  0
LINE
  5
38A
330
1E
100
AcDbEntity
  8
0
100
AcDbLine
 10
-0.0000000000000006
 20
1357.835
 30
0.0
 11
3.299999999999999
 21
1357.835
 31
0.0
  0
LINE
  5
38B
330
1E
100
AcDbEntity
  8
0
100
AcDbLine
 10
3.299999999999999
 20
1396.835
 30
0.0
 11
12.09999999999999
 21
1396.835
 31
0.0
  0
LINE
  5
38C
330
1E
100
AcDbEntity
  8
0
100
AcDbLine
 10
90.0
 20
1396.835
 30
0.0
 11
113.1
 21
1396.835
 31
0.0
  0
LINE
  5
38D
330
1E
100
AcDbEntity
  8
0
100
AcDbLine
 10
113.1
 20
1396.835
 30
0.0
 11
134.6999999999999
 21
1396.835
 31
0.0
  0
LINE
  5
38E
330
1E
100
AcDbEntity
  8
0
100
AcDbLine
 10
134.6999999999999
 20
1396.835
 30
0.0
 11
153.6
 21
1396.835
 31
0.0
  0
LINE
  5
38F
330
1E
100
AcDbEntity
  8
0
100
AcDbLine
 10
153.6
 20
1396.835
 30
0.0
 11
167.9
 21
1396.835
 31
0.0
  0
LINE
  5
390
330
1E
100
AcDbEntity
  8
0
100
AcDbLine
 10
167.9
 20
1396.835
 30
0.0
 11
176.6999999999999
 21
1396.835
 31
0.0
  0
LINE
  5
391
330
1E
100
AcDbEntity
  8
0
100
AcDbLine
 10
66.90000000000001
 20
1396.835
 30
0.0
 11
90.0
 21
1396.835
 31
0.0
  0
LINE
  5
392
330
1E
100
AcDbEntity
  8
0
100
AcDbLine
 10
45.3
 20
1396.835
 30
0.0
 11
66.90000000000001
 21
1396.835
 31
0.0
  0
LINE
  5
393
330
1E
100
AcDbEntity
  8
0
100
AcDbLine
 10
26.4
 20
1396.835
 30
0.0
 11
45.3
 21
1396.835
 31
0.0
  0
LINE
  5
394
330
1E
100
AcDbEntity
  8
0
100
AcDbLine
 10
12.09999999999999
 20
1396.835
 30
0.0
 11
26.4
 21
1396.835
 31
0.0
  0
LINE
  5
395
330
1E
100
AcDbEntity
  8
0
100
AcDbLine
 10
3.299999999999999
 20
1396.835
 30
0.0
 11
12.09999999999999
 21
1396.835
 31
0.0
  0
LINE
  5
396
330
1E
100
AcDbEntity
  8
0
100
AcDbLine
 10
1.0
 20
1397.835
 30
0.0
 11
4.2
 21
1397.835
 31
0.0
  0
LINE
  5
397
330
1E
100
AcDbEntity
  8
0
100
AcDbLine
 10
4.2
 20
1397.835
 30
0.0
 11
12.9
 21
1397.835
 31
0.0
  0
LINE
  5
398
330
1E
100
AcDbEntity
  8
0
100
AcDbLine
 10
79.0
 20
1397.835
 30
0.0
 11
79.0
 21
1436.835
 31
0.0
  0
LINE
  5
399
330
1E
100
AcDbEntity
  8
0
100
AcDbLine
 10
101.0
 20
1397.835
 30
0.0
 11
101.0
 21
1436.835
 31
0.0
  0
LINE
  5
39A
330
1E
100
AcDbEntity
  8
0
100
AcDbLine
 10
90.0
 20
1397.835
 30
0.0
 11
112.9
 21
1397.835
 31
0.0
  0
LINE
  5
39B
330
1E
100
AcDbEntity
  8
0
100
AcDbLine
 10
112.9
 20
1397.835
 30
0.0
 11
134.1999999999999
 21
1397.835
 31
0.0
  0
LINE
  5
39C
330
1E
100
AcDbEntity
  8
0
100
AcDbLine
 10
134.1999999999999
 20
1397.835
 30
0.0
 11
152.8
 21
1397.835
 31
0.0
  0
LINE
  5
39D
330
1E
100
AcDbEntity
  8
0
100
AcDbLine
 10
152.8
 20
1397.835
 30
0.0
 11
167.1
 21
1397.835
 31
0.0
  0
LINE
  5
39E
330
1E
100
AcDbEntity
  8
0
100
AcDbLine
 10
167.1
 20
1397.835
 30
0.0
 11
175.8
 21
1397.835
 31
0.0
  0
LINE
  5
39F
330
1E
100
AcDbEntity
  8
0
100
AcDbLine
 10
175.8
 20
1397.835
 30
0.0
 11
179.0
 21
1397.835
 31
0.0
  0
LINE
  5
3A0
330
1E
100
AcDbEntity
  8
0
100
AcDbLine
 10
67.09999999999999
 20
1397.835
 30
0.0
 11
90.0
 21
1397.835
 31
0.0
  0
LINE
  5
3A1
330
1E
100
AcDbEntity
  8
0
100
AcDbLine
 10
45.8
 20
1397.835
 30
0.0
 11
67.09999999999999
 21
1397.835
 31
0.0
  0
LINE
  5
3A2
330
1E
100
AcDbEntity
  8
0
100
AcDbLine
 10
27.2
 20
1397.835
 30
0.0
 11
45.8
 21
1397.835
 31
0.0
  0
LINE
  5
3A3
330
1E
100
AcDbEntity
  8
0
100
AcDbLine
 10
12.9
 20
1397.835
 30
0.0
 11
27.2
 21
1397.835
 31
0.0
  0
LINE
  5
3A4
330
1E
100
AcDbEntity
  8
0
100
AcDbLine
 10
94.37633000000001
 20
1514.135
 30
0.0
 11
106.0629
 21
1537.835
 31
0.0
  0
LINE
  5
3A5
330
1E
100
AcDbEntity
  8
0
100
AcDbLine
 10
85.88297999999999
 20
1489.114999999999
 30
0.0
 11
94.37633000000001
 21
1514.135
 31
0.0
  0
LINE
  5
3A6
330
1E
100
AcDbEntity
  8
0
100
AcDbLine
 10
80.72813999999999
 20
1463.205
 30
0.0
 11
85.88297999999999
 21
1489.114999999999
 31
0.0
  0
LINE
  5
3A7
330
1E
100
AcDbEntity
  8
0
100
AcDbLine
 10
79.0
 20
1436.835
 30
0.0
 11
80.72813999999999
 21
1463.205
 31
0.0
  0
LINE
  5
3A8
330
1E
100
AcDbEntity
  8
0
100
AcDbLine
 10
79.0
 20
1436.835
 30
0.0
 11
79.0
 21
1397.835
 31
0.0
  0
LINE
  5
3A9
330
1E
100
AcDbEntity
  8
0
100
AcDbLine
 10
114.7016999999999
 20
1505.715
 30
0.0
 11
125.1153999999999
 21
1526.835
 31
0.0
  0
LINE
  5
3AA
330
1E
100
AcDbEntity
  8
0
100
AcDbLine
 10
107.1334
 20
1483.424999999999
 30
0.0
 11
114.7016999999999
 21
1505.715
 31
0.0
  0
LINE
  5
3AB
330
1E
100
AcDbEntity
  8
0
100
AcDbLine
 10
102.5398999999999
 20
1460.325
 30
0.0
 11
107.1334
 21
1483.424999999999
 31
0.0
  0
LINE
  5
3AC
330
1E
100
AcDbEntity
  8
0
100
AcDbLine
 10
101.0
 20
1436.835
 30
0.0
 11
102.5398999999999
 21
1460.325
 31
0.0
  0
LINE
  5
3AD
330
1E
100
AcDbEntity
  8
0
100
AcDbLine
 10
101.0
 20
1436.835
 30
0.0
 11
101.0
 21
1397.835
 31
0.0
  0
LINE
  5
3AE
330
1E
100
AcDbEntity
  8
0
100
AcDbLine
 10
106.0629
 20
1537.835
 30
0.0
 11
120.7425999999999
 21
1559.805
 31
0.0
  0
LINE
  5
3AF
330
1E
100
AcDbEntity
  8
0
100
AcDbLine
 10
125.1153999999999
 20
1526.835
 30
0.0
 11
138.1964
 21
1546.415
 31
0.0
  0
LINE
  5
3B0
330
1E
100
AcDbEntity
  8
0
100
AcDbLine
 10
138.1644
 20
1579.674999999999
 30
0.0
 11
158.0302
 21
1597.095
 31
0.0
  0
LINE
  5
3B1
330
1E
100
AcDbEntity
  8
0
100
AcDbLine
 10
120.7425999999999
 20
1559.805
 30
0.0
 11
138.1644
 21
1579.674999999999
 31
0.0
  0
LINE
  5
3B2
330
1E
100
AcDbEntity
  8
0
100
AcDbLine
 10
153.7207999999999
 20
1564.115
 30
0.0
 11
171.4229
 21
1579.635
 31
0.0
  0
LINE
  5
3B3
330
1E
100
AcDbEntity
  8
0
100
AcDbLine
 10
158.0302
 20
1597.095
 30
0.0
 11
180.0
 21
1611.775
 31
0.0
  0
LINE
  5
3B4
330
1E
100
AcDbEntity
  8
0
100
AcDbLine
 10
171.4229
 20
1579.635
 30
0.0
 11
191.0
 21
1592.715
 31
0.0
  0
LINE
  5
3B5
330
1E
100
AcDbEntity
  8
0
100
AcDbLine
 10
138.1964
 20
1546.415
 30
0.0
 11
153.7207999999999
 21
1564.115
 31
0.0
  0
LINE
  5
3B6
330
1E
100
AcDbEntity
  8
0
100
AcDbLine
 10
4.200000000000009
 20
1397.835
 30
0.0
 11
12.9
 21
1397.835
 31
0.0
  0
LINE
  5
3B7
330
1E
100
AcDbEntity
  8
0
100
AcDbLine
 10
1.0
 20
1397.835
 30
0.0
 11
4.2
 21
1397.835
 31
0.0
  0
LINE
  5
3B8
330
1E
100
AcDbEntity
  8
0
100
AcDbLine
 10
0.0000000000000019
 20
1396.835
 30
0.0
 11
3.299999999999999
 21
1396.835
 31
0.0
  0
LINE
  5
3B9
330
1E
100
AcDbEntity
  8
0
100
AcDbLine
 10
0.0000000000000019
 20
1396.835
 30
0.0
 11
1.0
 21
1397.835
 31
0.0
  0
LINE
  5
3BA
330
1E
100
AcDbEntity
  8
0
100
AcDbLine
 10
0.0000000000000018
 20
1396.835
 30
0.0
 11
1.0
 21
1397.835
 31
0.0
  0
LINE
  5
3BB
330
1E
100
AcDbEntity
  8
0
100
AcDbLine
 10
0.0000000000000018
 20
1396.835
 30
0.0
 11
3.299999999999999
 21
1396.835
 31
0.0
  0
LINE
  5
3BC
330
1E
100
AcDbEntity
  8
0
100
AcDbLine
 10
-0.0000000000000006
 20
1357.835
 30
0.0
 11
0.9999999999999989
 21
1356.835
 31
0.0
  0
LINE
  5
3BD
330
1E
100
AcDbEntity
  8
0
100
AcDbLine
 10
-0.0000000000000007
 20
1355.835
 30
0.0
 11
0.9999999999999989
 21
1356.835
 31
0.0
  0
LINE
  5
3BE
330
1E
100
AcDbEntity
  8
0
100
AcDbLine
 10
-0.0000000000000007
 20
1355.835
 30
0.0
 11
3.299999999999999
 21
1355.835
 31
0.0
  0
LINE
  5
3BF
330
1E
100
AcDbEntity
  8
0
100
AcDbLine
 10
-0.0000000000000012
 20
1346.835
 30
0.0
 11
-0.0000000000000007
 21
1355.835
 31
0.0
  0
LINE
  5
3C0
330
1E
100
AcDbEntity
  8
0
100
AcDbLine
 10
-0.0000000000000012
 20
1346.835
 30
0.0
 11
0.9999999999999989
 21
1345.835
 31
0.0
  0
LINE
  5
3C1
330
1E
100
AcDbEntity
  8
0
100
AcDbLine
 10
-0.0000000000000012
 20
1346.835
 30
0.0
 11
3.299999999999999
 21
1346.835
 31
0.0
  0
LINE
  5
3C2
330
1E
100
AcDbEntity
  8
0
100
AcDbLine
 10
-0.0000000000000013
 20
1346.835
 30
0.0
 11
0.9999999999999989
 21
1345.835
 31
0.0
  0
LINE
  5
3C3
330
1E
100
AcDbEntity
  8
0
100
AcDbLine
 10
167.1
 20
1345.835
 30
0.0
 11
169.9129999999999
 21
1345.835
 31
0.0
  0
LINE
  5
3C4
330
1E
100
AcDbEntity
  8
0
100
AcDbLine
 10
167.1
 20
1345.835
 30
0.0
 11
175.8
 21
1345.835
 31
0.0
  0
LINE
  5
3C5
330
1E
100
AcDbEntity
  8
0
100
AcDbLine
 10
350.936
 20
765.5349999999999
 30
0.0
 11
351.059
 21
766.9439999999999
 31
0.0
  0
LINE
  5
3C6
330
1E
100
AcDbEntity
  8
0
100
AcDbLine
 10
350.936
 20
765.5349999999999
 30
0.0
 11
351.3859999999999
 21
764.9989999999998
 31
0.0
  0
LINE
  5
3C7
330
1E
100
AcDbEntity
  8
0
100
AcDbLine
 10
362.6059999999999
 20
749.293
 30
0.0
 11
363.72
 21
747.9659999999999
 31
0.0
  0
LINE
  5
3C8
330
1E
100
AcDbEntity
  8
0
100
AcDbLine
 10
361.9639999999999
 20
750.0589999999999
 30
0.0
 11
362.633739243335
 21
750.621196257787
 31
0.0
  0
LINE
  5
3C9
330
1E
100
AcDbEntity
  8
0
100
AcDbLine
 10
361.9639999999999
 20
750.0589999999999
 30
0.0
 11
362.6059999999999
 21
749.293
 31
0.0
  0
LINE
  5
3CA
330
1E
100
AcDbEntity
  8
0
100
AcDbLine
 10
361.9639999999999
 20
750.0589999999999
 30
0.0
 11
363.077
 21
748.7319999999999
 31
0.0
  0
LINE
  5
3CB
330
1E
100
AcDbEntity
  8
0
100
AcDbLine
 10
361.925
 20
750.105
 30
0.0
 11
362.21208355092
 21
749.762999999992
 31
0.0
  0
LINE
  5
3CC
330
1E
100
AcDbEntity
  8
0
100
AcDbLine
 10
361.925
 20
750.105
 30
0.0
 11
362.505958623486
 21
750.592292318002
 31
0.0
  0
LINE
  5
3CD
330
1E
100
AcDbEntity
  8
0
100
AcDbLine
 10
363.72
 20
747.9659999999999
 30
0.0
 11
364.2702958970129
 21
748.4279324566309
 31
0.0
  0
LINE
  5
3CE
330
1E
100
AcDbEntity
  8
0
100
AcDbLine
 10
363.077
 20
748.7319999999999
 30
0.0
 11
363.72
 21
747.9659999999999
 31
0.0
  0
LINE
  5
3CF
330
1E
100
AcDbEntity
  8
0
100
AcDbLine
 10
363.077
 20
748.7319999999999
 30
0.0
 11
363.460071606321
 21
749.053560108178
 31
0.0
  0
LINE
  5
3D0
330
1E
100
AcDbEntity
  8
0
100
AcDbLine
 10
363.134949640288
 20
748.6629136690648
 30
0.0
 11
363.419
 21
748.3239999999999
 31
0.0
  0
LINE
  5
3D1
330
1E
100
AcDbEntity
  8
0
100
AcDbLine
 10
362.9031785983519
 20
748.9389999999879
 30
0.0
 11
363.419
 21
748.3239999999999
 31
0.0
  0
LINE
  5
3D2
330
1E
100
AcDbEntity
  8
0
100
AcDbLine
 10
363.9599999999999
 20
748.4580000000001
 30
0.0
 11
364.726067440857
 21
749.1010566115809
 31
0.0
  0
LINE
  5
3D3
330
1E
100
AcDbEntity
  8
0
100
AcDbLine
 10
362.674
 20
749.99
 30
0.0
 11
363.4403788769889
 21
750.6333180390389
 31
0.0
  0
LINE
  5
3D4
330
1E
100
AcDbEntity
  8
0
100
AcDbLine
 10
362.674
 20
749.99
 30
0.0
 11
363.9599999999999
 21
748.4580000000001
 31
0.0
  0
LINE
  5
3D5
330
1E
100
AcDbEntity
  8
0
100
AcDbLine
 10
360.8119999999999
 20
751.432
 30
0.0
 11
361.4421330407469
 21
751.9605384839169
 31
0.0
  0
LINE
  5
3D6
330
1E
100
AcDbEntity
  8
0
100
AcDbLine
 10
360.8119999999999
 20
751.432
 30
0.0
 11
361.925
 21
750.105
 31
0.0
  0
LINE
  5
3D7
330
1E
100
AcDbEntity
  8
0
100
AcDbLine
 10
361.663
 20
750.4169999999999
 30
0.0
 11
362.2757806788569
 21
749.686999999993
 31
0.0
  0
LINE
  5
3D8
330
1E
100
AcDbEntity
  8
0
100
AcDbLine
 10
361.663
 20
750.4169999999999
 30
0.0
 11
362.2480503597149
 21
749.7200863309319
 31
0.0
  0
LINE
  5
3D9
330
1E
100
AcDbEntity
  8
0
100
AcDbLine
 10
360.2009999999999
 20
752.9379999999999
 30
0.0
 11
360.458462622626
 21
753.153952656707
 31
0.0
  0
LINE
  5
3DA
330
1E
100
AcDbEntity
  8
0
100
AcDbLine
 10
360.2009999999999
 20
752.9379999999999
 30
0.0
 11
360.967281111679
 21
753.580735788843
 31
0.0
  0
LINE
  5
3DB
330
1E
100
AcDbEntity
  8
0
100
AcDbLine
 10
363.663
 20
750.3680000000001
 30
0.0
 11
367.97
 21
745.235
 31
0.0
  0
LINE
  5
3DC
330
1E
100
AcDbEntity
  8
0
100
AcDbLine
 10
364.7419999999999
 20
746.7480000000001
 30
0.0
 11
365.10332190247
 21
747.0513028502459
 31
0.0
  0
LINE
  5
3DD
330
1E
100
AcDbEntity
  8
0
100
AcDbLine
 10
364.7419999999999
 20
746.7480000000001
 30
0.0
 11
365.384
 21
745.9819999999999
 31
0.0
  0
LINE
  5
3DE
330
1E
100
AcDbEntity
  8
0
100
AcDbLine
 10
364.7419999999999
 20
746.7480000000001
 30
0.0
 11
365.4419855099139
 21
747.3355857478789
 31
0.0
  0
LINE
  5
3DF
330
1E
100
AcDbEntity
  8
0
100
AcDbLine
 10
364.311
 20
748.0389999999999
 30
0.0
 11
365.090082894161
 21
747.0401896879179
 31
0.0
  0
LINE
  5
3E0
330
1E
100
AcDbEntity
  8
0
100
AcDbLine
 10
364.115762757137
 20
748.298213384907
 30
0.0
 11
364.311
 21
748.0389999999999
 31
0.0
  0
LINE
  5
3E1
330
1E
100
AcDbEntity
  8
0
100
AcDbLine
 10
363.979
 20
751.547
 30
0.0
 11
368.35
 21
746.337
 31
0.0
  0
LINE
  5
3E2
330
1E
100
AcDbEntity
  8
0
100
AcDbLine
 10
355.285
 20
758.796
 30
0.0
 11
355.9400390970699
 21
759.345856578872
 31
0.0
  0
LINE
  5
3E3
330
1E
100
AcDbEntity
  8
0
100
AcDbLine
 10
355.449
 20
758.6010000000001
 30
0.0
 11
356.215260738003
 21
759.2437186999569
 31
0.0
  0
LINE
  5
3E4
330
1E
100
AcDbEntity
  8
0
100
AcDbLine
 10
355.449
 20
758.6010000000001
 30
0.0
 11
356.5619999999999
 21
757.2739999999998
 31
0.0
  0
LINE
  5
3E5
330
1E
100
AcDbEntity
  8
0
100
AcDbLine
 10
355.285039800455
 20
758.79603340952
 30
0.0
 11
356.284
 21
757.605
 31
0.0
  0
LINE
  5
3E6
330
1E
100
AcDbEntity
  8
0
100
AcDbLine
 10
356.5619999999999
 20
757.2739999999998
 30
0.0
 11
357.2049999999999
 21
756.508
 31
0.0
  0
LINE
  5
3E7
330
1E
100
AcDbEntity
  8
0
100
AcDbLine
 10
356.5619999999999
 20
757.2739999999998
 30
0.0
 11
357.328325678318
 21
757.917273382713
 31
0.0
  0
LINE
  5
3E8
330
1E
100
AcDbEntity
  8
0
100
AcDbLine
 10
356.284
 20
757.605
 30
0.0
 11
356.9269999999999
 21
756.8389999999999
 31
0.0
  0
LINE
  5
3E9
330
1E
100
AcDbEntity
  8
0
100
AcDbLine
 10
355.851042767929
 20
759.2711507830009
 30
0.0
 11
356.00471682341
 21
759.0671201815159
 31
0.0
  0
LINE
  5
3EA
330
1E
100
AcDbEntity
  8
0
100
AcDbLine
 10
354.6419999999999
 20
759.562
 30
0.0
 11
355.285
 21
758.796
 31
0.0
  0
LINE
  5
3EB
330
1E
100
AcDbEntity
  8
0
100
AcDbLine
 10
354.6419999999999
 20
759.562
 30
0.0
 11
355.3455217594519
 21
760.152554166224
 31
0.0
  0
LINE
  5
3EC
330
1E
100
AcDbEntity
  8
0
100
AcDbLine
 10
353.5289999999999
 20
760.8889999999998
 30
0.0
 11
354.2950926725649
 21
761.5320777917219
 31
0.0
  0
LINE
  5
3ED
330
1E
100
AcDbEntity
  8
0
100
AcDbLine
 10
353.5289999999999
 20
760.8889999999998
 30
0.0
 11
354.6419999999999
 21
759.562
 31
0.0
  0
LINE
  5
3EE
330
1E
100
AcDbEntity
  8
0
100
AcDbLine
 10
353.454
 20
760.9789999999999
 30
0.0
 11
354.1585651705229
 21
761.5699701332389
 31
0.0
  0
LINE
  5
3EF
330
1E
100
AcDbEntity
  8
0
100
AcDbLine
 10
353.454
 20
760.9789999999999
 30
0.0
 11
353.5292528907659
 21
760.88921228298
 31
0.0
  0
LINE
  5
3F0
330
1E
100
AcDbEntity
  8
0
100
AcDbLine
 10
353.454
 20
760.9789999999999
 30
0.0
 11
353.529285236594
 21
760.8892394348958
 31
0.0
  0
LINE
  5
3F1
330
1E
100
AcDbEntity
  8
0
100
AcDbLine
 10
356.078
 20
759.4069999999999
 30
0.0
 11
358.3919999999999
 21
756.6489999999999
 31
0.0
  0
LINE
  5
3F2
330
1E
100
AcDbEntity
  8
0
100
AcDbLine
 10
356.721
 20
758.641
 30
0.0
 11
359.935
 21
754.811
 31
0.0
  0
LINE
  5
3F3
330
1E
100
AcDbEntity
  8
0
100
AcDbLine
 10
354.343
 20
761.475
 30
0.0
 11
356.721
 21
758.641
 31
0.0
  0
LINE
  5
3F4
330
1E
100
AcDbEntity
  8
0
100
AcDbLine
 10
354.343
 20
761.475
 30
0.0
 11
356.078
 21
759.4069999999999
 31
0.0
  0
LINE
  5
3F5
330
1E
100
AcDbEntity
  8
0
100
AcDbLine
 10
359.0869999999999
 20
754.265
 30
0.0
 11
359.853599005556
 21
754.9080024295951
 31
0.0
  0
LINE
  5
3F6
330
1E
100
AcDbEntity
  8
0
100
AcDbLine
 10
359.0869999999999
 20
754.265
 30
0.0
 11
360.2009999999999
 21
752.9379999999999
 31
0.0
  0
LINE
  5
3F7
330
1E
100
AcDbEntity
  8
0
100
AcDbLine
 10
358.4449999999999
 20
755.031
 30
0.0
 11
359.0869999999999
 21
754.265
 31
0.0
  0
LINE
  5
3F8
330
1E
100
AcDbEntity
  8
0
100
AcDbLine
 10
358.4449999999999
 20
755.031
 30
0.0
 11
359.211129485724
 21
755.673608609109
 31
0.0
  0
LINE
  5
3F9
330
1E
100
AcDbEntity
  8
0
100
AcDbLine
 10
360.458462622626
 20
753.153952656707
 30
0.0
 11
361.3901636674659
 21
751.916947984787
 31
0.0
  0
LINE
  5
3FA
330
1E
100
AcDbEntity
  8
0
100
AcDbLine
 10
359.935
 20
754.811
 30
0.0
 11
363.663
 21
750.3680000000001
 31
0.0
  0
LINE
  5
3FB
330
1E
100
AcDbEntity
  8
0
100
AcDbLine
 10
357.2049999999999
 20
756.508
 30
0.0
 11
357.858803767868
 21
757.056819611931
 31
0.0
  0
LINE
  5
3FC
330
1E
100
AcDbEntity
  8
0
100
AcDbLine
 10
357.6505350288069
 20
756.8819935032929
 30
0.0
 11
358.812510179987
 21
755.339257559584
 31
0.0
  0
LINE
  5
3FD
330
1E
100
AcDbEntity
  8
0
100
AcDbLine
 10
358.3919999999999
 20
756.6489999999999
 30
0.0
 11
361.477
 21
752.972
 31
0.0
  0
LINE
  5
3FE
330
1E
100
AcDbEntity
  8
0
100
AcDbLine
 10
360.1869999999999
 20
756.066
 30
0.0
 11
363.979
 21
751.547
 31
0.0
  0
LINE
  5
3FF
330
1E
100
AcDbEntity
  8
0
100
AcDbLine
 10
356.973
 20
759.896
 30
0.0
 11
360.1869999999999
 21
756.066
 31
0.0
  0
LINE
  5
400
330
1E
100
AcDbEntity
  8
0
100
AcDbLine
 10
361.477
 20
752.972
 30
0.0
 11
361.960745539494
 21
752.395536565437
 31
0.0
  0
LINE
  5
401
330
1E
100
AcDbEntity
  8
0
100
AcDbLine
 10
361.477
 20
752.972
 30
0.0
 11
365.077
 21
748.682
 31
0.0
  0
LINE
  5
402
330
1E
100
AcDbEntity
  8
0
100
AcDbLine
 10
366.498
 20
744.656
 30
0.0
 11
367.0927388575279
 21
745.1548508041279
 31
0.0
  0
LINE
  5
403
330
1E
100
AcDbEntity
  8
0
100
AcDbLine
 10
366.771100331956
 20
744.885069142666
 30
0.0
 11
369.370897061735
 21
741.552042833806
 31
0.0
  0
LINE
  5
404
330
1E
100
AcDbEntity
  8
0
100
AcDbLine
 10
365.384
 20
745.9819999999999
 30
0.0
 11
366.498
 21
744.656
 31
0.0
  0
LINE
  5
405
330
1E
100
AcDbEntity
  8
0
100
AcDbLine
 10
365.384
 20
745.9819999999999
 30
0.0
 11
366.04597686623
 21
746.537680319825
 31
0.0
  0
LINE
  5
406
330
1E
100
AcDbEntity
  8
0
100
AcDbLine
 10
365.077
 20
748.682
 30
0.0
 11
365.890770353155
 21
747.712307228562
 31
0.0
  0
LINE
  5
407
330
1E
100
AcDbEntity
  8
0
100
AcDbLine
 10
365.077
 20
748.682
 30
0.0
 11
368.832254503788
 21
744.20722018882
 31
0.0
  0
LINE
  5
408
330
1E
100
AcDbEntity
  8
0
100
AcDbLine
 10
368.35
 20
746.337
 30
0.0
 11
373.171
 21
740.592
 31
0.0
  0
LINE
  5
409
330
1E
100
AcDbEntity
  8
0
100
AcDbLine
 10
367.646913961156
 20
745.6196778329539
 30
0.0
 11
368.832254503788
 21
744.20722018882
 31
0.0
  0
LINE
  5
40A
330
1E
100
AcDbEntity
  8
0
100
AcDbLine
 10
367.97
 20
745.235
 30
0.0
 11
368.832254503788
 21
744.20722018882
 31
0.0
  0
LINE
  5
40B
330
1E
100
AcDbEntity
  8
0
100
AcDbLine
 10
367.97
 20
745.235
 30
0.0
 11
372.726
 21
739.566
 31
0.0
  0
LINE
  5
40C
330
1E
100
AcDbEntity
  8
0
100
AcDbLine
 10
364.868688180913
 20
748.930238251079
 30
0.0
 11
365.077
 21
748.682
 31
0.0
  0
LINE
  5
40D
330
1E
100
AcDbEntity
  8
0
100
AcDbLine
 10
354.466
 20
762.8839999999999
 30
0.0
 11
356.973
 21
759.896
 31
0.0
  0
LINE
  5
40E
330
1E
100
AcDbEntity
  8
0
100
AcDbLine
 10
353.25
 20
762.7769999999999
 30
0.0
 11
354.220009690015
 21
761.621508127722
 31
0.0
  0
LINE
  5
40F
330
1E
100
AcDbEntity
  8
0
100
AcDbLine
 10
353.25
 20
762.7769999999999
 30
0.0
 11
354.343
 21
761.475
 31
0.0
  0
LINE
  5
410
330
1E
100
AcDbEntity
  8
0
100
AcDbLine
 10
352.864
 20
763.2369999999999
 30
0.0
 11
353.25
 21
762.7769999999999
 31
0.0
  0
LINE
  5
411
330
1E
100
AcDbEntity
  8
0
100
AcDbLine
 10
352.864
 20
763.2369999999999
 30
0.0
 11
354.2050571785549
 21
761.456499694271
 31
0.0
  0
LINE
  5
412
330
1E
100
AcDbEntity
  8
0
100
AcDbLine
 10
351.3859999999999
 20
764.9989999999998
 30
0.0
 11
352.478
 21
763.6969999999999
 31
0.0
  0
LINE
  5
413
330
1E
100
AcDbEntity
  8
0
100
AcDbLine
 10
352.666
 20
765.029
 30
0.0
 11
354.466
 21
762.8839999999999
 31
0.0
  0
LINE
  5
414
330
1E
100
AcDbEntity
  8
0
100
AcDbLine
 10
351.509
 20
766.408
 30
0.0
 11
352.666
 21
765.029
 31
0.0
  0
LINE
  5
415
330
1E
100
AcDbEntity
  8
0
100
AcDbLine
 10
367.5959999999999
 20
779.906
 30
0.0
 11
368.753
 21
778.5269999999999
 31
0.0
  0
LINE
  5
416
330
1E
100
AcDbEntity
  8
0
100
AcDbLine
 10
352.478
 20
763.6969999999999
 30
0.0
 11
354.220022053126
 21
761.6215184975629
 31
0.0
  0
LINE
  5
417
330
1E
100
AcDbEntity
  8
0
100
AcDbLine
 10
352.478
 20
763.6969999999999
 30
0.0
 11
354.343
 21
761.475
 31
0.0
  0
LINE
  5
418
330
1E
100
AcDbEntity
  8
0
100
AcDbLine
 10
351.059
 20
766.9439999999999
 30
0.0
 11
367.1459999999999
 21
780.4429999999999
 31
0.0
  0
LINE
  5
419
330
1E
100
AcDbEntity
  8
0
100
AcDbLine
 10
351.059
 20
766.9439999999999
 30
0.0
 11
351.509
 21
766.408
 31
0.0
  0
LINE
  5
41A
330
1E
100
AcDbEntity
  8
0
100
AcDbLine
 10
367.1459999999999
 20
780.4429999999999
 30
0.0
 11
368.555
 21
780.3189999999999
 31
0.0
  0
LINE
  5
41B
330
1E
100
AcDbEntity
  8
0
100
AcDbLine
 10
367.1459999999999
 20
780.4429999999999
 30
0.0
 11
367.5959999999999
 21
779.906
 31
0.0
  0
LINE
  5
41C
330
1E
100
AcDbEntity
  8
0
100
AcDbLine
 10
413.902
 20
687.383
 30
0.0
 11
414.545
 21
686.6169999999999
 31
0.0
  0
LINE
  5
41D
330
1E
100
AcDbEntity
  8
0
100
AcDbLine
 10
413.902
 20
687.383
 30
0.0
 11
414.5587522499909
 21
687.9342946432699
 31
0.0
  0
LINE
  5
41E
330
1E
100
AcDbEntity
  8
0
100
AcDbLine
 10
414.545
 20
686.6169999999999
 30
0.0
 11
415.0022383878579
 21
687.00081760234
 31
0.0
  0
LINE
  5
41F
330
1E
100
AcDbEntity
  8
0
100
AcDbLine
 10
414.545
 20
686.6169999999999
 30
0.0
 11
415.2362446463349
 21
687.197248443333
 31
0.0
  0
LINE
  5
420
330
1E
100
AcDbEntity
  8
0
100
AcDbLine
 10
416.754
 20
683.985
 30
0.0
 11
417.3850034271979
 21
684.5146804225699
 31
0.0
  0
LINE
  5
421
330
1E
100
AcDbEntity
  8
0
100
AcDbLine
 10
418.508
 20
683.45
 30
0.0
 11
419.2737652491799
 21
684.0928029441549
 31
0.0
  0
LINE
  5
422
330
1E
100
AcDbEntity
  8
0
100
AcDbLine
 10
416.8069999999999
 20
683.921
 30
0.0
 11
417.3874754437959
 21
684.408265940419
 31
0.0
  0
LINE
  5
423
330
1E
100
AcDbEntity
  8
0
100
AcDbLine
 10
415.6399999999999
 20
685.312
 30
0.0
 11
416.023453191635
 21
685.633630124837
 31
0.0
  0
LINE
  5
424
330
1E
100
AcDbEntity
  8
0
100
AcDbLine
 10
415.6399999999999
 20
685.312
 30
0.0
 11
416.754
 21
683.985
 31
0.0
  0
LINE
  5
425
330
1E
100
AcDbEntity
  8
0
100
AcDbLine
 10
415.997621703017
 20
684.8860000000869
 30
0.0
 11
416.8069999999999
 21
683.921
 31
0.0
  0
LINE
  5
426
330
1E
100
AcDbEntity
  8
0
100
AcDbLine
 10
415.41
 20
686.3649999999999
 30
0.0
 11
416.6949999999999
 21
684.833
 31
0.0
  0
LINE
  5
427
330
1E
100
AcDbEntity
  8
0
100
AcDbLine
 10
415.41
 20
686.3649999999999
 30
0.0
 11
416.089305572435
 21
686.9347830682629
 31
0.0
  0
LINE
  5
428
330
1E
100
AcDbEntity
  8
0
100
AcDbLine
 10
415.41
 20
686.3649999999999
 30
0.0
 11
415.934812181918
 21
686.805198207418
 31
0.0
  0
LINE
  5
429
330
1E
100
AcDbEntity
  8
0
100
AcDbLine
 10
414.998
 20
686.078
 30
0.0
 11
415.550946224398
 21
686.5417962782969
 31
0.0
  0
LINE
  5
42A
330
1E
100
AcDbEntity
  8
0
100
AcDbLine
 10
414.998
 20
686.078
 30
0.0
 11
415.6399999999999
 21
685.312
 31
0.0
  0
LINE
  5
42B
330
1E
100
AcDbEntity
  8
0
100
AcDbLine
 10
415.0509999999999
 20
686.0139999999999
 30
0.0
 11
416.164
 21
684.687
 31
0.0
  0
LINE
  5
42C
330
1E
100
AcDbEntity
  8
0
100
AcDbLine
 10
415.0509999999999
 20
686.0139999999999
 30
0.0
 11
415.4623185378739
 21
685.523999999982
 31
0.0
  0
LINE
  5
42D
330
1E
100
AcDbEntity
  8
0
100
AcDbLine
 10
416.6949999999999
 20
684.833
 30
0.0
 11
417.3345020409639
 21
685.369396946892
 31
0.0
  0
LINE
  5
42E
330
1E
100
AcDbEntity
  8
0
100
AcDbLine
 10
417.222
 20
684.982
 30
0.0
 11
418.508
 21
683.45
 31
0.0
  0
LINE
  5
42F
330
1E
100
AcDbEntity
  8
0
100
AcDbLine
 10
417.222
 20
684.982
 30
0.0
 11
417.9881939695929
 21
685.62516282304
 31
0.0
  0
LINE
  5
430
330
1E
100
AcDbEntity
  8
0
100
AcDbLine
 10
416.164
 20
684.687
 30
0.0
 11
416.8069999999999
 21
683.921
 31
0.0
  0
LINE
  5
431
330
1E
100
AcDbEntity
  8
0
100
AcDbLine
 10
417.294893453848
 20
684.439039805254
 30
0.0
 11
420.125415854422
 21
681.300333794342
 31
0.0
  0
LINE
  5
432
330
1E
100
AcDbEntity
  8
0
100
AcDbLine
 10
414.9922289560119
 20
686.992415429133
 30
0.0
 11
415.464210725129
 21
686.46904489673
 31
0.0
  0
LINE
  5
433
330
1E
100
AcDbEntity
  8
0
100
AcDbLine
 10
393.6199999999999
 20
709.9989999999999
 30
0.0
 11
394.301
 21
709.187
 31
0.0
  0
LINE
  5
434
330
1E
100
AcDbEntity
  8
0
100
AcDbLine
 10
394.301
 20
709.187
 30
0.0
 11
394.815
 21
708.5739999999999
 31
0.0
  0
LINE
  5
435
330
1E
100
AcDbEntity
  8
0
100
AcDbLine
 10
394.815
 20
708.5739999999999
 30
0.0
 11
395.124
 21
708.2069999999999
 31
0.0
  0
LINE
  5
436
330
1E
100
AcDbEntity
  8
0
100
AcDbLine
 10
391.383
 20
712.6649999999999
 30
0.0
 11
392.669
 21
711.133
 31
0.0
  0
LINE
  5
437
330
1E
100
AcDbEntity
  8
0
100
AcDbLine
 10
391.383
 20
712.6649999999999
 30
0.0
 11
392.148999999965
 21
713.307499999971
 31
0.0
  0
LINE
  5
438
330
1E
100
AcDbEntity
  8
0
100
AcDbLine
 10
391.7659999999999
 20
712.986
 30
0.0
 11
393.0519999999999
 21
711.4539999999999
 31
0.0
  0
LINE
  5
439
330
1E
100
AcDbEntity
  8
0
100
AcDbLine
 10
391.7659999999999
 20
712.986
 30
0.0
 11
392.149246218525
 21
713.3077066821299
 31
0.0
  0
LINE
  5
43A
330
1E
100
AcDbEntity
  8
0
100
AcDbLine
 10
391.969
 20
713.5219999999999
 30
0.0
 11
392.149079899583
 21
713.3075670697548
 31
0.0
  0
LINE
  5
43B
330
1E
100
AcDbEntity
  8
0
100
AcDbLine
 10
391.203
 20
712.8789999999999
 30
0.0
 11
392.026
 21
711.8989999999999
 31
0.0
  0
LINE
  5
43C
330
1E
100
AcDbEntity
  8
0
100
AcDbLine
 10
392.669
 20
711.133
 30
0.0
 11
393.051876851153
 21
711.4541467060909
 31
0.0
  0
LINE
  5
43D
330
1E
100
AcDbEntity
  8
0
100
AcDbLine
 10
393.435
 20
711.776
 30
0.0
 11
393.817876851153
 21
712.097146706091
 31
0.0
  0
LINE
  5
43E
330
1E
100
AcDbEntity
  8
0
100
AcDbLine
 10
393.0519999999999
 20
711.4539999999999
 30
0.0
 11
393.5649211697299
 21
711.884559154225
 31
0.0
  0
LINE
  5
43F
330
1E
100
AcDbEntity
  8
0
100
AcDbLine
 10
393.818
 20
712.0969999999999
 30
0.0
 11
394.2007537814749
 21
712.41829331787
 31
0.0
  0
LINE
  5
440
330
1E
100
AcDbEntity
  8
0
100
AcDbLine
 10
394.2009999999999
 20
712.4179999999999
 30
0.0
 11
394.9668696961479
 21
713.060890619612
 31
0.0
  0
LINE
  5
441
330
1E
100
AcDbEntity
  8
0
100
AcDbLine
 10
392.5319999999999
 20
713.6289999999998
 30
0.0
 11
393.818
 21
712.0969999999999
 31
0.0
  0
LINE
  5
442
330
1E
100
AcDbEntity
  8
0
100
AcDbLine
 10
392.5319999999999
 20
713.6289999999998
 30
0.0
 11
393.005069564776
 21
714.0261066973249
 31
0.0
  0
LINE
  5
443
330
1E
100
AcDbEntity
  8
0
100
AcDbLine
 10
392.149
 20
713.3079999999999
 30
0.0
 11
393.435
 21
711.776
 31
0.0
  0
LINE
  5
444
330
1E
100
AcDbEntity
  8
0
100
AcDbLine
 10
392.149
 20
713.3079999999999
 30
0.0
 11
392.914873465639
 21
713.950393866414
 31
0.0
  0
LINE
  5
445
330
1E
100
AcDbEntity
  8
0
100
AcDbLine
 10
392.026
 20
711.8989999999999
 30
0.0
 11
392.849
 21
710.918
 31
0.0
  0
LINE
  5
446
330
1E
100
AcDbEntity
  8
0
100
AcDbLine
 10
392.849
 20
710.918
 30
0.0
 11
393.6199999999999
 21
709.9989999999999
 31
0.0
  0
LINE
  5
447
330
1E
100
AcDbEntity
  8
0
100
AcDbLine
 10
390.4319999999999
 20
713.799
 30
0.0
 11
391.203
 21
712.8789999999999
 31
0.0
  0
LINE
  5
448
330
1E
100
AcDbEntity
  8
0
100
AcDbLine
 10
388.8119999999999
 20
715.7289999999999
 30
0.0
 11
388.928
 21
715.591
 31
0.0
  0
LINE
  5
449
330
1E
100
AcDbEntity
  8
0
100
AcDbLine
 10
388.8119999999999
 20
715.7289999999999
 30
0.0
 11
389.5777642714799
 21
716.3718021234489
 31
0.0
  0
LINE
  5
44A
330
1E
100
AcDbEntity
  8
0
100
AcDbLine
 10
385.389
 20
719.808
 30
0.0
 11
386.155052381799
 21
720.4510439706219
 31
0.0
  0
LINE
  5
44B
330
1E
100
AcDbEntity
  8
0
100
AcDbLine
 10
387.1999999999999
 20
719.206
 30
0.0
 11
388.485
 21
717.6739999999999
 31
0.0
  0
LINE
  5
44C
330
1E
100
AcDbEntity
  8
0
100
AcDbLine
 10
388.485
 20
717.6739999999999
 30
0.0
 11
389.5777642714799
 21
716.3718021234489
 31
0.0
  0
LINE
  5
44D
330
1E
100
AcDbEntity
  8
0
100
AcDbLine
 10
388.485
 20
717.6739999999999
 30
0.0
 11
389.8989999999999
 21
715.9889999999998
 31
0.0
  0
LINE
  5
44E
330
1E
100
AcDbEntity
  8
0
100
AcDbLine
 10
391.198
 20
714.441
 30
0.0
 11
391.969
 21
713.5219999999999
 31
0.0
  0
LINE
  5
44F
330
1E
100
AcDbEntity
  8
0
100
AcDbLine
 10
390.5159999999999
 20
715.253
 30
0.0
 11
391.198
 21
714.441
 31
0.0
  0
LINE
  5
450
330
1E
100
AcDbEntity
  8
0
100
AcDbLine
 10
389.7499999999999
 20
714.6110000000001
 30
0.0
 11
390.4319999999999
 21
713.799
 31
0.0
  0
LINE
  5
451
330
1E
100
AcDbEntity
  8
0
100
AcDbLine
 10
389.236
 20
715.2230000000001
 30
0.0
 11
389.7499999999999
 21
714.6110000000001
 31
0.0
  0
LINE
  5
452
330
1E
100
AcDbEntity
  8
0
100
AcDbLine
 10
390.0019999999999
 20
715.8660000000001
 30
0.0
 11
390.5159999999999
 21
715.253
 31
0.0
  0
LINE
  5
453
330
1E
100
AcDbEntity
  8
0
100
AcDbLine
 10
388.928
 20
715.591
 30
0.0
 11
389.236
 21
715.2230000000001
 31
0.0
  0
LINE
  5
454
330
1E
100
AcDbEntity
  8
0
100
AcDbLine
 10
392.915
 20
713.95
 30
0.0
 11
394.2009999999999
 21
712.4179999999999
 31
0.0
  0
LINE
  5
455
330
1E
100
AcDbEntity
  8
0
100
AcDbLine
 10
392.915
 20
713.95
 30
0.0
 11
393.681186899138
 21
714.593156887919
 31
0.0
  0
LINE
  5
456
330
1E
100
AcDbEntity
  8
0
100
AcDbLine
 10
391.313
 20
714.304
 30
0.0
 11
392.1490173186409
 21
713.3080145264059
 31
0.0
  0
LINE
  5
457
330
1E
100
AcDbEntity
  8
0
100
AcDbLine
 10
389.8989999999999
 20
715.9889999999998
 30
0.0
 11
391.313
 21
714.304
 31
0.0
  0
LINE
  5
458
330
1E
100
AcDbEntity
  8
0
100
AcDbLine
 10
389.919612244862
 20
715.964437317828
 30
0.0
 11
391.313
 21
714.304
 31
0.0
  0
LINE
  5
459
330
1E
100
AcDbEntity
  8
0
100
AcDbLine
 10
389.919612244862
 20
715.964437317828
 30
0.0
 11
390.0019999999999
 21
715.8660000000001
 31
0.0
  0
LINE
  5
45A
330
1E
100
AcDbEntity
  8
0
100
AcDbLine
 10
388.86
 20
720.3389999999999
 30
0.0
 11
394.324
 21
713.827
 31
0.0
  0
LINE
  5
45B
330
1E
100
AcDbEntity
  8
0
100
AcDbLine
 10
394.324
 20
713.827
 30
0.0
 11
399.916
 21
707.1629999999999
 31
0.0
  0
LINE
  5
45C
330
1E
100
AcDbEntity
  8
0
100
AcDbLine
 10
400.8022568314209
 20
702.2177155908659
 30
0.0
 11
401.416
 21
701.4860000000001
 31
0.0
  0
LINE
  5
45D
330
1E
100
AcDbEntity
  8
0
100
AcDbLine
 10
400.419
 20
701.896
 30
0.0
 11
400.8022568314209
 21
702.2177155908659
 31
0.0
  0
LINE
  5
45E
330
1E
100
AcDbEntity
  8
0
100
AcDbLine
 10
401.299
 20
702.404
 30
0.0
 11
401.681678043313
 21
702.724979951474
 31
0.0
  0
LINE
  5
45F
330
1E
100
AcDbEntity
  8
0
100
AcDbLine
 10
401.416
 20
701.4860000000001
 30
0.0
 11
402.149224280222
 21
702.101008616244
 31
0.0
  0
LINE
  5
460
330
1E
100
AcDbEntity
  8
0
100
AcDbLine
 10
401.416
 20
701.4860000000001
 30
0.0
 11
402.089657807598
 21
702.0510458764769
 31
0.0
  0
LINE
  5
461
330
1E
100
AcDbEntity
  8
0
100
AcDbLine
 10
401.416
 20
701.4860000000001
 30
0.0
 11
401.799426939716
 21
701.807608105441
 31
0.0
  0
LINE
  5
462
330
1E
100
AcDbEntity
  8
0
100
AcDbLine
 10
402.3249999999999
 20
701.9580000000001
 30
0.0
 11
402.7079936797639
 21
702.2794946946319
 31
0.0
  0
LINE
  5
463
330
1E
100
AcDbEntity
  8
0
100
AcDbLine
 10
400.131
 20
703.018
 30
0.0
 11
401.416
 21
701.4860000000001
 31
0.0
  0
LINE
  5
464
330
1E
100
AcDbEntity
  8
0
100
AcDbLine
 10
400.131
 20
703.018
 30
0.0
 11
400.513957290524
 21
703.3392141764521
 31
0.0
  0
LINE
  5
465
330
1E
100
AcDbEntity
  8
0
100
AcDbLine
 10
401.04
 20
703.49
 30
0.0
 11
402.3249999999999
 21
701.9580000000001
 31
0.0
  0
LINE
  5
466
330
1E
100
AcDbEntity
  8
0
100
AcDbLine
 10
401.04
 20
703.49
 30
0.0
 11
401.527967659016
 21
703.8996125388349
 31
0.0
  0
LINE
  5
467
330
1E
100
AcDbEntity
  8
0
100
AcDbLine
 10
400.013
 20
703.936
 30
0.0
 11
401.299
 21
702.404
 31
0.0
  0
LINE
  5
468
330
1E
100
AcDbEntity
  8
0
100
AcDbLine
 10
400.013
 20
703.936
 30
0.0
 11
400.7293814289689
 21
704.5368812899639
 31
0.0
  0
LINE
  5
469
330
1E
100
AcDbEntity
  8
0
100
AcDbLine
 10
401.5659999999999
 20
703.641
 30
0.0
 11
402.8509999999999
 21
702.1089999999999
 31
0.0
  0
LINE
  5
46A
330
1E
100
AcDbEntity
  8
0
100
AcDbLine
 10
401.5659999999999
 20
703.641
 30
0.0
 11
402.331642070692
 21
704.28369954498
 31
0.0
  0
LINE
  5
46B
330
1E
100
AcDbEntity
  8
0
100
AcDbLine
 10
398.663
 20
703.9889999999999
 30
0.0
 11
399.7759999999999
 21
702.6619999999999
 31
0.0
  0
LINE
  5
46C
330
1E
100
AcDbEntity
  8
0
100
AcDbLine
 10
398.663
 20
703.9889999999999
 30
0.0
 11
399.428866932192
 21
704.6318882994769
 31
0.0
  0
LINE
  5
46D
330
1E
100
AcDbEntity
  8
0
100
AcDbLine
 10
399.7759999999999
 20
702.6619999999999
 30
0.0
 11
400.419
 21
701.896
 31
0.0
  0
LINE
  5
46E
330
1E
100
AcDbEntity
  8
0
100
AcDbLine
 10
399.7759999999999
 20
702.6619999999999
 30
0.0
 11
400.159550243603
 21
702.9839618885599
 31
0.0
  0
LINE
  5
46F
330
1E
100
AcDbEntity
  8
0
100
AcDbLine
 10
402.8509999999999
 20
702.1089999999999
 30
0.0
 11
403.6168178519069
 21
702.7518471002299
 31
0.0
  0
LINE
  5
470
330
1E
100
AcDbEntity
  8
0
100
AcDbLine
 10
402.5619999999999
 20
700.898
 30
0.0
 11
403.1409999999999
 21
700.2080000000001
 31
0.0
  0
LINE
  5
471
330
1E
100
AcDbEntity
  8
0
100
AcDbLine
 10
403.655
 20
699.595
 30
0.0
 11
403.9119999999999
 21
699.289
 31
0.0
  0
LINE
  5
472
330
1E
100
AcDbEntity
  8
0
100
AcDbLine
 10
404.0409999999999
 20
699.1360000000001
 30
0.0
 11
406.197100379324
 21
696.7451462058948
 31
0.0
  0
LINE
  5
473
330
1E
100
AcDbEntity
  8
0
100
AcDbLine
 10
403.9119999999999
 20
699.289
 30
0.0
 11
404.0409999999999
 21
699.1360000000001
 31
0.0
  0
LINE
  5
474
330
1E
100
AcDbEntity
  8
0
100
AcDbLine
 10
398.384
 20
705.8769999999999
 30
0.0
 11
399.428866932192
 21
704.6318882994769
 31
0.0
  0
LINE
  5
475
330
1E
100
AcDbEntity
  8
0
100
AcDbLine
 10
398.384
 20
705.8769999999999
 30
0.0
 11
399.605
 21
704.422
 31
0.0
  0
LINE
  5
476
330
1E
100
AcDbEntity
  8
0
100
AcDbLine
 10
405.726
 20
696.35
 30
0.0
 11
406.8389999999999
 21
695.023
 31
0.0
  0
LINE
  5
477
330
1E
100
AcDbEntity
  8
0
100
AcDbLine
 10
405.726
 20
696.35
 30
0.0
 11
406.378778957583
 21
696.89753326403
 31
0.0
  0
LINE
  5
478
330
1E
100
AcDbEntity
  8
0
100
AcDbLine
 10
405.2509999999999
 20
700.804
 30
0.0
 11
410.908
 21
694.0629999999999
 31
0.0
  0
LINE
  5
479
330
1E
100
AcDbEntity
  8
0
100
AcDbLine
 10
399.916
 20
707.1629999999999
 30
0.0
 11
405.2509999999999
 21
700.804
 31
0.0
  0
LINE
  5
47A
330
1E
100
AcDbEntity
  8
0
100
AcDbLine
 10
410.833
 20
691.819
 30
0.0
 11
411.2159283936789
 21
692.1404398918221
 31
0.0
  0
LINE
  5
47B
330
1E
100
AcDbEntity
  8
0
100
AcDbLine
 10
411.359
 20
691.97
 30
0.0
 11
412.124874802137
 21
692.6128949057099
 31
0.0
  0
LINE
  5
47C
330
1E
100
AcDbEntity
  8
0
100
AcDbLine
 10
409.2519999999999
 20
692.148
 30
0.0
 11
409.933705969981
 21
692.719796456544
 31
0.0
  0
LINE
  5
47D
330
1E
100
AcDbEntity
  8
0
100
AcDbLine
 10
412.7889999999999
 20
688.71
 30
0.0
 11
413.170590180317
 21
689.0303165612849
 31
0.0
  0
LINE
  5
47E
330
1E
100
AcDbEntity
  8
0
100
AcDbLine
 10
412.7889999999999
 20
688.71
 30
0.0
 11
413.902
 21
687.383
 31
0.0
  0
LINE
  5
47F
330
1E
100
AcDbEntity
  8
0
100
AcDbLine
 10
412.7889999999999
 20
688.71
 30
0.0
 11
413.396141910476
 21
689.2196504548779
 31
0.0
  0
LINE
  5
480
330
1E
100
AcDbEntity
  8
0
100
AcDbLine
 10
409.234
 20
692.946
 30
0.0
 11
409.6170539919319
 21
693.2675453222089
 31
0.0
  0
LINE
  5
481
330
1E
100
AcDbEntity
  8
0
100
AcDbLine
 10
409.5469999999999
 20
693.351
 30
0.0
 11
410.833
 21
691.819
 31
0.0
  0
LINE
  5
482
330
1E
100
AcDbEntity
  8
0
100
AcDbLine
 10
409.5469999999999
 20
693.351
 30
0.0
 11
410.155717022878
 21
693.861972644531
 31
0.0
  0
LINE
  5
483
330
1E
100
AcDbEntity
  8
0
100
AcDbLine
 10
410.073
 20
693.5019999999999
 30
0.0
 11
411.359
 21
691.97
 31
0.0
  0
LINE
  5
484
330
1E
100
AcDbEntity
  8
0
100
AcDbLine
 10
410.073
 20
693.5019999999999
 30
0.0
 11
410.839109228925
 21
694.1450916895551
 31
0.0
  0
LINE
  5
485
330
1E
100
AcDbEntity
  8
0
100
AcDbLine
 10
408.138
 20
693.475
 30
0.0
 11
408.5209021964359
 21
693.796167965027
 31
0.0
  0
LINE
  5
486
330
1E
100
AcDbEntity
  8
0
100
AcDbLine
 10
408.138
 20
693.475
 30
0.0
 11
409.2519999999999
 21
692.148
 31
0.0
  0
LINE
  5
487
330
1E
100
AcDbEntity
  8
0
100
AcDbLine
 10
409.873072631838
 20
692.66893885895
 30
0.0
 11
413.1613900324439
 21
689.0225937217508
 31
0.0
  0
LINE
  5
488
330
1E
100
AcDbEntity
  8
0
100
AcDbLine
 10
415.434
 20
688.6689999999999
 30
0.0
 11
416.077
 21
687.903
 31
0.0
  0
LINE
  5
489
330
1E
100
AcDbEntity
  8
0
100
AcDbLine
 10
415.597850720026
 20
688.4742768144881
 30
0.0
 11
416.077
 21
687.903
 31
0.0
  0
LINE
  5
48A
330
1E
100
AcDbEntity
  8
0
100
AcDbLine
 10
414.5620464297
 20
689.70860681742
 30
0.0
 11
415.434
 21
688.6689999999999
 31
0.0
  0
LINE
  5
48B
330
1E
100
AcDbEntity
  8
0
100
AcDbLine
 10
414.9569999999999
 20
689.2369999999999
 30
0.0
 11
419.5209999999999
 21
683.7979999999999
 31
0.0
  0
LINE
  5
48C
330
1E
100
AcDbEntity
  8
0
100
AcDbLine
 10
412.84780957623
 20
691.751400036304
 30
0.0
 11
414.9569999999999
 21
689.2369999999999
 31
0.0
  0
LINE
  5
48D
330
1E
100
AcDbEntity
  8
0
100
AcDbLine
 10
407.4819999999999
 20
694.2569999999999
 30
0.0
 11
408.1962438768879
 21
694.856088369322
 31
0.0
  0
LINE
  5
48E
330
1E
100
AcDbEntity
  8
0
100
AcDbLine
 10
407.495
 20
694.2410000000001
 30
0.0
 11
408.096458329404
 21
694.745157829931
 31
0.0
  0
LINE
  5
48F
330
1E
100
AcDbEntity
  8
0
100
AcDbLine
 10
407.495
 20
694.2410000000001
 30
0.0
 11
408.138
 21
693.475
 31
0.0
  0
LINE
  5
490
330
1E
100
AcDbEntity
  8
0
100
AcDbLine
 10
410.908
 20
694.0629999999999
 30
0.0
 11
415.9219999999999
 21
688.0880000000001
 31
0.0
  0
LINE
  5
491
330
1E
100
AcDbEntity
  8
0
100
AcDbLine
 10
417.009
 20
688.348
 30
0.0
 11
421.83
 21
682.6030000000001
 31
0.0
  0
LINE
  5
492
330
1E
100
AcDbEntity
  8
0
100
AcDbLine
 10
407.9489999999999
 20
694.478
 30
0.0
 11
409.234
 21
692.946
 31
0.0
  0
LINE
  5
493
330
1E
100
AcDbEntity
  8
0
100
AcDbLine
 10
407.9489999999999
 20
694.478
 30
0.0
 11
408.548806432124
 21
694.9814928666529
 31
0.0
  0
LINE
  5
494
330
1E
100
AcDbEntity
  8
0
100
AcDbLine
 10
406.8389999999999
 20
695.023
 30
0.0
 11
407.4819999999999
 21
694.2569999999999
 31
0.0
  0
LINE
  5
495
330
1E
100
AcDbEntity
  8
0
100
AcDbLine
 10
406.8389999999999
 20
695.023
 30
0.0
 11
407.5482936429869
 21
695.617936247545
 31
0.0
  0
LINE
  5
496
330
1E
100
AcDbEntity
  8
0
100
AcDbLine
 10
411.9309999999999
 20
694.3999999999999
 30
0.0
 11
417.009
 21
688.348
 31
0.0
  0
LINE
  5
497
330
1E
100
AcDbEntity
  8
0
100
AcDbLine
 10
406.4669999999999
 20
700.911
 30
0.0
 11
411.9309999999999
 21
694.3999999999999
 31
0.0
  0
LINE
  5
498
330
1E
100
AcDbEntity
  8
0
100
AcDbLine
 10
395.124
 20
708.2069999999999
 30
0.0
 11
395.24
 21
708.0689999999999
 31
0.0
  0
LINE
  5
499
330
1E
100
AcDbEntity
  8
0
100
AcDbLine
 10
395.24
 20
708.0689999999999
 30
0.0
 11
396.0057823012629
 21
708.710817542312
 31
0.0
  0
LINE
  5
49A
330
1E
100
AcDbEntity
  8
0
100
AcDbLine
 10
395.684
 20
709.0939999999999
 30
0.0
 11
397.099
 21
707.4089999999999
 31
0.0
  0
LINE
  5
49B
330
1E
100
AcDbEntity
  8
0
100
AcDbLine
 10
400.746
 20
707.7289999999999
 30
0.0
 11
406.4669999999999
 21
700.911
 31
0.0
  0
LINE
  5
49C
330
1E
100
AcDbEntity
  8
0
100
AcDbLine
 10
395.0899999999999
 20
714.47
 30
0.0
 11
400.746
 21
707.7289999999999
 31
0.0
  0
LINE
  5
49D
330
1E
100
AcDbEntity
  8
0
100
AcDbLine
 10
415.9219999999999
 20
688.0880000000001
 30
0.0
 11
416.5589834337719
 21
687.328736104698
 31
0.0
  0
LINE
  5
49E
330
1E
100
AcDbEntity
  8
0
100
AcDbLine
 10
415.9219999999999
 20
688.0880000000001
 30
0.0
 11
420.678
 21
682.4189999999999
 31
0.0
  0
LINE
  5
49F
330
1E
100
AcDbEntity
  8
0
100
AcDbLine
 10
433.0339999999999
 20
659.7599999999999
 30
0.0
 11
433.8519999999999
 21
660.186
 31
0.0
  0
LINE
  5
4A0
330
1E
100
AcDbEntity
  8
0
100
AcDbLine
 10
434.489
 20
660.982
 30
0.0
 11
435.783931475094
 21
664.4168182370259
 31
0.0
  0
LINE
  5
4A1
330
1E
100
AcDbEntity
  8
0
100
AcDbLine
 10
433.8519999999999
 20
660.186
 30
0.0
 11
434.489
 21
660.982
 31
0.0
  0
LINE
  5
4A2
330
1E
100
AcDbEntity
  8
0
100
AcDbLine
 10
432.329
 20
659.822
 30
0.0
 11
433.0339999999999
 21
659.7599999999999
 31
0.0
  0
LINE
  5
4A3
330
1E
100
AcDbEntity
  8
0
100
AcDbLine
 10
431.61
 20
660.5239999999999
 30
0.0
 11
432.329
 21
659.822
 31
0.0
  0
LINE
  5
4A4
330
1E
100
AcDbEntity
  8
0
100
AcDbLine
 10
431.2609999999999
 20
661.4060000000001
 30
0.0
 11
431.61
 21
660.5239999999999
 31
0.0
  0
LINE
  5
4A5
330
1E
100
AcDbEntity
  8
0
100
AcDbLine
 10
438.6709999999999
 20
662.5319999999999
 30
0.0
 11
439.121
 21
661.996
 31
0.0
  0
LINE
  5
4A6
330
1E
100
AcDbEntity
  8
0
100
AcDbLine
 10
437.7119999999999
 20
662.1189999999999
 30
0.0
 11
439.121
 21
661.996
 31
0.0
  0
LINE
  5
4A7
330
1E
100
AcDbEntity
  8
0
100
AcDbLine
 10
433.5869999999999
 20
665.48
 30
0.0
 11
434.352658605005
 21
666.1222136471479
 31
0.0
  0
LINE
  5
4A8
330
1E
100
AcDbEntity
  8
0
100
AcDbLine
 10
430.8869999999999
 20
663.705
 30
0.0
 11
431.2609999999999
 21
661.4060000000001
 31
0.0
  0
LINE
  5
4A9
330
1E
100
AcDbEntity
  8
0
100
AcDbLine
 10
430.8769999999999
 20
663.7699999999999
 30
0.0
 11
431.2609999999999
 21
661.4060000000001
 31
0.0
  0
LINE
  5
4AA
330
1E
100
AcDbEntity
  8
0
100
AcDbLine
 10
428.671
 20
671.338
 30
0.0
 11
429.437569588597
 21
671.98055833095
 31
0.0
  0
LINE
  5
4AB
330
1E
100
AcDbEntity
  8
0
100
AcDbLine
 10
429.9109999999999
 20
669.8610000000001
 30
0.0
 11
431.024
 21
668.534
 31
0.0
  0
LINE
  5
4AC
330
1E
100
AcDbEntity
  8
0
100
AcDbLine
 10
429.9109999999999
 20
669.8610000000001
 30
0.0
 11
430.564950248967
 21
670.4095157114379
 31
0.0
  0
LINE
  5
4AD
330
1E
100
AcDbEntity
  8
0
100
AcDbLine
 10
429.9109999999999
 20
669.8610000000001
 30
0.0
 11
430.554
 21
669.095
 31
0.0
  0
LINE
  5
4AE
330
1E
100
AcDbEntity
  8
0
100
AcDbLine
 10
429.698
 20
671.031
 30
0.0
 11
430.3984092800829
 21
670.269825668999
 31
0.0
  0
LINE
  5
4AF
330
1E
100
AcDbEntity
  8
0
100
AcDbLine
 10
429.698
 20
671.031
 30
0.0
 11
430.8769999999999
 21
663.7699999999999
 31
0.0
  0
LINE
  5
4B0
330
1E
100
AcDbEntity
  8
0
100
AcDbLine
 10
428.0289999999999
 20
672.1039999999999
 30
0.0
 11
428.671
 21
671.338
 31
0.0
  0
LINE
  5
4B1
330
1E
100
AcDbEntity
  8
0
100
AcDbLine
 10
428.0289999999999
 20
672.1039999999999
 30
0.0
 11
428.794893499907
 21
672.7464106706141
 31
0.0
  0
LINE
  5
4B2
330
1E
100
AcDbEntity
  8
0
100
AcDbLine
 10
427.558
 20
672.6639999999999
 30
0.0
 11
428.671
 21
671.338
 31
0.0
  0
LINE
  5
4B3
330
1E
100
AcDbEntity
  8
0
100
AcDbLine
 10
429.039209228517
 20
671.646642438776
 30
0.0
 11
429.71579254123
 21
670.921422695617
 31
0.0
  0
LINE
  5
4B4
330
1E
100
AcDbEntity
  8
0
100
AcDbLine
 10
430.554
 20
669.095
 30
0.0
 11
431.3199204697149
 21
669.737433292157
 31
0.0
  0
LINE
  5
4B5
330
1E
100
AcDbEntity
  8
0
100
AcDbLine
 10
430.554
 20
669.095
 30
0.0
 11
431.667
 21
667.768
 31
0.0
  0
LINE
  5
4B6
330
1E
100
AcDbEntity
  8
0
100
AcDbLine
 10
431.024
 20
668.534
 30
0.0
 11
431.667
 21
667.768
 31
0.0
  0
LINE
  5
4B7
330
1E
100
AcDbEntity
  8
0
100
AcDbLine
 10
431.667
 20
667.768
 30
0.0
 11
432.4328807738289
 21
668.4108999185009
 31
0.0
  0
LINE
  5
4B8
330
1E
100
AcDbEntity
  8
0
100
AcDbLine
 10
431.8309999999999
 20
667.5729999999999
 30
0.0
 11
432.9439999999999
 21
666.2460000000001
 31
0.0
  0
LINE
  5
4B9
330
1E
100
AcDbEntity
  8
0
100
AcDbLine
 10
431.8309999999999
 20
667.5729999999999
 30
0.0
 11
432.485251949856
 21
668.1217687699509
 31
0.0
  0
LINE
  5
4BA
330
1E
100
AcDbEntity
  8
0
100
AcDbLine
 10
431.8309999999999
 20
667.5729999999999
 30
0.0
 11
432.474
 21
666.807
 31
0.0
  0
LINE
  5
4BB
330
1E
100
AcDbEntity
  8
0
100
AcDbLine
 10
430.4138922528939
 20
666.6220995349769
 30
0.0
 11
430.8869999999999
 21
663.705
 31
0.0
  0
LINE
  5
4BC
330
1E
100
AcDbEntity
  8
0
100
AcDbLine
 10
430.2559999999999
 20
671.0049999999999
 30
0.0
 11
431.4771985203369
 21
669.55001109742
 31
0.0
  0
LINE
  5
4BD
330
1E
100
AcDbEntity
  8
0
100
AcDbLine
 10
428.713
 20
672.8439999999999
 30
0.0
 11
431.9269999999999
 21
669.0139999999999
 31
0.0
  0
LINE
  5
4BE
330
1E
100
AcDbEntity
  8
0
100
AcDbLine
 10
432.474
 20
666.807
 30
0.0
 11
433.1765337772369
 21
667.396266255711
 31
0.0
  0
LINE
  5
4BF
330
1E
100
AcDbEntity
  8
0
100
AcDbLine
 10
432.474
 20
666.807
 30
0.0
 11
433.5869999999999
 21
665.48
 31
0.0
  0
LINE
  5
4C0
330
1E
100
AcDbEntity
  8
0
100
AcDbLine
 10
432.9439999999999
 20
666.2460000000001
 30
0.0
 11
433.5869999999999
 21
665.48
 31
0.0
  0
LINE
  5
4C1
330
1E
100
AcDbEntity
  8
0
100
AcDbLine
 10
432.250136385381
 20
668.257499602872
 30
0.0
 11
432.423043083081
 21
668.069589661723
 31
0.0
  0
LINE
  5
4C2
330
1E
100
AcDbEntity
  8
0
100
AcDbLine
 10
432.2501102280249
 20
668.257477645718
 30
0.0
 11
432.423018197133
 21
668.069568788065
 31
0.0
  0
LINE
  5
4C3
330
1E
100
AcDbEntity
  8
0
100
AcDbLine
 10
431.9269999999999
 20
669.0139999999999
 30
0.0
 11
434.3049999999999
 21
666.1789999999999
 31
0.0
  0
LINE
  5
4C4
330
1E
100
AcDbEntity
  8
0
100
AcDbLine
 10
425.538
 20
674.2939999999999
 30
0.0
 11
426.1906786294059
 21
674.8418751419158
 31
0.0
  0
LINE
  5
4C5
330
1E
100
AcDbEntity
  8
0
100
AcDbLine
 10
426.915
 20
673.431
 30
0.0
 11
427.558
 21
672.6639999999999
 31
0.0
  0
LINE
  5
4C6
330
1E
100
AcDbEntity
  8
0
100
AcDbLine
 10
426.915
 20
673.431
 30
0.0
 11
428.0289999999999
 21
672.1039999999999
 31
0.0
  0
LINE
  5
4C7
330
1E
100
AcDbEntity
  8
0
100
AcDbLine
 10
426.915
 20
673.431
 30
0.0
 11
427.681211362165
 21
674.073677284845
 31
0.0
  0
LINE
  5
4C8
330
1E
100
AcDbEntity
  8
0
100
AcDbLine
 10
424.8949999999999
 20
675.0599999999999
 30
0.0
 11
425.538
 21
674.2939999999999
 31
0.0
  0
LINE
  5
4C9
330
1E
100
AcDbEntity
  8
0
100
AcDbLine
 10
426.116418354635
 20
674.7795391671409
 30
0.0
 11
427.172791371733
 21
673.647228402531
 31
0.0
  0
LINE
  5
4CA
330
1E
100
AcDbEntity
  8
0
100
AcDbLine
 10
427.17
 20
674.682
 30
0.0
 11
430.2559999999999
 21
671.0049999999999
 31
0.0
  0
LINE
  5
4CB
330
1E
100
AcDbEntity
  8
0
100
AcDbLine
 10
429.993
 20
672.8739999999999
 30
0.0
 11
433.2069999999999
 21
669.0439999999999
 31
0.0
  0
LINE
  5
4CC
330
1E
100
AcDbEntity
  8
0
100
AcDbLine
 10
434.274927989335
 20
666.057015317425
 30
0.0
 11
435.7814853954
 21
664.419732798721
 31
0.0
  0
LINE
  5
4CD
330
1E
100
AcDbEntity
  8
0
100
AcDbLine
 10
434.2749168155259
 20
666.057005945138
 30
0.0
 11
435.7814857376049
 21
664.419732390976
 31
0.0
  0
LINE
  5
4CE
330
1E
100
AcDbEntity
  8
0
100
AcDbLine
 10
434.3049999999999
 20
666.1789999999999
 30
0.0
 11
436.169
 21
663.9580000000001
 31
0.0
  0
LINE
  5
4CF
330
1E
100
AcDbEntity
  8
0
100
AcDbLine
 10
433.2069999999999
 20
669.0439999999999
 30
0.0
 11
435.714
 21
666.056
 31
0.0
  0
LINE
  5
4D0
330
1E
100
AcDbEntity
  8
0
100
AcDbLine
 10
435.714
 20
666.056
 30
0.0
 11
437.514
 21
663.911
 31
0.0
  0
LINE
  5
4D1
330
1E
100
AcDbEntity
  8
0
100
AcDbLine
 10
437.514
 20
663.911
 30
0.0
 11
438.6709999999999
 21
662.5319999999999
 31
0.0
  0
LINE
  5
4D2
330
1E
100
AcDbEntity
  8
0
100
AcDbLine
 10
436.169
 20
663.9580000000001
 30
0.0
 11
437.2619999999999
 21
662.6549999999999
 31
0.0
  0
LINE
  5
4D3
330
1E
100
AcDbEntity
  8
0
100
AcDbLine
 10
437.2619999999999
 20
662.6549999999999
 30
0.0
 11
437.7119999999999
 21
662.1189999999999
 31
0.0
  0
LINE
  5
4D4
330
1E
100
AcDbEntity
  8
0
100
AcDbLine
 10
442.7669999999999
 20
636.3369999999999
 30
0.0
 11
463.049
 21
560.6709999999999
 31
0.0
  0
LINE
  5
4D5
330
1E
100
AcDbEntity
  8
0
100
AcDbLine
 10
442.7669999999999
 20
636.3369999999999
 30
0.0
 11
443.1499999999999
 21
636.6579999999999
 31
0.0
  0
LINE
  5
4D6
330
1E
100
AcDbEntity
  8
0
100
AcDbLine
 10
444.223
 20
637.558
 30
0.0
 11
445.908
 21
638.9719999999999
 31
0.0
  0
LINE
  5
4D7
330
1E
100
AcDbEntity
  8
0
100
AcDbLine
 10
445.908
 20
638.9719999999999
 30
0.0
 11
448.13
 21
640.836
 31
0.0
  0
LINE
  5
4D8
330
1E
100
AcDbEntity
  8
0
100
AcDbLine
 10
445.755
 20
638.8440000000001
 30
0.0
 11
446.0609999999999
 21
639.101
 31
0.0
  0
LINE
  5
4D9
330
1E
100
AcDbEntity
  8
0
100
AcDbLine
 10
443.1499999999999
 20
636.6579999999999
 30
0.0
 11
444.223
 21
637.558
 31
0.0
  0
LINE
  5
4DA
330
1E
100
AcDbEntity
  8
0
100
AcDbLine
 10
447.166628619977
 20
640.0278432707629
 30
0.0
 11
447.977
 21
640.708
 31
0.0
  0
LINE
  5
4DB
330
1E
100
AcDbEntity
  8
0
100
AcDbLine
 10
447.977
 20
640.708
 30
0.0
 11
449.5849999999999
 21
642.058
 31
0.0
  0
LINE
  5
4DC
330
1E
100
AcDbEntity
  8
0
100
AcDbLine
 10
450.658
 20
642.957
 30
0.0
 11
453.3389999999999
 21
645.2069999999999
 31
0.0
  0
LINE
  5
4DD
330
1E
100
AcDbEntity
  8
0
100
AcDbLine
 10
449.5849999999999
 20
642.058
 30
0.0
 11
451.424
 21
643.5999999999999
 31
0.0
  0
LINE
  5
4DE
330
1E
100
AcDbEntity
  8
0
100
AcDbLine
 10
453.3389999999999
 20
645.2069999999999
 30
0.0
 11
456.097
 21
647.5209999999999
 31
0.0
  0
LINE
  5
4DF
330
1E
100
AcDbEntity
  8
0
100
AcDbLine
 10
451.424
 20
643.5999999999999
 30
0.0
 11
453.3389999999999
 21
645.2069999999999
 31
0.0
  0
LINE
  5
4E0
330
1E
100
AcDbEntity
  8
0
100
AcDbLine
 10
448.13
 20
640.836
 30
0.0
 11
450.658
 21
642.957
 31
0.0
  0
LINE
  5
4E1
330
1E
100
AcDbEntity
  8
0
100
AcDbLine
 10
439.4960133205
 20
662.332593461228
 30
0.0
 11
445.755
 21
638.8440000000001
 31
0.0
  0
LINE
  5
4E2
330
1E
100
AcDbEntity
  8
0
100
AcDbLine
 10
446.0609999999999
 20
639.101
 30
0.0
 11
446.602073752735
 21
639.554247288523
 31
0.0
  0
LINE
  5
4E3
330
1E
100
AcDbEntity
  8
0
100
AcDbLine
 10
439.121
 20
661.996
 30
0.0
 11
439.537514588018
 21
662.3454818119641
 31
0.0
  0
LINE
  5
4E4
330
1E
100
AcDbEntity
  8
0
100
AcDbLine
 10
423.273
 20
676.9939999999999
 30
0.0
 11
423.655558924115
 21
677.314880037524
 31
0.0
  0
LINE
  5
4E5
330
1E
100
AcDbEntity
  8
0
100
AcDbLine
 10
423.273
 20
676.9939999999999
 30
0.0
 11
424.3859999999999
 21
675.6669999999999
 31
0.0
  0
LINE
  5
4E6
330
1E
100
AcDbEntity
  8
0
100
AcDbLine
 10
423.743
 20
676.433
 30
0.0
 11
424.3859999999999
 21
675.6669999999999
 31
0.0
  0
LINE
  5
4E7
330
1E
100
AcDbEntity
  8
0
100
AcDbLine
 10
424.3859999999999
 20
675.6669999999999
 30
0.0
 11
425.0561960308429
 21
676.229579696908
 31
0.0
  0
LINE
  5
4E8
330
1E
100
AcDbEntity
  8
0
100
AcDbLine
 10
424.425
 20
675.6210000000001
 30
0.0
 11
425.0049174388289
 21
676.1077975367719
 31
0.0
  0
LINE
  5
4E9
330
1E
100
AcDbEntity
  8
0
100
AcDbLine
 10
424.425
 20
675.6210000000001
 30
0.0
 11
425.538
 21
674.2939999999999
 31
0.0
  0
LINE
  5
4EA
330
1E
100
AcDbEntity
  8
0
100
AcDbLine
 10
424.386226689529
 20
675.667190288991
 30
0.0
 11
424.425
 21
675.6210000000001
 31
0.0
  0
LINE
  5
4EB
330
1E
100
AcDbEntity
  8
0
100
AcDbLine
 10
424.250631578932
 20
675.8282631579139
 30
0.0
 11
424.8949999999999
 21
675.0599999999999
 31
0.0
  0
LINE
  5
4EC
330
1E
100
AcDbEntity
  8
0
100
AcDbLine
 10
424.4419999999999
 20
676.378
 30
0.0
 11
425.208113438597
 21
677.0210952232609
 31
0.0
  0
LINE
  5
4ED
330
1E
100
AcDbEntity
  8
0
100
AcDbLine
 10
424.062213371278
 20
676.052724039815
 30
0.0
 11
424.6859999999999
 21
675.309
 31
0.0
  0
LINE
  5
4EE
330
1E
100
AcDbEntity
  8
0
100
AcDbLine
 10
424.0429999999999
 20
676.075
 30
0.0
 11
424.6859999999999
 21
675.309
 31
0.0
  0
LINE
  5
4EF
330
1E
100
AcDbEntity
  8
0
100
AcDbLine
 10
424.985
 20
677.2869999999999
 30
0.0
 11
428.713
 21
672.8439999999999
 31
0.0
  0
LINE
  5
4F0
330
1E
100
AcDbEntity
  8
0
100
AcDbLine
 10
419.852
 20
681.071
 30
0.0
 11
420.137698420799
 21
681.3106360774979
 31
0.0
  0
LINE
  5
4F1
330
1E
100
AcDbEntity
  8
0
100
AcDbLine
 10
419.852
 20
681.071
 30
0.0
 11
420.9649999999999
 21
679.7439999999999
 31
0.0
  0
LINE
  5
4F2
330
1E
100
AcDbEntity
  8
0
100
AcDbLine
 10
419.852
 20
681.071
 30
0.0
 11
420.446607341813
 21
681.569740492317
 31
0.0
  0
LINE
  5
4F3
330
1E
100
AcDbEntity
  8
0
100
AcDbLine
 10
422.63
 20
677.7599999999999
 30
0.0
 11
423.743
 21
676.433
 31
0.0
  0
LINE
  5
4F4
330
1E
100
AcDbEntity
  8
0
100
AcDbLine
 10
422.63
 20
677.7599999999999
 30
0.0
 11
423.1806597537719
 21
678.2218784488229
 31
0.0
  0
LINE
  5
4F5
330
1E
100
AcDbEntity
  8
0
100
AcDbLine
 10
422.63
 20
677.7599999999999
 30
0.0
 11
423.273
 21
676.9939999999999
 31
0.0
  0
LINE
  5
4F6
330
1E
100
AcDbEntity
  8
0
100
AcDbLine
 10
423.1559999999999
 20
677.9099999999999
 30
0.0
 11
424.4419999999999
 21
676.378
 31
0.0
  0
LINE
  5
4F7
330
1E
100
AcDbEntity
  8
0
100
AcDbLine
 10
423.1559999999999
 20
677.9099999999999
 30
0.0
 11
423.922303404232
 21
678.553254685276
 31
0.0
  0
LINE
  5
4F8
330
1E
100
AcDbEntity
  8
0
100
AcDbLine
 10
422.93
 20
677.4019999999999
 30
0.0
 11
424.0429999999999
 21
676.075
 31
0.0
  0
LINE
  5
4F9
330
1E
100
AcDbEntity
  8
0
100
AcDbLine
 10
422.93
 20
677.4019999999999
 30
0.0
 11
423.2537866286799
 21
677.0162759602349
 31
0.0
  0
LINE
  5
4FA
330
1E
100
AcDbEntity
  8
0
100
AcDbLine
 10
421.6079999999999
 20
678.978
 30
0.0
 11
422.307934720627
 21
679.565086237602
 31
0.0
  0
LINE
  5
4FB
330
1E
100
AcDbEntity
  8
0
100
AcDbLine
 10
420.9649999999999
 20
679.7439999999999
 30
0.0
 11
421.6079999999999
 21
678.978
 31
0.0
  0
LINE
  5
4FC
330
1E
100
AcDbEntity
  8
0
100
AcDbLine
 10
420.9649999999999
 20
679.7439999999999
 30
0.0
 11
421.6265756367299
 21
680.2989116796331
 31
0.0
  0
LINE
  5
4FD
330
1E
100
AcDbEntity
  8
0
100
AcDbLine
 10
421.956279859721
 20
679.270127689127
 30
0.0
 11
422.805
 21
678.329
 31
0.0
  0
LINE
  5
4FE
330
1E
100
AcDbEntity
  8
0
100
AcDbLine
 10
422.805
 20
678.329
 30
0.0
 11
423.02597869317
 21
678.092136175407
 31
0.0
  0
LINE
  5
4FF
330
1E
100
AcDbEntity
  8
0
100
AcDbLine
 10
420.678
 20
682.4189999999999
 30
0.0
 11
424.985
 21
677.2869999999999
 31
0.0
  0
LINE
  5
500
330
1E
100
AcDbEntity
  8
0
100
AcDbLine
 10
421.83
 20
682.6030000000001
 30
0.0
 11
426.201
 21
677.393
 31
0.0
  0
LINE
  5
501
330
1E
100
AcDbEntity
  8
0
100
AcDbLine
 10
423.905466101702
 20
678.573317150236
 30
0.0
 11
427.17
 21
674.682
 31
0.0
  0
LINE
  5
502
330
1E
100
AcDbEntity
  8
0
100
AcDbLine
 10
426.201
 20
677.393
 30
0.0
 11
429.993
 21
672.8739999999999
 31
0.0
  0
LINE
  5
503
330
1E
100
AcDbEntity
  8
0
100
AcDbLine
 10
453.601
 20
677.4099999999999
 30
0.0
 11
454.758
 21
676.031
 31
0.0
  0
LINE
  5
504
330
1E
100
AcDbEntity
  8
0
100
AcDbLine
 10
454.758
 20
676.031
 30
0.0
 11
455.208
 21
675.4939999999999
 31
0.0
  0
LINE
  5
505
330
1E
100
AcDbEntity
  8
0
100
AcDbLine
 10
449.294
 20
682.5419999999999
 30
0.0
 11
451.801
 21
679.5549999999999
 31
0.0
  0
LINE
  5
506
330
1E
100
AcDbEntity
  8
0
100
AcDbLine
 10
451.801
 20
679.5549999999999
 30
0.0
 11
453.601
 21
677.4099999999999
 31
0.0
  0
LINE
  5
507
330
1E
100
AcDbEntity
  8
0
100
AcDbLine
 10
449.546
 20
683.7979999999999
 30
0.0
 11
451.924
 21
680.9630000000001
 31
0.0
  0
LINE
  5
508
330
1E
100
AcDbEntity
  8
0
100
AcDbLine
 10
451.924
 20
680.9630000000001
 30
0.0
 11
453.788
 21
678.742
 31
0.0
  0
LINE
  5
509
330
1E
100
AcDbEntity
  8
0
100
AcDbLine
 10
453.788
 20
678.742
 30
0.0
 11
454.8809999999999
 21
677.44
 31
0.0
  0
LINE
  5
50A
330
1E
100
AcDbEntity
  8
0
100
AcDbLine
 10
426.6870345994319
 20
675.2585290436489
 30
0.0
 11
427.681211362165
 21
674.073677284845
 31
0.0
  0
LINE
  5
50B
330
1E
100
AcDbEntity
  8
0
100
AcDbLine
 10
454.745053466087
 20
675.105558878924
 30
0.0
 11
455.208
 21
675.4939999999999
 31
0.0
  0
LINE
  5
50C
330
1E
100
AcDbEntity
  8
0
100
AcDbLine
 10
454.745053466087
 20
675.105558878924
 30
0.0
 11
460.998914444525
 21
651.635321082824
 31
0.0
  0
LINE
  5
50D
330
1E
100
AcDbEntity
  8
0
100
AcDbLine
 10
455.9804963445549
 20
647.4232518278829
 30
0.0
 11
456.097
 21
647.5209999999999
 31
0.0
  0
LINE
  5
50E
330
1E
100
AcDbEntity
  8
0
100
AcDbLine
 10
455.9804963445549
 20
647.4232518278829
 30
0.0
 11
457.169
 21
648.4209999999999
 31
0.0
  0
LINE
  5
50F
330
1E
100
AcDbEntity
  8
0
100
AcDbLine
 10
456.097
 20
647.5209999999999
 30
0.0
 11
458.6249999999999
 21
649.6419999999999
 31
0.0
  0
LINE
  5
510
330
1E
100
AcDbEntity
  8
0
100
AcDbLine
 10
458.6249999999999
 20
649.6419999999999
 30
0.0
 11
460.846
 21
651.5069999999999
 31
0.0
  0
LINE
  5
511
330
1E
100
AcDbEntity
  8
0
100
AcDbLine
 10
460.846
 20
651.5069999999999
 30
0.0
 11
462.5309999999999
 21
652.9209999999999
 31
0.0
  0
LINE
  5
512
330
1E
100
AcDbEntity
  8
0
100
AcDbLine
 10
458.7009999999999
 20
649.7069999999999
 30
0.0
 11
459.6756365838539
 21
650.524231980589
 31
0.0
  0
LINE
  5
513
330
1E
100
AcDbEntity
  8
0
100
AcDbLine
 10
469.871
 20
561.565
 30
0.0
 11
472.5569999999999
 21
562.253
 31
0.0
  0
LINE
  5
514
330
1E
100
AcDbEntity
  8
0
100
AcDbLine
 10
466.618
 20
561.708
 30
0.0
 11
469.087
 21
562.344
 31
0.0
  0
LINE
  5
515
330
1E
100
AcDbEntity
  8
0
100
AcDbLine
 10
469.087
 20
562.344
 30
0.0
 11
472.068
 21
563.1469999999999
 31
0.0
  0
LINE
  5
516
330
1E
100
AcDbEntity
  8
0
100
AcDbLine
 10
472.5569999999999
 20
562.253
 30
0.0
 11
475.3199999999999
 21
563.0049999999999
 31
0.0
  0
LINE
  5
517
330
1E
100
AcDbEntity
  8
0
100
AcDbLine
 10
475.3199999999999
 20
563.0049999999999
 30
0.0
 11
478.2239999999999
 21
563.745
 31
0.0
  0
LINE
  5
518
330
1E
100
AcDbEntity
  8
0
100
AcDbLine
 10
478.2239999999999
 20
563.745
 30
0.0
 11
480.911
 21
564.432
 31
0.0
  0
LINE
  5
519
330
1E
100
AcDbEntity
  8
0
100
AcDbLine
 10
472.068
 20
563.1469999999999
 30
0.0
 11
475.1249999999999
 21
564.0159999999999
 31
0.0
  0
LINE
  5
51A
330
1E
100
AcDbEntity
  8
0
100
AcDbLine
 10
475.1249999999999
 20
564.0159999999999
 30
0.0
 11
478.2459999999999
 21
564.807
 31
0.0
  0
LINE
  5
51B
330
1E
100
AcDbEntity
  8
0
100
AcDbLine
 10
480.911
 20
564.432
 30
0.0
 11
483.239
 21
565.08
 31
0.0
  0
LINE
  5
51C
330
1E
100
AcDbEntity
  8
0
100
AcDbLine
 10
483.239
 20
565.08
 30
0.0
 11
485.055
 21
565.5599999999999
 31
0.0
  0
LINE
  5
51D
330
1E
100
AcDbEntity
  8
0
100
AcDbLine
 10
478.2459999999999
 20
564.807
 30
0.0
 11
481.1499999999999
 21
565.547
 31
0.0
  0
LINE
  5
51E
330
1E
100
AcDbEntity
  8
0
100
AcDbLine
 10
461.0
 20
651.636232047478
 30
0.0
 11
461.0
 21
1351.835
 31
0.0
  0
LINE
  5
51F
330
1E
100
AcDbEntity
  8
0
100
AcDbLine
 10
483.0
 20
582.8460079903769
 30
0.0
 11
483.0
 21
1351.835
 31
0.0
  0
LINE
  5
520
330
1E
100
AcDbEntity
  8
0
100
AcDbLine
 10
461.0
 20
651.636232047478
 30
0.0
 11
461.0
 21
1351.835
 31
0.0
  0
LINE
  5
521
330
1E
100
AcDbEntity
  8
0
100
AcDbLine
 10
481.1499999999999
 20
565.547
 30
0.0
 11
483.6959999999999
 21
566.2469999999999
 31
0.0
  0
LINE
  5
522
330
1E
100
AcDbEntity
  8
0
100
AcDbLine
 10
483.6959999999999
 20
566.2469999999999
 30
0.0
 11
485.589
 21
566.7909999999999
 31
0.0
  0
LINE
  5
523
330
1E
100
AcDbEntity
  8
0
100
AcDbLine
 10
462.5309999999999
 20
652.9209999999999
 30
0.0
 11
463.527
 21
653.756
 31
0.0
  0
LINE
  5
524
330
1E
100
AcDbEntity
  8
0
100
AcDbLine
 10
460.998914444525
 20
651.635321082824
 30
0.0
 11
462.5309999999999
 21
652.9209999999999
 31
0.0
  0
LINE
  5
525
330
1E
100
AcDbEntity
  8
0
100
AcDbLine
 10
463.91
 20
654.0779999999999
 30
0.0
 11
487.188
 21
567.219
 31
0.0
  0
LINE
  5
526
330
1E
100
AcDbEntity
  8
0
100
AcDbLine
 10
463.527
 20
653.756
 30
0.0
 11
463.91
 21
654.0779999999999
 31
0.0
  0
LINE
  5
527
330
1E
100
AcDbEntity
  8
0
100
AcDbLine
 10
457.169
 20
648.4209999999999
 30
0.0
 11
458.7009999999999
 21
649.7069999999999
 31
0.0
  0
LINE
  5
528
330
1E
100
AcDbEntity
  8
0
100
AcDbLine
 10
455.208
 20
675.4939999999999
 30
0.0
 11
455.3309999999999
 21
676.903
 31
0.0
  0
LINE
  5
529
330
1E
100
AcDbEntity
  8
0
100
AcDbLine
 10
454.8809999999999
 20
677.44
 30
0.0
 11
455.3309999999999
 21
676.903
 31
0.0
  0
LINE
  5
52A
330
1E
100
AcDbEntity
  8
0
100
AcDbLine
 10
442.288
 20
690.8919999999999
 30
0.0
 11
446.0799999999999
 21
686.3719999999999
 31
0.0
  0
LINE
  5
52B
330
1E
100
AcDbEntity
  8
0
100
AcDbLine
 10
446.0799999999999
 20
686.3719999999999
 30
0.0
 11
449.294
 21
682.5419999999999
 31
0.0
  0
LINE
  5
52C
330
1E
100
AcDbEntity
  8
0
100
AcDbLine
 10
422.554
 20
714.4099999999999
 30
0.0
 11
428.018
 21
707.898
 31
0.0
  0
LINE
  5
52D
330
1E
100
AcDbEntity
  8
0
100
AcDbLine
 10
433.096
 20
701.846
 30
0.0
 11
437.917
 21
696.1010000000001
 31
0.0
  0
LINE
  5
52E
330
1E
100
AcDbEntity
  8
0
100
AcDbLine
 10
428.018
 20
707.898
 30
0.0
 11
433.096
 21
701.846
 31
0.0
  0
LINE
  5
52F
330
1E
100
AcDbEntity
  8
0
100
AcDbLine
 10
437.917
 20
696.1010000000001
 30
0.0
 11
442.288
 21
690.8919999999999
 31
0.0
  0
LINE
  5
530
330
1E
100
AcDbEntity
  8
0
100
AcDbLine
 10
438.2969999999999
 20
697.203
 30
0.0
 11
442.604
 21
692.071
 31
0.0
  0
LINE
  5
531
330
1E
100
AcDbEntity
  8
0
100
AcDbLine
 10
433.541
 20
702.8719999999999
 30
0.0
 11
438.2969999999999
 21
697.203
 31
0.0
  0
LINE
  5
532
330
1E
100
AcDbEntity
  8
0
100
AcDbLine
 10
428.5269999999999
 20
708.847
 30
0.0
 11
433.541
 21
702.8719999999999
 31
0.0
  0
LINE
  5
533
330
1E
100
AcDbEntity
  8
0
100
AcDbLine
 10
422.8699999999999
 20
715.5889999999999
 30
0.0
 11
428.5269999999999
 21
708.847
 31
0.0
  0
LINE
  5
534
330
1E
100
AcDbEntity
  8
0
100
AcDbLine
 10
442.604
 20
692.071
 30
0.0
 11
446.332
 21
687.628
 31
0.0
  0
LINE
  5
535
330
1E
100
AcDbEntity
  8
0
100
AcDbLine
 10
446.332
 20
687.628
 30
0.0
 11
449.546
 21
683.7979999999999
 31
0.0
  0
LINE
  5
536
330
1E
100
AcDbEntity
  8
0
100
AcDbLine
 10
419.5209999999999
 20
683.7979999999999
 30
0.0
 11
419.815745496391
 21
683.4467798109669
 31
0.0
  0
LINE
  5
537
330
1E
100
AcDbEntity
  8
0
100
AcDbLine
 10
419.2737652491799
 20
684.0928029441549
 30
0.0
 11
419.815745496391
 21
683.4467798109669
 31
0.0
  0
LINE
  5
538
330
1E
100
AcDbEntity
  8
0
100
AcDbLine
 10
375.5659999999999
 20
732.293
 30
0.0
 11
376.247831997814
 21
732.864902165268
 31
0.0
  0
LINE
  5
539
330
1E
100
AcDbEntity
  8
0
100
AcDbLine
 10
375.5659999999999
 20
732.293
 30
0.0
 11
376.679
 21
730.966
 31
0.0
  0
LINE
  5
53A
330
1E
100
AcDbEntity
  8
0
100
AcDbLine
 10
376.349
 20
732.1369999999999
 30
0.0
 11
376.7325326438079
 21
732.4589471148421
 31
0.0
  0
LINE
  5
53B
330
1E
100
AcDbEntity
  8
0
100
AcDbLine
 10
376.349
 20
732.1369999999999
 30
0.0
 11
377.6349999999999
 21
730.6049999999999
 31
0.0
  0
LINE
  5
53C
330
1E
100
AcDbEntity
  8
0
100
AcDbLine
 10
375.517
 20
733.9069999999999
 30
0.0
 11
375.900139949203
 21
734.228367385592
 31
0.0
  0
LINE
  5
53D
330
1E
100
AcDbEntity
  8
0
100
AcDbLine
 10
375.517
 20
733.9069999999999
 30
0.0
 11
376.803
 21
732.375
 31
0.0
  0
LINE
  5
53E
330
1E
100
AcDbEntity
  8
0
100
AcDbLine
 10
375.7569999999999
 20
734.3989999999998
 30
0.0
 11
376.522878985605
 21
735.041398496412
 31
0.0
  0
LINE
  5
53F
330
1E
100
AcDbEntity
  8
0
100
AcDbLine
 10
375.7569999999999
 20
734.3989999999998
 30
0.0
 11
377.043
 21
732.8660000000001
 31
0.0
  0
LINE
  5
540
330
1E
100
AcDbEntity
  8
0
100
AcDbLine
 10
376.679
 20
730.966
 30
0.0
 11
377.3219999999999
 21
730.2
 31
0.0
  0
LINE
  5
541
330
1E
100
AcDbEntity
  8
0
100
AcDbLine
 10
376.679
 20
730.966
 30
0.0
 11
377.062177158139
 21
731.2873985954358
 31
0.0
  0
LINE
  5
542
330
1E
100
AcDbEntity
  8
0
100
AcDbLine
 10
377.3219999999999
 20
730.2
 30
0.0
 11
377.923158393805
 21
730.70423533684
 31
0.0
  0
LINE
  5
543
330
1E
100
AcDbEntity
  8
0
100
AcDbLine
 10
376.803
 20
732.375
 30
0.0
 11
377.411708993058
 21
732.8855685744639
 31
0.0
  0
LINE
  5
544
330
1E
100
AcDbEntity
  8
0
100
AcDbLine
 10
377.043
 20
732.8660000000001
 30
0.0
 11
377.808890771074
 21
733.5089083104449
 31
0.0
  0
LINE
  5
545
330
1E
100
AcDbEntity
  8
0
100
AcDbLine
 10
372.795
 20
736.373
 30
0.0
 11
373.1766536456039
 21
736.69336983567
 31
0.0
  0
LINE
  5
546
330
1E
100
AcDbEntity
  8
0
100
AcDbLine
 10
372.795
 20
736.373
 30
0.0
 11
373.391648627652
 21
736.873842124778
 31
0.0
  0
LINE
  5
547
330
1E
100
AcDbEntity
  8
0
100
AcDbLine
 10
377.6349999999999
 20
730.6049999999999
 30
0.0
 11
378.235195864941
 21
731.1084279937659
 31
0.0
  0
LINE
  5
548
330
1E
100
AcDbEntity
  8
0
100
AcDbLine
 10
377.6349999999999
 20
730.6049999999999
 30
0.0
 11
378.216685987742
 21
731.092902411389
 31
0.0
  0
LINE
  5
549
330
1E
100
AcDbEntity
  8
0
100
AcDbLine
 10
377.336
 20
730.1839999999999
 30
0.0
 11
377.89742353161
 21
730.654906813394
 31
0.0
  0
LINE
  5
54A
330
1E
100
AcDbEntity
  8
0
100
AcDbLine
 10
377.336
 20
730.1839999999999
 30
0.0
 11
377.978
 21
729.4179999999999
 31
0.0
  0
LINE
  5
54B
330
1E
100
AcDbEntity
  8
0
100
AcDbLine
 10
377.336
 20
730.1839999999999
 30
0.0
 11
378.049994399247
 21
730.7828791142509
 31
0.0
  0
LINE
  5
54C
330
1E
100
AcDbEntity
  8
0
100
AcDbLine
 10
373.167021522536
 20
736.685284385105
 30
0.0
 11
376.1868552877269
 21
732.8137565566119
 31
0.0
  0
LINE
  5
54D
330
1E
100
AcDbEntity
  8
0
100
AcDbLine
 10
377.9518095082659
 20
733.3385902207059
 30
0.0
 11
378.503356718199
 21
732.6811082045109
 31
0.0
  0
LINE
  5
54E
330
1E
100
AcDbEntity
  8
0
100
AcDbLine
 10
377.74
 20
733.591
 30
0.0
 11
383.3969999999999
 21
726.85
 31
0.0
  0
LINE
  5
54F
330
1E
100
AcDbEntity
  8
0
100
AcDbLine
 10
370.586
 20
739.005
 30
0.0
 11
371.1389890060169
 21
739.4691931212389
 31
0.0
  0
LINE
  5
550
330
1E
100
AcDbEntity
  8
0
100
AcDbLine
 10
370.94
 20
739.3610000000001
 30
0.0
 11
371.619831359805
 21
739.931667838583
 31
0.0
  0
LINE
  5
551
330
1E
100
AcDbEntity
  8
0
100
AcDbLine
 10
371.6809999999999
 20
737.7
 30
0.0
 11
372.338179199886
 21
738.251293183988
 31
0.0
  0
LINE
  5
552
330
1E
100
AcDbEntity
  8
0
100
AcDbLine
 10
371.6809999999999
 20
737.7
 30
0.0
 11
372.795
 21
736.373
 31
0.0
  0
LINE
  5
553
330
1E
100
AcDbEntity
  8
0
100
AcDbLine
 10
371.0389999999999
 20
738.466
 30
0.0
 11
371.495999721041
 21
738.8496172593069
 31
0.0
  0
LINE
  5
554
330
1E
100
AcDbEntity
  8
0
100
AcDbLine
 10
371.0389999999999
 20
738.466
 30
0.0
 11
371.6809999999999
 21
737.7
 31
0.0
  0
LINE
  5
555
330
1E
100
AcDbEntity
  8
0
100
AcDbLine
 10
371.0389999999999
 20
738.466
 30
0.0
 11
371.730217690585
 21
739.0462258159869
 31
0.0
  0
LINE
  5
556
330
1E
100
AcDbEntity
  8
0
100
AcDbLine
 10
371.0523018443109
 20
739.3964256995978
 30
0.0
 11
371.48561673996
 21
738.840901519314
 31
0.0
  0
LINE
  5
557
330
1E
100
AcDbEntity
  8
0
100
AcDbLine
 10
372.9405583714839
 20
739.310318653846
 30
0.0
 11
373.6899999999999
 21
738.4169999999999
 31
0.0
  0
LINE
  5
558
330
1E
100
AcDbEntity
  8
0
100
AcDbLine
 10
368.8299999999999
 20
741.0980000000001
 30
0.0
 11
369.460983069362
 21
741.6276633336811
 31
0.0
  0
LINE
  5
559
330
1E
100
AcDbEntity
  8
0
100
AcDbLine
 10
368.8299999999999
 20
741.0980000000001
 30
0.0
 11
369.943
 21
739.771
 31
0.0
  0
LINE
  5
55A
330
1E
100
AcDbEntity
  8
0
100
AcDbLine
 10
368.7769999999999
 20
741.1619999999999
 30
0.0
 11
369.357684793817
 21
741.649062637112
 31
0.0
  0
LINE
  5
55B
330
1E
100
AcDbEntity
  8
0
100
AcDbLine
 10
368.7769999999999
 20
741.1619999999999
 30
0.0
 11
368.830398446778
 21
741.098334466421
 31
0.0
  0
LINE
  5
55C
330
1E
100
AcDbEntity
  8
0
100
AcDbLine
 10
368.608
 20
742.919
 30
0.0
 11
369.373988610718
 21
743.5614904469799
 31
0.0
  0
LINE
  5
55D
330
1E
100
AcDbEntity
  8
0
100
AcDbLine
 10
368.608
 20
742.919
 30
0.0
 11
369.894
 21
741.3869999999999
 31
0.0
  0
LINE
  5
55E
330
1E
100
AcDbEntity
  8
0
100
AcDbLine
 10
368.608
 20
742.919
 30
0.0
 11
369.348464061686
 21
743.5400811483459
 31
0.0
  0
LINE
  5
55F
330
1E
100
AcDbEntity
  8
0
100
AcDbLine
 10
368.753
 20
778.5269999999999
 30
0.0
 11
370.553
 21
776.383
 31
0.0
  0
LINE
  5
560
330
1E
100
AcDbEntity
  8
0
100
AcDbLine
 10
369.6549999999999
 20
740.893
 30
0.0
 11
370.2942384409719
 21
741.429593103845
 31
0.0
  0
LINE
  5
561
330
1E
100
AcDbEntity
  8
0
100
AcDbLine
 10
369.6549999999999
 20
740.893
 30
0.0
 11
370.94
 21
739.3610000000001
 31
0.0
  0
LINE
  5
562
330
1E
100
AcDbEntity
  8
0
100
AcDbLine
 10
369.943
 20
739.771
 30
0.0
 11
370.586
 21
739.005
 31
0.0
  0
LINE
  5
563
330
1E
100
AcDbEntity
  8
0
100
AcDbLine
 10
369.943
 20
739.771
 30
0.0
 11
370.326360155019
 21
740.092592406624
 31
0.0
  0
LINE
  5
564
330
1E
100
AcDbEntity
  8
0
100
AcDbLine
 10
369.894
 20
741.3869999999999
 30
0.0
 11
370.6595597525009
 21
742.029130732353
 31
0.0
  0
LINE
  5
565
330
1E
100
AcDbEntity
  8
0
100
AcDbLine
 10
370.553
 20
776.383
 30
0.0
 11
373.0599999999999
 21
773.395
 31
0.0
  0
LINE
  5
566
330
1E
100
AcDbEntity
  8
0
100
AcDbLine
 10
373.0599999999999
 20
773.395
 30
0.0
 11
376.2739999999999
 21
769.565
 31
0.0
  0
LINE
  5
567
330
1E
100
AcDbEntity
  8
0
100
AcDbLine
 10
371.9619999999999
 20
776.2589999999999
 30
0.0
 11
374.3399999999999
 21
773.4249999999999
 31
0.0
  0
LINE
  5
568
330
1E
100
AcDbEntity
  8
0
100
AcDbLine
 10
370.0969999999999
 20
778.4810000000001
 30
0.0
 11
371.9619999999999
 21
776.2589999999999
 31
0.0
  0
LINE
  5
569
330
1E
100
AcDbEntity
  8
0
100
AcDbLine
 10
369.0049999999999
 20
779.783
 30
0.0
 11
370.0969999999999
 21
778.4810000000001
 31
0.0
  0
LINE
  5
56A
330
1E
100
AcDbEntity
  8
0
100
AcDbLine
 10
372.726
 20
739.566
 30
0.0
 11
377.74
 21
733.591
 31
0.0
  0
LINE
  5
56B
330
1E
100
AcDbEntity
  8
0
100
AcDbLine
 10
376.2739999999999
 20
769.565
 30
0.0
 11
380.0659999999999
 21
765.0449999999999
 31
0.0
  0
LINE
  5
56C
330
1E
100
AcDbEntity
  8
0
100
AcDbLine
 10
377.554
 20
769.595
 30
0.0
 11
381.2819999999999
 21
765.1519999999999
 31
0.0
  0
LINE
  5
56D
330
1E
100
AcDbEntity
  8
0
100
AcDbLine
 10
374.3399999999999
 20
773.4249999999999
 30
0.0
 11
377.554
 21
769.595
 31
0.0
  0
LINE
  5
56E
330
1E
100
AcDbEntity
  8
0
100
AcDbLine
 10
373.6899999999999
 20
738.4169999999999
 30
0.0
 11
378.5109999999999
 21
732.672
 31
0.0
  0
LINE
  5
56F
330
1E
100
AcDbEntity
  8
0
100
AcDbLine
 10
373.171
 20
740.592
 30
0.0
 11
378.249
 21
734.5399999999999
 31
0.0
  0
LINE
  5
570
330
1E
100
AcDbEntity
  8
0
100
AcDbLine
 10
374.3265800225409
 20
737.6586474601751
 30
0.0
 11
376.522878985605
 21
735.041398496412
 31
0.0
  0
LINE
  5
571
330
1E
100
AcDbEntity
  8
0
100
AcDbLine
 10
385.5709999999999
 20
721.148
 30
0.0
 11
386.286922322339
 21
721.7484962037899
 31
0.0
  0
LINE
  5
572
330
1E
100
AcDbEntity
  8
0
100
AcDbLine
 10
384.2749999999999
 20
721.135
 30
0.0
 11
385.389
 21
719.808
 31
0.0
  0
LINE
  5
573
330
1E
100
AcDbEntity
  8
0
100
AcDbLine
 10
384.2749999999999
 20
721.135
 30
0.0
 11
384.6586192358889
 21
721.4568097438709
 31
0.0
  0
LINE
  5
574
330
1E
100
AcDbEntity
  8
0
100
AcDbLine
 10
389.433
 20
721.211
 30
0.0
 11
395.0899999999999
 21
714.47
 31
0.0
  0
LINE
  5
575
330
1E
100
AcDbEntity
  8
0
100
AcDbLine
 10
384.6869999999999
 20
721.423
 30
0.0
 11
385.070289007169
 21
721.7444924113659
 31
0.0
  0
LINE
  5
576
330
1E
100
AcDbEntity
  8
0
100
AcDbLine
 10
383.633
 20
721.901
 30
0.0
 11
384.2749999999999
 21
721.135
 31
0.0
  0
LINE
  5
577
330
1E
100
AcDbEntity
  8
0
100
AcDbLine
 10
383.633
 20
721.901
 30
0.0
 11
384.015929159522
 21
722.2224405346901
 31
0.0
  0
LINE
  5
578
330
1E
100
AcDbEntity
  8
0
100
AcDbLine
 10
385.3099999999999
 20
722.2360000000001
 30
0.0
 11
385.798045544308
 21
722.6453593501539
 31
0.0
  0
LINE
  5
579
330
1E
100
AcDbEntity
  8
0
100
AcDbLine
 10
385.069986699072
 20
721.7442388435429
 30
0.0
 11
385.978
 21
720.6619999999999
 31
0.0
  0
LINE
  5
57A
330
1E
100
AcDbEntity
  8
0
100
AcDbLine
 10
416.833
 20
721.227
 30
0.0
 11
422.554
 21
714.4099999999999
 31
0.0
  0
LINE
  5
57B
330
1E
100
AcDbEntity
  8
0
100
AcDbLine
 10
417.5349999999999
 20
721.947
 30
0.0
 11
422.8699999999999
 21
715.5889999999999
 31
0.0
  0
LINE
  5
57C
330
1E
100
AcDbEntity
  8
0
100
AcDbLine
 10
377.978
 20
729.4179999999999
 30
0.0
 11
379.0919999999999
 21
728.091
 31
0.0
  0
LINE
  5
57D
330
1E
100
AcDbEntity
  8
0
100
AcDbLine
 10
377.978
 20
729.4179999999999
 30
0.0
 11
378.687596187726
 21
730.0131900138569
 31
0.0
  0
LINE
  5
57E
330
1E
100
AcDbEntity
  8
0
100
AcDbLine
 10
379.0919999999999
 20
728.091
 30
0.0
 11
379.5791414905319
 21
728.499601054396
 31
0.0
  0
LINE
  5
57F
330
1E
100
AcDbEntity
  8
0
100
AcDbLine
 10
379.0919999999999
 20
728.091
 30
0.0
 11
379.7450277262259
 21
728.638741924413
 31
0.0
  0
LINE
  5
580
330
1E
100
AcDbEntity
  8
0
100
AcDbLine
 10
379.5627001958129
 20
728.4858105428329
 30
0.0
 11
381.543
 21
725.947
 31
0.0
  0
LINE
  5
581
330
1E
100
AcDbEntity
  8
0
100
AcDbLine
 10
378.5109999999999
 20
732.672
 30
0.0
 11
384.296
 21
725.778
 31
0.0
  0
LINE
  5
582
330
1E
100
AcDbEntity
  8
0
100
AcDbLine
 10
378.249
 20
734.5399999999999
 30
0.0
 11
383.713
 21
728.0289999999999
 31
0.0
  0
LINE
  5
583
330
1E
100
AcDbEntity
  8
0
100
AcDbLine
 10
382.443
 20
724.875
 30
0.0
 11
383.0209999999999
 21
724.1849999999999
 31
0.0
  0
LINE
  5
584
330
1E
100
AcDbEntity
  8
0
100
AcDbLine
 10
381.929
 20
725.488
 30
0.0
 11
382.443
 21
724.875
 31
0.0
  0
LINE
  5
585
330
1E
100
AcDbEntity
  8
0
100
AcDbLine
 10
384.285
 20
722.6799999999999
 30
0.0
 11
384.668075771419
 21
723.0013135550089
 31
0.0
  0
LINE
  5
586
330
1E
100
AcDbEntity
  8
0
100
AcDbLine
 10
384.285
 20
722.6799999999999
 30
0.0
 11
385.5709999999999
 21
721.148
 31
0.0
  0
LINE
  5
587
330
1E
100
AcDbEntity
  8
0
100
AcDbLine
 10
384.0249999999999
 20
723.768
 30
0.0
 11
384.408129414901
 21
724.089358549705
 31
0.0
  0
LINE
  5
588
330
1E
100
AcDbEntity
  8
0
100
AcDbLine
 10
384.0249999999999
 20
723.768
 30
0.0
 11
385.3099999999999
 21
722.2360000000001
 31
0.0
  0
LINE
  5
589
330
1E
100
AcDbEntity
  8
0
100
AcDbLine
 10
384.2649999999999
 20
724.26
 30
0.0
 11
385.0310868192329
 21
724.902572821615
 31
0.0
  0
LINE
  5
58A
330
1E
100
AcDbEntity
  8
0
100
AcDbLine
 10
384.2649999999999
 20
724.26
 30
0.0
 11
385.55
 21
722.728
 31
0.0
  0
LINE
  5
58B
330
1E
100
AcDbEntity
  8
0
100
AcDbLine
 10
384.2649999999999
 20
724.26
 30
0.0
 11
384.940465446288
 21
724.8265620747259
 31
0.0
  0
LINE
  5
58C
330
1E
100
AcDbEntity
  8
0
100
AcDbLine
 10
383.401
 20
722.955
 30
0.0
 11
383.7844158551619
 21
723.2763890240598
 31
0.0
  0
LINE
  5
58D
330
1E
100
AcDbEntity
  8
0
100
AcDbLine
 10
383.401
 20
722.955
 30
0.0
 11
384.13473271431
 21
723.5700336189751
 31
0.0
  0
LINE
  5
58E
330
1E
100
AcDbEntity
  8
0
100
AcDbLine
 10
383.401
 20
722.955
 30
0.0
 11
384.6869999999999
 21
721.423
 31
0.0
  0
LINE
  5
58F
330
1E
100
AcDbEntity
  8
0
100
AcDbLine
 10
383.401
 20
722.955
 30
0.0
 11
384.0754451983359
 21
723.520337299322
 31
0.0
  0
LINE
  5
590
330
1E
100
AcDbEntity
  8
0
100
AcDbLine
 10
383.3969999999999
 20
726.85
 30
0.0
 11
388.7319999999999
 21
720.4919999999999
 31
0.0
  0
LINE
  5
591
330
1E
100
AcDbEntity
  8
0
100
AcDbLine
 10
383.713
 20
728.0289999999999
 30
0.0
 11
389.433
 21
721.211
 31
0.0
  0
LINE
  5
592
330
1E
100
AcDbEntity
  8
0
100
AcDbLine
 10
380.0659999999999
 20
765.0449999999999
 30
0.0
 11
384.4369999999999
 21
759.836
 31
0.0
  0
LINE
  5
593
330
1E
100
AcDbEntity
  8
0
100
AcDbLine
 10
381.2819999999999
 20
765.1519999999999
 30
0.0
 11
385.589
 21
760.0189999999998
 31
0.0
  0
LINE
  5
594
330
1E
100
AcDbEntity
  8
0
100
AcDbLine
 10
385.55
 20
722.728
 30
0.0
 11
386.3163812938239
 21
723.3708198189059
 31
0.0
  0
LINE
  5
595
330
1E
100
AcDbEntity
  8
0
100
AcDbLine
 10
386.747374301597
 20
722.8566536313788
 30
0.0
 11
387.103
 21
722.433
 31
0.0
  0
LINE
  5
596
330
1E
100
AcDbEntity
  8
0
100
AcDbLine
 10
411.1769999999999
 20
727.9689999999999
 30
0.0
 11
416.833
 21
721.227
 31
0.0
  0
LINE
  5
597
330
1E
100
AcDbEntity
  8
0
100
AcDbLine
 10
399.8
 20
741.528
 30
0.0
 11
405.52
 21
734.71
 31
0.0
  0
LINE
  5
598
330
1E
100
AcDbEntity
  8
0
100
AcDbLine
 10
405.52
 20
734.71
 30
0.0
 11
411.1769999999999
 21
727.9689999999999
 31
0.0
  0
LINE
  5
599
330
1E
100
AcDbEntity
  8
0
100
AcDbLine
 10
389.258
 20
754.091
 30
0.0
 11
394.336
 21
748.0389999999999
 31
0.0
  0
LINE
  5
59A
330
1E
100
AcDbEntity
  8
0
100
AcDbLine
 10
394.336
 20
748.0389999999999
 30
0.0
 11
399.8
 21
741.528
 31
0.0
  0
LINE
  5
59B
330
1E
100
AcDbEntity
  8
0
100
AcDbLine
 10
384.4369999999999
 20
759.836
 30
0.0
 11
389.258
 21
754.091
 31
0.0
  0
LINE
  5
59C
330
1E
100
AcDbEntity
  8
0
100
AcDbLine
 10
385.589
 20
760.0189999999998
 30
0.0
 11
390.345
 21
754.35
 31
0.0
  0
LINE
  5
59D
330
1E
100
AcDbEntity
  8
0
100
AcDbLine
 10
390.345
 20
754.35
 30
0.0
 11
395.359
 21
748.375
 31
0.0
  0
LINE
  5
59E
330
1E
100
AcDbEntity
  8
0
100
AcDbLine
 10
395.359
 20
748.375
 30
0.0
 11
401.0159999999999
 21
741.6339999999999
 31
0.0
  0
LINE
  5
59F
330
1E
100
AcDbEntity
  8
0
100
AcDbLine
 10
401.0159999999999
 20
741.6339999999999
 30
0.0
 11
406.3509999999999
 21
735.276
 31
0.0
  0
LINE
  5
5A0
330
1E
100
AcDbEntity
  8
0
100
AcDbLine
 10
406.3509999999999
 20
735.276
 30
0.0
 11
411.943
 21
728.611
 31
0.0
  0
LINE
  5
5A1
330
1E
100
AcDbEntity
  8
0
100
AcDbLine
 10
411.943
 20
728.611
 30
0.0
 11
417.5349999999999
 21
721.947
 31
0.0
  0
LINE
  5
5A2
330
1E
100
AcDbEntity
  8
0
100
AcDbLine
 10
413.475
 20
729.8969999999999
 30
0.0
 11
455.3309999999999
 21
676.903
 31
0.0
  0
LINE
  5
5A3
330
1E
100
AcDbEntity
  8
0
100
AcDbLine
 10
386.459277970835
 20
723.199983154388
 30
0.0
 11
386.747374301597
 21
722.8566536313788
 31
0.0
  0
LINE
  5
5A4
330
1E
100
AcDbEntity
  8
0
100
AcDbLine
 10
384.296
 20
725.778
 30
0.0
 11
385.030796809362
 21
724.902329569211
 31
0.0
  0
LINE
  5
5A5
330
1E
100
AcDbEntity
  8
0
100
AcDbLine
 10
384.296
 20
725.778
 30
0.0
 11
388.86
 21
720.3389999999999
 31
0.0
  0
LINE
  5
5A6
330
1E
100
AcDbEntity
  8
0
100
AcDbLine
 10
387.1029252198029
 20
722.432937276401
 30
0.0
 11
388.86
 21
720.3389999999999
 31
0.0
  0
LINE
  5
5A7
330
1E
100
AcDbEntity
  8
0
100
AcDbLine
 10
377.951815970624
 20
733.3385956411571
 30
0.0
 11
383.3969999999999
 21
726.85
 31
0.0
  0
LINE
  5
5A8
330
1E
100
AcDbEntity
  8
0
100
AcDbLine
 10
388.7319999999999
 20
720.4919999999999
 30
0.0
 11
393.680940752181
 21
714.593450265865
 31
0.0
  0
LINE
  5
5A9
330
1E
100
AcDbEntity
  8
0
100
AcDbLine
 10
388.7319999999999
 20
720.4919999999999
 30
0.0
 11
394.324
 21
713.827
 31
0.0
  0
LINE
  5
5AA
330
1E
100
AcDbEntity
  8
0
100
AcDbLine
 10
368.555
 20
780.3189999999999
 30
0.0
 11
413.475
 21
729.8969999999999
 31
0.0
  0
LINE
  5
5AB
330
1E
100
AcDbEntity
  8
0
100
AcDbLine
 10
368.555
 20
780.3189999999999
 30
0.0
 11
369.0049999999999
 21
779.783
 31
0.0
  0
LINE
  5
5AC
330
1E
100
AcDbEntity
  8
0
100
AcDbLine
 10
176.6999999999999
 20
1355.835
 30
0.0
 11
180.0
 21
1355.835
 31
0.0
  0
LINE
  5
5AD
330
1E
100
AcDbEntity
  8
0
100
AcDbLine
 10
180.0
 20
1346.835
 30
0.0
 11
180.0
 21
1355.835
 31
0.0
  0
LINE
  5
5AE
330
1E
100
AcDbEntity
  8
0
100
AcDbLine
 10
176.6999999999999
 20
1346.835
 30
0.0
 11
180.0
 21
1346.835
 31
0.0
  0
LINE
  5
5AF
330
1E
100
AcDbEntity
  8
0
100
AcDbLine
 10
176.6999999999999
 20
1396.835
 30
0.0
 11
180.0
 21
1396.835
 31
0.0
  0
LINE
  5
5B0
330
1E
100
AcDbEntity
  8
0
100
AcDbLine
 10
180.0
 20
1357.835
 30
0.0
 11
180.0
 21
1396.835
 31
0.0
  0
LINE
  5
5B1
330
1E
100
AcDbEntity
  8
0
100
AcDbLine
 10
176.6999999999999
 20
1357.835
 30
0.0
 11
180.0
 21
1357.835
 31
0.0
  0
LINE
  5
5B2
330
1E
100
AcDbEntity
  8
0
100
AcDbLine
 10
179.0
 20
1397.835
 30
0.0
 11
180.0
 21
1396.835
 31
0.0
  0
LINE
  5
5B3
330
1E
100
AcDbEntity
  8
0
100
AcDbLine
 10
180.0
 20
1396.835
 30
0.0
 11
180.0
 21
1357.835
 31
0.0
  0
LINE
  5
5B4
330
1E
100
AcDbEntity
  8
0
100
AcDbLine
 10
179.0
 20
1356.835
 30
0.0
 11
180.0
 21
1355.835
 31
0.0
  0
LINE
  5
5B5
330
1E
100
AcDbEntity
  8
0
100
AcDbLine
 10
179.0
 20
1356.835
 30
0.0
 11
180.0
 21
1357.835
 31
0.0
  0
LINE
  5
5B6
330
1E
100
AcDbEntity
  8
0
100
AcDbLine
 10
461.0
 20
1351.835
 30
0.0
 11
461.0
 21
1366.214999999999
 31
0.0
  0
LINE
  5
5B7
330
1E
100
AcDbEntity
  8
0
100
AcDbLine
 10
461.0
 20
1366.214999999999
 30
0.0
 11
461.2639999999999
 21
1366.835
 31
0.0
  0
LINE
  5
5B8
330
1E
100
AcDbEntity
  8
0
100
AcDbLine
 10
461.0
 20
1366.214999999999
 30
0.0
 11
461.0
 21
1351.835
 31
0.0
  0
LINE
  5
5B9
330
1E
100
AcDbEntity
  8
0
100
AcDbLine
 10
461.2639999999999
 20
1366.835
 30
0.0
 11
461.66
 21
1366.835
 31
0.0
  0
LINE
  5
5BA
330
1E
100
AcDbEntity
  8
0
100
AcDbLine
 10
461.0
 20
1367.455
 30
0.0
 11
461.0
 21
1396.214999999999
 31
0.0
  0
LINE
  5
5BB
330
1E
100
AcDbEntity
  8
0
100
AcDbLine
 10
461.0
 20
1367.455
 30
0.0
 11
461.2639999999999
 21
1366.835
 31
0.0
  0
LINE
  5
5BC
330
1E
100
AcDbEntity
  8
0
100
AcDbLine
 10
461.0
 20
1396.214999999999
 30
0.0
 11
461.2639999999999
 21
1396.835
 31
0.0
  0
LINE
  5
5BD
330
1E
100
AcDbEntity
  8
0
100
AcDbLine
 10
461.0
 20
1396.214999999999
 30
0.0
 11
461.0
 21
1367.455
 31
0.0
  0
LINE
  5
5BE
330
1E
100
AcDbEntity
  8
0
100
AcDbLine
 10
461.66
 20
1366.835
 30
0.0
 11
462.7159999999999
 21
1366.835
 31
0.0
  0
LINE
  5
5BF
330
1E
100
AcDbEntity
  8
0
100
AcDbLine
 10
462.7159999999999
 20
1366.835
 30
0.0
 11
464.4319999999999
 21
1366.835
 31
0.0
  0
LINE
  5
5C0
330
1E
100
AcDbEntity
  8
0
100
AcDbLine
 10
461.2639999999999
 20
1396.835
 30
0.0
 11
461.66
 21
1396.835
 31
0.0
  0
LINE
  5
5C1
330
1E
100
AcDbEntity
  8
0
100
AcDbLine
 10
461.66
 20
1396.835
 30
0.0
 11
462.7159999999999
 21
1396.835
 31
0.0
  0
LINE
  5
5C2
330
1E
100
AcDbEntity
  8
0
100
AcDbLine
 10
464.4319999999999
 20
1366.835
 30
0.0
 11
466.676
 21
1366.835
 31
0.0
  0
LINE
  5
5C3
330
1E
100
AcDbEntity
  8
0
100
AcDbLine
 10
466.676
 20
1366.835
 30
0.0
 11
469.228
 21
1366.835
 31
0.0
  0
LINE
  5
5C4
330
1E
100
AcDbEntity
  8
0
100
AcDbLine
 10
462.7159999999999
 20
1396.835
 30
0.0
 11
464.4319999999999
 21
1396.835
 31
0.0
  0
LINE
  5
5C5
330
1E
100
AcDbEntity
  8
0
100
AcDbLine
 10
464.4319999999999
 20
1396.835
 30
0.0
 11
466.676
 21
1396.835
 31
0.0
  0
LINE
  5
5C6
330
1E
100
AcDbEntity
  8
0
100
AcDbLine
 10
474.772
 20
1366.835
 30
0.0
 11
477.324
 21
1366.835
 31
0.0
  0
LINE
  5
5C7
330
1E
100
AcDbEntity
  8
0
100
AcDbLine
 10
472.0
 20
1366.835
 30
0.0
 11
474.772
 21
1366.835
 31
0.0
  0
LINE
  5
5C8
330
1E
100
AcDbEntity
  8
0
100
AcDbLine
 10
469.228
 20
1366.835
 30
0.0
 11
472.0
 21
1366.835
 31
0.0
  0
LINE
  5
5C9
330
1E
100
AcDbEntity
  8
0
100
AcDbLine
 10
479.568
 20
1366.835
 30
0.0
 11
481.284
 21
1366.835
 31
0.0
  0
LINE
  5
5CA
330
1E
100
AcDbEntity
  8
0
100
AcDbLine
 10
477.324
 20
1366.835
 30
0.0
 11
479.568
 21
1366.835
 31
0.0
  0
LINE
  5
5CB
330
1E
100
AcDbEntity
  8
0
100
AcDbLine
 10
482.7359999999999
 20
1366.835
 30
0.0
 11
483.0
 21
1367.455
 31
0.0
  0
LINE
  5
5CC
330
1E
100
AcDbEntity
  8
0
100
AcDbLine
 10
482.7359999999999
 20
1366.835
 30
0.0
 11
483.0
 21
1366.214999999999
 31
0.0
  0
LINE
  5
5CD
330
1E
100
AcDbEntity
  8
0
100
AcDbLine
 10
482.3399999999999
 20
1366.835
 30
0.0
 11
482.7359999999999
 21
1366.835
 31
0.0
  0
LINE
  5
5CE
330
1E
100
AcDbEntity
  8
0
100
AcDbLine
 10
481.284
 20
1366.835
 30
0.0
 11
482.3399999999999
 21
1366.835
 31
0.0
  0
LINE
  5
5CF
330
1E
100
AcDbEntity
  8
0
100
AcDbLine
 10
482.3399999999999
 20
1396.835
 30
0.0
 11
482.7359999999999
 21
1396.835
 31
0.0
  0
LINE
  5
5D0
330
1E
100
AcDbEntity
  8
0
100
AcDbLine
 10
483.0
 20
1351.835
 30
0.0
 11
483.0
 21
1366.214999999999
 31
0.0
  0
LINE
  5
5D1
330
1E
100
AcDbEntity
  8
0
100
AcDbLine
 10
483.0
 20
1366.214999999999
 30
0.0
 11
483.0
 21
1351.835
 31
0.0
  0
LINE
  5
5D2
330
1E
100
AcDbEntity
  8
0
100
AcDbLine
 10
483.0
 20
1389.835
 30
0.0
 11
526.0
 21
1389.835
 31
0.0
  0
LINE
  5
5D3
330
1E
100
AcDbEntity
  8
0
100
AcDbLine
 10
482.9121529902639
 20
1373.835
 30
0.0
 11
526.0
 21
1373.835
 31
0.0
  0
LINE
  5
5D4
330
1E
100
AcDbEntity
  8
0
100
AcDbLine
 10
483.0
 20
1389.58051020408
 30
0.0
 11
483.0
 21
1396.214999999999
 31
0.0
  0
LINE
  5
5D5
330
1E
100
AcDbEntity
  8
0
100
AcDbLine
 10
483.0
 20
1367.455
 30
0.0
 11
483.0
 21
1374.125
 31
0.0
  0
LINE
  5
5D6
330
1E
100
AcDbEntity
  8
0
100
AcDbLine
 10
483.0
 20
1374.125
 30
0.0
 11
483.0
 21
1367.455
 31
0.0
  0
LINE
  5
5D7
330
1E
100
AcDbEntity
  8
0
100
AcDbLine
 10
483.0
 20
1396.214999999999
 30
0.0
 11
483.0
 21
1389.58051020408
 31
0.0
  0
LINE
  5
5D8
330
1E
100
AcDbEntity
  8
0
100
AcDbLine
 10
482.7359999999999
 20
1396.835
 30
0.0
 11
483.0
 21
1396.214999999999
 31
0.0
  0
LINE
  5
5D9
330
1E
100
AcDbEntity
  8
0
100
AcDbLine
 10
482.7359999999999
 20
1396.835
 30
0.0
 11
483.0
 21
1397.454999999999
 31
0.0
  0
LINE
  5
5DA
330
1E
100
AcDbEntity
  8
0
100
AcDbLine
 10
481.284
 20
1396.835
 30
0.0
 11
482.3399999999999
 21
1396.835
 31
0.0
  0
LINE
  5
5DB
330
1E
100
AcDbEntity
  8
0
100
AcDbLine
 10
479.568
 20
1396.835
 30
0.0
 11
481.284
 21
1396.835
 31
0.0
  0
LINE
  5
5DC
330
1E
100
AcDbEntity
  8
0
100
AcDbLine
 10
477.324
 20
1396.835
 30
0.0
 11
479.568
 21
1396.835
 31
0.0
  0
LINE
  5
5DD
330
1E
100
AcDbEntity
  8
0
100
AcDbLine
 10
474.772
 20
1396.835
 30
0.0
 11
477.324
 21
1396.835
 31
0.0
  0
LINE
  5
5DE
330
1E
100
AcDbEntity
  8
0
100
AcDbLine
 10
472.0
 20
1396.835
 30
0.0
 11
474.772
 21
1396.835
 31
0.0
  0
LINE
  5
5DF
330
1E
100
AcDbEntity
  8
0
100
AcDbLine
 10
466.676
 20
1396.835
 30
0.0
 11
469.228
 21
1396.835
 31
0.0
  0
LINE
  5
5E0
330
1E
100
AcDbEntity
  8
0
100
AcDbLine
 10
191.0
 20
1592.715
 30
0.0
 11
212.117
 21
1603.134999999999
 31
0.0
  0
LINE
  5
5E1
330
1E
100
AcDbEntity
  8
0
100
AcDbLine
 10
234.4129999999999
 20
1610.705
 30
0.0
 11
257.505
 21
1615.295
 31
0.0
  0
LINE
  5
5E2
330
1E
100
AcDbEntity
  8
0
100
AcDbLine
 10
212.117
 20
1603.134999999999
 30
0.0
 11
234.4129999999999
 21
1610.705
 31
0.0
  0
LINE
  5
5E3
330
1E
100
AcDbEntity
  8
0
100
AcDbLine
 10
257.505
 20
1615.295
 30
0.0
 11
281.0
 21
1616.835
 31
0.0
  0
LINE
  5
5E4
330
1E
100
AcDbEntity
  8
0
100
AcDbLine
 10
180.0
 20
1611.775
 30
0.0
 11
203.6979999999999
 21
1623.454999999999
 31
0.0
  0
LINE
  5
5E5
330
1E
100
AcDbEntity
  8
0
100
AcDbLine
 10
349.883
 20
1603.134999999999
 30
0.0
 11
371.0
 21
1592.715
 31
0.0
  0
LINE
  5
5E6
330
1E
100
AcDbEntity
  8
0
100
AcDbLine
 10
327.5869999999999
 20
1610.705
 30
0.0
 11
349.883
 21
1603.134999999999
 31
0.0
  0
LINE
  5
5E7
330
1E
100
AcDbEntity
  8
0
100
AcDbLine
 10
304.495
 20
1615.295
 30
0.0
 11
327.5869999999999
 21
1610.705
 31
0.0
  0
LINE
  5
5E8
330
1E
100
AcDbEntity
  8
0
100
AcDbLine
 10
254.634
 20
1637.105
 30
0.0
 11
281.0
 21
1638.835
 31
0.0
  0
LINE
  5
5E9
330
1E
100
AcDbEntity
  8
0
100
AcDbLine
 10
228.719
 20
1631.955
 30
0.0
 11
254.634
 21
1637.105
 31
0.0
  0
LINE
  5
5EA
330
1E
100
AcDbEntity
  8
0
100
AcDbLine
 10
203.6979999999999
 20
1623.454999999999
 30
0.0
 11
228.719
 21
1631.955
 31
0.0
  0
LINE
  5
5EB
330
1E
100
AcDbEntity
  8
0
100
AcDbLine
 10
358.3019999999999
 20
1623.454999999999
 30
0.0
 11
382.0
 21
1611.775
 31
0.0
  0
LINE
  5
5EC
330
1E
100
AcDbEntity
  8
0
100
AcDbLine
 10
333.281
 20
1631.955
 30
0.0
 11
358.3019999999999
 21
1623.454999999999
 31
0.0
  0
LINE
  5
5ED
330
1E
100
AcDbEntity
  8
0
100
AcDbLine
 10
307.3659999999999
 20
1637.105
 30
0.0
 11
333.281
 21
1631.955
 31
0.0
  0
LINE
  5
5EE
330
1E
100
AcDbEntity
  8
0
100
AcDbLine
 10
281.0
 20
1638.835
 30
0.0
 11
307.3659999999999
 21
1637.105
 31
0.0
  0
LINE
  5
5EF
330
1E
100
AcDbEntity
  8
0
100
AcDbLine
 10
281.0
 20
1616.835
 30
0.0
 11
304.495
 21
1615.295
 31
0.0
  0
LINE
  5
5F0
330
1E
100
AcDbEntity
  8
0
100
AcDbLine
 10
382.0
 20
1611.775
 30
0.0
 11
403.97
 21
1597.095
 31
0.0
  0
LINE
  5
5F1
330
1E
100
AcDbEntity
  8
0
100
AcDbLine
 10
371.0
 20
1592.715
 30
0.0
 11
390.577
 21
1579.635
 31
0.0
  0
LINE
  5
5F2
330
1E
100
AcDbEntity
  8
0
100
AcDbLine
 10
403.97
 20
1597.095
 30
0.0
 11
423.836
 21
1579.674999999999
 31
0.0
  0
LINE
  5
5F3
330
1E
100
AcDbEntity
  8
0
100
AcDbLine
 10
390.577
 20
1579.635
 30
0.0
 11
408.279
 21
1564.115
 31
0.0
  0
LINE
  5
5F4
330
1E
100
AcDbEntity
  8
0
100
AcDbLine
 10
447.2979999999999
 20
1505.715
 30
0.0
 11
454.8669999999999
 21
1483.424999999999
 31
0.0
  0
LINE
  5
5F5
330
1E
100
AcDbEntity
  8
0
100
AcDbLine
 10
455.9369999999999
 20
1537.835
 30
0.0
 11
467.6239999999999
 21
1514.135
 31
0.0
  0
LINE
  5
5F6
330
1E
100
AcDbEntity
  8
0
100
AcDbLine
 10
436.885
 20
1526.835
 30
0.0
 11
447.2979999999999
 21
1505.715
 31
0.0
  0
LINE
  5
5F7
330
1E
100
AcDbEntity
  8
0
100
AcDbLine
 10
454.8669999999999
 20
1483.424999999999
 30
0.0
 11
459.4599999999999
 21
1460.325
 31
0.0
  0
LINE
  5
5F8
330
1E
100
AcDbEntity
  8
0
100
AcDbLine
 10
459.4599999999999
 20
1460.325
 30
0.0
 11
461.0
 21
1436.835
 31
0.0
  0
LINE
  5
5F9
330
1E
100
AcDbEntity
  8
0
100
AcDbLine
 10
441.2569999999999
 20
1559.805
 30
0.0
 11
455.9369999999999
 21
1537.835
 31
0.0
  0
LINE
  5
5FA
330
1E
100
AcDbEntity
  8
0
100
AcDbLine
 10
423.804
 20
1546.415
 30
0.0
 11
436.885
 21
1526.835
 31
0.0
  0
LINE
  5
5FB
330
1E
100
AcDbEntity
  8
0
100
AcDbLine
 10
461.0
 20
1436.835
 30
0.0
 11
461.0
 21
1411.835
 31
0.0
  0
LINE
  5
5FC
330
1E
100
AcDbEntity
  8
0
100
AcDbLine
 10
423.836
 20
1579.674999999999
 30
0.0
 11
441.2569999999999
 21
1559.805
 31
0.0
  0
LINE
  5
5FD
330
1E
100
AcDbEntity
  8
0
100
AcDbLine
 10
408.279
 20
1564.115
 30
0.0
 11
423.804
 21
1546.415
 31
0.0
  0
LINE
  5
5FE
330
1E
100
AcDbEntity
  8
0
100
AcDbLine
 10
461.0
 20
1411.835
 30
0.0
 11
461.0
 21
1397.454999999999
 31
0.0
  0
LINE
  5
5FF
330
1E
100
AcDbEntity
  8
0
100
AcDbLine
 10
461.0
 20
1411.835
 30
0.0
 11
461.0
 21
1436.835
 31
0.0
  0
LINE
  5
600
330
1E
100
AcDbEntity
  8
0
100
AcDbLine
 10
483.0
 20
1397.454999999999
 30
0.0
 11
483.0
 21
1411.835
 31
0.0
  0
LINE
  5
601
330
1E
100
AcDbEntity
  8
0
100
AcDbLine
 10
467.6239999999999
 20
1514.135
 30
0.0
 11
476.1169999999999
 21
1489.114999999999
 31
0.0
  0
LINE
  5
602
330
1E
100
AcDbEntity
  8
0
100
AcDbLine
 10
476.1169999999999
 20
1489.114999999999
 30
0.0
 11
481.2719999999999
 21
1463.205
 31
0.0
  0
LINE
  5
603
330
1E
100
AcDbEntity
  8
0
100
AcDbLine
 10
483.0
 20
1436.835
 30
0.0
 11
483.0
 21
1411.835
 31
0.0
  0
LINE
  5
604
330
1E
100
AcDbEntity
  8
0
100
AcDbLine
 10
481.2719999999999
 20
1463.205
 30
0.0
 11
483.0
 21
1436.835
 31
0.0
  0
LINE
  5
605
330
1E
100
AcDbEntity
  8
0
100
AcDbLine
 10
483.0
 20
1411.835
 30
0.0
 11
483.0
 21
1397.454999999999
 31
0.0
  0
LINE
  5
606
330
1E
100
AcDbEntity
  8
0
100
AcDbLine
 10
483.0
 20
1411.835
 30
0.0
 11
483.0
 21
1436.835
 31
0.0
  0
LINE
  5
607
330
1E
100
AcDbEntity
  8
0
100
AcDbLine
 10
461.0
 20
1397.454999999999
 30
0.0
 11
461.0
 21
1411.835
 31
0.0
  0
LINE
  5
608
330
1E
100
AcDbEntity
  8
0
100
AcDbLine
 10
461.0
 20
1397.454999999999
 30
0.0
 11
461.2639999999999
 21
1396.835
 31
0.0
  0
LINE
  5
609
330
1E
100
AcDbEntity
  8
0
100
AcDbLine
 10
469.228
 20
1396.835
 30
0.0
 11
472.0
 21
1396.835
 31
0.0
  0
LINE
  5
60A
330
1E
100
AcDbEntity
  8
0
100
AcDbLine
 10
180.0
 20
1355.835
 30
0.0
 11
180.0
 21
1346.835
 31
0.0
  0
LINE
  5
60B
330
1E
100
AcDbEntity
  8
0
100
AcDbLine
 10
179.0
 20
1345.835
 30
0.0
 11
180.0
 21
1346.835
 31
0.0
  0
LINE
  5
60C
330
1E
100
AcDbEntity
  8
0
100
AcDbLine
 10
175.8
 20
1345.835
 30
0.0
 11
179.0
 21
1345.835
 31
0.0
  0
LINE
  5
60D
330
1E
100
AcDbEntity
  8
0
100
AcDbLine
 10
468.7015692330639
 20
561.239488343224
 30
0.0
 11
469.3014804918419
 21
557.835
 31
0.0
  0
LINE
  5
60E
330
1E
100
AcDbEntity
  8
0
100
AcDbLine
 10
484.2929999999999
 20
507.8349999999999
 30
0.0
 11
486.669
 21
507.8349999999999
 31
0.0
  0
LINE
  5
60F
330
1E
100
AcDbEntity
  8
0
100
AcDbLine
 10
485.809
 20
507.8349999999999
 30
0.0
 11
488.834
 21
507.8349999999999
 31
0.0
  0
LINE
  5
610
330
1E
100
AcDbEntity
  8
0
100
AcDbLine
 10
489.5389999999999
 20
507.8349999999999
 30
0.0
 11
489.943
 21
507.8349999999999
 31
0.0
  0
LINE
  5
611
330
1E
100
AcDbEntity
  8
0
100
AcDbLine
 10
488.463
 20
507.8349999999999
 30
0.0
 11
489.5389999999999
 21
507.8349999999999
 31
0.0
  0
LINE
  5
612
330
1E
100
AcDbEntity
  8
0
100
AcDbLine
 10
486.669
 20
507.8349999999999
 30
0.0
 11
488.463
 21
507.8349999999999
 31
0.0
  0
LINE
  5
613
330
1E
100
AcDbEntity
  8
0
100
AcDbLine
 10
488.834
 20
507.8349999999999
 30
0.0
 11
491.1169999999999
 21
507.8349999999999
 31
0.0
  0
LINE
  5
614
330
1E
100
AcDbEntity
  8
0
100
AcDbLine
 10
491.1169999999999
 20
507.8349999999999
 30
0.0
 11
492.4859999999999
 21
507.8349999999999
 31
0.0
  0
LINE
  5
615
330
1E
100
AcDbEntity
  8
0
100
AcDbLine
 10
490.911
 20
122.9389999999999
 30
0.0
 11
491.7309999999999
 21
145.3239999999999
 31
0.0
  0
LINE
  5
616
330
1E
100
AcDbEntity
  8
0
100
AcDbLine
 10
489.8249999999999
 20
100.555
 30
0.0
 11
490.911
 21
122.9389999999999
 31
0.0
  0
LINE
  5
617
330
1E
100
AcDbEntity
  8
0
100
AcDbLine
 10
488.2799999999999
 20
78.071
 30
0.0
 11
489.8249999999999
 21
100.555
 31
0.0
  0
LINE
  5
618
330
1E
100
AcDbEntity
  8
0
100
AcDbLine
 10
486.6539999999999
 20
58.085
 30
0.0
 11
488.2799999999999
 21
78.071
 31
0.0
  0
LINE
  5
619
330
1E
100
AcDbEntity
  8
0
100
AcDbLine
 10
484.6719999999999
 20
42.0970000000001
 30
0.0
 11
486.6539999999999
 21
58.085
 31
0.0
  0
LINE
  5
61A
330
1E
100
AcDbEntity
  8
0
100
AcDbLine
 10
492.00111451749
 20
353.9778999999999
 30
0.0
 11
494.0
 21
353.9778999999999
 31
0.0
  0
LINE
  5
61B
330
1E
100
AcDbEntity
  8
0
100
AcDbLine
 10
492.0869986270179
 20
329.6920999999999
 30
0.0
 11
494.0
 21
329.6920999999999
 31
0.0
  0
LINE
  5
61C
330
1E
100
AcDbEntity
  8
0
100
AcDbLine
 10
492.4859999999999
 20
507.8349999999999
 30
0.0
 11
493.0
 21
507.8349999999999
 31
0.0
  0
LINE
  5
61D
330
1E
100
AcDbEntity
  8
0
100
AcDbLine
 10
508.0
 20
311.035
 30
0.0
 11
508.0
 21
309.8349999999999
 31
0.0
  0
LINE
  5
61E
330
1E
100
AcDbEntity
  8
0
100
AcDbLine
 10
508.0
 20
311.035
 30
0.0
 11
508.0
 21
314.135
 31
0.0
  0
LINE
  5
61F
330
1E
100
AcDbEntity
  8
0
100
AcDbLine
 10
508.0
 20
309.8349999999999
 30
0.0
 11
510.0
 21
307.8349999999999
 31
0.0
  0
LINE
  5
620
330
1E
100
AcDbEntity
  8
0
100
AcDbLine
 10
508.0
 20
309.8349999999999
 30
0.0
 11
508.0
 21
311.035
 31
0.0
  0
LINE
  5
621
330
1E
100
AcDbEntity
  8
0
100
AcDbLine
 10
504.0
 20
324.8349999999999
 30
0.0
 11
506.0
 21
326.0493
 31
0.0
  0
LINE
  5
622
330
1E
100
AcDbEntity
  8
0
100
AcDbLine
 10
501.0
 20
324.8349999999999
 30
0.0
 11
504.0
 21
324.8349999999999
 31
0.0
  0
LINE
  5
623
330
1E
100
AcDbEntity
  8
0
100
AcDbLine
 10
498.0
 20
324.8349999999999
 30
0.0
 11
501.0
 21
324.8349999999999
 31
0.0
  0
LINE
  5
624
330
1E
100
AcDbEntity
  8
0
100
AcDbLine
 10
508.0
 20
314.135
 30
0.0
 11
508.0
 21
311.035
 31
0.0
  0
LINE
  5
625
330
1E
100
AcDbEntity
  8
0
100
AcDbLine
 10
508.0
 20
314.135
 30
0.0
 11
508.0
 21
319.235
 31
0.0
  0
LINE
  5
626
330
1E
100
AcDbEntity
  8
0
100
AcDbLine
 10
508.0
 20
319.235
 30
0.0
 11
508.0
 21
314.135
 31
0.0
  0
LINE
  5
627
330
1E
100
AcDbEntity
  8
0
100
AcDbLine
 10
508.0
 20
319.235
 30
0.0
 11
508.0
 21
325.9349999999999
 31
0.0
  0
LINE
  5
628
330
1E
100
AcDbEntity
  8
0
100
AcDbLine
 10
496.0
 20
328.1136
 30
0.0
 11
496.0
 21
330.6635999999999
 31
0.0
  0
LINE
  5
629
330
1E
100
AcDbEntity
  8
0
100
AcDbLine
 10
496.0
 20
328.1136
 30
0.0
 11
496.0
 21
326.6564
 31
0.0
  0
LINE
  5
62A
330
1E
100
AcDbEntity
  8
0
100
AcDbLine
 10
496.0
 20
326.6564
 30
0.0
 11
496.0
 21
328.1136
 31
0.0
  0
LINE
  5
62B
330
1E
100
AcDbEntity
  8
0
100
AcDbLine
 10
506.0
 20
326.6564
 30
0.0
 11
506.0
 21
328.1136
 31
0.0
  0
LINE
  5
62C
330
1E
100
AcDbEntity
  8
0
100
AcDbLine
 10
508.0
 20
328.9635999999999
 30
0.0
 11
508.0
 21
330.2993
 31
0.0
  0
LINE
  5
62D
330
1E
100
AcDbEntity
  8
0
100
AcDbLine
 10
506.0
 20
328.1136
 30
0.0
 11
506.0
 21
326.6564
 31
0.0
  0
LINE
  5
62E
330
1E
100
AcDbEntity
  8
0
100
AcDbLine
 10
506.0
 20
328.1136
 30
0.0
 11
506.0
 21
330.6635999999999
 31
0.0
  0
LINE
  5
62F
330
1E
100
AcDbEntity
  8
0
100
AcDbLine
 10
506.0
 20
326.0493
 30
0.0
 11
508.0
 21
328.4778999999999
 31
0.0
  0
LINE
  5
630
330
1E
100
AcDbEntity
  8
0
100
AcDbLine
 10
496.0
 20
326.0493
 30
0.0
 11
498.0
 21
324.8349999999999
 31
0.0
  0
LINE
  5
631
330
1E
100
AcDbEntity
  8
0
100
AcDbLine
 10
494.0
 20
341.8349999999999
 30
0.0
 11
494.0
 21
338.6922
 31
0.0
  0
LINE
  5
632
330
1E
100
AcDbEntity
  8
0
100
AcDbLine
 10
494.0
 20
341.8349999999999
 30
0.0
 11
494.0
 21
344.9778
 31
0.0
  0
LINE
  5
633
330
1E
100
AcDbEntity
  8
0
100
AcDbLine
 10
494.0
 20
338.6922
 30
0.0
 11
494.0
 21
335.7993
 31
0.0
  0
LINE
  5
634
330
1E
100
AcDbEntity
  8
0
100
AcDbLine
 10
494.0
 20
338.6922
 30
0.0
 11
494.0
 21
341.8349999999999
 31
0.0
  0
LINE
  5
635
330
1E
100
AcDbEntity
  8
0
100
AcDbLine
 10
494.0
 20
335.7993
 30
0.0
 11
494.0
 21
333.2635999999999
 31
0.0
  0
LINE
  5
636
330
1E
100
AcDbEntity
  8
0
100
AcDbLine
 10
494.0
 20
335.7993
 30
0.0
 11
494.0
 21
338.6922
 31
0.0
  0
LINE
  5
637
330
1E
100
AcDbEntity
  8
0
100
AcDbLine
 10
494.0
 20
333.2635999999999
 30
0.0
 11
494.0
 21
331.3349999999999
 31
0.0
  0
LINE
  5
638
330
1E
100
AcDbEntity
  8
0
100
AcDbLine
 10
494.0
 20
333.2635999999999
 30
0.0
 11
494.0
 21
335.7993
 31
0.0
  0
LINE
  5
639
330
1E
100
AcDbEntity
  8
0
100
AcDbLine
 10
494.0
 20
331.3349999999999
 30
0.0
 11
494.0
 21
330.1207
 31
0.0
  0
LINE
  5
63A
330
1E
100
AcDbEntity
  8
0
100
AcDbLine
 10
494.0
 20
331.3349999999999
 30
0.0
 11
494.0
 21
333.2635999999999
 31
0.0
  0
LINE
  5
63B
330
1E
100
AcDbEntity
  8
0
100
AcDbLine
 10
508.0
 20
330.2993
 30
0.0
 11
508.0
 21
332.3636
 31
0.0
  0
LINE
  5
63C
330
1E
100
AcDbEntity
  8
0
100
AcDbLine
 10
506.0
 20
337.7063999999999
 30
0.0
 11
506.0
 21
341.8349999999999
 31
0.0
  0
LINE
  5
63D
330
1E
100
AcDbEntity
  8
0
100
AcDbLine
 10
508.0
 20
335.1564
 30
0.0
 11
508.0
 21
338.4349999999999
 31
0.0
  0
LINE
  5
63E
330
1E
100
AcDbEntity
  8
0
100
AcDbLine
 10
508.0
 20
332.3636
 30
0.0
 11
508.0
 21
335.1564
 31
0.0
  0
LINE
  5
63F
330
1E
100
AcDbEntity
  8
0
100
AcDbLine
 10
506.0
 20
330.6635999999999
 30
0.0
 11
506.0
 21
328.1136
 31
0.0
  0
LINE
  5
640
330
1E
100
AcDbEntity
  8
0
100
AcDbLine
 10
496.0
 20
330.6635999999999
 30
0.0
 11
496.0
 21
328.1136
 31
0.0
  0
LINE
  5
641
330
1E
100
AcDbEntity
  8
0
100
AcDbLine
 10
508.0
 20
338.4349999999999
 30
0.0
 11
508.0
 21
341.8349999999999
 31
0.0
  0
LINE
  5
642
330
1E
100
AcDbEntity
  8
0
100
AcDbLine
 10
506.0
 20
341.8349999999999
 30
0.0
 11
506.0
 21
345.9635999999999
 31
0.0
  0
LINE
  5
643
330
1E
100
AcDbEntity
  8
0
100
AcDbLine
 10
506.0
 20
341.8349999999999
 30
0.0
 11
506.0
 21
337.7063999999999
 31
0.0
  0
LINE
  5
644
330
1E
100
AcDbEntity
  8
0
100
AcDbLine
 10
496.0
 20
341.8349999999999
 30
0.0
 11
496.0
 21
337.7063999999999
 31
0.0
  0
LINE
  5
645
330
1E
100
AcDbEntity
  8
0
100
AcDbLine
 10
496.0
 20
341.8349999999999
 30
0.0
 11
496.0
 21
345.9635999999999
 31
0.0
  0
LINE
  5
646
330
1E
100
AcDbEntity
  8
0
100
AcDbLine
 10
496.0
 20
337.7063999999999
 30
0.0
 11
496.0
 21
341.8349999999999
 31
0.0
  0
LINE
  5
647
330
1E
100
AcDbEntity
  8
0
100
AcDbLine
 10
494.0
 20
330.1207
 30
0.0
 11
494.0
 21
329.6920999999999
 31
0.0
  0
LINE
  5
648
330
1E
100
AcDbEntity
  8
0
100
AcDbLine
 10
494.0
 20
330.1207
 30
0.0
 11
494.0
 21
331.3349999999999
 31
0.0
  0
LINE
  5
649
330
1E
100
AcDbEntity
  8
0
100
AcDbLine
 10
494.0
 20
329.6920999999999
 30
0.0
 11
496.0
 21
326.0493
 31
0.0
  0
LINE
  5
64A
330
1E
100
AcDbEntity
  8
0
100
AcDbLine
 10
494.0
 20
329.6920999999999
 30
0.0
 11
494.0
 21
330.1207
 31
0.0
  0
LINE
  5
64B
330
1E
100
AcDbEntity
  8
0
100
AcDbLine
 10
508.0
 20
333.535
 30
0.0
 11
508.0
 21
325.9349999999999
 31
0.0
  0
LINE
  5
64C
330
1E
100
AcDbEntity
  8
0
100
AcDbLine
 10
508.0
 20
333.535
 30
0.0
 11
508.0
 21
341.8349999999999
 31
0.0
  0
LINE
  5
64D
330
1E
100
AcDbEntity
  8
0
100
AcDbLine
 10
494.0
 20
344.9778
 30
0.0
 11
494.0
 21
341.8349999999999
 31
0.0
  0
LINE
  5
64E
330
1E
100
AcDbEntity
  8
0
100
AcDbLine
 10
494.0
 20
344.9778
 30
0.0
 11
494.0
 21
347.8706999999999
 31
0.0
  0
LINE
  5
64F
330
1E
100
AcDbEntity
  8
0
100
AcDbLine
 10
494.0
 20
347.8706999999999
 30
0.0
 11
494.0
 21
344.9778
 31
0.0
  0
LINE
  5
650
330
1E
100
AcDbEntity
  8
0
100
AcDbLine
 10
494.0
 20
347.8706999999999
 30
0.0
 11
494.0
 21
350.4064
 31
0.0
  0
LINE
  5
651
330
1E
100
AcDbEntity
  8
0
100
AcDbLine
 10
494.0
 20
350.4064
 30
0.0
 11
494.0
 21
347.8706999999999
 31
0.0
  0
LINE
  5
652
330
1E
100
AcDbEntity
  8
0
100
AcDbLine
 10
494.0
 20
350.4064
 30
0.0
 11
494.0
 21
352.3349999999999
 31
0.0
  0
LINE
  5
653
330
1E
100
AcDbEntity
  8
0
100
AcDbLine
 10
494.0
 20
352.3349999999999
 30
0.0
 11
494.0
 21
350.4064
 31
0.0
  0
LINE
  5
654
330
1E
100
AcDbEntity
  8
0
100
AcDbLine
 10
494.0
 20
352.3349999999999
 30
0.0
 11
494.0
 21
353.5493
 31
0.0
  0
LINE
  5
655
330
1E
100
AcDbEntity
  8
0
100
AcDbLine
 10
506.0
 20
345.9635999999999
 30
0.0
 11
506.0
 21
341.8349999999999
 31
0.0
  0
LINE
  5
656
330
1E
100
AcDbEntity
  8
0
100
AcDbLine
 10
508.0
 20
345.235
 30
0.0
 11
508.0
 21
348.5136
 31
0.0
  0
LINE
  5
657
330
1E
100
AcDbEntity
  8
0
100
AcDbLine
 10
508.0
 20
348.5136
 30
0.0
 11
508.0
 21
351.3063999999999
 31
0.0
  0
LINE
  5
658
330
1E
100
AcDbEntity
  8
0
100
AcDbLine
 10
506.0
 20
353.0063999999999
 30
0.0
 11
506.0
 21
355.5563999999999
 31
0.0
  0
LINE
  5
659
330
1E
100
AcDbEntity
  8
0
100
AcDbLine
 10
508.0
 20
351.3063999999999
 30
0.0
 11
508.0
 21
353.3707
 31
0.0
  0
LINE
  5
65A
330
1E
100
AcDbEntity
  8
0
100
AcDbLine
 10
496.0
 20
345.9635999999999
 30
0.0
 11
496.0
 21
341.8349999999999
 31
0.0
  0
LINE
  5
65B
330
1E
100
AcDbEntity
  8
0
100
AcDbLine
 10
508.0
 20
353.3707
 30
0.0
 11
508.0
 21
354.7063999999999
 31
0.0
  0
LINE
  5
65C
330
1E
100
AcDbEntity
  8
0
100
AcDbLine
 10
496.0
 20
353.0063999999999
 30
0.0
 11
496.0
 21
355.5563999999999
 31
0.0
  0
LINE
  5
65D
330
1E
100
AcDbEntity
  8
0
100
AcDbLine
 10
494.0
 20
353.5493
 30
0.0
 11
494.0
 21
352.3349999999999
 31
0.0
  0
LINE
  5
65E
330
1E
100
AcDbEntity
  8
0
100
AcDbLine
 10
494.0
 20
353.5493
 30
0.0
 11
494.0
 21
353.9778999999999
 31
0.0
  0
LINE
  5
65F
330
1E
100
AcDbEntity
  8
0
100
AcDbLine
 10
496.0
 20
357.0136
 30
0.0
 11
496.0
 21
355.5563999999999
 31
0.0
  0
LINE
  5
660
330
1E
100
AcDbEntity
  8
0
100
AcDbLine
 10
496.0
 20
357.6207
 30
0.0
 11
498.0
 21
358.8349999999999
 31
0.0
  0
LINE
  5
661
330
1E
100
AcDbEntity
  8
0
100
AcDbLine
 10
506.0
 20
355.5563999999999
 30
0.0
 11
506.0
 21
353.0063999999999
 31
0.0
  0
LINE
  5
662
330
1E
100
AcDbEntity
  8
0
100
AcDbLine
 10
506.0
 20
355.5563999999999
 30
0.0
 11
506.0
 21
357.0136
 31
0.0
  0
LINE
  5
663
330
1E
100
AcDbEntity
  8
0
100
AcDbLine
 10
501.0
 20
358.8349999999999
 30
0.0
 11
504.0
 21
358.8349999999999
 31
0.0
  0
LINE
  5
664
330
1E
100
AcDbEntity
  8
0
100
AcDbLine
 10
504.0
 20
358.8349999999999
 30
0.0
 11
506.0
 21
357.6207
 31
0.0
  0
LINE
  5
665
330
1E
100
AcDbEntity
  8
0
100
AcDbLine
 10
506.0
 20
357.0136
 30
0.0
 11
506.0
 21
355.5563999999999
 31
0.0
  0
LINE
  5
666
330
1E
100
AcDbEntity
  8
0
100
AcDbLine
 10
508.0
 20
354.7063999999999
 30
0.0
 11
508.0
 21
355.1921
 31
0.0
  0
LINE
  5
667
330
1E
100
AcDbEntity
  8
0
100
AcDbLine
 10
506.0
 20
357.6207
 30
0.0
 11
508.0
 21
355.1921
 31
0.0
  0
LINE
  5
668
330
1E
100
AcDbEntity
  8
0
100
AcDbLine
 10
498.0
 20
358.8349999999999
 30
0.0
 11
501.0
 21
358.8349999999999
 31
0.0
  0
LINE
  5
669
330
1E
100
AcDbEntity
  8
0
100
AcDbLine
 10
496.0
 20
355.5563999999999
 30
0.0
 11
496.0
 21
357.0136
 31
0.0
  0
LINE
  5
66A
330
1E
100
AcDbEntity
  8
0
100
AcDbLine
 10
496.0
 20
355.5563999999999
 30
0.0
 11
496.0
 21
353.0063999999999
 31
0.0
  0
LINE
  5
66B
330
1E
100
AcDbEntity
  8
0
100
AcDbLine
 10
494.0
 20
353.9778999999999
 30
0.0
 11
496.0
 21
357.6207
 31
0.0
  0
LINE
  5
66C
330
1E
100
AcDbEntity
  8
0
100
AcDbLine
 10
494.0
 20
353.9778999999999
 30
0.0
 11
494.0
 21
353.5493
 31
0.0
  0
LINE
  5
66D
330
1E
100
AcDbEntity
  8
0
100
AcDbLine
 10
508.0
 20
350.1349999999999
 30
0.0
 11
508.0
 21
341.8349999999999
 31
0.0
  0
LINE
  5
66E
330
1E
100
AcDbEntity
  8
0
100
AcDbLine
 10
508.0
 20
350.1349999999999
 30
0.0
 11
508.0
 21
357.735
 31
0.0
  0
LINE
  5
66F
330
1E
100
AcDbEntity
  8
0
100
AcDbLine
 10
508.0
 20
341.8349999999999
 30
0.0
 11
508.0
 21
333.535
 31
0.0
  0
LINE
  5
670
330
1E
100
AcDbEntity
  8
0
100
AcDbLine
 10
508.0
 20
341.8349999999999
 30
0.0
 11
508.0
 21
350.1349999999999
 31
0.0
  0
LINE
  5
671
330
1E
100
AcDbEntity
  8
0
100
AcDbLine
 10
508.0
 20
341.8349999999999
 30
0.0
 11
508.0
 21
345.235
 31
0.0
  0
LINE
  5
672
330
1E
100
AcDbEntity
  8
0
100
AcDbLine
 10
508.0
 20
355.1921
 30
0.0
 11
508.0
 21
357.735
 31
0.0
  0
LINE
  5
673
330
1E
100
AcDbEntity
  8
0
100
AcDbLine
 10
508.0
 20
373.835
 30
0.0
 11
508.0
 21
372.635
 31
0.0
  0
LINE
  5
674
330
1E
100
AcDbEntity
  8
0
100
AcDbLine
 10
508.0
 20
373.835
 30
0.0
 11
510.0
 21
375.835
 31
0.0
  0
LINE
  5
675
330
1E
100
AcDbEntity
  8
0
100
AcDbLine
 10
508.0
 20
372.635
 30
0.0
 11
508.0
 21
369.535
 31
0.0
  0
LINE
  5
676
330
1E
100
AcDbEntity
  8
0
100
AcDbLine
 10
508.0
 20
372.635
 30
0.0
 11
508.0
 21
373.835
 31
0.0
  0
LINE
  5
677
330
1E
100
AcDbEntity
  8
0
100
AcDbLine
 10
508.0
 20
369.535
 30
0.0
 11
508.0
 21
364.435
 31
0.0
  0
LINE
  5
678
330
1E
100
AcDbEntity
  8
0
100
AcDbLine
 10
508.0
 20
369.535
 30
0.0
 11
508.0
 21
372.635
 31
0.0
  0
LINE
  5
679
330
1E
100
AcDbEntity
  8
0
100
AcDbLine
 10
508.0
 20
364.435
 30
0.0
 11
508.0
 21
357.735
 31
0.0
  0
LINE
  5
67A
330
1E
100
AcDbEntity
  8
0
100
AcDbLine
 10
508.0
 20
364.435
 30
0.0
 11
508.0
 21
369.535
 31
0.0
  0
LINE
  5
67B
330
1E
100
AcDbEntity
  8
0
100
AcDbLine
 10
508.0
 20
357.735
 30
0.0
 11
508.0
 21
355.1921
 31
0.0
  0
LINE
  5
67C
330
1E
100
AcDbEntity
  8
0
100
AcDbLine
 10
508.0
 20
357.735
 30
0.0
 11
508.0
 21
364.435
 31
0.0
  0
LINE
  5
67D
330
1E
100
AcDbEntity
  8
0
100
AcDbLine
 10
508.0
 20
357.735
 30
0.0
 11
508.0
 21
350.1349999999999
 31
0.0
  0
LINE
  5
67E
330
1E
100
AcDbEntity
  8
0
100
AcDbLine
 10
508.0
 20
325.9349999999999
 30
0.0
 11
508.0
 21
319.235
 31
0.0
  0
LINE
  5
67F
330
1E
100
AcDbEntity
  8
0
100
AcDbLine
 10
508.0
 20
325.9349999999999
 30
0.0
 11
508.0
 21
328.4778999999999
 31
0.0
  0
LINE
  5
680
330
1E
100
AcDbEntity
  8
0
100
AcDbLine
 10
508.0
 20
325.9349999999999
 30
0.0
 11
508.0
 21
333.535
 31
0.0
  0
LINE
  5
681
330
1E
100
AcDbEntity
  8
0
100
AcDbLine
 10
510.0
 20
309.035
 30
0.0
 11
510.0
 21
307.8349999999999
 31
0.0
  0
LINE
  5
682
330
1E
100
AcDbEntity
  8
0
100
AcDbLine
 10
510.0
 20
309.035
 30
0.0
 11
510.0
 21
312.435
 31
0.0
  0
LINE
  5
683
330
1E
100
AcDbEntity
  8
0
100
AcDbLine
 10
510.0
 20
312.435
 30
0.0
 11
510.0
 21
309.035
 31
0.0
  0
LINE
  5
684
330
1E
100
AcDbEntity
  8
0
100
AcDbLine
 10
510.0
 20
312.435
 30
0.0
 11
510.0
 21
317.835
 31
0.0
  0
LINE
  5
685
330
1E
100
AcDbEntity
  8
0
100
AcDbLine
 10
510.0
 20
317.835
 30
0.0
 11
510.0
 21
312.435
 31
0.0
  0
LINE
  5
686
330
1E
100
AcDbEntity
  8
0
100
AcDbLine
 10
510.0
 20
317.835
 30
0.0
 11
510.0
 21
324.935
 31
0.0
  0
LINE
  5
687
330
1E
100
AcDbEntity
  8
0
100
AcDbLine
 10
510.0
 20
324.935
 30
0.0
 11
510.0
 21
317.835
 31
0.0
  0
LINE
  5
688
330
1E
100
AcDbEntity
  8
0
100
AcDbLine
 10
510.0
 20
324.935
 30
0.0
 11
510.0
 21
333.035
 31
0.0
  0
LINE
  5
689
330
1E
100
AcDbEntity
  8
0
100
AcDbLine
 10
510.0
 20
333.035
 30
0.0
 11
510.0
 21
324.935
 31
0.0
  0
LINE
  5
68A
330
1E
100
AcDbEntity
  8
0
100
AcDbLine
 10
510.0
 20
333.035
 30
0.0
 11
510.0
 21
341.8349999999999
 31
0.0
  0
LINE
  5
68B
330
1E
100
AcDbEntity
  8
0
100
AcDbLine
 10
510.0
 20
375.835
 30
0.0
 11
510.0
 21
374.635
 31
0.0
  0
LINE
  5
68C
330
1E
100
AcDbEntity
  8
0
100
AcDbLine
 10
510.0
 20
375.835
 30
0.0
 11
534.0
 21
375.835
 31
0.0
  0
LINE
  5
68D
330
1E
100
AcDbEntity
  8
0
100
AcDbLine
 10
510.0
 20
374.635
 30
0.0
 11
510.0
 21
371.235
 31
0.0
  0
LINE
  5
68E
330
1E
100
AcDbEntity
  8
0
100
AcDbLine
 10
510.0
 20
374.635
 30
0.0
 11
510.0
 21
375.835
 31
0.0
  0
LINE
  5
68F
330
1E
100
AcDbEntity
  8
0
100
AcDbLine
 10
510.0
 20
371.235
 30
0.0
 11
510.0
 21
365.8349999999999
 31
0.0
  0
LINE
  5
690
330
1E
100
AcDbEntity
  8
0
100
AcDbLine
 10
510.0
 20
371.235
 30
0.0
 11
510.0
 21
374.635
 31
0.0
  0
LINE
  5
691
330
1E
100
AcDbEntity
  8
0
100
AcDbLine
 10
510.0
 20
365.8349999999999
 30
0.0
 11
510.0
 21
358.735
 31
0.0
  0
LINE
  5
692
330
1E
100
AcDbEntity
  8
0
100
AcDbLine
 10
510.0
 20
365.8349999999999
 30
0.0
 11
510.0
 21
371.235
 31
0.0
  0
LINE
  5
693
330
1E
100
AcDbEntity
  8
0
100
AcDbLine
 10
510.0
 20
358.735
 30
0.0
 11
510.0
 21
350.6349999999999
 31
0.0
  0
LINE
  5
694
330
1E
100
AcDbEntity
  8
0
100
AcDbLine
 10
510.0
 20
358.735
 30
0.0
 11
510.0
 21
365.8349999999999
 31
0.0
  0
LINE
  5
695
330
1E
100
AcDbEntity
  8
0
100
AcDbLine
 10
510.0
 20
350.6349999999999
 30
0.0
 11
510.0
 21
341.8349999999999
 31
0.0
  0
LINE
  5
696
330
1E
100
AcDbEntity
  8
0
100
AcDbLine
 10
510.0
 20
350.6349999999999
 30
0.0
 11
510.0
 21
358.735
 31
0.0
  0
LINE
  5
697
330
1E
100
AcDbEntity
  8
0
100
AcDbLine
 10
510.0
 20
341.8349999999999
 30
0.0
 11
510.0
 21
333.035
 31
0.0
  0
LINE
  5
698
330
1E
100
AcDbEntity
  8
0
100
AcDbLine
 10
510.0
 20
341.8349999999999
 30
0.0
 11
510.0
 21
350.6349999999999
 31
0.0
  0
LINE
  5
699
330
1E
100
AcDbEntity
  8
0
100
AcDbLine
 10
508.0
 20
328.4778999999999
 30
0.0
 11
508.0
 21
325.9349999999999
 31
0.0
  0
LINE
  5
69A
330
1E
100
AcDbEntity
  8
0
100
AcDbLine
 10
508.0
 20
328.4778999999999
 30
0.0
 11
508.0
 21
328.9635999999999
 31
0.0
  0
LINE
  5
69B
330
1E
100
AcDbEntity
  8
0
100
AcDbLine
 10
510.0
 20
307.8349999999999
 30
0.0
 11
534.0
 21
307.8349999999999
 31
0.0
  0
LINE
  5
69C
330
1E
100
AcDbEntity
  8
0
100
AcDbLine
 10
510.0
 20
307.8349999999999
 30
0.0
 11
510.0
 21
309.035
 31
0.0
  0
LINE
  5
69D
330
1E
100
AcDbEntity
  8
0
100
AcDbLine
 10
534.0
 20
307.8349999999999
 30
0.0
 11
534.0
 21
309.035
 31
0.0
  0
LINE
  5
69E
330
1E
100
AcDbEntity
  8
0
100
AcDbLine
 10
534.0
 20
309.035
 30
0.0
 11
534.0
 21
312.435
 31
0.0
  0
LINE
  5
69F
330
1E
100
AcDbEntity
  8
0
100
AcDbLine
 10
534.0
 20
312.435
 30
0.0
 11
534.0
 21
317.835
 31
0.0
  0
LINE
  5
6A0
330
1E
100
AcDbEntity
  8
0
100
AcDbLine
 10
534.0
 20
317.835
 30
0.0
 11
534.0
 21
324.935
 31
0.0
  0
LINE
  5
6A1
330
1E
100
AcDbEntity
  8
0
100
AcDbLine
 10
534.0
 20
324.935
 30
0.0
 11
534.0
 21
333.035
 31
0.0
  0
LINE
  5
6A2
330
1E
100
AcDbEntity
  8
0
100
AcDbLine
 10
534.0
 20
374.635
 30
0.0
 11
534.0
 21
375.835
 31
0.0
  0
LINE
  5
6A3
330
1E
100
AcDbEntity
  8
0
100
AcDbLine
 10
534.0
 20
371.235
 30
0.0
 11
534.0
 21
374.635
 31
0.0
  0
LINE
  5
6A4
330
1E
100
AcDbEntity
  8
0
100
AcDbLine
 10
534.0
 20
365.8349999999999
 30
0.0
 11
534.0
 21
371.235
 31
0.0
  0
LINE
  5
6A5
330
1E
100
AcDbEntity
  8
0
100
AcDbLine
 10
534.0
 20
358.735
 30
0.0
 11
534.0
 21
365.8349999999999
 31
0.0
  0
LINE
  5
6A6
330
1E
100
AcDbEntity
  8
0
100
AcDbLine
 10
534.0
 20
350.6349999999999
 30
0.0
 11
534.0
 21
358.735
 31
0.0
  0
LINE
  5
6A7
330
1E
100
AcDbEntity
  8
0
100
AcDbLine
 10
534.0
 20
341.8349999999999
 30
0.0
 11
534.0
 21
350.6349999999999
 31
0.0
  0
LINE
  5
6A8
330
1E
100
AcDbEntity
  8
0
100
AcDbLine
 10
534.0
 20
333.035
 30
0.0
 11
534.0
 21
341.8349999999999
 31
0.0
  0
LINE
  5
6A9
330
1E
100
AcDbEntity
  8
0
100
AcDbLine
 10
524.6
 20
502.8349999999999
 30
0.0
 11
524.6
 21
503.915
 31
0.0
  0
LINE
  5
6AA
330
1E
100
AcDbEntity
  8
0
100
AcDbLine
 10
524.6
 20
502.8349999999999
 30
0.0
 11
534.0
 21
502.8349999999999
 31
0.0
  0
LINE
  5
6AB
330
1E
100
AcDbEntity
  8
0
100
AcDbLine
 10
524.0
 20
504.635
 30
0.0
 11
524.0
 21
507.5149999999999
 31
0.0
  0
LINE
  5
6AC
330
1E
100
AcDbEntity
  8
0
100
AcDbLine
 10
524.0
 20
504.635
 30
0.0
 11
524.0
 21
503.5549999999999
 31
0.0
  0
LINE
  5
6AD
330
1E
100
AcDbEntity
  8
0
100
AcDbLine
 10
524.0
 20
503.5549999999999
 30
0.0
 11
524.0
 21
504.635
 31
0.0
  0
LINE
  5
6AE
330
1E
100
AcDbEntity
  8
0
100
AcDbLine
 10
524.0
 20
503.5549999999999
 30
0.0
 11
524.6
 21
502.8349999999999
 31
0.0
  0
LINE
  5
6AF
330
1E
100
AcDbEntity
  8
0
100
AcDbLine
 10
524.6
 20
506.795
 30
0.0
 11
524.6
 21
511.595
 31
0.0
  0
LINE
  5
6B0
330
1E
100
AcDbEntity
  8
0
100
AcDbLine
 10
524.6
 20
506.795
 30
0.0
 11
524.6
 21
503.915
 31
0.0
  0
LINE
  5
6B1
330
1E
100
AcDbEntity
  8
0
100
AcDbLine
 10
524.6
 20
503.915
 30
0.0
 11
524.6
 21
506.795
 31
0.0
  0
LINE
  5
6B2
330
1E
100
AcDbEntity
  8
0
100
AcDbLine
 10
524.6
 20
503.915
 30
0.0
 11
524.6
 21
502.8349999999999
 31
0.0
  0
LINE
  5
6B3
330
1E
100
AcDbEntity
  8
0
100
AcDbLine
 10
524.0
 20
507.5149999999999
 30
0.0
 11
524.0
 21
512.195
 31
0.0
  0
LINE
  5
6B4
330
1E
100
AcDbEntity
  8
0
100
AcDbLine
 10
524.0
 20
507.5149999999999
 30
0.0
 11
524.0
 21
504.635
 31
0.0
  0
LINE
  5
6B5
330
1E
100
AcDbEntity
  8
0
100
AcDbLine
 10
534.0
 20
506.795
 30
0.0
 11
534.0
 21
511.595
 31
0.0
  0
LINE
  5
6B6
330
1E
100
AcDbEntity
  8
0
100
AcDbLine
 10
534.0
 20
506.795
 30
0.0
 11
534.0
 21
503.915
 31
0.0
  0
LINE
  5
6B7
330
1E
100
AcDbEntity
  8
0
100
AcDbLine
 10
534.0
 20
503.915
 30
0.0
 11
534.0
 21
506.795
 31
0.0
  0
LINE
  5
6B8
330
1E
100
AcDbEntity
  8
0
100
AcDbLine
 10
534.0
 20
503.915
 30
0.0
 11
534.0
 21
502.8349999999999
 31
0.0
  0
LINE
  5
6B9
330
1E
100
AcDbEntity
  8
0
100
AcDbLine
 10
534.0
 20
502.8349999999999
 30
0.0
 11
534.0
 21
503.915
 31
0.0
  0
LINE
  5
6BA
330
1E
100
AcDbEntity
  8
0
100
AcDbLine
 10
493.0
 20
507.8349999999999
 30
0.0
 11
493.0
 21
523.1452419622139
 31
0.0
  0
LINE
  5
6BB
330
1E
100
AcDbEntity
  8
0
100
AcDbLine
 10
491.7309999999999
 20
145.3239999999999
 30
0.0
 11
492.2099999999999
 21
294.9105
 31
0.0
  0
LINE
  5
6BC
330
1E
100
AcDbEntity
  8
0
100
AcDbLine
 10
491.504
 20
494.549
 30
0.0
 11
492.2099999999999
 21
294.9105
 31
0.0
  0
LINE
  5
6BD
330
1E
100
AcDbEntity
  8
0
100
AcDbLine
 10
485.809
 20
557.835
 30
0.0
 11
488.834
 21
557.835
 31
0.0
  0
LINE
  5
6BE
330
1E
100
AcDbEntity
  8
0
100
AcDbLine
 10
485.589
 20
566.7909999999999
 30
0.0
 11
486.753
 21
567.1149999999999
 31
0.0
  0
LINE
  5
6BF
330
1E
100
AcDbEntity
  8
0
100
AcDbLine
 10
486.078
 20
565.8969999999999
 30
0.0
 11
486.513
 21
566.0009999999999
 31
0.0
  0
LINE
  5
6C0
330
1E
100
AcDbEntity
  8
0
100
AcDbLine
 10
485.8766385531439
 20
565.83066685475
 30
0.0
 11
486.513
 21
566.0009999999999
 31
0.0
  0
LINE
  5
6C1
330
1E
100
AcDbEntity
  8
0
100
AcDbLine
 10
485.055
 20
565.5599999999999
 30
0.0
 11
486.078
 21
565.8969999999999
 31
0.0
  0
LINE
  5
6C2
330
1E
100
AcDbEntity
  8
0
100
AcDbLine
 10
493.0
 20
523.1452419622139
 30
0.0
 11
493.0
 21
507.8349999999999
 31
0.0
  0
LINE
  5
6C3
330
1E
100
AcDbEntity
  8
0
100
AcDbLine
 10
493.0
 20
522.835
 30
0.0
 11
506.0
 21
522.835
 31
0.0
  0
LINE
  5
6C4
330
1E
100
AcDbEntity
  8
0
100
AcDbLine
 10
492.4859999999999
 20
557.835
 30
0.0
 11
493.0
 21
557.835
 31
0.0
  0
LINE
  5
6C5
330
1E
100
AcDbEntity
  8
0
100
AcDbLine
 10
493.0
 20
557.835
 30
0.0
 11
493.0
 21
542.8063274336279
 31
0.0
  0
LINE
  5
6C6
330
1E
100
AcDbEntity
  8
0
100
AcDbLine
 10
491.1169999999999
 20
557.835
 30
0.0
 11
492.4859999999999
 21
557.835
 31
0.0
  0
LINE
  5
6C7
330
1E
100
AcDbEntity
  8
0
100
AcDbLine
 10
488.834
 20
557.835
 30
0.0
 11
491.1169999999999
 21
557.835
 31
0.0
  0
LINE
  5
6C8
330
1E
100
AcDbEntity
  8
0
100
AcDbLine
 10
493.0
 20
542.835
 30
0.0
 11
506.0
 21
542.835
 31
0.0
  0
LINE
  5
6C9
330
1E
100
AcDbEntity
  8
0
100
AcDbLine
 10
506.0
 20
522.835
 30
0.0
 11
506.0
 21
519.763
 31
0.0
  0
LINE
  5
6CA
330
1E
100
AcDbEntity
  8
0
100
AcDbLine
 10
506.0
 20
519.763
 30
0.0
 11
506.0
 21
523.639
 31
0.0
  0
LINE
  5
6CB
330
1E
100
AcDbEntity
  8
0
100
AcDbLine
 10
506.0
 20
519.763
 30
0.0
 11
506.0
 21
516.7989999999999
 31
0.0
  0
LINE
  5
6CC
330
1E
100
AcDbEntity
  8
0
100
AcDbLine
 10
506.0
 20
519.763
 30
0.0
 11
506.0
 21
522.835
 31
0.0
  0
LINE
  5
6CD
330
1E
100
AcDbEntity
  8
0
100
AcDbLine
 10
506.0
 20
516.7989999999999
 30
0.0
 11
506.0
 21
519.763
 31
0.0
  0
LINE
  5
6CE
330
1E
100
AcDbEntity
  8
0
100
AcDbLine
 10
506.0
 20
516.7989999999999
 30
0.0
 11
506.0
 21
514.975
 31
0.0
  0
LINE
  5
6CF
330
1E
100
AcDbEntity
  8
0
100
AcDbLine
 10
506.0
 20
514.975
 30
0.0
 11
506.0
 21
516.7989999999999
 31
0.0
  0
LINE
  5
6D0
330
1E
100
AcDbEntity
  8
0
100
AcDbLine
 10
506.0
 20
514.975
 30
0.0
 11
506.0
 21
514.2909999999999
 31
0.0
  0
LINE
  5
6D1
330
1E
100
AcDbEntity
  8
0
100
AcDbLine
 10
506.0
 20
514.2909999999999
 30
0.0
 11
506.0
 21
514.975
 31
0.0
  0
LINE
  5
6D2
330
1E
100
AcDbEntity
  8
0
100
AcDbLine
 10
506.0
 20
514.2909999999999
 30
0.0
 11
506.443
 21
513.835
 31
0.0
  0
LINE
  5
6D3
330
1E
100
AcDbEntity
  8
0
100
AcDbLine
 10
506.0
 20
523.639
 30
0.0
 11
506.0
 21
528.047
 31
0.0
  0
LINE
  5
6D4
330
1E
100
AcDbEntity
  8
0
100
AcDbLine
 10
506.0
 20
523.639
 30
0.0
 11
506.0
 21
519.763
 31
0.0
  0
LINE
  5
6D5
330
1E
100
AcDbEntity
  8
0
100
AcDbLine
 10
506.0
 20
528.047
 30
0.0
 11
506.0
 21
532.835
 31
0.0
  0
LINE
  5
6D6
330
1E
100
AcDbEntity
  8
0
100
AcDbLine
 10
506.0
 20
528.047
 30
0.0
 11
506.0
 21
523.639
 31
0.0
  0
LINE
  5
6D7
330
1E
100
AcDbEntity
  8
0
100
AcDbLine
 10
506.0
 20
537.623
 30
0.0
 11
506.0
 21
542.0309999999999
 31
0.0
  0
LINE
  5
6D8
330
1E
100
AcDbEntity
  8
0
100
AcDbLine
 10
506.0
 20
537.623
 30
0.0
 11
506.0
 21
532.835
 31
0.0
  0
LINE
  5
6D9
330
1E
100
AcDbEntity
  8
0
100
AcDbLine
 10
506.0
 20
532.835
 30
0.0
 11
506.0
 21
530.2749999999999
 31
0.0
  0
LINE
  5
6DA
330
1E
100
AcDbEntity
  8
0
100
AcDbLine
 10
506.0
 20
532.835
 30
0.0
 11
506.0
 21
528.047
 31
0.0
  0
LINE
  5
6DB
330
1E
100
AcDbEntity
  8
0
100
AcDbLine
 10
506.0
 20
532.835
 30
0.0
 11
506.0
 21
537.623
 31
0.0
  0
LINE
  5
6DC
330
1E
100
AcDbEntity
  8
0
100
AcDbLine
 10
506.0
 20
530.2749999999999
 30
0.0
 11
506.0
 21
527.875
 31
0.0
  0
LINE
  5
6DD
330
1E
100
AcDbEntity
  8
0
100
AcDbLine
 10
506.0
 20
527.875
 30
0.0
 11
506.0
 21
525.755
 31
0.0
  0
LINE
  5
6DE
330
1E
100
AcDbEntity
  8
0
100
AcDbLine
 10
506.0
 20
525.755
 30
0.0
 11
506.0
 21
524.155
 31
0.0
  0
LINE
  5
6DF
330
1E
100
AcDbEntity
  8
0
100
AcDbLine
 10
506.0
 20
524.155
 30
0.0
 11
506.0
 21
523.195
 31
0.0
  0
LINE
  5
6E0
330
1E
100
AcDbEntity
  8
0
100
AcDbLine
 10
506.0
 20
523.195
 30
0.0
 11
506.0
 21
522.835
 31
0.0
  0
LINE
  5
6E1
330
1E
100
AcDbEntity
  8
0
100
AcDbLine
 10
506.0
 20
535.395
 30
0.0
 11
506.0
 21
532.835
 31
0.0
  0
LINE
  5
6E2
330
1E
100
AcDbEntity
  8
0
100
AcDbLine
 10
506.0
 20
537.7949999999999
 30
0.0
 11
506.0
 21
535.395
 31
0.0
  0
LINE
  5
6E3
330
1E
100
AcDbEntity
  8
0
100
AcDbLine
 10
506.0
 20
539.9149999999999
 30
0.0
 11
506.0
 21
537.7949999999999
 31
0.0
  0
LINE
  5
6E4
330
1E
100
AcDbEntity
  8
0
100
AcDbLine
 10
506.0
 20
542.0309999999999
 30
0.0
 11
506.0
 21
545.9069999999999
 31
0.0
  0
LINE
  5
6E5
330
1E
100
AcDbEntity
  8
0
100
AcDbLine
 10
506.0
 20
542.0309999999999
 30
0.0
 11
506.0
 21
537.623
 31
0.0
  0
LINE
  5
6E6
330
1E
100
AcDbEntity
  8
0
100
AcDbLine
 10
506.0
 20
541.5149999999999
 30
0.0
 11
506.0
 21
539.9149999999999
 31
0.0
  0
LINE
  5
6E7
330
1E
100
AcDbEntity
  8
0
100
AcDbLine
 10
524.6
 20
511.595
 30
0.0
 11
524.6
 21
517.955
 31
0.0
  0
LINE
  5
6E8
330
1E
100
AcDbEntity
  8
0
100
AcDbLine
 10
524.6
 20
511.595
 30
0.0
 11
524.6
 21
506.795
 31
0.0
  0
LINE
  5
6E9
330
1E
100
AcDbEntity
  8
0
100
AcDbLine
 10
506.443
 20
514.519
 30
0.0
 11
506.443
 21
516.343
 31
0.0
  0
LINE
  5
6EA
330
1E
100
AcDbEntity
  8
0
100
AcDbLine
 10
506.443
 20
514.519
 30
0.0
 11
506.443
 21
513.835
 31
0.0
  0
LINE
  5
6EB
330
1E
100
AcDbEntity
  8
0
100
AcDbLine
 10
506.443
 20
513.835
 30
0.0
 11
506.443
 21
514.519
 31
0.0
  0
LINE
  5
6EC
330
1E
100
AcDbEntity
  8
0
100
AcDbLine
 10
506.443
 20
513.835
 30
0.0
 11
524.0
 21
513.835
 31
0.0
  0
LINE
  5
6ED
330
1E
100
AcDbEntity
  8
0
100
AcDbLine
 10
506.443
 20
516.343
 30
0.0
 11
506.443
 21
519.383
 31
0.0
  0
LINE
  5
6EE
330
1E
100
AcDbEntity
  8
0
100
AcDbLine
 10
506.443
 20
516.343
 30
0.0
 11
506.443
 21
514.519
 31
0.0
  0
LINE
  5
6EF
330
1E
100
AcDbEntity
  8
0
100
AcDbLine
 10
524.0
 20
516.343
 30
0.0
 11
524.0
 21
514.519
 31
0.0
  0
LINE
  5
6F0
330
1E
100
AcDbEntity
  8
0
100
AcDbLine
 10
524.0
 20
514.519
 30
0.0
 11
524.0
 21
513.835
 31
0.0
  0
LINE
  5
6F1
330
1E
100
AcDbEntity
  8
0
100
AcDbLine
 10
524.0
 20
513.835
 30
0.0
 11
524.0
 21
512.195
 31
0.0
  0
LINE
  5
6F2
330
1E
100
AcDbEntity
  8
0
100
AcDbLine
 10
506.443
 20
523.4109999999999
 30
0.0
 11
506.443
 21
527.971
 31
0.0
  0
LINE
  5
6F3
330
1E
100
AcDbEntity
  8
0
100
AcDbLine
 10
506.443
 20
523.4109999999999
 30
0.0
 11
506.443
 21
519.383
 31
0.0
  0
LINE
  5
6F4
330
1E
100
AcDbEntity
  8
0
100
AcDbLine
 10
506.443
 20
519.383
 30
0.0
 11
506.443
 21
523.4109999999999
 31
0.0
  0
LINE
  5
6F5
330
1E
100
AcDbEntity
  8
0
100
AcDbLine
 10
506.443
 20
519.383
 30
0.0
 11
506.443
 21
516.343
 31
0.0
  0
LINE
  5
6F6
330
1E
100
AcDbEntity
  8
0
100
AcDbLine
 10
524.0
 20
523.4109999999999
 30
0.0
 11
524.0
 21
519.383
 31
0.0
  0
LINE
  5
6F7
330
1E
100
AcDbEntity
  8
0
100
AcDbLine
 10
524.0
 20
519.383
 30
0.0
 11
524.0
 21
516.343
 31
0.0
  0
LINE
  5
6F8
330
1E
100
AcDbEntity
  8
0
100
AcDbLine
 10
524.0
 20
518.315
 30
0.0
 11
524.0
 21
525.2749999999999
 31
0.0
  0
LINE
  5
6F9
330
1E
100
AcDbEntity
  8
0
100
AcDbLine
 10
524.0
 20
518.315
 30
0.0
 11
524.0
 21
512.195
 31
0.0
  0
LINE
  5
6FA
330
1E
100
AcDbEntity
  8
0
100
AcDbLine
 10
524.0
 20
512.195
 30
0.0
 11
524.0
 21
518.315
 31
0.0
  0
LINE
  5
6FB
330
1E
100
AcDbEntity
  8
0
100
AcDbLine
 10
524.0
 20
512.195
 30
0.0
 11
524.0
 21
507.5149999999999
 31
0.0
  0
LINE
  5
6FC
330
1E
100
AcDbEntity
  8
0
100
AcDbLine
 10
524.0
 20
512.195
 30
0.0
 11
524.0
 21
513.835
 31
0.0
  0
LINE
  5
6FD
330
1E
100
AcDbEntity
  8
0
100
AcDbLine
 10
524.6
 20
525.1549999999999
 30
0.0
 11
524.6
 21
532.835
 31
0.0
  0
LINE
  5
6FE
330
1E
100
AcDbEntity
  8
0
100
AcDbLine
 10
524.6
 20
525.1549999999999
 30
0.0
 11
524.6
 21
517.955
 31
0.0
  0
LINE
  5
6FF
330
1E
100
AcDbEntity
  8
0
100
AcDbLine
 10
524.6
 20
517.955
 30
0.0
 11
524.6
 21
525.1549999999999
 31
0.0
  0
LINE
  5
700
330
1E
100
AcDbEntity
  8
0
100
AcDbLine
 10
524.6
 20
517.955
 30
0.0
 11
524.6
 21
511.595
 31
0.0
  0
LINE
  5
701
330
1E
100
AcDbEntity
  8
0
100
AcDbLine
 10
506.443
 20
532.835
 30
0.0
 11
506.443
 21
527.971
 31
0.0
  0
LINE
  5
702
330
1E
100
AcDbEntity
  8
0
100
AcDbLine
 10
506.443
 20
532.835
 30
0.0
 11
506.443
 21
537.6990000000001
 31
0.0
  0
LINE
  5
703
330
1E
100
AcDbEntity
  8
0
100
AcDbLine
 10
506.443
 20
527.971
 30
0.0
 11
506.443
 21
532.835
 31
0.0
  0
LINE
  5
704
330
1E
100
AcDbEntity
  8
0
100
AcDbLine
 10
506.443
 20
527.971
 30
0.0
 11
506.443
 21
523.4109999999999
 31
0.0
  0
LINE
  5
705
330
1E
100
AcDbEntity
  8
0
100
AcDbLine
 10
524.0
 20
527.971
 30
0.0
 11
524.0
 21
523.4109999999999
 31
0.0
  0
LINE
  5
706
330
1E
100
AcDbEntity
  8
0
100
AcDbLine
 10
524.0
 20
532.835
 30
0.0
 11
524.0
 21
525.2749999999999
 31
0.0
  0
LINE
  5
707
330
1E
100
AcDbEntity
  8
0
100
AcDbLine
 10
524.0
 20
532.835
 30
0.0
 11
524.0
 21
540.395
 31
0.0
  0
LINE
  5
708
330
1E
100
AcDbEntity
  8
0
100
AcDbLine
 10
524.0
 20
532.835
 30
0.0
 11
524.0
 21
527.971
 31
0.0
  0
LINE
  5
709
330
1E
100
AcDbEntity
  8
0
100
AcDbLine
 10
524.0
 20
525.2749999999999
 30
0.0
 11
524.0
 21
532.835
 31
0.0
  0
LINE
  5
70A
330
1E
100
AcDbEntity
  8
0
100
AcDbLine
 10
524.0
 20
525.2749999999999
 30
0.0
 11
524.0
 21
518.315
 31
0.0
  0
LINE
  5
70B
330
1E
100
AcDbEntity
  8
0
100
AcDbLine
 10
524.0
 20
537.6990000000001
 30
0.0
 11
524.0
 21
532.835
 31
0.0
  0
LINE
  5
70C
330
1E
100
AcDbEntity
  8
0
100
AcDbLine
 10
506.443
 20
537.6990000000001
 30
0.0
 11
506.443
 21
542.259
 31
0.0
  0
LINE
  5
70D
330
1E
100
AcDbEntity
  8
0
100
AcDbLine
 10
506.443
 20
537.6990000000001
 30
0.0
 11
506.443
 21
532.835
 31
0.0
  0
LINE
  5
70E
330
1E
100
AcDbEntity
  8
0
100
AcDbLine
 10
524.0
 20
540.395
 30
0.0
 11
524.0
 21
547.355
 31
0.0
  0
LINE
  5
70F
330
1E
100
AcDbEntity
  8
0
100
AcDbLine
 10
524.0
 20
540.395
 30
0.0
 11
524.0
 21
532.835
 31
0.0
  0
LINE
  5
710
330
1E
100
AcDbEntity
  8
0
100
AcDbLine
 10
524.0
 20
542.259
 30
0.0
 11
524.0
 21
537.6990000000001
 31
0.0
  0
LINE
  5
711
330
1E
100
AcDbEntity
  8
0
100
AcDbLine
 10
506.443
 20
542.259
 30
0.0
 11
506.443
 21
546.2869999999999
 31
0.0
  0
LINE
  5
712
330
1E
100
AcDbEntity
  8
0
100
AcDbLine
 10
524.6
 20
540.5149999999999
 30
0.0
 11
524.6
 21
547.715
 31
0.0
  0
LINE
  5
713
330
1E
100
AcDbEntity
  8
0
100
AcDbLine
 10
524.6
 20
540.5149999999999
 30
0.0
 11
524.6
 21
532.835
 31
0.0
  0
LINE
  5
714
330
1E
100
AcDbEntity
  8
0
100
AcDbLine
 10
534.0
 20
540.5149999999999
 30
0.0
 11
534.0
 21
547.715
 31
0.0
  0
LINE
  5
715
330
1E
100
AcDbEntity
  8
0
100
AcDbLine
 10
534.0
 20
540.5149999999999
 30
0.0
 11
534.0
 21
532.835
 31
0.0
  0
LINE
  5
716
330
1E
100
AcDbEntity
  8
0
100
AcDbLine
 10
524.6
 20
532.835
 30
0.0
 11
524.6
 21
525.1549999999999
 31
0.0
  0
LINE
  5
717
330
1E
100
AcDbEntity
  8
0
100
AcDbLine
 10
524.6
 20
532.835
 30
0.0
 11
524.6
 21
540.5149999999999
 31
0.0
  0
LINE
  5
718
330
1E
100
AcDbEntity
  8
0
100
AcDbLine
 10
534.0
 20
532.835
 30
0.0
 11
534.0
 21
525.1549999999999
 31
0.0
  0
LINE
  5
719
330
1E
100
AcDbEntity
  8
0
100
AcDbLine
 10
534.0
 20
532.835
 30
0.0
 11
534.0
 21
540.5149999999999
 31
0.0
  0
LINE
  5
71A
330
1E
100
AcDbEntity
  8
0
100
AcDbLine
 10
534.0
 20
525.1549999999999
 30
0.0
 11
534.0
 21
532.835
 31
0.0
  0
LINE
  5
71B
330
1E
100
AcDbEntity
  8
0
100
AcDbLine
 10
534.0
 20
525.1549999999999
 30
0.0
 11
534.0
 21
517.955
 31
0.0
  0
LINE
  5
71C
330
1E
100
AcDbEntity
  8
0
100
AcDbLine
 10
534.0
 20
517.955
 30
0.0
 11
534.0
 21
525.1549999999999
 31
0.0
  0
LINE
  5
71D
330
1E
100
AcDbEntity
  8
0
100
AcDbLine
 10
534.0
 20
517.955
 30
0.0
 11
534.0
 21
511.595
 31
0.0
  0
LINE
  5
71E
330
1E
100
AcDbEntity
  8
0
100
AcDbLine
 10
534.0
 20
511.595
 30
0.0
 11
534.0
 21
517.955
 31
0.0
  0
LINE
  5
71F
330
1E
100
AcDbEntity
  8
0
100
AcDbLine
 10
534.0
 20
511.595
 30
0.0
 11
534.0
 21
506.795
 31
0.0
  0
LINE
  5
720
330
1E
100
AcDbEntity
  8
0
100
AcDbLine
 10
506.0
 20
542.475
 30
0.0
 11
506.0
 21
541.5149999999999
 31
0.0
  0
LINE
  5
721
330
1E
100
AcDbEntity
  8
0
100
AcDbLine
 10
506.0
 20
545.9069999999999
 30
0.0
 11
506.0
 21
548.871
 31
0.0
  0
LINE
  5
722
330
1E
100
AcDbEntity
  8
0
100
AcDbLine
 10
506.0
 20
545.9069999999999
 30
0.0
 11
506.0
 21
542.0309999999999
 31
0.0
  0
LINE
  5
723
330
1E
100
AcDbEntity
  8
0
100
AcDbLine
 10
506.0
 20
545.9069999999999
 30
0.0
 11
506.0
 21
542.835
 31
0.0
  0
LINE
  5
724
330
1E
100
AcDbEntity
  8
0
100
AcDbLine
 10
524.0
 20
546.2869999999999
 30
0.0
 11
524.0
 21
542.259
 31
0.0
  0
LINE
  5
725
330
1E
100
AcDbEntity
  8
0
100
AcDbLine
 10
506.443
 20
546.2869999999999
 30
0.0
 11
506.443
 21
549.3269999999999
 31
0.0
  0
LINE
  5
726
330
1E
100
AcDbEntity
  8
0
100
AcDbLine
 10
506.443
 20
546.2869999999999
 30
0.0
 11
506.443
 21
542.259
 31
0.0
  0
LINE
  5
727
330
1E
100
AcDbEntity
  8
0
100
AcDbLine
 10
524.0
 20
547.355
 30
0.0
 11
524.0
 21
553.475
 31
0.0
  0
LINE
  5
728
330
1E
100
AcDbEntity
  8
0
100
AcDbLine
 10
524.0
 20
547.355
 30
0.0
 11
524.0
 21
540.395
 31
0.0
  0
LINE
  5
729
330
1E
100
AcDbEntity
  8
0
100
AcDbLine
 10
524.6
 20
547.715
 30
0.0
 11
524.6
 21
554.075
 31
0.0
  0
LINE
  5
72A
330
1E
100
AcDbEntity
  8
0
100
AcDbLine
 10
524.6
 20
547.715
 30
0.0
 11
524.6
 21
540.5149999999999
 31
0.0
  0
LINE
  5
72B
330
1E
100
AcDbEntity
  8
0
100
AcDbLine
 10
506.0
 20
548.871
 30
0.0
 11
506.0
 21
550.695
 31
0.0
  0
LINE
  5
72C
330
1E
100
AcDbEntity
  8
0
100
AcDbLine
 10
506.0
 20
548.871
 30
0.0
 11
506.0
 21
545.9069999999999
 31
0.0
  0
LINE
  5
72D
330
1E
100
AcDbEntity
  8
0
100
AcDbLine
 10
506.0
 20
550.695
 30
0.0
 11
506.0
 21
551.379
 31
0.0
  0
LINE
  5
72E
330
1E
100
AcDbEntity
  8
0
100
AcDbLine
 10
506.0
 20
550.695
 30
0.0
 11
506.0
 21
548.871
 31
0.0
  0
LINE
  5
72F
330
1E
100
AcDbEntity
  8
0
100
AcDbLine
 10
506.0
 20
551.379
 30
0.0
 11
506.443
 21
551.835
 31
0.0
  0
LINE
  5
730
330
1E
100
AcDbEntity
  8
0
100
AcDbLine
 10
506.0
 20
551.379
 30
0.0
 11
506.0
 21
550.695
 31
0.0
  0
LINE
  5
731
330
1E
100
AcDbEntity
  8
0
100
AcDbLine
 10
506.443
 20
549.3269999999999
 30
0.0
 11
506.443
 21
551.1509999999999
 31
0.0
  0
LINE
  5
732
330
1E
100
AcDbEntity
  8
0
100
AcDbLine
 10
506.443
 20
549.3269999999999
 30
0.0
 11
506.443
 21
546.2869999999999
 31
0.0
  0
LINE
  5
733
330
1E
100
AcDbEntity
  8
0
100
AcDbLine
 10
506.443
 20
551.835
 30
0.0
 11
524.0
 21
551.835
 31
0.0
  0
LINE
  5
734
330
1E
100
AcDbEntity
  8
0
100
AcDbLine
 10
506.443
 20
551.835
 30
0.0
 11
506.443
 21
551.1509999999999
 31
0.0
  0
LINE
  5
735
330
1E
100
AcDbEntity
  8
0
100
AcDbLine
 10
524.0
 20
549.3269999999999
 30
0.0
 11
524.0
 21
546.2869999999999
 31
0.0
  0
LINE
  5
736
330
1E
100
AcDbEntity
  8
0
100
AcDbLine
 10
524.0
 20
551.1509999999999
 30
0.0
 11
524.0
 21
549.3269999999999
 31
0.0
  0
LINE
  5
737
330
1E
100
AcDbEntity
  8
0
100
AcDbLine
 10
506.443
 20
551.1509999999999
 30
0.0
 11
506.443
 21
551.835
 31
0.0
  0
LINE
  5
738
330
1E
100
AcDbEntity
  8
0
100
AcDbLine
 10
506.443
 20
551.1509999999999
 30
0.0
 11
506.443
 21
549.3269999999999
 31
0.0
  0
LINE
  5
739
330
1E
100
AcDbEntity
  8
0
100
AcDbLine
 10
524.0
 20
551.835
 30
0.0
 11
524.0
 21
553.475
 31
0.0
  0
LINE
  5
73A
330
1E
100
AcDbEntity
  8
0
100
AcDbLine
 10
524.0
 20
551.835
 30
0.0
 11
524.0
 21
551.1509999999999
 31
0.0
  0
LINE
  5
73B
330
1E
100
AcDbEntity
  8
0
100
AcDbLine
 10
524.0
 20
553.475
 30
0.0
 11
524.0
 21
558.155
 31
0.0
  0
LINE
  5
73C
330
1E
100
AcDbEntity
  8
0
100
AcDbLine
 10
524.0
 20
553.475
 30
0.0
 11
524.0
 21
547.355
 31
0.0
  0
LINE
  5
73D
330
1E
100
AcDbEntity
  8
0
100
AcDbLine
 10
524.0
 20
553.475
 30
0.0
 11
524.0
 21
551.835
 31
0.0
  0
LINE
  5
73E
330
1E
100
AcDbEntity
  8
0
100
AcDbLine
 10
524.0
 20
558.155
 30
0.0
 11
524.0
 21
561.0349999999999
 31
0.0
  0
LINE
  5
73F
330
1E
100
AcDbEntity
  8
0
100
AcDbLine
 10
524.0
 20
558.155
 30
0.0
 11
524.0
 21
553.475
 31
0.0
  0
LINE
  5
740
330
1E
100
AcDbEntity
  8
0
100
AcDbLine
 10
524.6
 20
554.075
 30
0.0
 11
524.6
 21
558.875
 31
0.0
  0
LINE
  5
741
330
1E
100
AcDbEntity
  8
0
100
AcDbLine
 10
524.6
 20
554.075
 30
0.0
 11
524.6
 21
547.715
 31
0.0
  0
LINE
  5
742
330
1E
100
AcDbEntity
  8
0
100
AcDbLine
 10
524.6
 20
558.875
 30
0.0
 11
524.6
 21
561.755
 31
0.0
  0
LINE
  5
743
330
1E
100
AcDbEntity
  8
0
100
AcDbLine
 10
524.6
 20
558.875
 30
0.0
 11
524.6
 21
554.075
 31
0.0
  0
LINE
  5
744
330
1E
100
AcDbEntity
  8
0
100
AcDbLine
 10
534.0
 20
547.715
 30
0.0
 11
534.0
 21
554.075
 31
0.0
  0
LINE
  5
745
330
1E
100
AcDbEntity
  8
0
100
AcDbLine
 10
534.0
 20
547.715
 30
0.0
 11
534.0
 21
540.5149999999999
 31
0.0
  0
LINE
  5
746
330
1E
100
AcDbEntity
  8
0
100
AcDbLine
 10
534.0
 20
554.075
 30
0.0
 11
534.0
 21
558.875
 31
0.0
  0
LINE
  5
747
330
1E
100
AcDbEntity
  8
0
100
AcDbLine
 10
534.0
 20
554.075
 30
0.0
 11
534.0
 21
547.715
 31
0.0
  0
LINE
  5
748
330
1E
100
AcDbEntity
  8
0
100
AcDbLine
 10
524.0
 20
561.0349999999999
 30
0.0
 11
524.0
 21
562.115
 31
0.0
  0
LINE
  5
749
330
1E
100
AcDbEntity
  8
0
100
AcDbLine
 10
524.0
 20
561.0349999999999
 30
0.0
 11
524.0
 21
558.155
 31
0.0
  0
LINE
  5
74A
330
1E
100
AcDbEntity
  8
0
100
AcDbLine
 10
524.0
 20
562.115
 30
0.0
 11
524.6
 21
562.835
 31
0.0
  0
LINE
  5
74B
330
1E
100
AcDbEntity
  8
0
100
AcDbLine
 10
524.0
 20
562.115
 30
0.0
 11
524.0
 21
561.0349999999999
 31
0.0
  0
LINE
  5
74C
330
1E
100
AcDbEntity
  8
0
100
AcDbLine
 10
524.6
 20
562.835
 30
0.0
 11
534.0
 21
562.835
 31
0.0
  0
LINE
  5
74D
330
1E
100
AcDbEntity
  8
0
100
AcDbLine
 10
524.6
 20
562.835
 30
0.0
 11
524.6
 21
561.755
 31
0.0
  0
LINE
  5
74E
330
1E
100
AcDbEntity
  8
0
100
AcDbLine
 10
534.0
 20
562.835
 30
0.0
 11
534.0
 21
561.755
 31
0.0
  0
LINE
  5
74F
330
1E
100
AcDbEntity
  8
0
100
AcDbLine
 10
524.6
 20
561.755
 30
0.0
 11
524.6
 21
562.835
 31
0.0
  0
LINE
  5
750
330
1E
100
AcDbEntity
  8
0
100
AcDbLine
 10
524.6
 20
561.755
 30
0.0
 11
524.6
 21
558.875
 31
0.0
  0
LINE
  5
751
330
1E
100
AcDbEntity
  8
0
100
AcDbLine
 10
534.0
 20
558.875
 30
0.0
 11
534.0
 21
561.755
 31
0.0
  0
LINE
  5
752
330
1E
100
AcDbEntity
  8
0
100
AcDbLine
 10
534.0
 20
558.875
 30
0.0
 11
534.0
 21
554.075
 31
0.0
  0
LINE
  5
753
330
1E
100
AcDbEntity
  8
0
100
AcDbLine
 10
534.0
 20
561.755
 30
0.0
 11
534.0
 21
562.835
 31
0.0
  0
LINE
  5
754
330
1E
100
AcDbEntity
  8
0
100
AcDbLine
 10
534.0
 20
561.755
 30
0.0
 11
534.0
 21
558.875
 31
0.0
  0
LINE
  5
755
330
1E
100
AcDbEntity
  8
0
100
AcDbLine
 10
506.0
 20
542.835
 30
0.0
 11
506.0
 21
542.475
 31
0.0
  0
LINE
  5
756
330
1E
100
AcDbEntity
  8
0
100
AcDbLine
 10
506.0
 20
542.835
 30
0.0
 11
506.0
 21
545.9069999999999
 31
0.0
  0
LINE
  5
757
330
1E
100
AcDbEntity
  8
0
100
AcDbLine
 10
493.0
 20
542.8063274336279
 30
0.0
 11
493.0
 21
557.835
 31
0.0
  0
LINE
  5
758
330
1E
100
AcDbEntity
  8
0
100
AcDbLine
 10
526.0
 20
1352.515
 30
0.0
 11
526.105
 21
1351.835
 31
0.0
  0
LINE
  5
759
330
1E
100
AcDbEntity
  8
0
100
AcDbLine
 10
526.0
 20
1352.515
 30
0.0
 11
526.0
 21
1353.605
 31
0.0
  0
LINE
  5
75A
330
1E
100
AcDbEntity
  8
0
100
AcDbLine
 10
526.0
 20
1353.605
 30
0.0
 11
526.0
 21
1356.475
 31
0.0
  0
LINE
  5
75B
330
1E
100
AcDbEntity
  8
0
100
AcDbLine
 10
526.0
 20
1353.605
 30
0.0
 11
526.0
 21
1352.515
 31
0.0
  0
LINE
  5
75C
330
1E
100
AcDbEntity
  8
0
100
AcDbLine
 10
526.0
 20
1356.475
 30
0.0
 11
526.0
 21
1353.605
 31
0.0
  0
LINE
  5
75D
330
1E
100
AcDbEntity
  8
0
100
AcDbLine
 10
526.0
 20
1356.475
 30
0.0
 11
526.0
 21
1361.105
 31
0.0
  0
LINE
  5
75E
330
1E
100
AcDbEntity
  8
0
100
AcDbLine
 10
526.0
 20
1373.835
 30
0.0
 11
526.0
 21
1374.125
 31
0.0
  0
LINE
  5
75F
330
1E
100
AcDbEntity
  8
0
100
AcDbLine
 10
526.0
 20
1374.125
 30
0.0
 11
526.0
 21
1374.885
 31
0.0
  0
LINE
  5
760
330
1E
100
AcDbEntity
  8
0
100
AcDbLine
 10
526.0
 20
1374.885
 30
0.0
 11
526.0
 21
1376.195
 31
0.0
  0
LINE
  5
761
330
1E
100
AcDbEntity
  8
0
100
AcDbLine
 10
526.0
 20
1376.195
 30
0.0
 11
526.0
 21
1377.875
 31
0.0
  0
LINE
  5
762
330
1E
100
AcDbEntity
  8
0
100
AcDbLine
 10
526.0
 20
1377.875
 30
0.0
 11
526.0
 21
1379.765
 31
0.0
  0
LINE
  5
763
330
1E
100
AcDbEntity
  8
0
100
AcDbLine
 10
526.0
 20
1379.765
 30
0.0
 11
526.0
 21
1381.835
 31
0.0
  0
LINE
  5
764
330
1E
100
AcDbEntity
  8
0
100
AcDbLine
 10
526.0
 20
1389.545
 30
0.0
 11
526.0
 21
1389.835
 31
0.0
  0
LINE
  5
765
330
1E
100
AcDbEntity
  8
0
100
AcDbLine
 10
526.0
 20
1388.785
 30
0.0
 11
526.0
 21
1389.545
 31
0.0
  0
LINE
  5
766
330
1E
100
AcDbEntity
  8
0
100
AcDbLine
 10
526.0
 20
1387.475
 30
0.0
 11
526.0
 21
1388.785
 31
0.0
  0
LINE
  5
767
330
1E
100
AcDbEntity
  8
0
100
AcDbLine
 10
526.0
 20
1385.795
 30
0.0
 11
526.0
 21
1387.475
 31
0.0
  0
LINE
  5
768
330
1E
100
AcDbEntity
  8
0
100
AcDbLine
 10
526.0
 20
1383.905
 30
0.0
 11
526.0
 21
1385.795
 31
0.0
  0
LINE
  5
769
330
1E
100
AcDbEntity
  8
0
100
AcDbLine
 10
526.0
 20
1396.425
 30
0.0
 11
526.0
 21
1402.565
 31
0.0
  0
LINE
  5
76A
330
1E
100
AcDbEntity
  8
0
100
AcDbLine
 10
526.0
 20
1396.425
 30
0.0
 11
526.0
 21
1389.334999999999
 31
0.0
  0
LINE
  5
76B
330
1E
100
AcDbEntity
  8
0
100
AcDbLine
 10
526.0
 20
1389.334999999999
 30
0.0
 11
526.0
 21
1396.425
 31
0.0
  0
LINE
  5
76C
330
1E
100
AcDbEntity
  8
0
100
AcDbLine
 10
526.0
 20
1389.334999999999
 30
0.0
 11
526.0
 21
1381.835
 31
0.0
  0
LINE
  5
76D
330
1E
100
AcDbEntity
  8
0
100
AcDbLine
 10
526.0
 20
1410.065
 30
0.0
 11
526.0
 21
1411.154999999999
 31
0.0
  0
LINE
  5
76E
330
1E
100
AcDbEntity
  8
0
100
AcDbLine
 10
526.0
 20
1410.065
 30
0.0
 11
526.0
 21
1407.194999999999
 31
0.0
  0
LINE
  5
76F
330
1E
100
AcDbEntity
  8
0
100
AcDbLine
 10
526.0
 20
1402.565
 30
0.0
 11
526.0
 21
1407.194999999999
 31
0.0
  0
LINE
  5
770
330
1E
100
AcDbEntity
  8
0
100
AcDbLine
 10
526.0
 20
1402.565
 30
0.0
 11
526.0
 21
1396.425
 31
0.0
  0
LINE
  5
771
330
1E
100
AcDbEntity
  8
0
100
AcDbLine
 10
526.0
 20
1411.154999999999
 30
0.0
 11
526.0
 21
1410.065
 31
0.0
  0
LINE
  5
772
330
1E
100
AcDbEntity
  8
0
100
AcDbLine
 10
526.0
 20
1411.154999999999
 30
0.0
 11
526.105
 21
1411.835
 31
0.0
  0
LINE
  5
773
330
1E
100
AcDbEntity
  8
0
100
AcDbLine
 10
526.0
 20
1407.194999999999
 30
0.0
 11
526.0
 21
1402.565
 31
0.0
  0
LINE
  5
774
330
1E
100
AcDbEntity
  8
0
100
AcDbLine
 10
526.0
 20
1407.194999999999
 30
0.0
 11
526.0
 21
1410.065
 31
0.0
  0
LINE
  5
775
330
1E
100
AcDbEntity
  8
0
100
AcDbLine
 10
526.0
 20
1381.835
 30
0.0
 11
526.0
 21
1374.335
 31
0.0
  0
LINE
  5
776
330
1E
100
AcDbEntity
  8
0
100
AcDbLine
 10
526.0
 20
1381.835
 30
0.0
 11
526.0
 21
1389.334999999999
 31
0.0
  0
LINE
  5
777
330
1E
100
AcDbEntity
  8
0
100
AcDbLine
 10
526.0
 20
1381.835
 30
0.0
 11
526.0
 21
1383.905
 31
0.0
  0
LINE
  5
778
330
1E
100
AcDbEntity
  8
0
100
AcDbLine
 10
526.0
 20
1374.335
 30
0.0
 11
526.0
 21
1381.835
 31
0.0
  0
LINE
  5
779
330
1E
100
AcDbEntity
  8
0
100
AcDbLine
 10
526.0
 20
1374.335
 30
0.0
 11
526.0
 21
1367.245
 31
0.0
  0
LINE
  5
77A
330
1E
100
AcDbEntity
  8
0
100
AcDbLine
 10
526.0
 20
1361.105
 30
0.0
 11
526.0
 21
1356.475
 31
0.0
  0
LINE
  5
77B
330
1E
100
AcDbEntity
  8
0
100
AcDbLine
 10
526.0
 20
1361.105
 30
0.0
 11
526.0
 21
1367.245
 31
0.0
  0
LINE
  5
77C
330
1E
100
AcDbEntity
  8
0
100
AcDbLine
 10
534.0
 20
1351.835
 30
0.0
 11
534.0
 21
1352.924999999999
 31
0.0
  0
LINE
  5
77D
330
1E
100
AcDbEntity
  8
0
100
AcDbLine
 10
526.105
 20
1352.924999999999
 30
0.0
 11
526.105
 21
1355.785
 31
0.0
  0
LINE
  5
77E
330
1E
100
AcDbEntity
  8
0
100
AcDbLine
 10
526.105
 20
1352.924999999999
 30
0.0
 11
526.105
 21
1351.835
 31
0.0
  0
LINE
  5
77F
330
1E
100
AcDbEntity
  8
0
100
AcDbLine
 10
526.105
 20
1355.785
 30
0.0
 11
526.105
 21
1360.694999999999
 31
0.0
  0
LINE
  5
780
330
1E
100
AcDbEntity
  8
0
100
AcDbLine
 10
526.105
 20
1355.785
 30
0.0
 11
526.105
 21
1352.924999999999
 31
0.0
  0
LINE
  5
781
330
1E
100
AcDbEntity
  8
0
100
AcDbLine
 10
526.105
 20
1360.694999999999
 30
0.0
 11
526.105
 21
1366.975
 31
0.0
  0
LINE
  5
782
330
1E
100
AcDbEntity
  8
0
100
AcDbLine
 10
526.105
 20
1360.694999999999
 30
0.0
 11
526.105
 21
1355.785
 31
0.0
  0
LINE
  5
783
330
1E
100
AcDbEntity
  8
0
100
AcDbLine
 10
526.105
 20
1410.745
 30
0.0
 11
526.105
 21
1411.835
 31
0.0
  0
LINE
  5
784
330
1E
100
AcDbEntity
  8
0
100
AcDbLine
 10
526.105
 20
1410.745
 30
0.0
 11
526.105
 21
1407.885
 31
0.0
  0
LINE
  5
785
330
1E
100
AcDbEntity
  8
0
100
AcDbLine
 10
526.105
 20
1407.885
 30
0.0
 11
526.105
 21
1410.745
 31
0.0
  0
LINE
  5
786
330
1E
100
AcDbEntity
  8
0
100
AcDbLine
 10
526.105
 20
1407.885
 30
0.0
 11
526.105
 21
1402.975
 31
0.0
  0
LINE
  5
787
330
1E
100
AcDbEntity
  8
0
100
AcDbLine
 10
526.105
 20
1402.975
 30
0.0
 11
526.105
 21
1407.885
 31
0.0
  0
LINE
  5
788
330
1E
100
AcDbEntity
  8
0
100
AcDbLine
 10
526.105
 20
1402.975
 30
0.0
 11
526.105
 21
1396.695
 31
0.0
  0
LINE
  5
789
330
1E
100
AcDbEntity
  8
0
100
AcDbLine
 10
526.105
 20
1396.695
 30
0.0
 11
526.105
 21
1402.975
 31
0.0
  0
LINE
  5
78A
330
1E
100
AcDbEntity
  8
0
100
AcDbLine
 10
526.105
 20
1396.695
 30
0.0
 11
526.105
 21
1389.605
 31
0.0
  0
LINE
  5
78B
330
1E
100
AcDbEntity
  8
0
100
AcDbLine
 10
526.105
 20
1389.605
 30
0.0
 11
526.105
 21
1396.695
 31
0.0
  0
LINE
  5
78C
330
1E
100
AcDbEntity
  8
0
100
AcDbLine
 10
526.105
 20
1389.605
 30
0.0
 11
526.105
 21
1381.835
 31
0.0
  0
LINE
  5
78D
330
1E
100
AcDbEntity
  8
0
100
AcDbLine
 10
526.105
 20
1411.835
 30
0.0
 11
534.0
 21
1411.835
 31
0.0
  0
LINE
  5
78E
330
1E
100
AcDbEntity
  8
0
100
AcDbLine
 10
526.105
 20
1411.835
 30
0.0
 11
526.105
 21
1410.745
 31
0.0
  0
LINE
  5
78F
330
1E
100
AcDbEntity
  8
0
100
AcDbLine
 10
526.105
 20
1381.835
 30
0.0
 11
526.105
 21
1374.065
 31
0.0
  0
LINE
  5
790
330
1E
100
AcDbEntity
  8
0
100
AcDbLine
 10
526.105
 20
1381.835
 30
0.0
 11
526.105
 21
1389.605
 31
0.0
  0
LINE
  5
791
330
1E
100
AcDbEntity
  8
0
100
AcDbLine
 10
526.105
 20
1366.975
 30
0.0
 11
526.105
 21
1374.065
 31
0.0
  0
LINE
  5
792
330
1E
100
AcDbEntity
  8
0
100
AcDbLine
 10
526.105
 20
1366.975
 30
0.0
 11
526.105
 21
1360.694999999999
 31
0.0
  0
LINE
  5
793
330
1E
100
AcDbEntity
  8
0
100
AcDbLine
 10
534.0
 20
1352.924999999999
 30
0.0
 11
534.0
 21
1355.785
 31
0.0
  0
LINE
  5
794
330
1E
100
AcDbEntity
  8
0
100
AcDbLine
 10
534.0
 20
1355.785
 30
0.0
 11
534.0
 21
1360.694999999999
 31
0.0
  0
LINE
  5
795
330
1E
100
AcDbEntity
  8
0
100
AcDbLine
 10
534.0
 20
1360.694999999999
 30
0.0
 11
534.0
 21
1366.975
 31
0.0
  0
LINE
  5
796
330
1E
100
AcDbEntity
  8
0
100
AcDbLine
 10
534.0
 20
1366.975
 30
0.0
 11
534.0
 21
1374.065
 31
0.0
  0
LINE
  5
797
330
1E
100
AcDbEntity
  8
0
100
AcDbLine
 10
534.0
 20
1410.745
 30
0.0
 11
534.0
 21
1411.835
 31
0.0
  0
LINE
  5
798
330
1E
100
AcDbEntity
  8
0
100
AcDbLine
 10
534.0
 20
1407.885
 30
0.0
 11
534.0
 21
1410.745
 31
0.0
  0
LINE
  5
799
330
1E
100
AcDbEntity
  8
0
100
AcDbLine
 10
534.0
 20
1402.975
 30
0.0
 11
534.0
 21
1407.885
 31
0.0
  0
LINE
  5
79A
330
1E
100
AcDbEntity
  8
0
100
AcDbLine
 10
534.0
 20
1396.695
 30
0.0
 11
534.0
 21
1402.975
 31
0.0
  0
LINE
  5
79B
330
1E
100
AcDbEntity
  8
0
100
AcDbLine
 10
534.0
 20
1389.605
 30
0.0
 11
534.0
 21
1396.695
 31
0.0
  0
LINE
  5
79C
330
1E
100
AcDbEntity
  8
0
100
AcDbLine
 10
534.0
 20
1381.835
 30
0.0
 11
534.0
 21
1389.605
 31
0.0
  0
LINE
  5
79D
330
1E
100
AcDbEntity
  8
0
100
AcDbLine
 10
534.0
 20
1374.065
 30
0.0
 11
534.0
 21
1381.835
 31
0.0
  0
LINE
  5
79E
330
1E
100
AcDbEntity
  8
0
100
AcDbLine
 10
526.105
 20
1374.065
 30
0.0
 11
526.105
 21
1381.835
 31
0.0
  0
LINE
  5
79F
330
1E
100
AcDbEntity
  8
0
100
AcDbLine
 10
526.105
 20
1374.065
 30
0.0
 11
526.105
 21
1366.975
 31
0.0
  0
LINE
  5
7A0
330
1E
100
AcDbEntity
  8
0
100
AcDbLine
 10
526.105
 20
1351.835
 30
0.0
 11
534.0
 21
1351.835
 31
0.0
  0
LINE
  5
7A1
330
1E
100
AcDbEntity
  8
0
100
AcDbLine
 10
526.105
 20
1351.835
 30
0.0
 11
526.105
 21
1352.924999999999
 31
0.0
  0
LINE
  5
7A2
330
1E
100
AcDbEntity
  8
0
100
AcDbLine
 10
526.0
 20
1367.245
 30
0.0
 11
526.0
 21
1361.105
 31
0.0
  0
LINE
  5
7A3
330
1E
100
AcDbEntity
  8
0
100
AcDbLine
 10
526.0
 20
1367.245
 30
0.0
 11
526.0
 21
1374.335
 31
0.0
  0
LINE
  5
7A4
330
1E
100
AcDbEntity
  8
0
100
AcDbLine
 10
486.753
 20
567.1149999999999
 30
0.0
 11
487.188
 21
567.219
 31
0.0
  0
LINE
  5
7A5
330
1E
100
AcDbEntity
  8
0
100
AcDbLine
 10
486.513
 20
566.0009999999999
 30
0.0
 11
487.188
 21
567.219
 31
0.0
  0
LINE
  5
7A6
330
1E
100
AcDbEntity
  8
0
100
AcDbLine
 10
490.7498050815319
 20
507.8349999999999
 30
0.0
 11
491.504
 21
494.549
 31
0.0
  0
LINE
  5
7A7
330
1E
100
AcDbEntity
  8
0
100
AcDbLine
 10
490.7498050815319
 20
507.8349999999999
 30
0.0
 11
491.1169999999999
 21
507.8349999999999
 31
0.0
  0
LINE
  5
7A8
330
1E
100
AcDbEntity
  8
0
100
AcDbLine
 10
483.9584289884239
 20
565.270157441874
 30
0.0
 11
485.343254860419
 21
557.835
 31
0.0
  0
LINE
  5
7A9
330
1E
100
AcDbEntity
  8
0
100
AcDbLine
 10
483.9584289884239
 20
565.270157441874
 30
0.0
 11
485.055
 21
565.5599999999999
 31
0.0
  0
ENDSEC
  0
SECTION
  2
OBJECTS
  0
DICTIONARY
  5
C
330
0
100
AcDbDictionary
  3
ACAD_GROUP
350
D
  3
ACAD_LAYOUT
350
19
  3
ACAD_MLINESTYLE
350
16
  3
ACAD_PLOTSETTINGS
350
18
  3
ACAD_PLOTSTYLENAME
350
E
  3
ACDBHEADERROUNDTRIPXREC
350
7B1
  3
ACDBVARIABLEDICTIONARY
350
7AE
  0
DICTIONARY
  5
7D3
330
1E
100
AcDbDictionary
280
     1
  3
ACAD_LAYOUTSELFREF
360
7D4
  0
DICTIONARY
  5
7D1
330
1A
100
AcDbDictionary
280
     1
  3
ACAD_LAYOUTSELFREF
360
7D2
  0
DICTIONARY
  5
D
102
{ACAD_REACTORS
330
C
102
}
330
C
100
AcDbDictionary
  0
DICTIONARY
  5
19
102
{ACAD_REACTORS
330
C
102
}
330
C
100
AcDbDictionary
  0
DICTIONARY
  5
16
102
{ACAD_REACTORS
330
C
102
}
330
C
100
AcDbDictionary
  3
STANDARD
350
17
  0
DICTIONARY
  5
18
102
{ACAD_REACTORS
330
C
102
}
330
C
100
AcDbDictionary
  0
ACDBDICTIONARYWDFLT
  5
E
102
{ACAD_REACTORS
330
C
102
}
330
C
100
AcDbDictionary
281
     1
  3
Normal
350
F
100
AcDbDictionaryWithDefault
340
F
  0
DICTIONARY
  5
7B1
102
{ACAD_REACTORS
330
C
102
}
330
C
100
AcDbDictionary
  3
CEPSNTYPE
350
7BB
  3
FINGERPRINTGUID
350
7BC
  3
HYPERLINKBASE
350
7B4
  3
INSUNITS
350
7BA
  3
LAYOUTDICT
350
7B6
  3
LWETCUNION
350
7B9
  3
PLOTSETDICT
350
7B7
  3
PLOTSTYLNAMDICT
350
7B8
  3
PSVPSCALE
350
7BE
  3
PUCSBASE
350
7C1
  3
PUCSORGBACK
350
7C7
  3
PUCSORGBOTTOM
350
7C3
  3
PUCSORGFRONT
350
7C6
  3
PUCSORGLEFT
350
7C4
  3
PUCSORGRIGHT
350
7C5
  3
PUCSORGTOP
350
7C2
  3
PUCSORTHOREF
350
7BF
  3
PUCSORTHOVIEW
350
7C0
  3
STYLESHEET
350
7B5
  3
TSTACKALIGN
350
7B2
  3
TSTACKSIZE
350
7B3
  3
UCSBASE
350
7CA
  3
UCSORGBACK
350
7D0
  3
UCSORGBOTTOM
350
7CC
  3
UCSORGFRONT
350
7CF
  3
UCSORGLEFT
350
7CD
  3
UCSORGRIGHT
350
7CE
  3
UCSORGTOP
350
7CB
  3
UCSORTHOREF
350
7C8
  3
UCSORTHOVIEW
350
7C9
  3
VERSIONGUID
350
7BD
  0
DICTIONARY
  5
7AE
102
{ACAD_REACTORS
330
C
102
}
330
C
100
AcDbDictionary
  3
DIMASSOC
350
7AF
  0
XRECORD
  5
7D4
102
{ACAD_REACTORS
330
7D3
102
}
330
7D3
100
AcDbXrecord
340
1E
  0
XRECORD
  5
7D2
102
{ACAD_REACTORS
330
7D1
102
}
330
7D1
100
AcDbXrecord
340
1A
  0
MLINESTYLE
  5
17
102
{ACAD_REACTORS
330
16
102
}
330
16
100
AcDbMlineStyle
  2
STANDARD
 70
     0
  3

 62
   256
 51
90.0
 52
90.0
 71
     2
 49
0.5
 62
   256
  6
BYLAYER
 49
-0.5
 62
   256
  6
BYLAYER
  0
ACDBPLACEHOLDER
  5
F
102
{ACAD_REACTORS
330
E
102
}
330
E
100
AcDbPlaceHolder
280
     0
  0
XRECORD
  5
7BB
102
{ACAD_REACTORS
330
7B1
102
}
330
7B1
100
AcDbXrecord
 90
        0
  0
XRECORD
  5
7BC
102
{ACAD_REACTORS
330
7B1
102
}
330
7B1
100
AcDbXrecord
  1
{4A79C328-FE46-40C7-A347-87F94C39A872}
  0
XRECORD
  5
7B4
102
{ACAD_REACTORS
330
7B1
102
}
330
7B1
100
AcDbXrecord
  1

  0
XRECORD
  5
7BA
102
{ACAD_REACTORS
330
7B1
102
}
330
7B1
100
AcDbXrecord
 90
        0
  0
XRECORD
  5
7B6
102
{ACAD_REACTORS
330
7B1
102
}
330
7B1
100
AcDbXrecord
340
19
  0
XRECORD
  5
7B9
102
{ACAD_REACTORS
330
7B1
102
}
330
7B1
100
AcDbXrecord
 90
    10781
  0
XRECORD
  5
7B7
102
{ACAD_REACTORS
330
7B1
102
}
330
7B1
100
AcDbXrecord
340
18
  0
XRECORD
  5
7B8
102
{ACAD_REACTORS
330
7B1
102
}
330
7B1
100
AcDbXrecord
340
E
  0
XRECORD
  5
7BE
102
{ACAD_REACTORS
330
7B1
102
}
330
7B1
100
AcDbXrecord
 40
0.0
  0
XRECORD
  5
7C1
102
{ACAD_REACTORS
330
7B1
102
}
330
7B1
100
AcDbXrecord
340
0
  0
XRECORD
  5
7C7
102
{ACAD_REACTORS
330
7B1
102
}
330
7B1
100
AcDbXrecord
 10
0.0
 20
0.0
 30
0.0
  0
XRECORD
  5
7C3
102
{ACAD_REACTORS
330
7B1
102
}
330
7B1
100
AcDbXrecord
 10
0.0
 20
0.0
 30
0.0
  0
XRECORD
  5
7C6
102
{ACAD_REACTORS
330
7B1
102
}
330
7B1
100
AcDbXrecord
 10
0.0
 20
0.0
 30
0.0
  0
XRECORD
  5
7C4
102
{ACAD_REACTORS
330
7B1
102
}
330
7B1
100
AcDbXrecord
 10
0.0
 20
0.0
 30
0.0
  0
XRECORD
  5
7C5
102
{ACAD_REACTORS
330
7B1
102
}
330
7B1
100
AcDbXrecord
 10
0.0
 20
0.0
 30
0.0
  0
XRECORD
  5
7C2
102
{ACAD_REACTORS
330
7B1
102
}
330
7B1
100
AcDbXrecord
 10
0.0
 20
0.0
 30
0.0
  0
XRECORD
  5
7BF
102
{ACAD_REACTORS
330
7B1
102
}
330
7B1
100
AcDbXrecord
340
0
  0
XRECORD
  5
7C0
102
{ACAD_REACTORS
330
7B1
102
}
330
7B1
100
AcDbXrecord
 70
     0
  0
XRECORD
  5
7B5
102
{ACAD_REACTORS
330
7B1
102
}
330
7B1
100
AcDbXrecord
  1

  0
XRECORD
  5
7B2
102
{ACAD_REACTORS
330
7B1
102
}
330
7B1
100
AcDbXrecord
 90
        1
  0
XRECORD
  5
7B3
102
{ACAD_REACTORS
330
7B1
102
}
330
7B1
100
AcDbXrecord
 90
       70
  0
XRECORD
  5
7CA
102
{ACAD_REACTORS
330
7B1
102
}
330
7B1
100
AcDbXrecord
340
0
  0
XRECORD
  5
7D0
102
{ACAD_REACTORS
330
7B1
102
}
330
7B1
100
AcDbXrecord
 10
0.0
 20
0.0
 30
0.0
  0
XRECORD
  5
7CC
102
{ACAD_REACTORS
330
7B1
102
}
330
7B1
100
AcDbXrecord
 10
0.0
 20
0.0
 30
0.0
  0
XRECORD
  5
7CF
102
{ACAD_REACTORS
330
7B1
102
}
330
7B1
100
AcDbXrecord
 10
0.0
 20
0.0
 30
0.0
  0
XRECORD
  5
7CD
102
{ACAD_REACTORS
330
7B1
102
}
330
7B1
100
AcDbXrecord
 10
0.0
 20
0.0
 30
0.0
  0
XRECORD
  5
7CE
102
{ACAD_REACTORS
330
7B1
102
}
330
7B1
100
AcDbXrecord
 10
0.0
 20
0.0
 30
0.0
  0
XRECORD
  5
7CB
102
{ACAD_REACTORS
330
7B1
102
}
330
7B1
100
AcDbXrecord
 10
0.0
 20
0.0
 30
0.0
  0
XRECORD
  5
7C8
102
{ACAD_REACTORS
330
7B1
102
}
330
7B1
100
AcDbXrecord
340
0
  0
XRECORD
  5
7C9
102
{ACAD_REACTORS
330
7B1
102
}
330
7B1
100
AcDbXrecord
 70
     1
  0
XRECORD
  5
7BD
102
{ACAD_REACTORS
330
7B1
102
}
330
7B1
100
AcDbXrecord
  1
{C2D7652A-5711-45C9-A491-8DD42BE22359}
  0
DICTIONARYVAR
  5
7AF
102
{ACAD_REACTORS
330
7AE
102
}
330
7AE
100
DictionaryVariables
280
     0
  1
1
  0
ENDSEC
  0
EOF
