  0
SECTION
  2
HEADER
  9
$ACADVER
  1
AC1015
  9
$ACADMAINTVER
 70
    13
  9
$DWGCODEPAGE
  3
ANSI_1252
  9
$INSBASE
 10
0.0
 20
0.0
 30
0.0
  9
$EXTMIN
 10
-0.000000000000011
 20
0.0000000000000039
 30
0.0
  9
$EXTMAX
 10
198.0
 20
70.0
 30
0.0
  9
$LIMMIN
 10
0.0
 20
0.0
  9
$LIMMAX
 10
12.0
 20
9.0
  9
$ORTHOMODE
 70
     0
  9
$REGENMODE
 70
     1
  9
$FILLMODE
 70
     1
  9
$QTEXTMODE
 70
     0
  9
$MIRRTEXT
 70
     1
  9
$LTSCALE
 40
1.0
  9
$ATTMODE
 70
     1
  9
$TEXTSIZE
 40
0.2
  9
$TRACEWID
 40
0.05
  9
$TEXTSTYLE
  7
Standard
  9
$CLAYER
  8
0
  9
$CELTYPE
  6
Continuous
  9
$CECOLOR
 62
   256
  9
$CELTSCALE
 40
1.0
  9
$DISPSILH
 70
     0
  9
$DIMSCALE
 40
1.0
  9
$DIMASZ
 40
0.18
  9
$DIMEXO
 40
0.0625
  9
$DIMDLI
 40
0.38
  9
$DIMRND
 40
0.0
  9
$DIMDLE
 40
0.0
  9
$DIMEXE
 40
0.18
  9
$DIMTP
 40
0.0
  9
$DIMTM
 40
0.0
  9
$DIMTXT
 40
0.18
  9
$DIMCEN
 40
0.09
  9
$DIMTSZ
 40
0.0
  9
$DIMTOL
 70
     0
  9
$DIMLIM
 70
     0
  9
$DIMTIH
 70
     1
  9
$DIMTOH
 70
     1
  9
$DIMSE1
 70
     0
  9
$DIMSE2
 70
     0
  9
$DIMTAD
 70
     0
  9
$DIMZIN
 70
     0
  9
$DIMBLK
  1

  9
$DIMASO
 70
     1
  9
$DIMSHO
 70
     1
  9
$DIMPOST
  1

  9
$DIMAPOST
  1

  9
$DIMALT
 70
     0
  9
$DIMALTD
 70
     2
  9
$DIMALTF
 40
25.4
  9
$DIMLFAC
 40
1.0
  9
$DIMTOFL
 70
     0
  9
$DIMTVP
 40
0.0
  9
$DIMTIX
 70
     0
  9
$DIMSOXD
 70
     0
  9
$DIMSAH
 70
     0
  9
$DIMBLK1
  1

  9
$DIMBLK2
  1

  9
$DIMSTYLE
  2
Standard
  9
$DIMCLRD
 70
     0
  9
$DIMCLRE
 70
     0
  9
$DIMCLRT
 70
     0
  9
$DIMTFAC
 40
1.0
  9
$DIMGAP
 40
0.09
  9
$DIMJUST
 70
     0
  9
$DIMSD1
 70
     0
  9
$DIMSD2
 70
     0
  9
$DIMTOLJ
 70
     1
  9
$DIMTZIN
 70
     0
  9
$DIMALTZ
 70
     0
  9
$DIMALTTZ
 70
     0
  9
$DIMUPT
 70
     0
  9
$DIMDEC
 70
     4
  9
$DIMTDEC
 70
     4
  9
$DIMALTU
 70
     2
  9
$DIMALTTD
 70
     2
  9
$DIMTXSTY
  7
Standard
  9
$DIMAUNIT
 70
     0
  9
$DIMADEC
 70
     0
  9
$DIMALTRND
 40
0.0
  9
$DIMAZIN
 70
     0
  9
$DIMDSEP
 70
    46
  9
$DIMATFIT
 70
     3
  9
$DIMFRAC
 70
     0
  9
$DIMLDRBLK
  1

  9
$DIMLUNIT
 70
     2
  9
$DIMLWD
 70
    -2
  9
$DIMLWE
 70
    -2
  9
$DIMTMOVE
 70
     0
  9
$LUNITS
 70
     2
  9
$LUPREC
 70
     4
  9
$SKETCHINC
 40
0.1
  9
$FILLETRAD
 40
0.0
  9
$AUNITS
 70
     0
  9
$AUPREC
 70
     0
  9
$MENU
  1
.
  9
$ELEVATION
 40
0.0
  9
$PELEVATION
 40
0.0
  9
$THICKNESS
 40
0.0
  9
$LIMCHECK
 70
     0
  9
$CHAMFERA
 40
0.0
  9
$CHAMFERB
 40
0.0
  9
$CHAMFERC
 40
0.0
  9
$CHAMFERD
 40
0.0
  9
$SKPOLY
 70
     0
  9
$TDCREATE
 40
2454636.777106840
  9
$TDUCREATE
 40
2454636.693773507
  9
$TDUPDATE
 40
2454636.777548460
  9
$TDUUPDATE
 40
2454636.694215127
  9
$TDINDWG
 40
0.0004416204
  9
$TDUSRTIMER
 40
0.0004416204
  9
$USRTIMER
 70
     1
  9
$ANGBASE
 50
0.0
  9
$ANGDIR
 70
     0
  9
$PDMODE
 70
     0
  9
$PDSIZE
 40
0.0
  9
$PLINEWID
 40
0.0
  9
$SPLFRAME
 70
     0
  9
$SPLINETYPE
 70
     6
  9
$SPLINESEGS
 70
     8
  9
$HANDSEED
  5
208
  9
$SURFTAB1
 70
     6
  9
$SURFTAB2
 70
     6
  9
$SURFTYPE
 70
     6
  9
$SURFU
 70
     6
  9
$SURFV
 70
     6
  9
$UCSBASE
  2

  9
$UCSNAME
  2

  9
$UCSORG
 10
0.0
 20
0.0
 30
0.0
  9
$UCSXDIR
 10
1.0
 20
0.0
 30
0.0
  9
$UCSYDIR
 10
0.0
 20
1.0
 30
0.0
  9
$UCSORTHOREF
  2

  9
$UCSORTHOVIEW
 70
     1
  9
$UCSORGTOP
 10
0.0
 20
0.0
 30
0.0
  9
$UCSORGBOTTOM
 10
0.0
 20
0.0
 30
0.0
  9
$UCSORGLEFT
 10
0.0
 20
0.0
 30
0.0
  9
$UCSORGRIGHT
 10
0.0
 20
0.0
 30
0.0
  9
$UCSORGFRONT
 10
0.0
 20
0.0
 30
0.0
  9
$UCSORGBACK
 10
0.0
 20
0.0
 30
0.0
  9
$PUCSBASE
  2

  9
$PUCSNAME
  2

  9
$PUCSORG
 10
0.0
 20
0.0
 30
0.0
  9
$PUCSXDIR
 10
1.0
 20
0.0
 30
0.0
  9
$PUCSYDIR
 10
0.0
 20
1.0
 30
0.0
  9
$PUCSORTHOREF
  2

  9
$PUCSORTHOVIEW
 70
     0
  9
$PUCSORGTOP
 10
0.0
 20
0.0
 30
0.0
  9
$PUCSORGBOTTOM
 10
0.0
 20
0.0
 30
0.0
  9
$PUCSORGLEFT
 10
0.0
 20
0.0
 30
0.0
  9
$PUCSORGRIGHT
 10
0.0
 20
0.0
 30
0.0
  9
$PUCSORGFRONT
 10
0.0
 20
0.0
 30
0.0
  9
$PUCSORGBACK
 10
0.0
 20
0.0
 30
0.0
  9
$USERI1
 70
     0
  9
$USERI2
 70
     0
  9
$USERI3
 70
     0
  9
$USERI4
 70
     0
  9
$USERI5
 70
     0
  9
$USERR1
 40
0.0
  9
$USERR2
 40
0.0
  9
$USERR3
 40
0.0
  9
$USERR4
 40
0.0
  9
$USERR5
 40
0.0
  9
$WORLDVIEW
 70
     1
  9
$SHADEDGE
 70
     3
  9
$SHADEDIF
 70
    70
  9
$TILEMODE
 70
     1
  9
$MAXACTVP
 70
    64
  9
$PINSBASE
 10
0.0
 20
0.0
 30
0.0
  9
$PLIMCHECK
 70
     0
  9
$PEXTMIN
 10
1.000000000000000E+20
 20
1.000000000000000E+20
 30
1.000000000000000E+20
  9
$PEXTMAX
 10
-1.000000000000000E+20
 20
-1.000000000000000E+20
 30
-1.000000000000000E+20
  9
$PLIMMIN
 10
0.0
 20
0.0
  9
$PLIMMAX
 10
12.0
 20
9.0
  9
$UNITMODE
 70
     0
  9
$VISRETAIN
 70
     1
  9
$PLINEGEN
 70
     0
  9
$PSLTSCALE
 70
     1
  9
$TREEDEPTH
 70
  3020
  9
$CMLSTYLE
  2
Standard
  9
$CMLJUST
 70
     0
  9
$CMLSCALE
 40
1.0
  9
$PROXYGRAPHICS
 70
     1
  9
$MEASUREMENT
 70
     0
  9
$CELWEIGHT
370
    -1
  9
$ENDCAPS
280
     0
  9
$JOINSTYLE
280
     0
  9
$LWDISPLAY
290
     0
  9
$INSUNITS
 70
     0
  9
$HYPERLINKBASE
  1

  9
$STYLESHEET
  1

  9
$XEDIT
290
     1
  9
$CEPSNTYPE
380
     0
  9
$PSTYLEMODE
290
     1
  9
$FINGERPRINTGUID
  2
{6918DDF9-FA30-44CD-8FBF-67F2907F1730}
  9
$VERSIONGUID
  2
{C9D19C5C-0570-4570-A545-8834FF234546}
  9
$EXTNAMES
290
     1
  9
$PSVPSCALE
 40
0.0
  9
$OLESTARTUP
290
     0
  0
ENDSEC
  0
SECTION
  2
CLASSES
  0
CLASS
  1
ACDBDICTIONARYWDFLT
  2
AcDbDictionaryWithDefault
  3
AutoCAD 2000
 90
        0
280
     0
281
     0
  0
CLASS
  1
ACDBPLACEHOLDER
  2
AcDbPlaceHolder
  3
AutoCAD 2000
 90
        0
280
     0
281
     0
  0
CLASS
  1
LAYOUT
  2
AcDbLayout
  3
AutoCAD 2000
 90
        0
280
     0
281
     0
  0
CLASS
  1
DICTIONARYVAR
  2
AcDbDictionaryVar
  3
AutoCAD 2000
 90
        0
280
     0
281
     0
  0
ENDSEC
  0
SECTION
  2
TABLES
  0
TABLE
  2
VPORT
  5
8
330
0
100
AcDbSymbolTable
 70
     2
  0
VPORT
  5
207
330
8
100
AcDbSymbolTableRecord
100
AcDbViewportTableRecord
  2
*Active
 70
     0
 10
0.0
 20
0.0
 11
1.0
 21
1.0
 12
98.99999999999998
 22
35.0
 13
0.0
 23
0.0
 14
1.0
 24
1.0
 15
0.0
 25
0.0
 16
0.0
 26
0.0
 36
1.0
 17
0.0
 27
0.0
 37
0.0
 40
97.25500115347857
 41
2.043533930857874
 42
50.0
 43
0.0
 44
0.0
 50
0.0
 51
0.0
 71
     0
 72
   100
 73
     1
 74
     3
 75
     0
 76
     0
 77
     0
 78
     0
281
     0
 65
     1
110
0.0
120
0.0
130
0.0
111
1.0
121
0.0
131
0.0
112
0.0
122
1.0
132
0.0
 79
     1
146
0.0
  0
ENDTAB
  0
TABLE
  2
LTYPE
  5
5
330
0
100
AcDbSymbolTable
 70
     1
  0
LTYPE
  5
13
330
5
100
AcDbSymbolTableRecord
100
AcDbLinetypeTableRecord
  2
ByBlock
 70
     0
  3

 72
    65
 73
     0
 40
0.0
  0
LTYPE
  5
14
330
5
100
AcDbSymbolTableRecord
100
AcDbLinetypeTableRecord
  2
ByLayer
 70
     0
  3

 72
    65
 73
     0
 40
0.0
  0
LTYPE
  5
15
330
5
100
AcDbSymbolTableRecord
100
AcDbLinetypeTableRecord
  2
Continuous
 70
     0
  3
Solid line
 72
    65
 73
     0
 40
0.0
  0
ENDTAB
  0
TABLE
  2
LAYER
  5
2
330
0
100
AcDbSymbolTable
 70
     1
  0
LAYER
  5
10
330
2
100
AcDbSymbolTableRecord
100
AcDbLayerTableRecord
  2
0
 70
     0
 62
     7
  6
Continuous
370
    -3
390
F
  0
ENDTAB
  0
TABLE
  2
STYLE
  5
3
330
0
100
AcDbSymbolTable
 70
     1
  0
STYLE
  5
11
330
3
100
AcDbSymbolTableRecord
100
AcDbTextStyleTableRecord
  2
Standard
 70
     0
 40
0.0
 41
1.0
 50
0.0
 71
     0
 42
0.2
  3
txt
  4

  0
ENDTAB
  0
TABLE
  2
VIEW
  5
6
330
0
100
AcDbSymbolTable
 70
     0
  0
ENDTAB
  0
TABLE
  2
UCS
  5
7
330
0
100
AcDbSymbolTable
 70
     0
  0
ENDTAB
  0
TABLE
  2
APPID
  5
9
330
0
100
AcDbSymbolTable
 70
     1
  0
APPID
  5
12
330
9
100
AcDbSymbolTableRecord
100
AcDbRegAppTableRecord
  2
ACAD
 70
     0
  0
ENDTAB
  0
TABLE
  2
DIMSTYLE
  5
A
330
0
100
AcDbSymbolTable
 70
     1
100
AcDbDimStyleTable
 71
     0
  0
DIMSTYLE
105
1FD
330
A
100
AcDbSymbolTableRecord
100
AcDbDimStyleTableRecord
  2
Standard
 70
     0
340
11
  0
ENDTAB
  0
TABLE
  2
BLOCK_RECORD
  5
1
330
0
100
AcDbSymbolTable
 70
     0
  0
BLOCK_RECORD
  5
1E
330
1
100
AcDbSymbolTableRecord
100
AcDbBlockTableRecord
  2
*Model_Space
340
21
  0
BLOCK_RECORD
  5
1A
330
1
100
AcDbSymbolTableRecord
100
AcDbBlockTableRecord
  2
*Paper_Space
340
1D
  0
ENDTAB
  0
ENDSEC
  0
SECTION
  2
BLOCKS
  0
BLOCK
  5
1F
330
1E
100
AcDbEntity
  8
0
100
AcDbBlockBegin
  2
*Model_Space
 70
     0
 10
0.0
 20
0.0
 30
0.0
  3
*Model_Space
  1

  0
ENDBLK
  5
20
330
1E
100
AcDbEntity
  8
0
100
AcDbBlockEnd
  0
BLOCK
  5
1B
330
1A
100
AcDbEntity
 67
     1
  8
0
100
AcDbBlockBegin
  2
*Paper_Space
 70
     0
 10
0.0
 20
0.0
 30
0.0
  3
*Paper_Space
  1

  0
ENDBLK
  5
1C
330
1A
100
AcDbEntity
 67
     1
  8
0
100
AcDbBlockEnd
  0
ENDSEC
  0
SECTION
  2
ENTITIES
  0
LINE
  5
22
330
1E
100
AcDbEntity
  8
0
100
AcDbLine
 10
31.0
 20
0.0000000000000063
 30
0.0
 11
31.5
 21
0.5000000000000061
 31
0.0
  0
LINE
  5
23
330
1E
100
AcDbEntity
  8
0
100
AcDbLine
 10
31.0
 20
0.0000000000000063
 30
0.0
 11
35.0
 21
0.0000000000000063
 31
0.0
  0
LINE
  5
24
330
1E
100
AcDbEntity
  8
0
100
AcDbLine
 10
31.0
 20
0.0000000000000063
 30
0.0
 11
31.0
 21
30.6
 31
0.0
  0
LINE
  5
25
330
1E
100
AcDbEntity
  8
0
100
AcDbLine
 10
31.0
 20
0.0000000000000063
 30
0.0
 11
31.5
 21
0.5000000000000061
 31
0.0
  0
LINE
  5
26
330
1E
100
AcDbEntity
  8
0
100
AcDbLine
 10
35.0
 20
0.5000000000000061
 30
0.0
 11
38.5
 21
0.5000000000000061
 31
0.0
  0
LINE
  5
27
330
1E
100
AcDbEntity
  8
0
100
AcDbLine
 10
35.0
 20
0.0000000000000063
 30
0.0
 11
39.0
 21
0.0000000000000063
 31
0.0
  0
LINE
  5
28
330
1E
100
AcDbEntity
  8
0
100
AcDbLine
 10
39.0
 20
0.0000000000000063
 30
0.0
 11
39.0
 21
30.6
 31
0.0
  0
LINE
  5
29
330
1E
100
AcDbEntity
  8
0
100
AcDbLine
 10
38.5
 20
0.5000000000000061
 30
0.0
 11
39.0
 21
0.0000000000000063
 31
0.0
  0
LINE
  5
2A
330
1E
100
AcDbEntity
  8
0
100
AcDbLine
 10
38.5
 20
0.5000000000000061
 30
0.0
 11
39.0
 21
0.0000000000000063
 31
0.0
  0
LINE
  5
2B
330
1E
100
AcDbEntity
  8
0
100
AcDbLine
 10
38.5
 20
0.5000000000000061
 30
0.0
 11
38.5
 21
31.2
 31
0.0
  0
LINE
  5
2C
330
1E
100
AcDbEntity
  8
0
100
AcDbLine
 10
35.0
 20
0.0000000000000056
 30
0.0
 11
39.0
 21
0.0000000000000056
 31
0.0
  0
LINE
  5
2D
330
1E
100
AcDbEntity
  8
0
100
AcDbLine
 10
31.5
 20
0.5000000000000061
 30
0.0
 11
35.0
 21
0.5000000000000061
 31
0.0
  0
LINE
  5
2E
330
1E
100
AcDbEntity
  8
0
100
AcDbLine
 10
31.5
 20
0.5000000000000061
 30
0.0
 11
31.5
 21
31.2
 31
0.0
  0
LINE
  5
2F
330
1E
100
AcDbEntity
  8
0
100
AcDbLine
 10
31.0
 20
0.0000000000000056
 30
0.0
 11
35.0
 21
0.0000000000000056
 31
0.0
  0
LINE
  5
30
330
1E
100
AcDbEntity
  8
0
100
AcDbLine
 10
31.0
 20
0.0000000000000056
 30
0.0
 11
31.0
 21
30.6
 31
0.0
  0
LINE
  5
31
330
1E
100
AcDbEntity
  8
0
100
AcDbLine
 10
26.808
 20
4.152
 30
0.0
 11
31.0
 21
3.5625
 31
0.0
  0
LINE
  5
32
330
1E
100
AcDbEntity
  8
0
100
AcDbLine
 10
26.808
 20
4.152
 30
0.0
 11
31.0
 21
3.5625
 31
0.0
  0
LINE
  5
33
330
1E
100
AcDbEntity
  8
0
100
AcDbLine
 10
-0.000000000000011
 20
31.0
 30
0.0
 11
30.6
 21
31.0
 31
0.0
  0
LINE
  5
34
330
1E
100
AcDbEntity
  8
0
100
AcDbLine
 10
-0.0000000000000084
 20
31.0
 30
0.0
 11
-0.0000000000000084
 21
35.0
 31
0.0
  0
LINE
  5
35
330
1E
100
AcDbEntity
  8
0
100
AcDbLine
 10
-0.0000000000000084
 20
31.0
 30
0.0
 11
30.6
 21
31.0
 31
0.0
  0
LINE
  5
36
330
1E
100
AcDbEntity
  8
0
100
AcDbLine
 10
-0.0000000000000084
 20
31.0
 30
0.0
 11
0.499999999999992
 21
31.5
 31
0.0
  0
LINE
  5
37
330
1E
100
AcDbEntity
  8
0
100
AcDbLine
 10
-0.000000000000011
 20
39.0
 30
0.0
 11
30.6
 21
39.0
 31
0.0
  0
LINE
  5
38
330
1E
100
AcDbEntity
  8
0
100
AcDbLine
 10
-0.0000000000000084
 20
39.0
 30
0.0
 11
-0.0000000000000084
 21
35.0
 31
0.0
  0
LINE
  5
39
330
1E
100
AcDbEntity
  8
0
100
AcDbLine
 10
-0.0000000000000084
 20
39.0
 30
0.0
 11
30.6
 21
39.0
 31
0.0
  0
LINE
  5
3A
330
1E
100
AcDbEntity
  8
0
100
AcDbLine
 10
-0.0000000000000084
 20
39.0
 30
0.0
 11
0.499999999999992
 21
38.5
 31
0.0
  0
LINE
  5
3B
330
1E
100
AcDbEntity
  8
0
100
AcDbLine
 10
0.499999999999992
 20
31.5
 30
0.0
 11
31.2
 21
31.5
 31
0.0
  0
LINE
  5
3C
330
1E
100
AcDbEntity
  8
0
100
AcDbLine
 10
0.499999999999992
 20
38.5
 30
0.0
 11
31.2
 21
38.5
 31
0.0
  0
LINE
  5
3D
330
1E
100
AcDbEntity
  8
0
100
AcDbLine
 10
0.499999999999992
 20
38.5
 30
0.0
 11
0.499999999999992
 21
35.0
 31
0.0
  0
LINE
  5
3E
330
1E
100
AcDbEntity
  8
0
100
AcDbLine
 10
0.499999999999992
 20
38.5
 30
0.0
 11
31.2
 21
38.5
 31
0.0
  0
LINE
  5
3F
330
1E
100
AcDbEntity
  8
0
100
AcDbLine
 10
0.499999999999992
 20
35.0
 30
0.0
 11
0.499999999999992
 21
31.5
 31
0.0
  0
LINE
  5
40
330
1E
100
AcDbEntity
  8
0
100
AcDbLine
 10
0.499999999999992
 20
35.0
 30
0.0
 11
0.499999999999992
 21
38.5
 31
0.0
  0
LINE
  5
41
330
1E
100
AcDbEntity
  8
0
100
AcDbLine
 10
0.499999999999992
 20
31.5
 30
0.0
 11
0.499999999999992
 21
35.0
 31
0.0
  0
LINE
  5
42
330
1E
100
AcDbEntity
  8
0
100
AcDbLine
 10
0.499999999999992
 20
31.5
 30
0.0
 11
31.2
 21
31.5
 31
0.0
  0
LINE
  5
43
330
1E
100
AcDbEntity
  8
0
100
AcDbLine
 10
-0.0000000000000084
 20
35.0
 30
0.0
 11
-0.0000000000000084
 21
31.0
 31
0.0
  0
LINE
  5
44
330
1E
100
AcDbEntity
  8
0
100
AcDbLine
 10
-0.0000000000000084
 20
35.0
 30
0.0
 11
-0.0000000000000084
 21
39.0
 31
0.0
  0
LINE
  5
45
330
1E
100
AcDbEntity
  8
0
100
AcDbLine
 10
3.56249999999999
 20
31.0
 30
0.0
 11
4.15199999999999
 21
26.808
 31
0.0
  0
LINE
  5
46
330
1E
100
AcDbEntity
  8
0
100
AcDbLine
 10
4.15199999999999
 20
26.808
 30
0.0
 11
7.22399999999999
 21
19.128
 31
0.0
  0
LINE
  5
47
330
1E
100
AcDbEntity
  8
0
100
AcDbLine
 10
3.56249999999999
 20
39.0
 30
0.0
 11
4.15199999999999
 21
43.192
 31
0.0
  0
LINE
  5
48
330
1E
100
AcDbEntity
  8
0
100
AcDbLine
 10
4.33942857142856
 20
31.0
 30
0.0
 11
4.91999999999999
 21
26.93599999999999
 31
0.0
  0
LINE
  5
49
330
1E
100
AcDbEntity
  8
0
100
AcDbLine
 10
4.91999999999999
 20
26.93599999999999
 30
0.0
 11
7.99199999999999
 21
19.512
 31
0.0
  0
LINE
  5
4A
330
1E
100
AcDbEntity
  8
0
100
AcDbLine
 10
4.33942857142856
 20
39.0
 30
0.0
 11
4.91999999999999
 21
43.06399999999999
 31
0.0
  0
LINE
  5
4B
330
1E
100
AcDbEntity
  8
0
100
AcDbLine
 10
10.19542857142859
 20
31.0
 30
0.0
 11
10.56
 21
28.448
 31
0.0
  0
LINE
  5
4C
330
1E
100
AcDbEntity
  8
0
100
AcDbLine
 10
10.19542857142859
 20
31.0
 30
0.0
 11
10.56
 21
28.448
 31
0.0
  0
LINE
  5
4D
330
1E
100
AcDbEntity
  8
0
100
AcDbLine
 10
9.935999999999991
 20
28.344
 30
0.0
 11
12.432
 21
22.10399999999999
 31
0.0
  0
LINE
  5
4E
330
1E
100
AcDbEntity
  8
0
100
AcDbLine
 10
9.562499999999991
 20
31.0
 30
0.0
 11
9.935999999999991
 21
28.344
 31
0.0
  0
LINE
  5
4F
330
1E
100
AcDbEntity
  8
0
100
AcDbLine
 10
10.56
 20
28.448
 30
0.0
 11
13.056
 21
22.416
 31
0.0
  0
LINE
  5
50
330
1E
100
AcDbEntity
  8
0
100
AcDbLine
 10
10.19542857142859
 20
39.0
 30
0.0
 11
10.56
 21
41.55199999999999
 31
0.0
  0
LINE
  5
51
330
1E
100
AcDbEntity
  8
0
100
AcDbLine
 10
10.56
 20
41.55199999999999
 30
0.0
 11
13.056
 21
47.58399999999999
 31
0.0
  0
LINE
  5
52
330
1E
100
AcDbEntity
  8
0
100
AcDbLine
 10
9.935999999999991
 20
41.656
 30
0.0
 11
12.432
 21
47.896
 31
0.0
  0
LINE
  5
53
330
1E
100
AcDbEntity
  8
0
100
AcDbLine
 10
9.562499999999991
 20
39.0
 30
0.0
 11
9.935999999999991
 21
41.656
 31
0.0
  0
LINE
  5
54
330
1E
100
AcDbEntity
  8
0
100
AcDbLine
 10
7.99199999999999
 20
19.512
 30
0.0
 11
12.984
 21
12.984
 31
0.0
  0
LINE
  5
55
330
1E
100
AcDbEntity
  8
0
100
AcDbLine
 10
12.344
 20
12.344
 30
0.0
 11
19.128
 21
7.224
 31
0.0
  0
LINE
  5
56
330
1E
100
AcDbEntity
  8
0
100
AcDbLine
 10
7.22399999999999
 20
19.128
 30
0.0
 11
12.344
 21
12.344
 31
0.0
  0
LINE
  5
57
330
1E
100
AcDbEntity
  8
0
100
AcDbLine
 10
7.22399999999999
 20
19.128
 30
0.0
 11
12.344
 21
12.344
 31
0.0
  0
LINE
  5
58
330
1E
100
AcDbEntity
  8
0
100
AcDbLine
 10
12.344
 20
12.344
 30
0.0
 11
19.128
 21
7.224
 31
0.0
  0
LINE
  5
59
330
1E
100
AcDbEntity
  8
0
100
AcDbLine
 10
4.91999999999999
 20
43.06399999999999
 30
0.0
 11
7.99199999999999
 21
50.48799999999999
 31
0.0
  0
LINE
  5
5A
330
1E
100
AcDbEntity
  8
0
100
AcDbLine
 10
7.99199999999999
 20
50.48799999999999
 30
0.0
 11
12.984
 21
57.016
 31
0.0
  0
LINE
  5
5B
330
1E
100
AcDbEntity
  8
0
100
AcDbLine
 10
4.15199999999999
 20
43.192
 30
0.0
 11
7.22399999999999
 21
50.872
 31
0.0
  0
LINE
  5
5C
330
1E
100
AcDbEntity
  8
0
100
AcDbLine
 10
7.22399999999999
 20
50.872
 30
0.0
 11
12.344
 21
57.656
 31
0.0
  0
LINE
  5
5D
330
1E
100
AcDbEntity
  8
0
100
AcDbLine
 10
12.432
 20
22.10399999999999
 30
0.0
 11
16.592
 21
16.592
 31
0.0
  0
LINE
  5
5E
330
1E
100
AcDbEntity
  8
0
100
AcDbLine
 10
12.432
 20
47.896
 30
0.0
 11
16.592
 21
53.408
 31
0.0
  0
LINE
  5
5F
330
1E
100
AcDbEntity
  8
0
100
AcDbLine
 10
17.112
 20
17.112
 30
0.0
 11
22.416
 21
13.056
 31
0.0
  0
LINE
  5
60
330
1E
100
AcDbEntity
  8
0
100
AcDbLine
 10
13.056
 20
22.416
 30
0.0
 11
17.112
 21
17.112
 31
0.0
  0
LINE
  5
61
330
1E
100
AcDbEntity
  8
0
100
AcDbLine
 10
16.592
 20
16.592
 30
0.0
 11
22.10399999999999
 21
12.432
 31
0.0
  0
LINE
  5
62
330
1E
100
AcDbEntity
  8
0
100
AcDbLine
 10
18.0034285714286
 20
31.0
 30
0.0
 11
18.07999999999999
 21
30.464
 31
0.0
  0
LINE
  5
63
330
1E
100
AcDbEntity
  8
0
100
AcDbLine
 10
18.07999999999999
 20
30.464
 30
0.0
 11
19.808
 21
26.288
 31
0.0
  0
LINE
  5
64
330
1E
100
AcDbEntity
  8
0
100
AcDbLine
 10
17.648
 20
30.392
 30
0.0
 11
19.37599999999999
 21
26.072
 31
0.0
  0
LINE
  5
65
330
1E
100
AcDbEntity
  8
0
100
AcDbLine
 10
18.0034285714286
 20
39.0
 30
0.0
 11
18.07999999999999
 21
39.536
 31
0.0
  0
LINE
  5
66
330
1E
100
AcDbEntity
  8
0
100
AcDbLine
 10
18.07999999999999
 20
39.536
 30
0.0
 11
19.808
 21
43.71199999999999
 31
0.0
  0
LINE
  5
67
330
1E
100
AcDbEntity
  8
0
100
AcDbLine
 10
17.112
 20
52.88800000000001
 30
0.0
 11
22.416
 21
56.94399999999999
 31
0.0
  0
LINE
  5
68
330
1E
100
AcDbEntity
  8
0
100
AcDbLine
 10
13.056
 20
47.58399999999999
 30
0.0
 11
17.112
 21
52.88800000000001
 31
0.0
  0
LINE
  5
69
330
1E
100
AcDbEntity
  8
0
100
AcDbLine
 10
16.592
 20
53.408
 30
0.0
 11
22.10399999999999
 21
57.56800000000001
 31
0.0
  0
LINE
  5
6A
330
1E
100
AcDbEntity
  8
0
100
AcDbLine
 10
17.648
 20
39.608
 30
0.0
 11
19.37599999999999
 21
43.928
 31
0.0
  0
LINE
  5
6B
330
1E
100
AcDbEntity
  8
0
100
AcDbLine
 10
12.984
 20
12.984
 30
0.0
 11
19.512
 21
7.992
 31
0.0
  0
LINE
  5
6C
330
1E
100
AcDbEntity
  8
0
100
AcDbLine
 10
19.128
 20
7.224
 30
0.0
 11
26.808
 21
4.152
 31
0.0
  0
LINE
  5
6D
330
1E
100
AcDbEntity
  8
0
100
AcDbLine
 10
19.37599999999999
 20
43.928
 30
0.0
 11
22.256
 21
47.74399999999999
 31
0.0
  0
LINE
  5
6E
330
1E
100
AcDbEntity
  8
0
100
AcDbLine
 10
19.512
 20
7.992
 30
0.0
 11
26.93599999999999
 21
4.919999999999999
 31
0.0
  0
LINE
  5
6F
330
1E
100
AcDbEntity
  8
0
100
AcDbLine
 10
19.128
 20
7.224
 30
0.0
 11
26.808
 21
4.152
 31
0.0
  0
LINE
  5
70
330
1E
100
AcDbEntity
  8
0
100
AcDbLine
 10
12.984
 20
57.016
 30
0.0
 11
19.512
 21
62.008
 31
0.0
  0
LINE
  5
71
330
1E
100
AcDbEntity
  8
0
100
AcDbLine
 10
28.344
 20
9.935999999999999
 30
0.0
 11
31.0
 21
9.5625
 31
0.0
  0
LINE
  5
72
330
1E
100
AcDbEntity
  8
0
100
AcDbLine
 10
28.448
 20
10.56
 30
0.0
 11
31.0
 21
10.19542857142859
 31
0.0
  0
LINE
  5
73
330
1E
100
AcDbEntity
  8
0
100
AcDbLine
 10
22.416
 20
13.056
 30
0.0
 11
28.448
 21
10.56
 31
0.0
  0
LINE
  5
74
330
1E
100
AcDbEntity
  8
0
100
AcDbLine
 10
22.10399999999999
 20
12.432
 30
0.0
 11
28.344
 21
9.935999999999999
 31
0.0
  0
LINE
  5
75
330
1E
100
AcDbEntity
  8
0
100
AcDbLine
 10
39.0
 20
9.5625
 30
0.0
 11
41.656
 21
9.935999999999999
 31
0.0
  0
LINE
  5
76
330
1E
100
AcDbEntity
  8
0
100
AcDbLine
 10
39.0
 20
10.19542857142859
 30
0.0
 11
41.55199999999999
 21
10.56
 31
0.0
  0
LINE
  5
77
330
1E
100
AcDbEntity
  8
0
100
AcDbLine
 10
30.392
 20
17.648
 30
0.0
 11
31.0
 21
17.5625
 31
0.0
  0
LINE
  5
78
330
1E
100
AcDbEntity
  8
0
100
AcDbLine
 10
19.808
 20
26.288
 30
0.0
 11
22.616
 21
22.616
 31
0.0
  0
LINE
  5
79
330
1E
100
AcDbEntity
  8
0
100
AcDbLine
 10
22.616
 20
22.616
 30
0.0
 11
26.288
 21
19.808
 31
0.0
  0
LINE
  5
7A
330
1E
100
AcDbEntity
  8
0
100
AcDbLine
 10
22.256
 20
22.256
 30
0.0
 11
26.072
 21
19.37599999999999
 31
0.0
  0
LINE
  5
7B
330
1E
100
AcDbEntity
  8
0
100
AcDbLine
 10
19.808
 20
43.71199999999999
 30
0.0
 11
22.616
 21
47.38399999999999
 31
0.0
  0
LINE
  5
7C
330
1E
100
AcDbEntity
  8
0
100
AcDbLine
 10
26.072
 20
19.37599999999999
 30
0.0
 11
30.392
 21
17.648
 31
0.0
  0
LINE
  5
7D
330
1E
100
AcDbEntity
  8
0
100
AcDbLine
 10
22.616
 20
47.38399999999999
 30
0.0
 11
26.288
 21
50.192
 31
0.0
  0
LINE
  5
7E
330
1E
100
AcDbEntity
  8
0
100
AcDbLine
 10
22.256
 20
47.74399999999999
 30
0.0
 11
26.072
 21
50.624
 31
0.0
  0
LINE
  5
7F
330
1E
100
AcDbEntity
  8
0
100
AcDbLine
 10
26.288
 20
19.808
 30
0.0
 11
30.464
 21
18.07999999999999
 31
0.0
  0
LINE
  5
80
330
1E
100
AcDbEntity
  8
0
100
AcDbLine
 10
30.6
 20
39.0
 30
0.0
 11
30.8
 21
39.2
 31
0.0
  0
LINE
  5
81
330
1E
100
AcDbEntity
  8
0
100
AcDbLine
 10
39.0
 20
30.6
 30
0.0
 11
39.2
 21
30.8
 31
0.0
  0
LINE
  5
82
330
1E
100
AcDbEntity
  8
0
100
AcDbLine
 10
39.0
 20
30.6
 30
0.0
 11
39.0
 21
0.0000000000000078
 31
0.0
  0
LINE
  5
83
330
1E
100
AcDbEntity
  8
0
100
AcDbLine
 10
39.0
 20
30.6
 30
0.0
 11
39.2
 21
30.8
 31
0.0
  0
LINE
  5
84
330
1E
100
AcDbEntity
  8
0
100
AcDbLine
 10
31.0
 20
30.6
 30
0.0
 11
31.0
 21
0.0000000000000039
 31
0.0
  0
LINE
  5
85
330
1E
100
AcDbEntity
  8
0
100
AcDbLine
 10
31.0
 20
30.6
 30
0.0
 11
31.0
 21
0.0000000000000078
 31
0.0
  0
LINE
  5
86
330
1E
100
AcDbEntity
  8
0
100
AcDbLine
 10
30.8
 20
39.2
 30
0.0
 11
31.0
 21
39.39999999999999
 31
0.0
  0
LINE
  5
87
330
1E
100
AcDbEntity
  8
0
100
AcDbLine
 10
38.5
 20
31.2
 30
0.0
 11
38.5
 21
0.5000000000000061
 31
0.0
  0
LINE
  5
88
330
1E
100
AcDbEntity
  8
0
100
AcDbLine
 10
31.5
 20
38.79999999999999
 30
0.0
 11
31.5
 21
69.5
 31
0.0
  0
LINE
  5
89
330
1E
100
AcDbEntity
  8
0
100
AcDbLine
 10
31.0
 20
39.39999999999999
 30
0.0
 11
31.0
 21
70.0
 31
0.0
  0
LINE
  5
8A
330
1E
100
AcDbEntity
  8
0
100
AcDbLine
 10
38.5
 20
38.79999999999999
 30
0.0
 11
38.5
 21
69.5
 31
0.0
  0
LINE
  5
8B
330
1E
100
AcDbEntity
  8
0
100
AcDbLine
 10
38.79999999999999
 20
38.5
 30
0.0
 11
69.5
 21
38.5
 31
0.0
  0
LINE
  5
8C
330
1E
100
AcDbEntity
  8
0
100
AcDbLine
 10
39.0
 20
39.39999999999999
 30
0.0
 11
39.2
 21
39.2
 31
0.0
  0
LINE
  5
8D
330
1E
100
AcDbEntity
  8
0
100
AcDbLine
 10
39.0
 20
39.39999999999999
 30
0.0
 11
39.0
 21
70.0
 31
0.0
  0
LINE
  5
8E
330
1E
100
AcDbEntity
  8
0
100
AcDbLine
 10
38.79999999999999
 20
31.5
 30
0.0
 11
69.5
 21
31.5
 31
0.0
  0
LINE
  5
8F
330
1E
100
AcDbEntity
  8
0
100
AcDbLine
 10
31.5
 20
31.2
 30
0.0
 11
31.5
 21
0.5000000000000061
 31
0.0
  0
LINE
  5
90
330
1E
100
AcDbEntity
  8
0
100
AcDbLine
 10
30.8
 20
30.8
 30
0.0
 11
31.0
 21
30.6
 31
0.0
  0
LINE
  5
91
330
1E
100
AcDbEntity
  8
0
100
AcDbLine
 10
30.8
 20
30.8
 30
0.0
 11
31.0
 21
30.6
 31
0.0
  0
LINE
  5
92
330
1E
100
AcDbEntity
  8
0
100
AcDbLine
 10
30.6
 20
31.0
 30
0.0
 11
30.8
 21
30.8
 31
0.0
  0
LINE
  5
93
330
1E
100
AcDbEntity
  8
0
100
AcDbLine
 10
30.6
 20
31.0
 30
0.0
 11
30.8
 21
30.8
 31
0.0
  0
LINE
  5
94
330
1E
100
AcDbEntity
  8
0
100
AcDbLine
 10
30.464
 20
18.07999999999999
 30
0.0
 11
31.0
 21
18.0034285714286
 31
0.0
  0
LINE
  5
95
330
1E
100
AcDbEntity
  8
0
100
AcDbLine
 10
26.288
 20
50.192
 30
0.0
 11
30.464
 21
51.92
 31
0.0
  0
LINE
  5
96
330
1E
100
AcDbEntity
  8
0
100
AcDbLine
 10
30.464
 20
51.92
 30
0.0
 11
31.0
 21
51.99657142857139
 31
0.0
  0
LINE
  5
97
330
1E
100
AcDbEntity
  8
0
100
AcDbLine
 10
26.072
 20
50.624
 30
0.0
 11
30.392
 21
52.35199999999999
 31
0.0
  0
LINE
  5
98
330
1E
100
AcDbEntity
  8
0
100
AcDbLine
 10
22.416
 20
56.94399999999999
 30
0.0
 11
28.448
 21
59.43999999999999
 31
0.0
  0
LINE
  5
99
330
1E
100
AcDbEntity
  8
0
100
AcDbLine
 10
28.448
 20
59.43999999999999
 30
0.0
 11
31.0
 21
59.80457142857139
 31
0.0
  0
LINE
  5
9A
330
1E
100
AcDbEntity
  8
0
100
AcDbLine
 10
28.344
 20
60.06399999999999
 30
0.0
 11
31.0
 21
60.4375
 31
0.0
  0
LINE
  5
9B
330
1E
100
AcDbEntity
  8
0
100
AcDbLine
 10
22.10399999999999
 20
57.56800000000001
 30
0.0
 11
28.344
 21
60.06399999999999
 31
0.0
  0
LINE
  5
9C
330
1E
100
AcDbEntity
  8
0
100
AcDbLine
 10
39.0
 20
59.80457142857139
 30
0.0
 11
41.55199999999999
 21
59.43999999999999
 31
0.0
  0
LINE
  5
9D
330
1E
100
AcDbEntity
  8
0
100
AcDbLine
 10
39.0
 20
60.4375
 30
0.0
 11
41.656
 21
60.06399999999999
 31
0.0
  0
LINE
  5
9E
330
1E
100
AcDbEntity
  8
0
100
AcDbLine
 10
30.392
 20
52.35199999999999
 30
0.0
 11
31.0
 21
52.4375
 31
0.0
  0
LINE
  5
9F
330
1E
100
AcDbEntity
  8
0
100
AcDbLine
 10
39.0
 20
51.99657142857139
 30
0.0
 11
39.536
 21
51.92
 31
0.0
  0
LINE
  5
A0
330
1E
100
AcDbEntity
  8
0
100
AcDbLine
 10
39.0
 20
52.4375
 30
0.0
 11
39.608
 21
52.35199999999999
 31
0.0
  0
LINE
  5
A1
330
1E
100
AcDbEntity
  8
0
100
AcDbLine
 10
39.0
 20
18.0034285714286
 30
0.0
 11
39.536
 21
18.07999999999999
 31
0.0
  0
LINE
  5
A2
330
1E
100
AcDbEntity
  8
0
100
AcDbLine
 10
39.0
 20
17.5625
 30
0.0
 11
39.608
 21
17.648
 31
0.0
  0
LINE
  5
A3
330
1E
100
AcDbEntity
  8
0
100
AcDbLine
 10
26.93599999999999
 20
4.919999999999999
 30
0.0
 11
31.0
 21
4.339428571428569
 31
0.0
  0
LINE
  5
A4
330
1E
100
AcDbEntity
  8
0
100
AcDbLine
 10
26.93599999999999
 20
4.919999999999999
 30
0.0
 11
31.0
 21
4.339428571428569
 31
0.0
  0
LINE
  5
A5
330
1E
100
AcDbEntity
  8
0
100
AcDbLine
 10
19.512
 20
62.008
 30
0.0
 11
26.93599999999999
 21
65.08
 31
0.0
  0
LINE
  5
A6
330
1E
100
AcDbEntity
  8
0
100
AcDbLine
 10
26.93599999999999
 20
65.08
 30
0.0
 11
31.0
 21
65.6605714285714
 31
0.0
  0
LINE
  5
A7
330
1E
100
AcDbEntity
  8
0
100
AcDbLine
 10
26.93599999999999
 20
65.08
 30
0.0
 11
31.0
 21
65.6605714285714
 31
0.0
  0
LINE
  5
A8
330
1E
100
AcDbEntity
  8
0
100
AcDbLine
 10
19.128
 20
62.776
 30
0.0
 11
26.808
 21
65.848
 31
0.0
  0
LINE
  5
A9
330
1E
100
AcDbEntity
  8
0
100
AcDbLine
 10
12.344
 20
57.656
 30
0.0
 11
19.128
 21
62.776
 31
0.0
  0
LINE
  5
AA
330
1E
100
AcDbEntity
  8
0
100
AcDbLine
 10
31.5
 20
69.5
 30
0.0
 11
35.0
 21
69.5
 31
0.0
  0
LINE
  5
AB
330
1E
100
AcDbEntity
  8
0
100
AcDbLine
 10
31.5
 20
69.5
 30
0.0
 11
31.5
 21
38.79999999999999
 31
0.0
  0
LINE
  5
AC
330
1E
100
AcDbEntity
  8
0
100
AcDbLine
 10
31.0
 20
70.0
 30
0.0
 11
35.0
 21
70.0
 31
0.0
  0
LINE
  5
AD
330
1E
100
AcDbEntity
  8
0
100
AcDbLine
 10
31.0
 20
70.0
 30
0.0
 11
31.0
 21
39.39999999999999
 31
0.0
  0
LINE
  5
AE
330
1E
100
AcDbEntity
  8
0
100
AcDbLine
 10
31.0
 20
70.0
 30
0.0
 11
31.5
 21
69.5
 31
0.0
  0
LINE
  5
AF
330
1E
100
AcDbEntity
  8
0
100
AcDbLine
 10
35.0
 20
69.5
 30
0.0
 11
38.5
 21
69.5
 31
0.0
  0
LINE
  5
B0
330
1E
100
AcDbEntity
  8
0
100
AcDbLine
 10
38.5
 20
69.5
 30
0.0
 11
39.0
 21
70.0
 31
0.0
  0
LINE
  5
B1
330
1E
100
AcDbEntity
  8
0
100
AcDbLine
 10
38.5
 20
69.5
 30
0.0
 11
38.5
 21
38.79999999999999
 31
0.0
  0
LINE
  5
B2
330
1E
100
AcDbEntity
  8
0
100
AcDbLine
 10
39.0
 20
70.0
 30
0.0
 11
39.0
 21
39.39999999999999
 31
0.0
  0
LINE
  5
B3
330
1E
100
AcDbEntity
  8
0
100
AcDbLine
 10
35.0
 20
70.0
 30
0.0
 11
39.0
 21
70.0
 31
0.0
  0
LINE
  5
B4
330
1E
100
AcDbEntity
  8
0
100
AcDbLine
 10
26.808
 20
65.848
 30
0.0
 11
31.0
 21
66.4375
 31
0.0
  0
LINE
  5
B5
330
1E
100
AcDbEntity
  8
0
100
AcDbLine
 10
39.0
 20
65.6605714285714
 30
0.0
 11
43.06399999999999
 21
65.08
 31
0.0
  0
LINE
  5
B6
330
1E
100
AcDbEntity
  8
0
100
AcDbLine
 10
39.0
 20
65.6605714285714
 30
0.0
 11
43.06399999999999
 21
65.08
 31
0.0
  0
LINE
  5
B7
330
1E
100
AcDbEntity
  8
0
100
AcDbLine
 10
39.0
 20
66.4375
 30
0.0
 11
43.192
 21
65.848
 31
0.0
  0
LINE
  5
B8
330
1E
100
AcDbEntity
  8
0
100
AcDbLine
 10
39.0
 20
4.339428571428569
 30
0.0
 11
43.06399999999999
 21
4.919999999999999
 31
0.0
  0
LINE
  5
B9
330
1E
100
AcDbEntity
  8
0
100
AcDbLine
 10
39.0
 20
4.339428571428569
 30
0.0
 11
43.06399999999999
 21
4.919999999999999
 31
0.0
  0
LINE
  5
BA
330
1E
100
AcDbEntity
  8
0
100
AcDbLine
 10
39.0
 20
3.5625
 30
0.0
 11
43.192
 21
4.152
 31
0.0
  0
LINE
  5
BB
330
1E
100
AcDbEntity
  8
0
100
AcDbLine
 10
159.0
 20
0.0000000000000063
 30
0.0
 11
159.4999999999999
 21
0.5000000000000061
 31
0.0
  0
LINE
  5
BC
330
1E
100
AcDbEntity
  8
0
100
AcDbLine
 10
159.0
 20
0.0000000000000063
 30
0.0
 11
163.0
 21
0.0000000000000063
 31
0.0
  0
LINE
  5
BD
330
1E
100
AcDbEntity
  8
0
100
AcDbLine
 10
159.0
 20
0.0000000000000063
 30
0.0
 11
159.4999999999999
 21
0.5000000000000061
 31
0.0
  0
LINE
  5
BE
330
1E
100
AcDbEntity
  8
0
100
AcDbLine
 10
159.0
 20
0.0000000000000063
 30
0.0
 11
159.0
 21
30.6
 31
0.0
  0
LINE
  5
BF
330
1E
100
AcDbEntity
  8
0
100
AcDbLine
 10
159.0
 20
0.0000000000000056
 30
0.0
 11
163.0
 21
0.0000000000000056
 31
0.0
  0
LINE
  5
C0
330
1E
100
AcDbEntity
  8
0
100
AcDbLine
 10
159.0
 20
0.0000000000000056
 30
0.0
 11
159.0
 21
30.6
 31
0.0
  0
LINE
  5
C1
330
1E
100
AcDbEntity
  8
0
100
AcDbLine
 10
159.4999999999999
 20
0.5000000000000061
 30
0.0
 11
163.0
 21
0.5000000000000061
 31
0.0
  0
LINE
  5
C2
330
1E
100
AcDbEntity
  8
0
100
AcDbLine
 10
159.4999999999999
 20
0.5000000000000061
 30
0.0
 11
159.4999999999999
 21
31.2
 31
0.0
  0
LINE
  5
C3
330
1E
100
AcDbEntity
  8
0
100
AcDbLine
 10
163.0
 20
0.5000000000000061
 30
0.0
 11
166.5
 21
0.5000000000000061
 31
0.0
  0
LINE
  5
C4
330
1E
100
AcDbEntity
  8
0
100
AcDbLine
 10
163.0
 20
0.0000000000000063
 30
0.0
 11
167.0
 21
0.0000000000000063
 31
0.0
  0
LINE
  5
C5
330
1E
100
AcDbEntity
  8
0
100
AcDbLine
 10
166.5
 20
0.5000000000000061
 30
0.0
 11
167.0
 21
0.0000000000000063
 31
0.0
  0
LINE
  5
C6
330
1E
100
AcDbEntity
  8
0
100
AcDbLine
 10
166.5
 20
0.5000000000000061
 30
0.0
 11
167.0
 21
0.0000000000000063
 31
0.0
  0
LINE
  5
C7
330
1E
100
AcDbEntity
  8
0
100
AcDbLine
 10
166.5
 20
0.5000000000000061
 30
0.0
 11
166.5
 21
31.2
 31
0.0
  0
LINE
  5
C8
330
1E
100
AcDbEntity
  8
0
100
AcDbLine
 10
167.0
 20
0.0000000000000063
 30
0.0
 11
167.0
 21
30.6
 31
0.0
  0
LINE
  5
C9
330
1E
100
AcDbEntity
  8
0
100
AcDbLine
 10
163.0
 20
0.0000000000000056
 30
0.0
 11
167.0
 21
0.0000000000000056
 31
0.0
  0
LINE
  5
CA
330
1E
100
AcDbEntity
  8
0
100
AcDbLine
 10
154.8079999999999
 20
4.152
 30
0.0
 11
159.0
 21
3.5625
 31
0.0
  0
LINE
  5
CB
330
1E
100
AcDbEntity
  8
0
100
AcDbLine
 10
167.0
 20
3.5625
 30
0.0
 11
171.192
 21
4.152
 31
0.0
  0
LINE
  5
CC
330
1E
100
AcDbEntity
  8
0
100
AcDbLine
 10
171.192
 20
4.152
 30
0.0
 11
178.872
 21
7.224
 31
0.0
  0
LINE
  5
CD
330
1E
100
AcDbEntity
  8
0
100
AcDbLine
 10
41.656
 20
9.935999999999999
 30
0.0
 11
47.896
 21
12.432
 31
0.0
  0
LINE
  5
CE
330
1E
100
AcDbEntity
  8
0
100
AcDbLine
 10
41.55199999999999
 20
10.56
 30
0.0
 11
47.58399999999999
 21
13.056
 31
0.0
  0
LINE
  5
CF
330
1E
100
AcDbEntity
  8
0
100
AcDbLine
 10
39.2
 20
39.2
 30
0.0
 11
39.39999999999999
 21
39.0
 31
0.0
  0
LINE
  5
D0
330
1E
100
AcDbEntity
  8
0
100
AcDbLine
 10
39.39999999999999
 20
39.0
 30
0.0
 11
70.0
 21
39.0
 31
0.0
  0
LINE
  5
D1
330
1E
100
AcDbEntity
  8
0
100
AcDbLine
 10
39.2
 20
30.8
 30
0.0
 11
39.39999999999999
 21
31.0
 31
0.0
  0
LINE
  5
D2
330
1E
100
AcDbEntity
  8
0
100
AcDbLine
 10
39.2
 20
30.8
 30
0.0
 11
39.39999999999999
 21
31.0
 31
0.0
  0
LINE
  5
D3
330
1E
100
AcDbEntity
  8
0
100
AcDbLine
 10
39.39999999999999
 20
31.0
 30
0.0
 11
70.0
 21
31.0
 31
0.0
  0
LINE
  5
D4
330
1E
100
AcDbEntity
  8
0
100
AcDbLine
 10
39.536
 20
51.92
 30
0.0
 11
43.71199999999999
 21
50.192
 31
0.0
  0
LINE
  5
D5
330
1E
100
AcDbEntity
  8
0
100
AcDbLine
 10
41.55199999999999
 20
59.43999999999999
 30
0.0
 11
47.58399999999999
 21
56.94399999999999
 31
0.0
  0
LINE
  5
D6
330
1E
100
AcDbEntity
  8
0
100
AcDbLine
 10
41.656
 20
60.06399999999999
 30
0.0
 11
47.896
 21
57.56800000000001
 31
0.0
  0
LINE
  5
D7
330
1E
100
AcDbEntity
  8
0
100
AcDbLine
 10
39.608
 20
52.35199999999999
 30
0.0
 11
43.928
 21
50.624
 31
0.0
  0
LINE
  5
D8
330
1E
100
AcDbEntity
  8
0
100
AcDbLine
 10
39.536
 20
18.07999999999999
 30
0.0
 11
43.71199999999999
 21
19.808
 31
0.0
  0
LINE
  5
D9
330
1E
100
AcDbEntity
  8
0
100
AcDbLine
 10
39.608
 20
17.648
 30
0.0
 11
43.928
 21
19.37599999999999
 31
0.0
  0
LINE
  5
DA
330
1E
100
AcDbEntity
  8
0
100
AcDbLine
 10
47.58399999999999
 20
13.056
 30
0.0
 11
52.88800000000001
 21
17.112
 31
0.0
  0
LINE
  5
DB
330
1E
100
AcDbEntity
  8
0
100
AcDbLine
 10
47.38399999999999
 20
47.38399999999999
 30
0.0
 11
50.192
 21
43.71199999999999
 31
0.0
  0
LINE
  5
DC
330
1E
100
AcDbEntity
  8
0
100
AcDbLine
 10
43.71199999999999
 20
50.192
 30
0.0
 11
47.38399999999999
 21
47.38399999999999
 31
0.0
  0
LINE
  5
DD
330
1E
100
AcDbEntity
  8
0
100
AcDbLine
 10
43.928
 20
50.624
 30
0.0
 11
47.74399999999999
 21
47.74399999999999
 31
0.0
  0
LINE
  5
DE
330
1E
100
AcDbEntity
  8
0
100
AcDbLine
 10
47.58399999999999
 20
56.94399999999999
 30
0.0
 11
52.88800000000001
 21
52.88800000000001
 31
0.0
  0
LINE
  5
DF
330
1E
100
AcDbEntity
  8
0
100
AcDbLine
 10
47.74399999999999
 20
47.74399999999999
 30
0.0
 11
50.624
 21
43.928
 31
0.0
  0
LINE
  5
E0
330
1E
100
AcDbEntity
  8
0
100
AcDbLine
 10
47.74399999999999
 20
47.74399999999999
 30
0.0
 11
50.624
 21
43.928
 31
0.0
  0
LINE
  5
E1
330
1E
100
AcDbEntity
  8
0
100
AcDbLine
 10
47.38399999999999
 20
22.616
 30
0.0
 11
50.192
 21
26.288
 31
0.0
  0
LINE
  5
E2
330
1E
100
AcDbEntity
  8
0
100
AcDbLine
 10
43.71199999999999
 20
19.808
 30
0.0
 11
47.38399999999999
 21
22.616
 31
0.0
  0
LINE
  5
E3
330
1E
100
AcDbEntity
  8
0
100
AcDbLine
 10
47.896
 20
12.432
 30
0.0
 11
53.408
 21
16.592
 31
0.0
  0
LINE
  5
E4
330
1E
100
AcDbEntity
  8
0
100
AcDbLine
 10
47.896
 20
57.56800000000001
 30
0.0
 11
53.408
 21
53.408
 31
0.0
  0
LINE
  5
E5
330
1E
100
AcDbEntity
  8
0
100
AcDbLine
 10
47.896
 20
57.56800000000001
 30
0.0
 11
53.408
 21
53.408
 31
0.0
  0
LINE
  5
E6
330
1E
100
AcDbEntity
  8
0
100
AcDbLine
 10
50.192
 20
43.71199999999999
 30
0.0
 11
51.92
 21
39.536
 31
0.0
  0
LINE
  5
E7
330
1E
100
AcDbEntity
  8
0
100
AcDbLine
 10
50.192
 20
26.288
 30
0.0
 11
51.92
 21
30.464
 31
0.0
  0
LINE
  5
E8
330
1E
100
AcDbEntity
  8
0
100
AcDbLine
 10
47.74399999999999
 20
22.256
 30
0.0
 11
50.624
 21
26.072
 31
0.0
  0
LINE
  5
E9
330
1E
100
AcDbEntity
  8
0
100
AcDbLine
 10
50.48799999999999
 20
62.008
 30
0.0
 11
57.016
 21
57.016
 31
0.0
  0
LINE
  5
EA
330
1E
100
AcDbEntity
  8
0
100
AcDbLine
 10
43.06399999999999
 20
65.08
 30
0.0
 11
50.48799999999999
 21
62.008
 31
0.0
  0
LINE
  5
EB
330
1E
100
AcDbEntity
  8
0
100
AcDbLine
 10
43.192
 20
65.848
 30
0.0
 11
50.872
 21
62.776
 31
0.0
  0
LINE
  5
EC
330
1E
100
AcDbEntity
  8
0
100
AcDbLine
 10
50.624
 20
43.928
 30
0.0
 11
52.35199999999999
 21
39.608
 31
0.0
  0
LINE
  5
ED
330
1E
100
AcDbEntity
  8
0
100
AcDbLine
 10
50.624
 20
26.072
 30
0.0
 11
52.35199999999999
 21
30.392
 31
0.0
  0
LINE
  5
EE
330
1E
100
AcDbEntity
  8
0
100
AcDbLine
 10
50.872
 20
62.776
 30
0.0
 11
57.656
 21
57.656
 31
0.0
  0
LINE
  5
EF
330
1E
100
AcDbEntity
  8
0
100
AcDbLine
 10
50.48799999999999
 20
7.992
 30
0.0
 11
57.016
 21
12.984
 31
0.0
  0
LINE
  5
F0
330
1E
100
AcDbEntity
  8
0
100
AcDbLine
 10
43.06399999999999
 20
4.919999999999999
 30
0.0
 11
50.48799999999999
 21
7.992
 31
0.0
  0
LINE
  5
F1
330
1E
100
AcDbEntity
  8
0
100
AcDbLine
 10
51.92
 20
39.536
 30
0.0
 11
51.99657142857139
 21
39.0
 31
0.0
  0
LINE
  5
F2
330
1E
100
AcDbEntity
  8
0
100
AcDbLine
 10
52.88800000000001
 20
17.112
 30
0.0
 11
56.94399999999999
 21
22.416
 31
0.0
  0
LINE
  5
F3
330
1E
100
AcDbEntity
  8
0
100
AcDbLine
 10
56.94399999999999
 20
22.416
 30
0.0
 11
59.43999999999999
 21
28.448
 31
0.0
  0
LINE
  5
F4
330
1E
100
AcDbEntity
  8
0
100
AcDbLine
 10
53.408
 20
16.592
 30
0.0
 11
57.56800000000001
 21
22.10399999999999
 31
0.0
  0
LINE
  5
F5
330
1E
100
AcDbEntity
  8
0
100
AcDbLine
 10
52.88800000000001
 20
52.88800000000001
 30
0.0
 11
56.94399999999999
 21
47.58399999999999
 31
0.0
  0
LINE
  5
F6
330
1E
100
AcDbEntity
  8
0
100
AcDbLine
 10
56.94399999999999
 20
47.58399999999999
 30
0.0
 11
59.43999999999999
 21
41.55199999999999
 31
0.0
  0
LINE
  5
F7
330
1E
100
AcDbEntity
  8
0
100
AcDbLine
 10
53.408
 20
53.408
 30
0.0
 11
57.56800000000001
 21
47.896
 31
0.0
  0
LINE
  5
F8
330
1E
100
AcDbEntity
  8
0
100
AcDbLine
 10
52.35199999999999
 20
39.608
 30
0.0
 11
52.4375
 21
39.0
 31
0.0
  0
LINE
  5
F9
330
1E
100
AcDbEntity
  8
0
100
AcDbLine
 10
51.92
 20
30.464
 30
0.0
 11
51.99657142857139
 21
31.0
 31
0.0
  0
LINE
  5
FA
330
1E
100
AcDbEntity
  8
0
100
AcDbLine
 10
57.016
 20
57.016
 30
0.0
 11
62.008
 21
50.48799999999999
 31
0.0
  0
LINE
  5
FB
330
1E
100
AcDbEntity
  8
0
100
AcDbLine
 10
57.56800000000001
 20
22.10399999999999
 30
0.0
 11
60.06399999999999
 21
28.344
 31
0.0
  0
LINE
  5
FC
330
1E
100
AcDbEntity
  8
0
100
AcDbLine
 10
57.56800000000001
 20
47.896
 30
0.0
 11
60.06399999999999
 21
41.656
 31
0.0
  0
LINE
  5
FD
330
1E
100
AcDbEntity
  8
0
100
AcDbLine
 10
57.656
 20
57.656
 30
0.0
 11
62.776
 21
50.872
 31
0.0
  0
LINE
  5
FE
330
1E
100
AcDbEntity
  8
0
100
AcDbLine
 10
57.016
 20
12.984
 30
0.0
 11
62.008
 21
19.512
 31
0.0
  0
LINE
  5
FF
330
1E
100
AcDbEntity
  8
0
100
AcDbLine
 10
57.656
 20
12.344
 30
0.0
 11
62.776
 21
19.128
 31
0.0
  0
LINE
  5
100
330
1E
100
AcDbEntity
  8
0
100
AcDbLine
 10
50.872
 20
7.224
 30
0.0
 11
57.656
 21
12.344
 31
0.0
  0
LINE
  5
101
330
1E
100
AcDbEntity
  8
0
100
AcDbLine
 10
43.192
 20
4.152
 30
0.0
 11
50.872
 21
7.224
 31
0.0
  0
LINE
  5
102
330
1E
100
AcDbEntity
  8
0
100
AcDbLine
 10
62.008
 20
19.512
 30
0.0
 11
65.08
 21
26.93599999999999
 31
0.0
  0
LINE
  5
103
330
1E
100
AcDbEntity
  8
0
100
AcDbLine
 10
154.8079999999999
 20
4.152
 30
0.0
 11
159.0
 21
3.5625
 31
0.0
  0
LINE
  5
104
330
1E
100
AcDbEntity
  8
0
100
AcDbLine
 10
154.936
 20
4.919999999999999
 30
0.0
 11
159.0
 21
4.339428571428569
 31
0.0
  0
LINE
  5
105
330
1E
100
AcDbEntity
  8
0
100
AcDbLine
 10
147.1279999999999
 20
7.224
 30
0.0
 11
154.8079999999999
 21
4.152
 31
0.0
  0
LINE
  5
106
330
1E
100
AcDbEntity
  8
0
100
AcDbLine
 10
171.064
 20
4.919999999999999
 30
0.0
 11
178.488
 21
7.992
 31
0.0
  0
LINE
  5
107
330
1E
100
AcDbEntity
  8
0
100
AcDbLine
 10
167.0
 20
4.339428571428569
 30
0.0
 11
171.064
 21
4.919999999999999
 31
0.0
  0
LINE
  5
108
330
1E
100
AcDbEntity
  8
0
100
AcDbLine
 10
171.192
 20
4.152
 30
0.0
 11
178.872
 21
7.224
 31
0.0
  0
LINE
  5
109
330
1E
100
AcDbEntity
  8
0
100
AcDbLine
 10
147.1279999999999
 20
7.224
 30
0.0
 11
154.8079999999999
 21
4.152
 31
0.0
  0
LINE
  5
10A
330
1E
100
AcDbEntity
  8
0
100
AcDbLine
 10
147.5119999999999
 20
7.992
 30
0.0
 11
154.936
 21
4.919999999999999
 31
0.0
  0
LINE
  5
10B
330
1E
100
AcDbEntity
  8
0
100
AcDbLine
 10
158.709
 20
9.606869999999998
 30
0.0
 11
159.0
 21
9.56609730337078
 31
0.0
  0
LINE
  5
10C
330
1E
100
AcDbEntity
  8
0
100
AcDbLine
 10
167.0
 20
9.56244761106455
 30
0.0
 11
167.772
 21
9.670999999999999
 31
0.0
  0
LINE
  5
10D
330
1E
100
AcDbEntity
  8
0
100
AcDbLine
 10
167.0
 20
9.566097303370789
 30
0.0
 11
167.2909999999999
 21
9.606869999999998
 31
0.0
  0
LINE
  5
10E
330
1E
100
AcDbEntity
  8
0
100
AcDbLine
 10
158.2279999999999
 20
9.670999999999999
 30
0.0
 11
158.709
 21
9.606869999999998
 31
0.0
  0
LINE
  5
10F
330
1E
100
AcDbEntity
  8
0
100
AcDbLine
 10
158.2279999999999
 20
9.670999999999999
 30
0.0
 11
159.0
 21
9.56244761106455
 31
0.0
  0
LINE
  5
110
330
1E
100
AcDbEntity
  8
0
100
AcDbLine
 10
158.4243720149929
 20
9.64481842552705
 30
0.0
 11
159.0
 21
9.563698296836989
 31
0.0
  0
LINE
  5
111
330
1E
100
AcDbEntity
  8
0
100
AcDbLine
 10
167.772
 20
9.670999999999999
 30
0.0
 11
167.932
 21
9.695039999999998
 31
0.0
  0
LINE
  5
112
330
1E
100
AcDbEntity
  8
0
100
AcDbLine
 10
167.2909999999999
 20
9.606869999999998
 30
0.0
 11
167.772
 21
9.670999999999999
 31
0.0
  0
LINE
  5
113
330
1E
100
AcDbEntity
  8
0
100
AcDbLine
 10
167.0
 20
9.56369829683698
 30
0.0
 11
167.5756279850079
 21
9.644818425527178
 31
0.0
  0
LINE
  5
114
330
1E
100
AcDbEntity
  8
0
100
AcDbLine
 10
158.0679999999999
 20
9.695039999999998
 30
0.0
 11
158.2279999999999
 21
9.670999999999999
 31
0.0
  0
LINE
  5
115
330
1E
100
AcDbEntity
  8
0
100
AcDbLine
 10
157.9959999999999
 20
10.34434999999999
 30
0.0
 11
157.999641911967
 21
17.8049432352134
 31
0.0
  0
LINE
  5
116
330
1E
100
AcDbEntity
  8
0
100
AcDbLine
 10
157.9959999999999
 20
10.34434999999999
 30
0.0
 11
157.999641911967
 21
17.8049432352134
 31
0.0
  0
LINE
  5
117
330
1E
100
AcDbEntity
  8
0
100
AcDbLine
 10
156.4479999999999
 20
10.56
 30
0.0
 11
157.9959999999999
 21
10.3443
 31
0.0
  0
LINE
  5
118
330
1E
100
AcDbEntity
  8
0
100
AcDbLine
 10
157.9959999999999
 20
10.3443
 30
0.0
 11
158.0679999999999
 21
9.695
 31
0.0
  0
LINE
  5
119
330
1E
100
AcDbEntity
  8
0
100
AcDbLine
 10
156.3439999999999
 20
9.935999999999999
 30
0.0
 11
158.0679999999999
 21
9.695
 31
0.0
  0
LINE
  5
11A
330
1E
100
AcDbEntity
  8
0
100
AcDbLine
 10
156.3439999999999
 20
9.935999999999999
 30
0.0
 11
158.221506493507
 21
9.67197564935061
 31
0.0
  0
LINE
  5
11B
330
1E
100
AcDbEntity
  8
0
100
AcDbLine
 10
167.7784935064929
 20
9.67197564935061
 30
0.0
 11
169.6559999999999
 21
9.935999999999999
 31
0.0
  0
LINE
  5
11C
330
1E
100
AcDbEntity
  8
0
100
AcDbLine
 10
168.004
 20
10.3443
 30
0.0
 11
169.552
 21
10.56
 31
0.0
  0
LINE
  5
11D
330
1E
100
AcDbEntity
  8
0
100
AcDbLine
 10
169.552
 20
10.56
 30
0.0
 11
175.584
 21
13.056
 31
0.0
  0
LINE
  5
11E
330
1E
100
AcDbEntity
  8
0
100
AcDbLine
 10
169.6559999999999
 20
9.935999999999999
 30
0.0
 11
175.8959999999999
 21
12.432
 31
0.0
  0
LINE
  5
11F
330
1E
100
AcDbEntity
  8
0
100
AcDbLine
 10
167.932
 20
9.695
 30
0.0
 11
169.6559999999999
 21
9.935999999999999
 31
0.0
  0
LINE
  5
120
330
1E
100
AcDbEntity
  8
0
100
AcDbLine
 10
167.932
 20
9.695
 30
0.0
 11
168.004
 21
10.3443
 31
0.0
  0
LINE
  5
121
330
1E
100
AcDbEntity
  8
0
100
AcDbLine
 10
132.152
 20
26.808
 30
0.0
 11
135.2239999999999
 21
19.128
 31
0.0
  0
LINE
  5
122
330
1E
100
AcDbEntity
  8
0
100
AcDbLine
 10
140.432
 20
22.10399999999999
 30
0.0
 11
144.592
 21
16.592
 31
0.0
  0
LINE
  5
123
330
1E
100
AcDbEntity
  8
0
100
AcDbLine
 10
135.992
 20
19.512
 30
0.0
 11
140.984
 21
12.984
 31
0.0
  0
LINE
  5
124
330
1E
100
AcDbEntity
  8
0
100
AcDbLine
 10
145.1119999999999
 20
17.112
 30
0.0
 11
150.4159999999999
 21
13.056
 31
0.0
  0
LINE
  5
125
330
1E
100
AcDbEntity
  8
0
100
AcDbLine
 10
150.4159999999999
 20
13.056
 30
0.0
 11
156.4479999999999
 21
10.56
 31
0.0
  0
LINE
  5
126
330
1E
100
AcDbEntity
  8
0
100
AcDbLine
 10
144.592
 20
16.592
 30
0.0
 11
150.1039999999999
 21
12.432
 31
0.0
  0
LINE
  5
127
330
1E
100
AcDbEntity
  8
0
100
AcDbLine
 10
150.1039999999999
 20
12.432
 30
0.0
 11
156.3439999999999
 21
9.935999999999999
 31
0.0
  0
LINE
  5
128
330
1E
100
AcDbEntity
  8
0
100
AcDbLine
 10
175.584
 20
13.056
 30
0.0
 11
180.888
 21
17.112
 31
0.0
  0
LINE
  5
129
330
1E
100
AcDbEntity
  8
0
100
AcDbLine
 10
180.888
 20
17.112
 30
0.0
 11
184.944
 21
22.416
 31
0.0
  0
LINE
  5
12A
330
1E
100
AcDbEntity
  8
0
100
AcDbLine
 10
181.4079999999999
 20
16.592
 30
0.0
 11
185.5679999999999
 21
22.10399999999999
 31
0.0
  0
LINE
  5
12B
330
1E
100
AcDbEntity
  8
0
100
AcDbLine
 10
175.8959999999999
 20
12.432
 30
0.0
 11
181.4079999999999
 21
16.592
 31
0.0
  0
LINE
  5
12C
330
1E
100
AcDbEntity
  8
0
100
AcDbLine
 10
167.6079999999999
 20
17.648
 30
0.0
 11
171.9279999999999
 21
19.37599999999999
 31
0.0
  0
LINE
  5
12D
330
1E
100
AcDbEntity
  8
0
100
AcDbLine
 10
158.464
 20
18.07999999999999
 30
0.0
 11
159.0
 21
18.0034285714286
 31
0.0
  0
LINE
  5
12E
330
1E
100
AcDbEntity
  8
0
100
AcDbLine
 10
154.072
 20
19.37599999999999
 30
0.0
 11
157.999641911967
 21
17.8049432352134
 31
0.0
  0
LINE
  5
12F
330
1E
100
AcDbEntity
  8
0
100
AcDbLine
 10
167.5359999999999
 20
18.07999999999999
 30
0.0
 11
171.712
 21
19.808
 31
0.0
  0
LINE
  5
130
330
1E
100
AcDbEntity
  8
0
100
AcDbLine
 10
167.0
 20
18.0034285714286
 30
0.0
 11
167.5359999999999
 21
18.07999999999999
 31
0.0
  0
LINE
  5
131
330
1E
100
AcDbEntity
  8
0
100
AcDbLine
 10
154.2879999999999
 20
19.808
 30
0.0
 11
158.464
 21
18.07999999999999
 31
0.0
  0
LINE
  5
132
330
1E
100
AcDbEntity
  8
0
100
AcDbLine
 10
141.056
 20
22.416
 30
0.0
 11
145.1119999999999
 21
17.112
 31
0.0
  0
LINE
  5
133
330
1E
100
AcDbEntity
  8
0
100
AcDbLine
 10
147.376
 20
26.072
 30
0.0
 11
150.256
 21
22.256
 31
0.0
  0
LINE
  5
134
330
1E
100
AcDbEntity
  8
0
100
AcDbLine
 10
147.808
 20
26.288
 30
0.0
 11
150.616
 21
22.616
 31
0.0
  0
LINE
  5
135
330
1E
100
AcDbEntity
  8
0
100
AcDbLine
 10
150.616
 20
22.616
 30
0.0
 11
154.2879999999999
 21
19.808
 31
0.0
  0
LINE
  5
136
330
1E
100
AcDbEntity
  8
0
100
AcDbLine
 10
147.376
 20
26.072
 30
0.0
 11
150.256
 21
22.256
 31
0.0
  0
LINE
  5
137
330
1E
100
AcDbEntity
  8
0
100
AcDbLine
 10
171.712
 20
19.808
 30
0.0
 11
175.384
 21
22.616
 31
0.0
  0
LINE
  5
138
330
1E
100
AcDbEntity
  8
0
100
AcDbLine
 10
175.384
 20
22.616
 30
0.0
 11
178.192
 21
26.288
 31
0.0
  0
LINE
  5
139
330
1E
100
AcDbEntity
  8
0
100
AcDbLine
 10
178.192
 20
26.288
 30
0.0
 11
179.9199999999999
 21
30.464
 31
0.0
  0
LINE
  5
13A
330
1E
100
AcDbEntity
  8
0
100
AcDbLine
 10
178.624
 20
26.072
 30
0.0
 11
180.3519999999999
 21
30.392
 31
0.0
  0
LINE
  5
13B
330
1E
100
AcDbEntity
  8
0
100
AcDbLine
 10
184.944
 20
22.416
 30
0.0
 11
187.4399999999999
 21
28.448
 31
0.0
  0
LINE
  5
13C
330
1E
100
AcDbEntity
  8
0
100
AcDbLine
 10
178.624
 20
26.072
 30
0.0
 11
180.3519999999999
 21
30.392
 31
0.0
  0
LINE
  5
13D
330
1E
100
AcDbEntity
  8
0
100
AcDbLine
 10
175.744
 20
22.256
 30
0.0
 11
178.624
 21
26.072
 31
0.0
  0
LINE
  5
13E
330
1E
100
AcDbEntity
  8
0
100
AcDbLine
 10
171.9279999999999
 20
19.37599999999999
 30
0.0
 11
175.744
 21
22.256
 31
0.0
  0
LINE
  5
13F
330
1E
100
AcDbEntity
  8
0
100
AcDbLine
 10
168.000358088033
 20
17.8049432352134
 30
0.0
 11
171.9279999999999
 21
19.37599999999999
 31
0.0
  0
LINE
  5
140
330
1E
100
AcDbEntity
  8
0
100
AcDbLine
 10
168.000358088033
 20
17.8049432352134
 30
0.0
 11
168.004
 21
10.34434999999999
 31
0.0
  0
LINE
  5
141
330
1E
100
AcDbEntity
  8
0
100
AcDbLine
 10
140.984
 20
12.984
 30
0.0
 11
147.5119999999999
 21
7.992
 31
0.0
  0
LINE
  5
142
330
1E
100
AcDbEntity
  8
0
100
AcDbLine
 10
140.3439999999999
 20
12.344
 30
0.0
 11
147.1279999999999
 21
7.224
 31
0.0
  0
LINE
  5
143
330
1E
100
AcDbEntity
  8
0
100
AcDbLine
 10
135.2239999999999
 20
19.128
 30
0.0
 11
140.3439999999999
 21
12.344
 31
0.0
  0
LINE
  5
144
330
1E
100
AcDbEntity
  8
0
100
AcDbLine
 10
135.2239999999999
 20
19.128
 30
0.0
 11
140.3439999999999
 21
12.344
 31
0.0
  0
LINE
  5
145
330
1E
100
AcDbEntity
  8
0
100
AcDbLine
 10
140.3439999999999
 20
12.344
 30
0.0
 11
147.1279999999999
 21
7.224
 31
0.0
  0
LINE
  5
146
330
1E
100
AcDbEntity
  8
0
100
AcDbLine
 10
185.5679999999999
 20
22.10399999999999
 30
0.0
 11
188.064
 21
28.344
 31
0.0
  0
LINE
  5
147
330
1E
100
AcDbEntity
  8
0
100
AcDbLine
 10
185.0159999999999
 20
12.984
 30
0.0
 11
190.0079999999999
 21
19.512
 31
0.0
  0
LINE
  5
148
330
1E
100
AcDbEntity
  8
0
100
AcDbLine
 10
178.488
 20
7.992
 30
0.0
 11
185.0159999999999
 21
12.984
 31
0.0
  0
LINE
  5
149
330
1E
100
AcDbEntity
  8
0
100
AcDbLine
 10
185.6559999999999
 20
12.344
 30
0.0
 11
190.7759999999999
 21
19.128
 31
0.0
  0
LINE
  5
14A
330
1E
100
AcDbEntity
  8
0
100
AcDbLine
 10
178.872
 20
7.224
 30
0.0
 11
185.6559999999999
 21
12.344
 31
0.0
  0
LINE
  5
14B
330
1E
100
AcDbEntity
  8
0
100
AcDbLine
 10
190.0079999999999
 20
19.512
 30
0.0
 11
193.0799999999999
 21
26.93599999999999
 31
0.0
  0
LINE
  5
14C
330
1E
100
AcDbEntity
  8
0
100
AcDbLine
 10
193.848
 20
26.808
 30
0.0
 11
194.4374999999999
 21
31.0
 31
0.0
  0
LINE
  5
14D
330
1E
100
AcDbEntity
  8
0
100
AcDbLine
 10
190.7759999999999
 20
19.128
 30
0.0
 11
193.848
 21
26.808
 31
0.0
  0
LINE
  5
14E
330
1E
100
AcDbEntity
  8
0
100
AcDbLine
 10
185.6559999999999
 20
12.344
 30
0.0
 11
190.7759999999999
 21
19.128
 31
0.0
  0
LINE
  5
14F
330
1E
100
AcDbEntity
  8
0
100
AcDbLine
 10
178.872
 20
7.224
 30
0.0
 11
185.6559999999999
 21
12.344
 31
0.0
  0
LINE
  5
150
330
1E
100
AcDbEntity
  8
0
100
AcDbLine
 10
62.776
 20
19.128
 30
0.0
 11
65.848
 21
26.808
 31
0.0
  0
LINE
  5
151
330
1E
100
AcDbEntity
  8
0
100
AcDbLine
 10
59.43999999999999
 20
28.448
 30
0.0
 11
59.80457142857139
 21
31.0
 31
0.0
  0
LINE
  5
152
330
1E
100
AcDbEntity
  8
0
100
AcDbLine
 10
60.06399999999999
 20
28.344
 30
0.0
 11
60.4375
 21
31.0
 31
0.0
  0
LINE
  5
153
330
1E
100
AcDbEntity
  8
0
100
AcDbLine
 10
59.43999999999999
 20
41.55199999999999
 30
0.0
 11
59.80457142857139
 21
39.0
 31
0.0
  0
LINE
  5
154
330
1E
100
AcDbEntity
  8
0
100
AcDbLine
 10
60.06399999999999
 20
41.656
 30
0.0
 11
60.4375
 21
39.0
 31
0.0
  0
LINE
  5
155
330
1E
100
AcDbEntity
  8
0
100
AcDbLine
 10
65.08
 20
43.06399999999999
 30
0.0
 11
65.6605714285714
 21
39.0
 31
0.0
  0
LINE
  5
156
330
1E
100
AcDbEntity
  8
0
100
AcDbLine
 10
62.008
 20
50.48799999999999
 30
0.0
 11
65.08
 21
43.06399999999999
 31
0.0
  0
LINE
  5
157
330
1E
100
AcDbEntity
  8
0
100
AcDbLine
 10
62.776
 20
50.872
 30
0.0
 11
65.848
 21
43.192
 31
0.0
  0
LINE
  5
158
330
1E
100
AcDbEntity
  8
0
100
AcDbLine
 10
128.0
 20
31.0
 30
0.0
 11
158.6
 21
31.0
 31
0.0
  0
LINE
  5
159
330
1E
100
AcDbEntity
  8
0
100
AcDbLine
 10
128.0
 20
31.0
 30
0.0
 11
128.0
 21
35.0
 31
0.0
  0
LINE
  5
15A
330
1E
100
AcDbEntity
  8
0
100
AcDbLine
 10
128.0
 20
31.0
 30
0.0
 11
128.4999999999999
 21
31.5
 31
0.0
  0
LINE
  5
15B
330
1E
100
AcDbEntity
  8
0
100
AcDbLine
 10
70.0
 20
31.0
 30
0.0
 11
70.0
 21
35.0
 31
0.0
  0
LINE
  5
15C
330
1E
100
AcDbEntity
  8
0
100
AcDbLine
 10
69.5
 20
38.5
 30
0.0
 11
69.5
 21
35.0
 31
0.0
  0
LINE
  5
15D
330
1E
100
AcDbEntity
  8
0
100
AcDbLine
 10
69.5
 20
38.5
 30
0.0
 11
70.0
 21
39.0
 31
0.0
  0
LINE
  5
15E
330
1E
100
AcDbEntity
  8
0
100
AcDbLine
 10
70.0
 20
39.0
 30
0.0
 11
70.0
 21
35.0
 31
0.0
  0
LINE
  5
15F
330
1E
100
AcDbEntity
  8
0
100
AcDbLine
 10
69.5
 20
35.0
 30
0.0
 11
69.5
 21
31.5
 31
0.0
  0
LINE
  5
160
330
1E
100
AcDbEntity
  8
0
100
AcDbLine
 10
69.5
 20
35.0
 30
0.0
 11
69.5
 21
38.5
 31
0.0
  0
LINE
  5
161
330
1E
100
AcDbEntity
  8
0
100
AcDbLine
 10
69.5
 20
31.5
 30
0.0
 11
70.0
 21
31.0
 31
0.0
  0
LINE
  5
162
330
1E
100
AcDbEntity
  8
0
100
AcDbLine
 10
69.5
 20
31.5
 30
0.0
 11
69.5
 21
35.0
 31
0.0
  0
LINE
  5
163
330
1E
100
AcDbEntity
  8
0
100
AcDbLine
 10
128.4999999999999
 20
31.5
 30
0.0
 11
159.1999999999999
 21
31.5
 31
0.0
  0
LINE
  5
164
330
1E
100
AcDbEntity
  8
0
100
AcDbLine
 10
128.4999999999999
 20
31.5
 30
0.0
 11
128.4999999999999
 21
35.0
 31
0.0
  0
LINE
  5
165
330
1E
100
AcDbEntity
  8
0
100
AcDbLine
 10
128.4999999999999
 20
35.0
 30
0.0
 11
128.4999999999999
 21
31.5
 31
0.0
  0
LINE
  5
166
330
1E
100
AcDbEntity
  8
0
100
AcDbLine
 10
128.4999999999999
 20
35.0
 30
0.0
 11
128.4999999999999
 21
38.5
 31
0.0
  0
LINE
  5
167
330
1E
100
AcDbEntity
  8
0
100
AcDbLine
 10
128.4999999999999
 20
38.5
 30
0.0
 11
128.4999999999999
 21
35.0
 31
0.0
  0
LINE
  5
168
330
1E
100
AcDbEntity
  8
0
100
AcDbLine
 10
128.4999999999999
 20
38.5
 30
0.0
 11
159.1999999999999
 21
38.5
 31
0.0
  0
LINE
  5
169
330
1E
100
AcDbEntity
  8
0
100
AcDbLine
 10
128.0
 20
39.0
 30
0.0
 11
128.0
 21
35.0
 31
0.0
  0
LINE
  5
16A
330
1E
100
AcDbEntity
  8
0
100
AcDbLine
 10
128.0
 20
39.0
 30
0.0
 11
158.6
 21
39.0
 31
0.0
  0
LINE
  5
16B
330
1E
100
AcDbEntity
  8
0
100
AcDbLine
 10
128.0
 20
39.0
 30
0.0
 11
128.4999999999999
 21
38.5
 31
0.0
  0
LINE
  5
16C
330
1E
100
AcDbEntity
  8
0
100
AcDbLine
 10
128.0
 20
35.0
 30
0.0
 11
128.0
 21
31.0
 31
0.0
  0
LINE
  5
16D
330
1E
100
AcDbEntity
  8
0
100
AcDbLine
 10
128.0
 20
35.0
 30
0.0
 11
128.0
 21
39.0
 31
0.0
  0
LINE
  5
16E
330
1E
100
AcDbEntity
  8
0
100
AcDbLine
 10
70.0
 20
35.0
 30
0.0
 11
70.0
 21
31.0
 31
0.0
  0
LINE
  5
16F
330
1E
100
AcDbEntity
  8
0
100
AcDbLine
 10
70.0
 20
35.0
 30
0.0
 11
70.0
 21
39.0
 31
0.0
  0
LINE
  5
170
330
1E
100
AcDbEntity
  8
0
100
AcDbLine
 10
131.5625
 20
31.0
 30
0.0
 11
132.152
 21
26.808
 31
0.0
  0
LINE
  5
171
330
1E
100
AcDbEntity
  8
0
100
AcDbLine
 10
132.339428571429
 20
31.0
 30
0.0
 11
132.9199999999999
 21
26.93599999999999
 31
0.0
  0
LINE
  5
172
330
1E
100
AcDbEntity
  8
0
100
AcDbLine
 10
138.5599999999999
 20
28.448
 30
0.0
 11
141.056
 21
22.416
 31
0.0
  0
LINE
  5
173
330
1E
100
AcDbEntity
  8
0
100
AcDbLine
 10
137.936
 20
28.344
 30
0.0
 11
140.432
 21
22.10399999999999
 31
0.0
  0
LINE
  5
174
330
1E
100
AcDbEntity
  8
0
100
AcDbLine
 10
146.08
 20
30.464
 30
0.0
 11
147.808
 21
26.288
 31
0.0
  0
LINE
  5
175
330
1E
100
AcDbEntity
  8
0
100
AcDbLine
 10
145.6479999999999
 20
30.392
 30
0.0
 11
147.376
 21
26.072
 31
0.0
  0
LINE
  5
176
330
1E
100
AcDbEntity
  8
0
100
AcDbLine
 10
138.195428571429
 20
31.0
 30
0.0
 11
138.5599999999999
 21
28.448
 31
0.0
  0
LINE
  5
177
330
1E
100
AcDbEntity
  8
0
100
AcDbLine
 10
137.5625
 20
31.0
 30
0.0
 11
137.936
 21
28.344
 31
0.0
  0
LINE
  5
178
330
1E
100
AcDbEntity
  8
0
100
AcDbLine
 10
138.195428571429
 20
39.0
 30
0.0
 11
138.5599999999999
 21
41.55199999999999
 31
0.0
  0
LINE
  5
179
330
1E
100
AcDbEntity
  8
0
100
AcDbLine
 10
137.5625
 20
39.0
 30
0.0
 11
137.936
 21
41.656
 31
0.0
  0
LINE
  5
17A
330
1E
100
AcDbEntity
  8
0
100
AcDbLine
 10
145.5624999999999
 20
31.0
 30
0.0
 11
145.6479999999999
 21
30.392
 31
0.0
  0
LINE
  5
17B
330
1E
100
AcDbEntity
  8
0
100
AcDbLine
 10
146.003428571429
 20
31.0
 30
0.0
 11
146.08
 21
30.464
 31
0.0
  0
LINE
  5
17C
330
1E
100
AcDbEntity
  8
0
100
AcDbLine
 10
159.0
 20
30.6
 30
0.0
 11
159.0
 21
0.0000000000000039
 31
0.0
  0
LINE
  5
17D
330
1E
100
AcDbEntity
  8
0
100
AcDbLine
 10
159.0
 20
30.6
 30
0.0
 11
159.0
 21
0.0000000000000078
 31
0.0
  0
LINE
  5
17E
330
1E
100
AcDbEntity
  8
0
100
AcDbLine
 10
158.6
 20
31.0
 30
0.0
 11
158.8
 21
30.8
 31
0.0
  0
LINE
  5
17F
330
1E
100
AcDbEntity
  8
0
100
AcDbLine
 10
158.6
 20
31.0
 30
0.0
 11
158.8
 21
30.8
 31
0.0
  0
LINE
  5
180
330
1E
100
AcDbEntity
  8
0
100
AcDbLine
 10
158.8
 20
30.8
 30
0.0
 11
159.0
 21
30.6
 31
0.0
  0
LINE
  5
181
330
1E
100
AcDbEntity
  8
0
100
AcDbLine
 10
167.0
 20
30.6
 30
0.0
 11
167.1999999999999
 21
30.8
 31
0.0
  0
LINE
  5
182
330
1E
100
AcDbEntity
  8
0
100
AcDbLine
 10
167.0
 20
30.6
 30
0.0
 11
167.1999999999999
 21
30.8
 31
0.0
  0
LINE
  5
183
330
1E
100
AcDbEntity
  8
0
100
AcDbLine
 10
167.0
 20
30.6
 30
0.0
 11
167.0
 21
0.0000000000000078
 31
0.0
  0
LINE
  5
184
330
1E
100
AcDbEntity
  8
0
100
AcDbLine
 10
167.1999999999999
 20
30.8
 30
0.0
 11
167.4
 21
31.0
 31
0.0
  0
LINE
  5
185
330
1E
100
AcDbEntity
  8
0
100
AcDbLine
 10
159.4999999999999
 20
31.2
 30
0.0
 11
159.4999999999999
 21
0.5000000000000061
 31
0.0
  0
LINE
  5
186
330
1E
100
AcDbEntity
  8
0
100
AcDbLine
 10
166.8
 20
38.5
 30
0.0
 11
197.5
 21
38.5
 31
0.0
  0
LINE
  5
187
330
1E
100
AcDbEntity
  8
0
100
AcDbLine
 10
166.5
 20
38.79999999999999
 30
0.0
 11
166.5
 21
69.5
 31
0.0
  0
LINE
  5
188
330
1E
100
AcDbEntity
  8
0
100
AcDbLine
 10
159.4999999999999
 20
38.79999999999999
 30
0.0
 11
159.4999999999999
 21
69.5
 31
0.0
  0
LINE
  5
189
330
1E
100
AcDbEntity
  8
0
100
AcDbLine
 10
158.8
 20
39.2
 30
0.0
 11
159.0
 21
39.39999999999999
 31
0.0
  0
LINE
  5
18A
330
1E
100
AcDbEntity
  8
0
100
AcDbLine
 10
159.0
 20
39.39999999999999
 30
0.0
 11
159.0
 21
70.0
 31
0.0
  0
LINE
  5
18B
330
1E
100
AcDbEntity
  8
0
100
AcDbLine
 10
158.6
 20
39.0
 30
0.0
 11
158.8
 21
39.2
 31
0.0
  0
LINE
  5
18C
330
1E
100
AcDbEntity
  8
0
100
AcDbLine
 10
158.6
 20
39.0
 30
0.0
 11
158.8
 21
39.2
 31
0.0
  0
LINE
  5
18D
330
1E
100
AcDbEntity
  8
0
100
AcDbLine
 10
166.5
 20
31.2
 30
0.0
 11
166.5
 21
0.5000000000000061
 31
0.0
  0
LINE
  5
18E
330
1E
100
AcDbEntity
  8
0
100
AcDbLine
 10
167.4
 20
39.0
 30
0.0
 11
198.0
 21
39.0
 31
0.0
  0
LINE
  5
18F
330
1E
100
AcDbEntity
  8
0
100
AcDbLine
 10
167.1999999999999
 20
39.2
 30
0.0
 11
167.4
 21
39.0
 31
0.0
  0
LINE
  5
190
330
1E
100
AcDbEntity
  8
0
100
AcDbLine
 10
167.0
 20
39.39999999999999
 30
0.0
 11
167.0
 21
70.0
 31
0.0
  0
LINE
  5
191
330
1E
100
AcDbEntity
  8
0
100
AcDbLine
 10
167.0
 20
39.39999999999999
 30
0.0
 11
167.1999999999999
 21
39.2
 31
0.0
  0
LINE
  5
192
330
1E
100
AcDbEntity
  8
0
100
AcDbLine
 10
166.8
 20
31.5
 30
0.0
 11
197.5
 21
31.5
 31
0.0
  0
LINE
  5
193
330
1E
100
AcDbEntity
  8
0
100
AcDbLine
 10
167.4
 20
31.0
 30
0.0
 11
198.0
 21
31.0
 31
0.0
  0
LINE
  5
194
330
1E
100
AcDbEntity
  8
0
100
AcDbLine
 10
146.003428571429
 20
39.0
 30
0.0
 11
146.08
 21
39.536
 31
0.0
  0
LINE
  5
195
330
1E
100
AcDbEntity
  8
0
100
AcDbLine
 10
146.08
 20
39.536
 30
0.0
 11
147.808
 21
43.71199999999999
 31
0.0
  0
LINE
  5
196
330
1E
100
AcDbEntity
  8
0
100
AcDbLine
 10
145.5624999999999
 20
39.0
 30
0.0
 11
145.6479999999999
 21
39.608
 31
0.0
  0
LINE
  5
197
330
1E
100
AcDbEntity
  8
0
100
AcDbLine
 10
145.5624999999999
 20
39.0
 30
0.0
 11
145.6479999999999
 21
39.608
 31
0.0
  0
LINE
  5
198
330
1E
100
AcDbEntity
  8
0
100
AcDbLine
 10
138.5599999999999
 20
41.55199999999999
 30
0.0
 11
141.056
 21
47.58399999999999
 31
0.0
  0
LINE
  5
199
330
1E
100
AcDbEntity
  8
0
100
AcDbLine
 10
137.936
 20
41.656
 30
0.0
 11
140.432
 21
47.896
 31
0.0
  0
LINE
  5
19A
330
1E
100
AcDbEntity
  8
0
100
AcDbLine
 10
145.6479999999999
 20
39.608
 30
0.0
 11
147.376
 21
43.928
 31
0.0
  0
LINE
  5
19B
330
1E
100
AcDbEntity
  8
0
100
AcDbLine
 10
179.9199999999999
 20
39.536
 30
0.0
 11
179.9965714285709
 21
39.0
 31
0.0
  0
LINE
  5
19C
330
1E
100
AcDbEntity
  8
0
100
AcDbLine
 10
180.3519999999999
 20
39.608
 30
0.0
 11
180.4375
 21
39.0
 31
0.0
  0
LINE
  5
19D
330
1E
100
AcDbEntity
  8
0
100
AcDbLine
 10
179.9199999999999
 20
30.464
 30
0.0
 11
179.9965714285709
 21
31.0
 31
0.0
  0
LINE
  5
19E
330
1E
100
AcDbEntity
  8
0
100
AcDbLine
 10
187.4399999999999
 20
41.55199999999999
 30
0.0
 11
187.804571428571
 21
39.0
 31
0.0
  0
LINE
  5
19F
330
1E
100
AcDbEntity
  8
0
100
AcDbLine
 10
187.4399999999999
 20
28.448
 30
0.0
 11
187.804571428571
 21
31.0
 31
0.0
  0
LINE
  5
1A0
330
1E
100
AcDbEntity
  8
0
100
AcDbLine
 10
188.064
 20
41.656
 30
0.0
 11
188.4375
 21
39.0
 31
0.0
  0
LINE
  5
1A1
330
1E
100
AcDbEntity
  8
0
100
AcDbLine
 10
188.064
 20
28.344
 30
0.0
 11
188.4375
 21
31.0
 31
0.0
  0
LINE
  5
1A2
330
1E
100
AcDbEntity
  8
0
100
AcDbLine
 10
180.3519999999999
 20
30.392
 30
0.0
 11
180.4375
 21
31.0
 31
0.0
  0
LINE
  5
1A3
330
1E
100
AcDbEntity
  8
0
100
AcDbLine
 10
132.9199999999999
 20
26.93599999999999
 30
0.0
 11
135.992
 21
19.512
 31
0.0
  0
LINE
  5
1A4
330
1E
100
AcDbEntity
  8
0
100
AcDbLine
 10
132.339428571429
 20
39.0
 30
0.0
 11
132.9199999999999
 21
43.06399999999999
 31
0.0
  0
LINE
  5
1A5
330
1E
100
AcDbEntity
  8
0
100
AcDbLine
 10
132.9199999999999
 20
43.06399999999999
 30
0.0
 11
135.992
 21
50.48799999999999
 31
0.0
  0
LINE
  5
1A6
330
1E
100
AcDbEntity
  8
0
100
AcDbLine
 10
131.5625
 20
39.0
 30
0.0
 11
132.152
 21
43.192
 31
0.0
  0
LINE
  5
1A7
330
1E
100
AcDbEntity
  8
0
100
AcDbLine
 10
131.5625
 20
39.0
 30
0.0
 11
132.152
 21
43.192
 31
0.0
  0
LINE
  5
1A8
330
1E
100
AcDbEntity
  8
0
100
AcDbLine
 10
193.0799999999999
 20
43.06399999999999
 30
0.0
 11
193.660571428571
 21
39.0
 31
0.0
  0
LINE
  5
1A9
330
1E
100
AcDbEntity
  8
0
100
AcDbLine
 10
197.5
 20
38.5
 30
0.0
 11
198.0
 21
39.0
 31
0.0
  0
LINE
  5
1AA
330
1E
100
AcDbEntity
  8
0
100
AcDbLine
 10
197.5
 20
38.5
 30
0.0
 11
197.5
 21
35.0
 31
0.0
  0
LINE
  5
1AB
330
1E
100
AcDbEntity
  8
0
100
AcDbLine
 10
197.5
 20
35.0
 30
0.0
 11
197.5
 21
31.5
 31
0.0
  0
LINE
  5
1AC
330
1E
100
AcDbEntity
  8
0
100
AcDbLine
 10
197.5
 20
35.0
 30
0.0
 11
197.5
 21
38.5
 31
0.0
  0
LINE
  5
1AD
330
1E
100
AcDbEntity
  8
0
100
AcDbLine
 10
198.0
 20
39.0
 30
0.0
 11
198.0
 21
35.0
 31
0.0
  0
LINE
  5
1AE
330
1E
100
AcDbEntity
  8
0
100
AcDbLine
 10
198.0
 20
35.0
 30
0.0
 11
198.0
 21
31.0
 31
0.0
  0
LINE
  5
1AF
330
1E
100
AcDbEntity
  8
0
100
AcDbLine
 10
198.0
 20
35.0
 30
0.0
 11
198.0
 21
39.0
 31
0.0
  0
LINE
  5
1B0
330
1E
100
AcDbEntity
  8
0
100
AcDbLine
 10
197.5
 20
31.5
 30
0.0
 11
198.0
 21
31.0
 31
0.0
  0
LINE
  5
1B1
330
1E
100
AcDbEntity
  8
0
100
AcDbLine
 10
197.5
 20
31.5
 30
0.0
 11
197.5
 21
35.0
 31
0.0
  0
LINE
  5
1B2
330
1E
100
AcDbEntity
  8
0
100
AcDbLine
 10
198.0
 20
31.0
 30
0.0
 11
198.0
 21
35.0
 31
0.0
  0
LINE
  5
1B3
330
1E
100
AcDbEntity
  8
0
100
AcDbLine
 10
193.0799999999999
 20
26.93599999999999
 30
0.0
 11
193.660571428571
 21
31.0
 31
0.0
  0
LINE
  5
1B4
330
1E
100
AcDbEntity
  8
0
100
AcDbLine
 10
141.056
 20
47.58399999999999
 30
0.0
 11
145.1119999999999
 21
52.88800000000001
 31
0.0
  0
LINE
  5
1B5
330
1E
100
AcDbEntity
  8
0
100
AcDbLine
 10
147.376
 20
43.928
 30
0.0
 11
150.256
 21
47.74399999999999
 31
0.0
  0
LINE
  5
1B6
330
1E
100
AcDbEntity
  8
0
100
AcDbLine
 10
147.808
 20
43.71199999999999
 30
0.0
 11
150.616
 21
47.38399999999999
 31
0.0
  0
LINE
  5
1B7
330
1E
100
AcDbEntity
  8
0
100
AcDbLine
 10
150.616
 20
47.38399999999999
 30
0.0
 11
154.2879999999999
 21
50.192
 31
0.0
  0
LINE
  5
1B8
330
1E
100
AcDbEntity
  8
0
100
AcDbLine
 10
147.376
 20
43.928
 30
0.0
 11
150.256
 21
47.74399999999999
 31
0.0
  0
LINE
  5
1B9
330
1E
100
AcDbEntity
  8
0
100
AcDbLine
 10
140.432
 20
47.896
 30
0.0
 11
144.592
 21
53.408
 31
0.0
  0
LINE
  5
1BA
330
1E
100
AcDbEntity
  8
0
100
AcDbLine
 10
154.2879999999999
 20
50.192
 30
0.0
 11
158.464
 21
51.92
 31
0.0
  0
LINE
  5
1BB
330
1E
100
AcDbEntity
  8
0
100
AcDbLine
 10
150.256
 20
47.74399999999999
 30
0.0
 11
154.072
 21
50.624
 31
0.0
  0
LINE
  5
1BC
330
1E
100
AcDbEntity
  8
0
100
AcDbLine
 10
175.384
 20
47.38399999999999
 30
0.0
 11
178.192
 21
43.71199999999999
 31
0.0
  0
LINE
  5
1BD
330
1E
100
AcDbEntity
  8
0
100
AcDbLine
 10
171.712
 20
50.192
 30
0.0
 11
175.384
 21
47.38399999999999
 31
0.0
  0
LINE
  5
1BE
330
1E
100
AcDbEntity
  8
0
100
AcDbLine
 10
178.192
 20
43.71199999999999
 30
0.0
 11
179.9199999999999
 21
39.536
 31
0.0
  0
LINE
  5
1BF
330
1E
100
AcDbEntity
  8
0
100
AcDbLine
 10
184.944
 20
47.58399999999999
 30
0.0
 11
187.4399999999999
 21
41.55199999999999
 31
0.0
  0
LINE
  5
1C0
330
1E
100
AcDbEntity
  8
0
100
AcDbLine
 10
185.5679999999999
 20
47.896
 30
0.0
 11
188.064
 21
41.656
 31
0.0
  0
LINE
  5
1C1
330
1E
100
AcDbEntity
  8
0
100
AcDbLine
 10
178.624
 20
43.928
 30
0.0
 11
180.3519999999999
 21
39.608
 31
0.0
  0
LINE
  5
1C2
330
1E
100
AcDbEntity
  8
0
100
AcDbLine
 10
175.744
 20
47.74399999999999
 30
0.0
 11
178.624
 21
43.928
 31
0.0
  0
LINE
  5
1C3
330
1E
100
AcDbEntity
  8
0
100
AcDbLine
 10
154.072
 20
50.624
 30
0.0
 11
158.3919999999999
 21
52.35199999999999
 31
0.0
  0
LINE
  5
1C4
330
1E
100
AcDbEntity
  8
0
100
AcDbLine
 10
171.9279999999999
 20
50.624
 30
0.0
 11
175.744
 21
47.74399999999999
 31
0.0
  0
LINE
  5
1C5
330
1E
100
AcDbEntity
  8
0
100
AcDbLine
 10
135.992
 20
50.48799999999999
 30
0.0
 11
140.984
 21
57.016
 31
0.0
  0
LINE
  5
1C6
330
1E
100
AcDbEntity
  8
0
100
AcDbLine
 10
132.152
 20
43.192
 30
0.0
 11
135.2239999999999
 21
50.872
 31
0.0
  0
LINE
  5
1C7
330
1E
100
AcDbEntity
  8
0
100
AcDbLine
 10
158.464
 20
51.92
 30
0.0
 11
159.0
 21
51.99657142857139
 31
0.0
  0
LINE
  5
1C8
330
1E
100
AcDbEntity
  8
0
100
AcDbLine
 10
158.3919999999999
 20
52.35199999999999
 30
0.0
 11
159.0
 21
52.4375
 31
0.0
  0
LINE
  5
1C9
330
1E
100
AcDbEntity
  8
0
100
AcDbLine
 10
167.5359999999999
 20
51.92
 30
0.0
 11
171.712
 21
50.192
 31
0.0
  0
LINE
  5
1CA
330
1E
100
AcDbEntity
  8
0
100
AcDbLine
 10
167.0
 20
51.99657142857139
 30
0.0
 11
167.5359999999999
 21
51.92
 31
0.0
  0
LINE
  5
1CB
330
1E
100
AcDbEntity
  8
0
100
AcDbLine
 10
145.1119999999999
 20
52.88800000000001
 30
0.0
 11
150.4159999999999
 21
56.94399999999999
 31
0.0
  0
LINE
  5
1CC
330
1E
100
AcDbEntity
  8
0
100
AcDbLine
 10
144.592
 20
53.408
 30
0.0
 11
150.1039999999999
 21
57.56800000000001
 31
0.0
  0
LINE
  5
1CD
330
1E
100
AcDbEntity
  8
0
100
AcDbLine
 10
180.888
 20
52.88800000000001
 30
0.0
 11
184.944
 21
47.58399999999999
 31
0.0
  0
LINE
  5
1CE
330
1E
100
AcDbEntity
  8
0
100
AcDbLine
 10
175.584
 20
56.94399999999999
 30
0.0
 11
180.888
 21
52.88800000000001
 31
0.0
  0
LINE
  5
1CF
330
1E
100
AcDbEntity
  8
0
100
AcDbLine
 10
181.4079999999999
 20
53.408
 30
0.0
 11
185.5679999999999
 21
47.896
 31
0.0
  0
LINE
  5
1D0
330
1E
100
AcDbEntity
  8
0
100
AcDbLine
 10
150.4159999999999
 20
56.94399999999999
 30
0.0
 11
156.4479999999999
 21
59.43999999999999
 31
0.0
  0
LINE
  5
1D1
330
1E
100
AcDbEntity
  8
0
100
AcDbLine
 10
167.0
 20
52.4375
 30
0.0
 11
167.6079999999999
 21
52.35199999999999
 31
0.0
  0
LINE
  5
1D2
330
1E
100
AcDbEntity
  8
0
100
AcDbLine
 10
140.984
 20
57.016
 30
0.0
 11
147.5119999999999
 21
62.008
 31
0.0
  0
LINE
  5
1D3
330
1E
100
AcDbEntity
  8
0
100
AcDbLine
 10
135.2239999999999
 20
50.872
 30
0.0
 11
140.3439999999999
 21
57.656
 31
0.0
  0
LINE
  5
1D4
330
1E
100
AcDbEntity
  8
0
100
AcDbLine
 10
190.0079999999999
 20
50.48799999999999
 30
0.0
 11
193.0799999999999
 21
43.06399999999999
 31
0.0
  0
LINE
  5
1D5
330
1E
100
AcDbEntity
  8
0
100
AcDbLine
 10
175.8959999999999
 20
57.56800000000001
 30
0.0
 11
181.4079999999999
 21
53.408
 31
0.0
  0
LINE
  5
1D6
330
1E
100
AcDbEntity
  8
0
100
AcDbLine
 10
150.1039999999999
 20
57.56800000000001
 30
0.0
 11
156.3439999999999
 21
60.06399999999999
 31
0.0
  0
LINE
  5
1D7
330
1E
100
AcDbEntity
  8
0
100
AcDbLine
 10
140.3439999999999
 20
57.656
 30
0.0
 11
147.1279999999999
 21
62.776
 31
0.0
  0
LINE
  5
1D8
330
1E
100
AcDbEntity
  8
0
100
AcDbLine
 10
185.0159999999999
 20
57.016
 30
0.0
 11
190.0079999999999
 21
50.48799999999999
 31
0.0
  0
LINE
  5
1D9
330
1E
100
AcDbEntity
  8
0
100
AcDbLine
 10
193.848
 20
43.192
 30
0.0
 11
194.4374999999999
 21
39.0
 31
0.0
  0
LINE
  5
1DA
330
1E
100
AcDbEntity
  8
0
100
AcDbLine
 10
190.7759999999999
 20
50.872
 30
0.0
 11
193.848
 21
43.192
 31
0.0
  0
LINE
  5
1DB
330
1E
100
AcDbEntity
  8
0
100
AcDbLine
 10
156.4479999999999
 20
59.43999999999999
 30
0.0
 11
159.0
 21
59.80457142857139
 31
0.0
  0
LINE
  5
1DC
330
1E
100
AcDbEntity
  8
0
100
AcDbLine
 10
167.0
 20
60.4375
 30
0.0
 11
169.6559999999999
 21
60.06399999999999
 31
0.0
  0
LINE
  5
1DD
330
1E
100
AcDbEntity
  8
0
100
AcDbLine
 10
156.3439999999999
 20
60.06399999999999
 30
0.0
 11
159.0
 21
60.4375
 31
0.0
  0
LINE
  5
1DE
330
1E
100
AcDbEntity
  8
0
100
AcDbLine
 10
167.0
 20
59.80457142857139
 30
0.0
 11
169.552
 21
59.43999999999999
 31
0.0
  0
LINE
  5
1DF
330
1E
100
AcDbEntity
  8
0
100
AcDbLine
 10
147.5119999999999
 20
62.008
 30
0.0
 11
154.936
 21
65.08
 31
0.0
  0
LINE
  5
1E0
330
1E
100
AcDbEntity
  8
0
100
AcDbLine
 10
154.936
 20
65.08
 30
0.0
 11
159.0
 21
65.6605714285714
 31
0.0
  0
LINE
  5
1E1
330
1E
100
AcDbEntity
  8
0
100
AcDbLine
 10
147.1279999999999
 20
62.776
 30
0.0
 11
154.8079999999999
 21
65.848
 31
0.0
  0
LINE
  5
1E2
330
1E
100
AcDbEntity
  8
0
100
AcDbLine
 10
167.0
 20
70.0
 30
0.0
 11
167.0
 21
39.39999999999999
 31
0.0
  0
LINE
  5
1E3
330
1E
100
AcDbEntity
  8
0
100
AcDbLine
 10
166.5
 20
69.5
 30
0.0
 11
167.0
 21
70.0
 31
0.0
  0
LINE
  5
1E4
330
1E
100
AcDbEntity
  8
0
100
AcDbLine
 10
166.5
 20
69.5
 30
0.0
 11
166.5
 21
38.79999999999999
 31
0.0
  0
LINE
  5
1E5
330
1E
100
AcDbEntity
  8
0
100
AcDbLine
 10
163.0
 20
69.5
 30
0.0
 11
166.5
 21
69.5
 31
0.0
  0
LINE
  5
1E6
330
1E
100
AcDbEntity
  8
0
100
AcDbLine
 10
163.0
 20
70.0
 30
0.0
 11
167.0
 21
70.0
 31
0.0
  0
LINE
  5
1E7
330
1E
100
AcDbEntity
  8
0
100
AcDbLine
 10
159.4999999999999
 20
69.5
 30
0.0
 11
163.0
 21
69.5
 31
0.0
  0
LINE
  5
1E8
330
1E
100
AcDbEntity
  8
0
100
AcDbLine
 10
159.4999999999999
 20
69.5
 30
0.0
 11
159.4999999999999
 21
38.79999999999999
 31
0.0
  0
LINE
  5
1E9
330
1E
100
AcDbEntity
  8
0
100
AcDbLine
 10
159.0
 20
70.0
 30
0.0
 11
159.0
 21
39.39999999999999
 31
0.0
  0
LINE
  5
1EA
330
1E
100
AcDbEntity
  8
0
100
AcDbLine
 10
159.0
 20
70.0
 30
0.0
 11
163.0
 21
70.0
 31
0.0
  0
LINE
  5
1EB
330
1E
100
AcDbEntity
  8
0
100
AcDbLine
 10
159.0
 20
70.0
 30
0.0
 11
159.4999999999999
 21
69.5
 31
0.0
  0
LINE
  5
1EC
330
1E
100
AcDbEntity
  8
0
100
AcDbLine
 10
154.8079999999999
 20
65.848
 30
0.0
 11
159.0
 21
66.4375
 31
0.0
  0
LINE
  5
1ED
330
1E
100
AcDbEntity
  8
0
100
AcDbLine
 10
167.0
 20
65.6605714285714
 30
0.0
 11
171.064
 21
65.08
 31
0.0
  0
LINE
  5
1EE
330
1E
100
AcDbEntity
  8
0
100
AcDbLine
 10
169.6559999999999
 20
60.06399999999999
 30
0.0
 11
175.8959999999999
 21
57.56800000000001
 31
0.0
  0
LINE
  5
1EF
330
1E
100
AcDbEntity
  8
0
100
AcDbLine
 10
169.552
 20
59.43999999999999
 30
0.0
 11
175.584
 21
56.94399999999999
 31
0.0
  0
LINE
  5
1F0
330
1E
100
AcDbEntity
  8
0
100
AcDbLine
 10
178.488
 20
62.008
 30
0.0
 11
185.0159999999999
 21
57.016
 31
0.0
  0
LINE
  5
1F1
330
1E
100
AcDbEntity
  8
0
100
AcDbLine
 10
171.064
 20
65.08
 30
0.0
 11
178.488
 21
62.008
 31
0.0
  0
LINE
  5
1F2
330
1E
100
AcDbEntity
  8
0
100
AcDbLine
 10
178.872
 20
62.776
 30
0.0
 11
185.6559999999999
 21
57.656
 31
0.0
  0
LINE
  5
1F3
330
1E
100
AcDbEntity
  8
0
100
AcDbLine
 10
171.192
 20
65.848
 30
0.0
 11
178.872
 21
62.776
 31
0.0
  0
LINE
  5
1F4
330
1E
100
AcDbEntity
  8
0
100
AcDbLine
 10
167.0
 20
66.4375
 30
0.0
 11
171.192
 21
65.848
 31
0.0
  0
LINE
  5
1F5
330
1E
100
AcDbEntity
  8
0
100
AcDbLine
 10
185.6559999999999
 20
57.656
 30
0.0
 11
190.7759999999999
 21
50.872
 31
0.0
  0
LINE
  5
1F6
330
1E
100
AcDbEntity
  8
0
100
AcDbLine
 10
65.848
 20
43.192
 30
0.0
 11
66.4375
 21
39.0
 31
0.0
  0
LINE
  5
1F7
330
1E
100
AcDbEntity
  8
0
100
AcDbLine
 10
65.848
 20
43.192
 30
0.0
 11
66.4375
 21
39.0
 31
0.0
  0
LINE
  5
1F8
330
1E
100
AcDbEntity
  8
0
100
AcDbLine
 10
65.08
 20
26.93599999999999
 30
0.0
 11
65.6605714285714
 21
31.0
 31
0.0
  0
LINE
  5
1F9
330
1E
100
AcDbEntity
  8
0
100
AcDbLine
 10
65.848
 20
26.808
 30
0.0
 11
66.4375
 21
31.0
 31
0.0
  0
LINE
  5
1FA
330
1E
100
AcDbEntity
  8
0
100
AcDbLine
 10
57.656
 20
12.344
 30
0.0
 11
62.776
 21
19.128
 31
0.0
  0
LINE
  5
1FB
330
1E
100
AcDbEntity
  8
0
100
AcDbLine
 10
43.192
 20
4.152
 30
0.0
 11
50.872
 21
7.224
 31
0.0
  0
LINE
  5
1FC
330
1E
100
AcDbEntity
  8
0
100
AcDbLine
 10
39.0
 20
3.5625
 30
0.0
 11
43.192
 21
4.152
 31
0.0
  0
LINE
  5
201
330
1E
100
AcDbEntity
  8
0
100
AcDbLine
 10
19.37599999999999
 20
26.072
 30
0.0
 11
22.256
 21
22.256
 31
0.0
  0
LINE
  5
202
330
1E
100
AcDbEntity
  8
0
100
AcDbLine
 10
43.928
 20
19.37599999999999
 30
0.0
 11
47.74399999999999
 21
22.256
 31
0.0
  0
LINE
  5
203
330
1E
100
AcDbEntity
  8
0
100
AcDbLine
 10
150.256
 20
22.256
 30
0.0
 11
154.072
 21
19.37599999999999
 31
0.0
  0
LINE
  5
204
330
1E
100
AcDbEntity
  8
0
100
AcDbLine
 10
167.6079999999999
 20
52.35199999999999
 30
0.0
 11
171.9279999999999
 21
50.624
 31
0.0
  0
ENDSEC
  0
SECTION
  2
OBJECTS
  0
DICTIONARY
  5
C
330
0
100
AcDbDictionary
281
     1
  3
ACAD_GROUP
350
D
  3
ACAD_LAYOUT
350
19
  3
ACAD_MLINESTYLE
350
16
  3
ACAD_PLOTSETTINGS
350
18
  3
ACAD_PLOTSTYLENAME
350
E
  3
AcDbVariableDictionary
350
205
  0
DICTIONARY
  5
D
102
{ACAD_REACTORS
330
C
102
}
330
C
100
AcDbDictionary
281
     1
  0
DICTIONARY
  5
19
102
{ACAD_REACTORS
330
C
102
}
330
C
100
AcDbDictionary
281
     1
  3
Layout1
350
1D
  3
Model
350
21
  0
DICTIONARY
  5
16
102
{ACAD_REACTORS
330
C
102
}
330
C
100
AcDbDictionary
281
     1
  3
Standard
350
17
  0
DICTIONARY
  5
18
102
{ACAD_REACTORS
330
C
102
}
330
C
100
AcDbDictionary
281
     1
  0
ACDBDICTIONARYWDFLT
  5
E
102
{ACAD_REACTORS
330
C
102
}
330
C
100
AcDbDictionary
281
     1
  3
Normal
350
F
100
AcDbDictionaryWithDefault
340
F
  0
DICTIONARY
  5
205
102
{ACAD_REACTORS
330
C
102
}
330
C
100
AcDbDictionary
281
     1
  3
DIMASSOC
350
206
  0
LAYOUT
  5
1D
102
{ACAD_REACTORS
330
19
102
}
330
19
100
AcDbPlotSettings
  1

  2
hp deskjet 980c series
  4

  6

 40
0.0
 41
0.0
 42
0.0
 43
0.0
 44
0.0
 45
0.0
 46
0.0
 47
0.0
 48
0.0
 49
0.0
140
0.0
141
0.0
142
1.0
143
1.0
 70
   688
 72
     0
 73
     0
 74
     5
  7

 75
    16
147
1.0
148
0.0
149
0.0
100
AcDbLayout
  1
Layout1
 70
     1
 71
     1
 10
0.0
 20
0.0
 11
12.0
 21
9.0
 12
0.0
 22
0.0
 32
0.0
 14
1.000000000000000E+20
 24
1.000000000000000E+20
 34
1.000000000000000E+20
 15
-1.000000000000000E+20
 25
-1.000000000000000E+20
 35
-1.000000000000000E+20
146
0.0
 13
0.0
 23
0.0
 33
0.0
 16
1.0
 26
0.0
 36
0.0
 17
0.0
 27
1.0
 37
0.0
 76
     0
330
1A
  0
LAYOUT
  5
21
102
{ACAD_REACTORS
330
19
102
}
330
19
100
AcDbPlotSettings
  1

  2
hp deskjet 980c series
  4

  6

 40
0.0
 41
0.0
 42
0.0
 43
0.0
 44
0.0
 45
0.0
 46
0.0
 47
0.0
 48
0.0
 49
0.0
140
0.0
141
0.0
142
1.0
143
1.0
 70
  1712
 72
     0
 73
     0
 74
     0
  7

 75
     0
147
1.0
148
0.0
149
0.0
100
AcDbLayout
  1
Model
 70
     1
 71
     0
 10
0.0
 20
0.0
 11
12.0
 21
9.0
 12
0.0
 22
0.0
 32
0.0
 14
0.0
 24
0.0
 34
0.0
 15
0.0
 25
0.0
 35
0.0
146
0.0
 13
0.0
 23
0.0
 33
0.0
 16
1.0
 26
0.0
 36
0.0
 17
0.0
 27
1.0
 37
0.0
 76
     0
330
1E
  0
MLINESTYLE
  5
17
102
{ACAD_REACTORS
330
16
102
}
330
16
100
AcDbMlineStyle
  2
STANDARD
 70
     0
  3

 62
   256
 51
90.0
 52
90.0
 71
     2
 49
0.5
 62
   256
  6
BYLAYER
 49
-0.5
 62
   256
  6
BYLAYER
  0
ACDBPLACEHOLDER
  5
F
102
{ACAD_REACTORS
330
E
102
}
330
E
  0
DICTIONARYVAR
  5
206
102
{ACAD_REACTORS
330
205
102
}
330
205
100
DictionaryVariables
280
     0
  1
1
  0
ENDSEC
  0
EOF
