  0
SECTION
  2
HEADER
  9
$ACADVER
  1
AC1014
  9
$ACADMAINTVER
 70
     9
  9
$DWGCODEPAGE
  3
ANSI_1252
  9
$INSBASE
 10
0.0
 20
0.0
 30
0.0
  9
$EXTMIN
 10
0.0000000000000012
 20
-0.0000000000000102
 30
0.0
  9
$EXTMAX
 10
170.0
 20
65.0
 30
0.0
  9
$LIMMIN
 10
0.0
 20
0.0
  9
$LIMMAX
 10
12.0
 20
9.0
  9
$ORTHOMODE
 70
     0
  9
$REGENMODE
 70
     1
  9
$FILLMODE
 70
     1
  9
$QTEXTMODE
 70
     0
  9
$MIRRTEXT
 70
     1
  9
$DRAGMODE
 70
     2
  9
$LTSCALE
 40
1.0
  9
$OSMODE
 70
    37
  9
$ATTMODE
 70
     1
  9
$TEXTSIZE
 40
0.2
  9
$TRACEWID
 40
0.05
  9
$TEXTSTYLE
  7
STANDARD
  9
$CLAYER
  8
0
  9
$CELTYPE
  6
CONTINUOUS
  9
$CECOLOR
 62
   256
  9
$CELTSCALE
 40
1.0
  9
$DELOBJ
 70
     1
  9
$DISPSILH
 70
     0
  9
$DIMSCALE
 40
1.0
  9
$DIMASZ
 40
0.18
  9
$DIMEXO
 40
0.0625
  9
$DIMDLI
 40
0.38
  9
$DIMRND
 40
0.0
  9
$DIMDLE
 40
0.0
  9
$DIMEXE
 40
0.18
  9
$DIMTP
 40
0.0
  9
$DIMTM
 40
0.0
  9
$DIMTXT
 40
0.18
  9
$DIMCEN
 40
0.09
  9
$DIMTSZ
 40
0.0
  9
$DIMTOL
 70
     0
  9
$DIMLIM
 70
     0
  9
$DIMTIH
 70
     1
  9
$DIMTOH
 70
     1
  9
$DIMSE1
 70
     0
  9
$DIMSE2
 70
     0
  9
$DIMTAD
 70
     0
  9
$DIMZIN
 70
     0
  9
$DIMBLK
  1

  9
$DIMASO
 70
     1
  9
$DIMSHO
 70
     1
  9
$DIMPOST
  1

  9
$DIMAPOST
  1

  9
$DIMALT
 70
     0
  9
$DIMALTD
 70
     2
  9
$DIMALTF
 40
25.4
  9
$DIMLFAC
 40
1.0
  9
$DIMTOFL
 70
     0
  9
$DIMTVP
 40
0.0
  9
$DIMTIX
 70
     0
  9
$DIMSOXD
 70
     0
  9
$DIMSAH
 70
     0
  9
$DIMBLK1
  1

  9
$DIMBLK2
  1

  9
$DIMSTYLE
  2
STANDARD
  9
$DIMCLRD
 70
     0
  9
$DIMCLRE
 70
     0
  9
$DIMCLRT
 70
     0
  9
$DIMTFAC
 40
1.0
  9
$DIMGAP
 40
0.09
  9
$DIMJUST
 70
     0
  9
$DIMSD1
 70
     0
  9
$DIMSD2
 70
     0
  9
$DIMTOLJ
 70
     1
  9
$DIMTZIN
 70
     0
  9
$DIMALTZ
 70
     0
  9
$DIMALTTZ
 70
     0
  9
$DIMFIT
 70
     3
  9
$DIMUPT
 70
     0
  9
$DIMUNIT
 70
     2
  9
$DIMDEC
 70
     4
  9
$DIMTDEC
 70
     4
  9
$DIMALTU
 70
     2
  9
$DIMALTTD
 70
     2
  9
$DIMTXSTY
  7
STANDARD
  9
$DIMAUNIT
 70
     0
  9
$LUNITS
 70
     2
  9
$LUPREC
 70
     4
  9
$SKETCHINC
 40
0.1
  9
$FILLETRAD
 40
0.0
  9
$AUNITS
 70
     0
  9
$AUPREC
 70
     0
  9
$MENU
  1
.
  9
$ELEVATION
 40
0.0
  9
$PELEVATION
 40
0.0
  9
$THICKNESS
 40
0.0
  9
$LIMCHECK
 70
     0
  9
$BLIPMODE
 70
     0
  9
$CHAMFERA
 40
0.0
  9
$CHAMFERB
 40
0.0
  9
$CHAMFERC
 40
0.0
  9
$CHAMFERD
 40
0.0
  9
$SKPOLY
 70
     0
  9
$TDCREATE
 40
2454687.562192199
  9
$TDUPDATE
 40
2454687.562581377
  9
$TDINDWG
 40
0.0003893519
  9
$TDUSRTIMER
 40
0.0003893519
  9
$USRTIMER
 70
     1
  9
$ANGBASE
 50
0.0
  9
$ANGDIR
 70
     0
  9
$PDMODE
 70
     0
  9
$PDSIZE
 40
0.0
  9
$PLINEWID
 40
0.0
  9
$COORDS
 70
     1
  9
$SPLFRAME
 70
     0
  9
$SPLINETYPE
 70
     6
  9
$SPLINESEGS
 70
     8
  9
$ATTDIA
 70
     0
  9
$ATTREQ
 70
     1
  9
$HANDLING
 70
 22529
  9
$HANDSEED
  5
151
  9
$SURFTAB1
 70
     6
  9
$SURFTAB2
 70
     6
  9
$SURFTYPE
 70
     6
  9
$SURFU
 70
     6
  9
$SURFV
 70
     6
  9
$UCSNAME
  2

  9
$UCSORG
 10
0.0
 20
0.0
 30
0.0
  9
$UCSXDIR
 10
1.0
 20
0.0
 30
0.0
  9
$UCSYDIR
 10
0.0
 20
1.0
 30
0.0
  9
$PUCSNAME
  2

  9
$PUCSORG
 10
0.0
 20
0.0
 30
0.0
  9
$PUCSXDIR
 10
1.0
 20
0.0
 30
0.0
  9
$PUCSYDIR
 10
0.0
 20
1.0
 30
0.0
  9
$USERI1
 70
     0
  9
$USERI2
 70
     0
  9
$USERI3
 70
     0
  9
$USERI4
 70
     0
  9
$USERI5
 70
     0
  9
$USERR1
 40
0.0
  9
$USERR2
 40
0.0
  9
$USERR3
 40
0.0
  9
$USERR4
 40
0.0
  9
$USERR5
 40
0.0
  9
$WORLDVIEW
 70
     1
  9
$SHADEDGE
 70
     3
  9
$SHADEDIF
 70
    70
  9
$TILEMODE
 70
     1
  9
$MAXACTVP
 70
    64
  9
$PINSBASE
 10
0.0
 20
0.0
 30
0.0
  9
$PLIMCHECK
 70
     0
  9
$PEXTMIN
 10
1.000000000000000E+20
 20
1.000000000000000E+20
 30
1.000000000000000E+20
  9
$PEXTMAX
 10
-1.000000000000000E+20
 20
-1.000000000000000E+20
 30
-1.000000000000000E+20
  9
$PLIMMIN
 10
0.0
 20
0.0
  9
$PLIMMAX
 10
12.0
 20
9.0
  9
$UNITMODE
 70
     0
  9
$VISRETAIN
 70
     1
  9
$PLINEGEN
 70
     0
  9
$PSLTSCALE
 70
     1
  9
$TREEDEPTH
 70
  3020
  9
$PICKSTYLE
 70
     1
  9
$CMLSTYLE
  2
STANDARD
  9
$CMLJUST
 70
     0
  9
$CMLSCALE
 40
1.0
  9
$PROXYGRAPHICS
 70
     1
  9
$MEASUREMENT
 70
     0
  0
ENDSEC
  0
SECTION
  2
CLASSES
  0
CLASS
  1
ACDBDICTIONARYWDFLT
  2
AcDbDictionaryWithDefault
  3
AutoCAD 2000
 90
        0
280
     0
281
     0
  0
CLASS
  1
ACDBPLACEHOLDER
  2
AcDbPlaceHolder
  3
AutoCAD 2000
 90
        0
280
     0
281
     0
  0
CLASS
  1
LAYOUT
  2
AcDbLayout
  3
AutoCAD 2000
 90
        0
280
     0
281
     0
  0
CLASS
  1
DICTIONARYVAR
  2
AcDbDictionaryVar
  3
AutoCAD 2000
 90
        0
280
     0
281
     0
  0
CLASS
  1
LONG_TRANSACTION
  2
AcDbLongTransaction
  3
AutoCAD 2000
 90
        0
280
     0
281
     0
  0
CLASS
  1
LWPOLYLINE
  2
AcDbPolyline
  3
AutoCAD 2000
 90
        0
280
     0
281
     1
  0
CLASS
  1
HATCH
  2
AcDbHatch
  3
AutoCAD 2000
 90
        0
280
     0
281
     1
  0
CLASS
  1
XRECORD
  2
AcDbXrecord
  3
AutoCAD 2000
 90
        0
280
     0
281
     0
  0
ENDSEC
  0
SECTION
  2
TABLES
  0
TABLE
  2
VPORT
  5
8
330
0
100
AcDbSymbolTable
 70
     2
  0
VPORT
  5
12C
330
8
100
AcDbSymbolTableRecord
100
AcDbViewportTableRecord
  2
*ACTIVE
 70
     0
 10
0.0
 20
0.0
 11
1.0
 21
1.0
 12
85.0
 22
32.5
 13
0.0
 23
0.0
 14
1.0
 24
1.0
 15
0.0
 25
0.0
 16
0.0
 26
0.0
 36
1.0
 17
0.0
 27
0.0
 37
0.0
 40
83.50176866712805
 41
2.043533930857874
 42
50.0
 43
0.0
 44
0.0
 50
0.0
 51
0.0
 71
     0
 72
   100
 73
     1
 74
     3
 75
     0
 76
     0
 77
     0
 78
     0
  0
ENDTAB
  0
TABLE
  2
LTYPE
  5
5
330
0
100
AcDbSymbolTable
 70
     1
  0
LTYPE
  5
13
330
5
100
AcDbSymbolTableRecord
100
AcDbLinetypeTableRecord
  2
BYBLOCK
 70
     0
  3

 72
    65
 73
     0
 40
0.0
  0
LTYPE
  5
14
330
5
100
AcDbSymbolTableRecord
100
AcDbLinetypeTableRecord
  2
BYLAYER
 70
     0
  3

 72
    65
 73
     0
 40
0.0
  0
LTYPE
  5
15
330
5
100
AcDbSymbolTableRecord
100
AcDbLinetypeTableRecord
  2
CONTINUOUS
 70
     0
  3
Solid line
 72
    65
 73
     0
 40
0.0
  0
ENDTAB
  0
TABLE
  2
LAYER
  5
2
330
0
100
AcDbSymbolTable
 70
     1
  0
LAYER
  5
10
330
2
100
AcDbSymbolTableRecord
100
AcDbLayerTableRecord
  2
0
 70
     0
 62
     7
  6
CONTINUOUS
  0
ENDTAB
  0
TABLE
  2
STYLE
  5
3
330
0
100
AcDbSymbolTable
 70
     1
  0
STYLE
  5
11
330
3
100
AcDbSymbolTableRecord
100
AcDbTextStyleTableRecord
  2
STANDARD
 70
     0
 40
0.0
 41
1.0
 50
0.0
 71
     0
 42
0.2
  3
txt
  4

  0
ENDTAB
  0
TABLE
  2
VIEW
  5
6
330
0
100
AcDbSymbolTable
 70
     0
  0
ENDTAB
  0
TABLE
  2
UCS
  5
7
330
0
100
AcDbSymbolTable
 70
     0
  0
ENDTAB
  0
TABLE
  2
APPID
  5
9
330
0
100
AcDbSymbolTable
 70
     1
  0
APPID
  5
12
330
9
100
AcDbSymbolTableRecord
100
AcDbRegAppTableRecord
  2
ACAD
 70
     0
  0
ENDTAB
  0
TABLE
  2
DIMSTYLE
  5
A
330
0
100
AcDbSymbolTable
 70
     1
  0
DIMSTYLE
105
126
330
A
100
AcDbSymbolTableRecord
100
AcDbDimStyleTableRecord
  2
STANDARD
 70
     0
  3

  4

  5

  6

  7

 40
1.0
 41
0.18
 42
0.0625
 43
0.38
 44
0.18
 45
0.0
 46
0.0
 47
0.0
 48
0.0
140
0.18
141
0.09
142
0.0
143
25.4
144
1.0
145
0.0
146
1.0
147
0.09
 71
     0
 72
     0
 73
     1
 74
     1
 75
     0
 76
     0
 77
     0
 78
     0
170
     0
171
     2
172
     0
173
     0
174
     0
175
     0
176
     0
177
     0
178
     0
270
     2
271
     4
272
     4
273
     2
274
     2
340
11
275
     0
280
     0
281
     0
282
     0
283
     1
284
     0
285
     0
286
     0
287
     3
288
     0
  0
ENDTAB
  0
TABLE
  2
BLOCK_RECORD
  5
1
330
0
100
AcDbSymbolTable
 70
     0
  0
BLOCK_RECORD
  5
1E
102
{ACAD_XDICTIONARY
360
14F
102
}
330
1
100
AcDbSymbolTableRecord
100
AcDbBlockTableRecord
  2
*MODEL_SPACE
  0
BLOCK_RECORD
  5
1A
102
{ACAD_XDICTIONARY
360
14D
102
}
330
1
100
AcDbSymbolTableRecord
100
AcDbBlockTableRecord
  2
*PAPER_SPACE
  0
ENDTAB
  0
ENDSEC
  0
SECTION
  2
BLOCKS
  0
BLOCK
  5
1F
330
1E
100
AcDbEntity
  8
0
100
AcDbBlockBegin
  2
*MODEL_SPACE
 70
     0
 10
0.0
 20
0.0
 30
0.0
  3
*MODEL_SPACE
  1

  0
ENDBLK
  5
20
330
1E
100
AcDbEntity
  8
0
100
AcDbBlockEnd
  0
BLOCK
  5
1B
330
1A
100
AcDbEntity
 67
     1
  8
0
100
AcDbBlockBegin
  2
*PAPER_SPACE
 70
     0
 10
0.0
 20
0.0
 30
0.0
  3
*PAPER_SPACE
  1

  0
ENDBLK
  5
1C
330
1A
100
AcDbEntity
 67
     1
  8
0
100
AcDbBlockEnd
  0
ENDSEC
  0
SECTION
  2
ENTITIES
  0
LINE
  5
22
330
1E
100
AcDbEntity
  8
0
100
AcDbLine
 10
61.9
 20
5.99999999999999
 30
0.0
 11
64.2
 21
5.99999999999999
 31
0.0
  0
LINE
  5
23
330
1E
100
AcDbEntity
  8
0
100
AcDbLine
 10
61.0
 20
5.99999999999999
 30
0.0
 11
61.9
 21
5.99999999999999
 31
0.0
  0
LINE
  5
24
330
1E
100
AcDbEntity
  8
0
100
AcDbLine
 10
61.0
 20
5.99999999999999
 30
0.0
 11
65.5
 21
5.49999999999999
 31
0.0
  0
LINE
  5
25
330
1E
100
AcDbEntity
  8
0
100
AcDbLine
 10
63.3
 20
6.99999999999999
 30
0.0
 11
67.40000000000001
 21
7.0
 31
0.0
  0
LINE
  5
26
330
1E
100
AcDbEntity
  8
0
100
AcDbLine
 10
60.89999999999999
 20
6.99999999999999
 30
0.0
 11
63.3
 21
6.99999999999999
 31
0.0
  0
LINE
  5
27
330
1E
100
AcDbEntity
  8
0
100
AcDbLine
 10
60.0
 20
6.99999999999999
 30
0.0
 11
60.89999999999999
 21
6.99999999999999
 31
0.0
  0
LINE
  5
28
330
1E
100
AcDbEntity
  8
0
100
AcDbLine
 10
60.0
 20
6.99999999999999
 30
0.0
 11
61.0
 21
5.99999999999999
 31
0.0
  0
LINE
  5
29
330
1E
100
AcDbEntity
  8
0
100
AcDbLine
 10
60.0
 20
6.99999999999999
 30
0.0
 11
60.0
 21
44.0
 31
0.0
  0
LINE
  5
2A
330
1E
100
AcDbEntity
  8
0
100
AcDbLine
 10
66.2
 20
5.49999999999999
 30
0.0
 11
68.09999999999999
 21
5.49999999999999
 31
0.0
  0
LINE
  5
2B
330
1E
100
AcDbEntity
  8
0
100
AcDbLine
 10
65.5
 20
5.49999999999999
 30
0.0
 11
66.2
 21
5.49999999999999
 31
0.0
  0
LINE
  5
2C
330
1E
100
AcDbEntity
  8
0
100
AcDbLine
 10
64.2
 20
5.99999999999999
 30
0.0
 11
68.09999999999999
 21
6.0
 31
0.0
  0
LINE
  5
2D
330
1E
100
AcDbEntity
  8
0
100
AcDbLine
 10
67.40000000000001
 20
7.0
 30
0.0
 11
70.0
 21
7.0
 31
0.0
  0
LINE
  5
2E
330
1E
100
AcDbEntity
  8
0
100
AcDbLine
 10
68.0
 20
4.5
 30
0.0
 11
68.0
 21
0.4999999999999961
 31
0.0
  0
LINE
  5
2F
330
1E
100
AcDbEntity
  8
0
100
AcDbLine
 10
68.0
 20
4.5
 30
0.0
 11
68.5
 21
4.5
 31
0.0
  0
LINE
  5
30
330
1E
100
AcDbEntity
  8
0
100
AcDbLine
 10
68.0
 20
4.5
 30
0.0
 11
68.5
 21
5.0
 31
0.0
  0
LINE
  5
31
330
1E
100
AcDbEntity
  8
0
100
AcDbLine
 10
68.0
 20
4.49999999999999
 30
0.0
 11
68.0
 21
0.4999999999999901
 31
0.0
  0
LINE
  5
32
330
1E
100
AcDbEntity
  8
0
100
AcDbLine
 10
68.0
 20
0.4999999999999961
 30
0.0
 11
68.5
 21
-0.0000000000000045
 31
0.0
  0
LINE
  5
33
330
1E
100
AcDbEntity
  8
0
100
AcDbLine
 10
68.0
 20
0.4999999999999961
 30
0.0
 11
68.5
 21
0.4999999999999961
 31
0.0
  0
LINE
  5
34
330
1E
100
AcDbEntity
  8
0
100
AcDbLine
 10
68.0
 20
0.4999999999999961
 30
0.0
 11
68.5
 21
-0.0000000000000045
 31
0.0
  0
LINE
  5
35
330
1E
100
AcDbEntity
  8
0
100
AcDbLine
 10
68.0
 20
0.4999999999999961
 30
0.0
 11
68.0
 21
4.5
 31
0.0
  0
LINE
  5
36
330
1E
100
AcDbEntity
  8
0
100
AcDbLine
 10
68.0
 20
0.4999999999999901
 30
0.0
 11
68.5
 21
-0.0000000000000102
 31
0.0
  0
LINE
  5
37
330
1E
100
AcDbEntity
  8
0
100
AcDbLine
 10
68.0
 20
0.4999999999999901
 30
0.0
 11
68.5
 21
-0.0000000000000102
 31
0.0
  0
LINE
  5
38
330
1E
100
AcDbEntity
  8
0
100
AcDbLine
 10
68.0
 20
0.4999999999999901
 30
0.0
 11
68.0
 21
4.49999999999999
 31
0.0
  0
LINE
  5
39
330
1E
100
AcDbEntity
  8
0
100
AcDbLine
 10
68.09999999999999
 20
5.49999999999999
 30
0.0
 11
70.0
 21
5.49999999999999
 31
0.0
  0
LINE
  5
3A
330
1E
100
AcDbEntity
  8
0
100
AcDbLine
 10
68.5
 20
5.0
 30
0.0
 11
68.5
 21
4.5
 31
0.0
  0
LINE
  5
3B
330
1E
100
AcDbEntity
  8
0
100
AcDbLine
 10
68.5
 20
5.0
 30
0.0
 11
70.0
 21
5.0
 31
0.0
  0
LINE
  5
3C
330
1E
100
AcDbEntity
  8
0
100
AcDbLine
 10
68.5
 20
4.5
 30
0.0
 11
68.5
 21
0.4999999999999961
 31
0.0
  0
LINE
  5
3D
330
1E
100
AcDbEntity
  8
0
100
AcDbLine
 10
68.5
 20
4.5
 30
0.0
 11
70.0
 21
4.5
 31
0.0
  0
LINE
  5
3E
330
1E
100
AcDbEntity
  8
0
100
AcDbLine
 10
68.5
 20
4.5
 30
0.0
 11
68.5
 21
5.0
 31
0.0
  0
LINE
  5
3F
330
1E
100
AcDbEntity
  8
0
100
AcDbLine
 10
68.5
 20
0.4999999999999961
 30
0.0
 11
68.5
 21
-0.0000000000000045
 31
0.0
  0
LINE
  5
40
330
1E
100
AcDbEntity
  8
0
100
AcDbLine
 10
68.5
 20
0.4999999999999961
 30
0.0
 11
70.5
 21
0.4999999999999961
 31
0.0
  0
LINE
  5
41
330
1E
100
AcDbEntity
  8
0
100
AcDbLine
 10
68.5
 20
0.4999999999999961
 30
0.0
 11
68.5
 21
4.5
 31
0.0
  0
LINE
  5
42
330
1E
100
AcDbEntity
  8
0
100
AcDbLine
 10
68.5
 20
-0.0000000000000045
 30
0.0
 11
101.5
 21
-0.0000000000000045
 31
0.0
  0
LINE
  5
43
330
1E
100
AcDbEntity
  8
0
100
AcDbLine
 10
68.5
 20
-0.0000000000000045
 30
0.0
 11
68.5
 21
0.4999999999999961
 31
0.0
  0
LINE
  5
44
330
1E
100
AcDbEntity
  8
0
100
AcDbLine
 10
70.0
 20
5.0
 30
0.0
 11
70.0
 21
5.693548387096769
 31
0.0
  0
LINE
  5
45
330
1E
100
AcDbEntity
  8
0
100
AcDbLine
 10
70.0
 20
5.0
 30
0.0
 11
70.0
 21
5.49999999999999
 31
0.0
  0
LINE
  5
46
330
1E
100
AcDbEntity
  8
0
100
AcDbLine
 10
70.0
 20
5.693548387096769
 30
0.0
 11
70.0
 21
5.0
 31
0.0
  0
LINE
  5
47
330
1E
100
AcDbEntity
  8
0
100
AcDbLine
 10
70.0
 20
5.49999999999999
 30
0.0
 11
70.0
 21
5.0
 31
0.0
  0
LINE
  5
48
330
1E
100
AcDbEntity
  8
0
100
AcDbLine
 10
68.5
 20
-0.0000000000000102
 30
0.0
 11
101.5
 21
-0.0000000000000102
 31
0.0
  0
LINE
  5
49
330
1E
100
AcDbEntity
  8
0
100
AcDbLine
 10
68.09999999999999
 20
6.0
 30
0.0
 11
70.0
 21
6.0
 31
0.0
  0
LINE
  5
4A
330
1E
100
AcDbEntity
  8
0
100
AcDbLine
 10
68.09999999999999
 20
35.2
 30
0.0
 11
70.0
 21
34.3081632653061
 31
0.0
  0
LINE
  5
4B
330
1E
100
AcDbEntity
  8
0
100
AcDbLine
 10
67.40000000000001
 20
34.2
 30
0.0
 11
70.0
 21
33.04999999999999
 31
0.0
  0
LINE
  5
4C
330
1E
100
AcDbEntity
  8
0
100
AcDbLine
 10
64.2
 20
38.0
 30
0.0
 11
68.09999999999999
 21
35.2
 31
0.0
  0
LINE
  5
4D
330
1E
100
AcDbEntity
  8
0
100
AcDbLine
 10
63.3
 20
37.0
 30
0.0
 11
67.40000000000001
 21
34.2
 31
0.0
  0
LINE
  5
4E
330
1E
100
AcDbEntity
  8
0
100
AcDbLine
 10
2.0
 20
50.0
 30
0.0
 11
61.5
 21
50.0
 31
0.0
  0
LINE
  5
4F
330
1E
100
AcDbEntity
  8
0
100
AcDbLine
 10
2.0
 20
50.0
 30
0.0
 11
61.5
 21
50.0
 31
0.0
  0
LINE
  5
50
330
1E
100
AcDbEntity
  8
0
100
AcDbLine
 10
61.5
 20
43.0
 30
0.0
 11
61.5
 21
50.0
 31
0.0
  0
LINE
  5
51
330
1E
100
AcDbEntity
  8
0
100
AcDbLine
 10
61.25
 20
44.0
 30
0.0
 11
61.5
 21
44.0
 31
0.0
  0
LINE
  5
52
330
1E
100
AcDbEntity
  8
0
100
AcDbLine
 10
61.9
 20
41.39999999999999
 30
0.0
 11
64.2
 21
38.0
 31
0.0
  0
LINE
  5
53
330
1E
100
AcDbEntity
  8
0
100
AcDbLine
 10
60.89999999999999
 20
40.4
 30
0.0
 11
63.3
 21
37.0
 31
0.0
  0
LINE
  5
54
330
1E
100
AcDbEntity
  8
0
100
AcDbLine
 10
68.4
 20
50.0
 30
0.0
 11
70.0
 21
50.0
 31
0.0
  0
LINE
  5
55
330
1E
100
AcDbEntity
  8
0
100
AcDbLine
 10
64.59999999999999
 20
50.0
 30
0.0
 11
68.4
 21
50.0
 31
0.0
  0
LINE
  5
56
330
1E
100
AcDbEntity
  8
0
100
AcDbLine
 10
62.3
 20
50.0
 30
0.0
 11
64.59999999999999
 21
50.0
 31
0.0
  0
LINE
  5
57
330
1E
100
AcDbEntity
  8
0
100
AcDbLine
 10
61.5
 20
50.0
 30
0.0
 11
61.5
 21
43.0
 31
0.0
  0
LINE
  5
58
330
1E
100
AcDbEntity
  8
0
100
AcDbLine
 10
61.5
 20
50.0
 30
0.0
 11
62.3
 21
50.0
 31
0.0
  0
LINE
  5
59
330
1E
100
AcDbEntity
  8
0
100
AcDbLine
 10
61.0
 20
45.0
 30
0.0
 11
61.9
 21
41.39999999999999
 31
0.0
  0
LINE
  5
5A
330
1E
100
AcDbEntity
  8
0
100
AcDbLine
 10
61.0
 20
45.0
 30
0.0
 11
61.5
 21
45.0
 31
0.0
  0
LINE
  5
5B
330
1E
100
AcDbEntity
  8
0
100
AcDbLine
 10
60.0
 20
44.0
 30
0.0
 11
60.89999999999999
 21
40.4
 31
0.0
  0
LINE
  5
5C
330
1E
100
AcDbEntity
  8
0
100
AcDbLine
 10
60.0
 20
44.0
 30
0.0
 11
61.0
 21
45.0
 31
0.0
  0
LINE
  5
5D
330
1E
100
AcDbEntity
  8
0
100
AcDbLine
 10
60.0
 20
44.0
 30
0.0
 11
60.0
 21
7.0
 31
0.0
  0
LINE
  5
5E
330
1E
100
AcDbEntity
  8
0
100
AcDbLine
 10
70.0
 20
39.5
 30
0.0
 11
70.0
 21
1.5
 31
0.0
  0
LINE
  5
5F
330
1E
100
AcDbEntity
  8
0
100
AcDbLine
 10
70.0
 20
39.5
 30
0.0
 11
70.5
 21
39.5
 31
0.0
  0
LINE
  5
60
330
1E
100
AcDbEntity
  8
0
100
AcDbLine
 10
70.0
 20
39.5
 30
0.0
 11
70.5
 21
40.0
 31
0.0
  0
LINE
  5
61
330
1E
100
AcDbEntity
  8
0
100
AcDbLine
 10
70.0
 20
1.5
 30
0.0
 11
70.5
 21
0.499999999999999
 31
0.0
  0
LINE
  5
62
330
1E
100
AcDbEntity
  8
0
100
AcDbLine
 10
70.0
 20
1.5
 30
0.0
 11
70.0
 21
39.5
 31
0.0
  0
LINE
  5
63
330
1E
100
AcDbEntity
  8
0
100
AcDbLine
 10
0.0000000000000012
 20
52.0
 30
0.0
 11
0.0000000000000012
 21
65.0
 31
0.0
  0
LINE
  5
64
330
1E
100
AcDbEntity
  8
0
100
AcDbLine
 10
0.0000000000000012
 20
52.0
 30
0.0
 11
0.500000000000001
 21
50.5
 31
0.0
  0
LINE
  5
65
330
1E
100
AcDbEntity
  8
0
100
AcDbLine
 10
0.500000000000001
 20
50.5
 30
0.0
 11
2.0
 21
50.0
 31
0.0
  0
LINE
  5
66
330
1E
100
AcDbEntity
  8
0
100
AcDbLine
 10
2.0
 20
50.5
 30
0.0
 11
85.0
 21
50.5
 31
0.0
  0
LINE
  5
67
330
1E
100
AcDbEntity
  8
0
100
AcDbLine
 10
1.0
 20
50.5
 30
0.0
 11
2.0
 21
50.5
 31
0.0
  0
LINE
  5
68
330
1E
100
AcDbEntity
  8
0
100
AcDbLine
 10
0.500000000000001
 20
50.5
 30
0.0
 11
1.0
 21
50.5
 31
0.0
  0
LINE
  5
69
330
1E
100
AcDbEntity
  8
0
100
AcDbLine
 10
0.500000000000001
 20
52.0
 30
0.0
 11
0.500000000000001
 21
65.0
 31
0.0
  0
LINE
  5
6A
330
1E
100
AcDbEntity
  8
0
100
AcDbLine
 10
0.500000000000001
 20
52.0
 30
0.0
 11
1.0
 21
50.5
 31
0.0
  0
LINE
  5
6B
330
1E
100
AcDbEntity
  8
0
100
AcDbLine
 10
2.0
 20
50.5
 30
0.0
 11
85.0
 21
50.5
 31
0.0
  0
LINE
  5
6C
330
1E
100
AcDbEntity
  8
0
100
AcDbLine
 10
2.0
 20
65.0
 30
0.0
 11
85.0
 21
65.0
 31
0.0
  0
LINE
  5
6D
330
1E
100
AcDbEntity
  8
0
100
AcDbLine
 10
2.0
 20
65.0
 30
0.0
 11
85.0
 21
65.0
 31
0.0
  0
LINE
  5
6E
330
1E
100
AcDbEntity
  8
0
100
AcDbLine
 10
0.500000000000001
 20
65.0
 30
0.0
 11
2.0
 21
65.0
 31
0.0
  0
LINE
  5
6F
330
1E
100
AcDbEntity
  8
0
100
AcDbLine
 10
0.500000000000001
 20
65.0
 30
0.0
 11
0.500000000000001
 21
52.0
 31
0.0
  0
LINE
  5
70
330
1E
100
AcDbEntity
  8
0
100
AcDbLine
 10
0.0000000000000012
 20
65.0
 30
0.0
 11
0.500000000000001
 21
65.0
 31
0.0
  0
LINE
  5
71
330
1E
100
AcDbEntity
  8
0
100
AcDbLine
 10
0.0000000000000012
 20
65.0
 30
0.0
 11
0.0000000000000012
 21
52.0
 31
0.0
  0
LINE
  5
72
330
1E
100
AcDbEntity
  8
0
100
AcDbLine
 10
70.0
 20
50.0
 30
0.0
 11
70.0
 21
44.0
 31
0.0
  0
LINE
  5
73
330
1E
100
AcDbEntity
  8
0
100
AcDbLine
 10
70.0
 20
50.0
 30
0.0
 11
70.5
 21
50.0
 31
0.0
  0
LINE
  5
74
330
1E
100
AcDbEntity
  8
0
100
AcDbLine
 10
71.5
 20
-0.0000000000000014
 30
0.0
 11
71.90000000000001
 21
-0.0000000000000017
 31
0.0
  0
LINE
  5
75
330
1E
100
AcDbEntity
  8
0
100
AcDbLine
 10
71.0
 20
40.0
 30
0.0
 11
72.40000000000001
 21
40.0
 31
0.0
  0
LINE
  5
76
330
1E
100
AcDbEntity
  8
0
100
AcDbLine
 10
70.5
 20
40.0
 30
0.0
 11
71.0
 21
40.0
 31
0.0
  0
LINE
  5
77
330
1E
100
AcDbEntity
  8
0
100
AcDbLine
 10
70.5
 20
39.5
 30
0.0
 11
72.0
 21
39.5
 31
0.0
  0
LINE
  5
78
330
1E
100
AcDbEntity
  8
0
100
AcDbLine
 10
71.0
 20
0.499999999999999
 30
0.0
 11
72.40000000000001
 21
0.499999999999999
 31
0.0
  0
LINE
  5
79
330
1E
100
AcDbEntity
  8
0
100
AcDbLine
 10
70.5
 20
0.499999999999999
 30
0.0
 11
71.5
 21
-0.0000000000000015
 31
0.0
  0
LINE
  5
7A
330
1E
100
AcDbEntity
  8
0
100
AcDbLine
 10
70.5
 20
0.499999999999999
 30
0.0
 11
71.0
 21
0.499999999999999
 31
0.0
  0
LINE
  5
7B
330
1E
100
AcDbEntity
  8
0
100
AcDbLine
 10
70.5
 20
0.499999999999999
 30
0.0
 11
71.5
 21
-0.0000000000000014
 31
0.0
  0
LINE
  5
7C
330
1E
100
AcDbEntity
  8
0
100
AcDbLine
 10
71.90000000000001
 20
-0.0000000000000017
 30
0.0
 11
73.3
 21
-0.0000000000000019
 31
0.0
  0
LINE
  5
7D
330
1E
100
AcDbEntity
  8
0
100
AcDbLine
 10
72.0
 20
39.5
 30
0.0
 11
74.40000000000001
 21
39.5
 31
0.0
  0
LINE
  5
7E
330
1E
100
AcDbEntity
  8
0
100
AcDbLine
 10
71.5
 20
43.0
 30
0.0
 11
72.9
 21
43.0
 31
0.0
  0
LINE
  5
7F
330
1E
100
AcDbEntity
  8
0
100
AcDbLine
 10
71.0
 20
43.0
 30
0.0
 11
71.5
 21
43.0
 31
0.0
  0
LINE
  5
80
330
1E
100
AcDbEntity
  8
0
100
AcDbLine
 10
73.3
 20
-0.0000000000000019
 30
0.0
 11
75.4
 21
-0.000000000000002
 31
0.0
  0
LINE
  5
81
330
1E
100
AcDbEntity
  8
0
100
AcDbLine
 10
73.0
 20
40.0
 30
0.0
 11
73.0
 21
43.0
 31
0.0
  0
LINE
  5
82
330
1E
100
AcDbEntity
  8
0
100
AcDbLine
 10
72.40000000000001
 20
40.0
 30
0.0
 11
74.7
 21
40.0
 31
0.0
  0
LINE
  5
83
330
1E
100
AcDbEntity
  8
0
100
AcDbLine
 10
72.40000000000001
 20
0.499999999999999
 30
0.0
 11
74.7
 21
0.499999999999999
 31
0.0
  0
LINE
  5
84
330
1E
100
AcDbEntity
  8
0
100
AcDbLine
 10
74.7
 20
40.0
 30
0.0
 11
77.7
 21
40.0
 31
0.0
  0
LINE
  5
85
330
1E
100
AcDbEntity
  8
0
100
AcDbLine
 10
74.40000000000001
 20
39.5
 30
0.0
 11
77.5
 21
39.5
 31
0.0
  0
LINE
  5
86
330
1E
100
AcDbEntity
  8
0
100
AcDbLine
 10
74.7
 20
0.499999999999999
 30
0.0
 11
77.7
 21
0.499999999999999
 31
0.0
  0
LINE
  5
87
330
1E
100
AcDbEntity
  8
0
100
AcDbLine
 10
74.59999999999999
 20
43.0
 30
0.0
 11
76.5
 21
43.0
 31
0.0
  0
LINE
  5
88
330
1E
100
AcDbEntity
  8
0
100
AcDbLine
 10
73.4
 20
43.0
 30
0.0
 11
74.59999999999999
 21
43.0
 31
0.0
  0
LINE
  5
89
330
1E
100
AcDbEntity
  8
0
100
AcDbLine
 10
73.0
 20
43.0
 30
0.0
 11
73.4
 21
43.0
 31
0.0
  0
LINE
  5
8A
330
1E
100
AcDbEntity
  8
0
100
AcDbLine
 10
73.0
 20
43.0
 30
0.0
 11
73.0
 21
40.0
 31
0.0
  0
LINE
  5
8B
330
1E
100
AcDbEntity
  8
0
100
AcDbLine
 10
75.4
 20
-0.000000000000002
 30
0.0
 11
78.2
 21
-0.0000000000000022
 31
0.0
  0
LINE
  5
8C
330
1E
100
AcDbEntity
  8
0
100
AcDbLine
 10
77.5
 20
39.5
 30
0.0
 11
81.09999999999999
 21
39.5
 31
0.0
  0
LINE
  5
8D
330
1E
100
AcDbEntity
  8
0
100
AcDbLine
 10
76.5
 20
43.0
 30
0.0
 11
79.0
 21
43.0
 31
0.0
  0
LINE
  5
8E
330
1E
100
AcDbEntity
  8
0
100
AcDbLine
 10
75.09999999999999
 20
43.0
 30
0.0
 11
78.0
 21
43.0
 31
0.0
  0
LINE
  5
8F
330
1E
100
AcDbEntity
  8
0
100
AcDbLine
 10
72.9
 20
43.0
 30
0.0
 11
75.09999999999999
 21
43.0
 31
0.0
  0
LINE
  5
90
330
1E
100
AcDbEntity
  8
0
100
AcDbLine
 10
72.9
 20
43.0
 30
0.0
 11
73.0
 21
43.0
 31
0.0
  0
LINE
  5
91
330
1E
100
AcDbEntity
  8
0
100
AcDbLine
 10
77.7
 20
40.0
 30
0.0
 11
81.2
 21
40.0
 31
0.0
  0
LINE
  5
92
330
1E
100
AcDbEntity
  8
0
100
AcDbLine
 10
77.7
 20
0.499999999999999
 30
0.0
 11
81.2
 21
0.499999999999999
 31
0.0
  0
LINE
  5
93
330
1E
100
AcDbEntity
  8
0
100
AcDbLine
 10
78.2
 20
-0.0000000000000022
 30
0.0
 11
81.5
 21
-0.0000000000000022
 31
0.0
  0
LINE
  5
94
330
1E
100
AcDbEntity
  8
0
100
AcDbLine
 10
81.2
 20
40.0
 30
0.0
 11
85.0
 21
40.0
 31
0.0
  0
LINE
  5
95
330
1E
100
AcDbEntity
  8
0
100
AcDbLine
 10
81.09999999999999
 20
39.5
 30
0.0
 11
85.0
 21
39.5
 31
0.0
  0
LINE
  5
96
330
1E
100
AcDbEntity
  8
0
100
AcDbLine
 10
85.0
 20
-0.0000000000000023
 30
0.0
 11
88.49999999999999
 21
-0.0000000000000022
 31
0.0
  0
LINE
  5
97
330
1E
100
AcDbEntity
  8
0
100
AcDbLine
 10
101.5
 20
-0.0000000000000102
 30
0.0
 11
102.0
 21
0.4999999999999901
 31
0.0
  0
LINE
  5
98
330
1E
100
AcDbEntity
  8
0
100
AcDbLine
 10
101.5
 20
-0.0000000000000102
 30
0.0
 11
102.0
 21
0.4999999999999901
 31
0.0
  0
LINE
  5
99
330
1E
100
AcDbEntity
  8
0
100
AcDbLine
 10
101.5
 20
-0.0000000000000045
 30
0.0
 11
102.0
 21
0.4999999999999961
 31
0.0
  0
LINE
  5
9A
330
1E
100
AcDbEntity
  8
0
100
AcDbLine
 10
101.5
 20
-0.0000000000000045
 30
0.0
 11
102.0
 21
0.4999999999999961
 31
0.0
  0
LINE
  5
9B
330
1E
100
AcDbEntity
  8
0
100
AcDbLine
 10
101.5
 20
-0.0000000000000045
 30
0.0
 11
101.5
 21
0.4999999999999961
 31
0.0
  0
LINE
  5
9C
330
1E
100
AcDbEntity
  8
0
100
AcDbLine
 10
88.49999999999999
 20
-0.0000000000000022
 30
0.0
 11
91.79999999999999
 21
-0.0000000000000022
 31
0.0
  0
LINE
  5
9D
330
1E
100
AcDbEntity
  8
0
100
AcDbLine
 10
85.0
 20
0.499999999999999
 30
0.0
 11
88.8
 21
0.499999999999999
 31
0.0
  0
LINE
  5
9E
330
1E
100
AcDbEntity
  8
0
100
AcDbLine
 10
85.0
 20
40.0
 30
0.0
 11
88.8
 21
40.0
 31
0.0
  0
LINE
  5
9F
330
1E
100
AcDbEntity
  8
0
100
AcDbLine
 10
85.0
 20
39.5
 30
0.0
 11
88.9
 21
39.5
 31
0.0
  0
LINE
  5
A0
330
1E
100
AcDbEntity
  8
0
100
AcDbLine
 10
88.8
 20
0.499999999999999
 30
0.0
 11
92.3
 21
0.499999999999999
 31
0.0
  0
LINE
  5
A1
330
1E
100
AcDbEntity
  8
0
100
AcDbLine
 10
92.3
 20
0.499999999999999
 30
0.0
 11
95.29999999999999
 21
0.499999999999999
 31
0.0
  0
LINE
  5
A2
330
1E
100
AcDbEntity
  8
0
100
AcDbLine
 10
92.5
 20
39.5
 30
0.0
 11
95.6
 21
39.5
 31
0.0
  0
LINE
  5
A3
330
1E
100
AcDbEntity
  8
0
100
AcDbLine
 10
92.3
 20
40.0
 30
0.0
 11
95.29999999999999
 21
40.0
 31
0.0
  0
LINE
  5
A4
330
1E
100
AcDbEntity
  8
0
100
AcDbLine
 10
88.9
 20
39.5
 30
0.0
 11
92.5
 21
39.5
 31
0.0
  0
LINE
  5
A5
330
1E
100
AcDbEntity
  8
0
100
AcDbLine
 10
85.0
 20
43.0
 30
0.0
 11
88.59999999999999
 21
43.0
 31
0.0
  0
LINE
  5
A6
330
1E
100
AcDbEntity
  8
0
100
AcDbLine
 10
85.0
 20
43.0
 30
0.0
 11
88.1
 21
43.0
 31
0.0
  0
LINE
  5
A7
330
1E
100
AcDbEntity
  8
0
100
AcDbLine
 10
88.1
 20
43.0
 30
0.0
 11
91.0
 21
43.0
 31
0.0
  0
LINE
  5
A8
330
1E
100
AcDbEntity
  8
0
100
AcDbLine
 10
93.49999999999999
 20
43.0
 30
0.0
 11
95.4
 21
43.0
 31
0.0
  0
LINE
  5
A9
330
1E
100
AcDbEntity
  8
0
100
AcDbLine
 10
91.0
 20
43.0
 30
0.0
 11
93.49999999999999
 21
43.0
 31
0.0
  0
LINE
  5
AA
330
1E
100
AcDbEntity
  8
0
100
AcDbLine
 10
92.0
 20
43.0
 30
0.0
 11
94.9
 21
43.0
 31
0.0
  0
LINE
  5
AB
330
1E
100
AcDbEntity
  8
0
100
AcDbLine
 10
88.59999999999999
 20
43.0
 30
0.0
 11
92.0
 21
43.0
 31
0.0
  0
LINE
  5
AC
330
1E
100
AcDbEntity
  8
0
100
AcDbLine
 10
88.8
 20
40.0
 30
0.0
 11
92.3
 21
40.0
 31
0.0
  0
LINE
  5
AD
330
1E
100
AcDbEntity
  8
0
100
AcDbLine
 10
95.29999999999999
 20
0.499999999999999
 30
0.0
 11
97.59999999999999
 21
0.499999999999999
 31
0.0
  0
LINE
  5
AE
330
1E
100
AcDbEntity
  8
0
100
AcDbLine
 10
97.59999999999999
 20
0.499999999999999
 30
0.0
 11
99.0
 21
0.499999999999999
 31
0.0
  0
LINE
  5
AF
330
1E
100
AcDbEntity
  8
0
100
AcDbLine
 10
97.0
 20
40.0
 30
0.0
 11
97.0
 21
43.0
 31
0.0
  0
LINE
  5
B0
330
1E
100
AcDbEntity
  8
0
100
AcDbLine
 10
95.6
 20
39.5
 30
0.0
 11
98.0
 21
39.5
 31
0.0
  0
LINE
  5
B1
330
1E
100
AcDbEntity
  8
0
100
AcDbLine
 10
95.4
 20
43.0
 30
0.0
 11
96.6
 21
43.0
 31
0.0
  0
LINE
  5
B2
330
1E
100
AcDbEntity
  8
0
100
AcDbLine
 10
94.9
 20
43.0
 30
0.0
 11
97.1
 21
43.0
 31
0.0
  0
LINE
  5
B3
330
1E
100
AcDbEntity
  8
0
100
AcDbLine
 10
96.6
 20
43.0
 30
0.0
 11
97.0
 21
43.0
 31
0.0
  0
LINE
  5
B4
330
1E
100
AcDbEntity
  8
0
100
AcDbLine
 10
97.0
 20
43.0
 30
0.0
 11
97.1
 21
43.0
 31
0.0
  0
LINE
  5
B5
330
1E
100
AcDbEntity
  8
0
100
AcDbLine
 10
97.0
 20
43.0
 30
0.0
 11
97.0
 21
40.0
 31
0.0
  0
LINE
  5
B6
330
1E
100
AcDbEntity
  8
0
100
AcDbLine
 10
97.1
 20
43.0
 30
0.0
 11
98.50000000000001
 21
43.0
 31
0.0
  0
LINE
  5
B7
330
1E
100
AcDbEntity
  8
0
100
AcDbLine
 10
95.29999999999999
 20
40.0
 30
0.0
 11
97.59999999999999
 21
40.0
 31
0.0
  0
LINE
  5
B8
330
1E
100
AcDbEntity
  8
0
100
AcDbLine
 10
98.0
 20
39.5
 30
0.0
 11
99.50000000000001
 21
39.5
 31
0.0
  0
LINE
  5
B9
330
1E
100
AcDbEntity
  8
0
100
AcDbLine
 10
97.59999999999999
 20
40.0
 30
0.0
 11
99.0
 21
40.0
 31
0.0
  0
LINE
  5
BA
330
1E
100
AcDbEntity
  8
0
100
AcDbLine
 10
96.70000000000001
 20
-0.0000000000000019
 30
0.0
 11
98.1
 21
-0.0000000000000017
 31
0.0
  0
LINE
  5
BB
330
1E
100
AcDbEntity
  8
0
100
AcDbLine
 10
94.59999999999999
 20
-0.000000000000002
 30
0.0
 11
96.70000000000001
 21
-0.0000000000000019
 31
0.0
  0
LINE
  5
BC
330
1E
100
AcDbEntity
  8
0
100
AcDbLine
 10
91.79999999999999
 20
-0.0000000000000022
 30
0.0
 11
94.59999999999999
 21
-0.000000000000002
 31
0.0
  0
LINE
  5
BD
330
1E
100
AcDbEntity
  8
0
100
AcDbLine
 10
98.50000000000001
 20
-0.0000000000000015
 30
0.0
 11
99.50000000000001
 21
0.499999999999999
 31
0.0
  0
LINE
  5
BE
330
1E
100
AcDbEntity
  8
0
100
AcDbLine
 10
99.0
 20
0.499999999999999
 30
0.0
 11
99.50000000000001
 21
0.499999999999999
 31
0.0
  0
LINE
  5
BF
330
1E
100
AcDbEntity
  8
0
100
AcDbLine
 10
98.50000000000001
 20
-0.0000000000000014
 30
0.0
 11
99.50000000000001
 21
0.499999999999999
 31
0.0
  0
LINE
  5
C0
330
1E
100
AcDbEntity
  8
0
100
AcDbLine
 10
99.50000000000001
 20
0.4999999999999961
 30
0.0
 11
101.5
 21
0.4999999999999961
 31
0.0
  0
LINE
  5
C1
330
1E
100
AcDbEntity
  8
0
100
AcDbLine
 10
100.0
 20
5.0
 30
0.0
 11
101.5
 21
5.0
 31
0.0
  0
LINE
  5
C2
330
1E
100
AcDbEntity
  8
0
100
AcDbLine
 10
100.0
 20
4.5
 30
0.0
 11
101.5
 21
4.5
 31
0.0
  0
LINE
  5
C3
330
1E
100
AcDbEntity
  8
0
100
AcDbLine
 10
100.0
 20
6.0
 30
0.0
 11
101.9
 21
6.0
 31
0.0
  0
LINE
  5
C4
330
1E
100
AcDbEntity
  8
0
100
AcDbLine
 10
100.0
 20
34.3081632653061
 30
0.0
 11
101.9
 21
35.2
 31
0.0
  0
LINE
  5
C5
330
1E
100
AcDbEntity
  8
0
100
AcDbLine
 10
100.0
 20
33.04999999999999
 30
0.0
 11
102.6
 21
34.2
 31
0.0
  0
LINE
  5
C6
330
1E
100
AcDbEntity
  8
0
100
AcDbLine
 10
100.0
 20
7.0
 30
0.0
 11
102.6
 21
7.0
 31
0.0
  0
LINE
  5
C7
330
1E
100
AcDbEntity
  8
0
100
AcDbLine
 10
100.0
 20
5.49999999999999
 30
0.0
 11
101.9
 21
5.49999999999999
 31
0.0
  0
LINE
  5
C8
330
1E
100
AcDbEntity
  8
0
100
AcDbLine
 10
99.50000000000001
 20
0.499999999999999
 30
0.0
 11
100.0
 21
1.5
 31
0.0
  0
LINE
  5
C9
330
1E
100
AcDbEntity
  8
0
100
AcDbLine
 10
99.50000000000001
 20
39.5
 30
0.0
 11
100.0
 21
39.5
 31
0.0
  0
LINE
  5
CA
330
1E
100
AcDbEntity
  8
0
100
AcDbLine
 10
101.5
 20
5.0
 30
0.0
 11
102.0
 21
4.5
 31
0.0
  0
LINE
  5
CB
330
1E
100
AcDbEntity
  8
0
100
AcDbLine
 10
101.5
 20
5.0
 30
0.0
 11
101.5
 21
4.5
 31
0.0
  0
LINE
  5
CC
330
1E
100
AcDbEntity
  8
0
100
AcDbLine
 10
101.5
 20
4.5
 30
0.0
 11
101.5
 21
0.4999999999999961
 31
0.0
  0
LINE
  5
CD
330
1E
100
AcDbEntity
  8
0
100
AcDbLine
 10
101.5
 20
4.5
 30
0.0
 11
102.0
 21
4.5
 31
0.0
  0
LINE
  5
CE
330
1E
100
AcDbEntity
  8
0
100
AcDbLine
 10
101.5
 20
4.5
 30
0.0
 11
101.5
 21
5.0
 31
0.0
  0
LINE
  5
CF
330
1E
100
AcDbEntity
  8
0
100
AcDbLine
 10
102.0
 20
4.5
 30
0.0
 11
102.0
 21
0.4999999999999961
 31
0.0
  0
LINE
  5
D0
330
1E
100
AcDbEntity
  8
0
100
AcDbLine
 10
102.0
 20
0.4999999999999961
 30
0.0
 11
102.0
 21
4.5
 31
0.0
  0
LINE
  5
D1
330
1E
100
AcDbEntity
  8
0
100
AcDbLine
 10
101.5
 20
0.4999999999999961
 30
0.0
 11
102.0
 21
0.4999999999999961
 31
0.0
  0
LINE
  5
D2
330
1E
100
AcDbEntity
  8
0
100
AcDbLine
 10
101.5
 20
0.4999999999999961
 30
0.0
 11
101.5
 21
-0.0000000000000045
 31
0.0
  0
LINE
  5
D3
330
1E
100
AcDbEntity
  8
0
100
AcDbLine
 10
101.5
 20
0.4999999999999961
 30
0.0
 11
101.5
 21
4.5
 31
0.0
  0
LINE
  5
D4
330
1E
100
AcDbEntity
  8
0
100
AcDbLine
 10
104.4999999999999
 20
5.49999999999999
 30
0.0
 11
109.0
 21
5.99999999999999
 31
0.0
  0
LINE
  5
D5
330
1E
100
AcDbEntity
  8
0
100
AcDbLine
 10
103.8
 20
5.49999999999999
 30
0.0
 11
104.4999999999999
 21
5.49999999999999
 31
0.0
  0
LINE
  5
D6
330
1E
100
AcDbEntity
  8
0
100
AcDbLine
 10
101.9
 20
6.0
 30
0.0
 11
105.8
 21
5.99999999999999
 31
0.0
  0
LINE
  5
D7
330
1E
100
AcDbEntity
  8
0
100
AcDbLine
 10
105.8
 20
5.99999999999999
 30
0.0
 11
108.0999999999999
 21
5.99999999999999
 31
0.0
  0
LINE
  5
D8
330
1E
100
AcDbEntity
  8
0
100
AcDbLine
 10
108.0999999999999
 20
5.99999999999999
 30
0.0
 11
109.0
 21
5.99999999999999
 31
0.0
  0
LINE
  5
D9
330
1E
100
AcDbEntity
  8
0
100
AcDbLine
 10
101.9
 20
35.2
 30
0.0
 11
105.8
 21
38.0
 31
0.0
  0
LINE
  5
DA
330
1E
100
AcDbEntity
  8
0
100
AcDbLine
 10
102.6
 20
34.2
 30
0.0
 11
106.6999999999999
 21
37.0
 31
0.0
  0
LINE
  5
DB
330
1E
100
AcDbEntity
  8
0
100
AcDbLine
 10
105.8
 20
38.0
 30
0.0
 11
108.0999999999999
 21
41.39999999999999
 31
0.0
  0
LINE
  5
DC
330
1E
100
AcDbEntity
  8
0
100
AcDbLine
 10
106.6999999999999
 20
37.0
 30
0.0
 11
109.0999999999999
 21
40.4
 31
0.0
  0
LINE
  5
DD
330
1E
100
AcDbEntity
  8
0
100
AcDbLine
 10
106.6999999999999
 20
6.99999999999999
 30
0.0
 11
109.0999999999999
 21
6.99999999999999
 31
0.0
  0
LINE
  5
DE
330
1E
100
AcDbEntity
  8
0
100
AcDbLine
 10
102.6
 20
7.0
 30
0.0
 11
106.6999999999999
 21
6.99999999999999
 31
0.0
  0
LINE
  5
DF
330
1E
100
AcDbEntity
  8
0
100
AcDbLine
 10
110.0
 20
6.99999999999999
 30
0.0
 11
110.0
 21
44.0
 31
0.0
  0
LINE
  5
E0
330
1E
100
AcDbEntity
  8
0
100
AcDbLine
 10
109.0999999999999
 20
6.99999999999999
 30
0.0
 11
110.0
 21
6.99999999999999
 31
0.0
  0
LINE
  5
E1
330
1E
100
AcDbEntity
  8
0
100
AcDbLine
 10
109.0
 20
5.99999999999999
 30
0.0
 11
110.0
 21
6.99999999999999
 31
0.0
  0
LINE
  5
E2
330
1E
100
AcDbEntity
  8
0
100
AcDbLine
 10
101.9
 20
5.49999999999999
 30
0.0
 11
103.8
 21
5.49999999999999
 31
0.0
  0
LINE
  5
E3
330
1E
100
AcDbEntity
  8
0
100
AcDbLine
 10
100.0
 20
1.5
 30
0.0
 11
100.0
 21
39.5
 31
0.0
  0
LINE
  5
E4
330
1E
100
AcDbEntity
  8
0
100
AcDbLine
 10
99.50000000000001
 20
40.0
 30
0.0
 11
100.0
 21
39.5
 31
0.0
  0
LINE
  5
E5
330
1E
100
AcDbEntity
  8
0
100
AcDbLine
 10
100.0
 20
39.5
 30
0.0
 11
100.0
 21
1.5
 31
0.0
  0
LINE
  5
E6
330
1E
100
AcDbEntity
  8
0
100
AcDbLine
 10
98.50000000000001
 20
43.0
 30
0.0
 11
99.0
 21
43.0
 31
0.0
  0
LINE
  5
E7
330
1E
100
AcDbEntity
  8
0
100
AcDbLine
 10
108.0999999999999
 20
41.39999999999999
 30
0.0
 11
109.0
 21
45.0
 31
0.0
  0
LINE
  5
E8
330
1E
100
AcDbEntity
  8
0
100
AcDbLine
 10
109.0999999999999
 20
40.4
 30
0.0
 11
110.0
 21
44.0
 31
0.0
  0
LINE
  5
E9
330
1E
100
AcDbEntity
  8
0
100
AcDbLine
 10
108.4999999999999
 20
43.0
 30
0.0
 11
108.4999999999999
 21
50.0
 31
0.0
  0
LINE
  5
EA
330
1E
100
AcDbEntity
  8
0
100
AcDbLine
 10
99.0
 20
43.0
 30
0.0
 11
100.0
 21
44.0
 31
0.0
  0
LINE
  5
EB
330
1E
100
AcDbEntity
  8
0
100
AcDbLine
 10
99.0
 20
40.0
 30
0.0
 11
99.50000000000001
 21
40.0
 31
0.0
  0
LINE
  5
EC
330
1E
100
AcDbEntity
  8
0
100
AcDbLine
 10
98.1
 20
-0.0000000000000017
 30
0.0
 11
98.50000000000001
 21
-0.0000000000000014
 31
0.0
  0
LINE
  5
ED
330
1E
100
AcDbEntity
  8
0
100
AcDbLine
 10
81.5
 20
-0.0000000000000022
 30
0.0
 11
85.0
 21
-0.0000000000000023
 31
0.0
  0
LINE
  5
EE
330
1E
100
AcDbEntity
  8
0
100
AcDbLine
 10
81.2
 20
0.499999999999999
 30
0.0
 11
85.0
 21
0.499999999999999
 31
0.0
  0
LINE
  5
EF
330
1E
100
AcDbEntity
  8
0
100
AcDbLine
 10
81.90000000000001
 20
43.0
 30
0.0
 11
85.0
 21
43.0
 31
0.0
  0
LINE
  5
F0
330
1E
100
AcDbEntity
  8
0
100
AcDbLine
 10
79.0
 20
43.0
 30
0.0
 11
81.90000000000001
 21
43.0
 31
0.0
  0
LINE
  5
F1
330
1E
100
AcDbEntity
  8
0
100
AcDbLine
 10
85.0
 20
44.0
 30
0.0
 11
88.9
 21
44.0
 31
0.0
  0
LINE
  5
F2
330
1E
100
AcDbEntity
  8
0
100
AcDbLine
 10
98.0
 20
44.0
 30
0.0
 11
99.50000000000001
 21
44.0
 31
0.0
  0
LINE
  5
F3
330
1E
100
AcDbEntity
  8
0
100
AcDbLine
 10
95.6
 20
44.0
 30
0.0
 11
98.0
 21
44.0
 31
0.0
  0
LINE
  5
F4
330
1E
100
AcDbEntity
  8
0
100
AcDbLine
 10
99.50000000000001
 20
44.0
 30
0.0
 11
100.0
 21
44.0
 31
0.0
  0
LINE
  5
F5
330
1E
100
AcDbEntity
  8
0
100
AcDbLine
 10
108.4999999999999
 20
44.0
 30
0.0
 11
108.75
 21
44.0
 31
0.0
  0
LINE
  5
F6
330
1E
100
AcDbEntity
  8
0
100
AcDbLine
 10
110.0
 20
44.0
 30
0.0
 11
110.0
 21
7.0
 31
0.0
  0
LINE
  5
F7
330
1E
100
AcDbEntity
  8
0
100
AcDbLine
 10
100.0
 20
44.0
 30
0.0
 11
100.0
 21
50.0
 31
0.0
  0
LINE
  5
F8
330
1E
100
AcDbEntity
  8
0
100
AcDbLine
 10
92.5
 20
44.0
 30
0.0
 11
95.6
 21
44.0
 31
0.0
  0
LINE
  5
F9
330
1E
100
AcDbEntity
  8
0
100
AcDbLine
 10
88.9
 20
44.0
 30
0.0
 11
92.5
 21
44.0
 31
0.0
  0
LINE
  5
FA
330
1E
100
AcDbEntity
  8
0
100
AcDbLine
 10
81.4
 20
43.0
 30
0.0
 11
85.0
 21
43.0
 31
0.0
  0
LINE
  5
FB
330
1E
100
AcDbEntity
  8
0
100
AcDbLine
 10
78.0
 20
43.0
 30
0.0
 11
81.4
 21
43.0
 31
0.0
  0
LINE
  5
FC
330
1E
100
AcDbEntity
  8
0
100
AcDbLine
 10
81.09999999999999
 20
44.0
 30
0.0
 11
85.0
 21
44.0
 31
0.0
  0
LINE
  5
FD
330
1E
100
AcDbEntity
  8
0
100
AcDbLine
 10
77.5
 20
44.0
 30
0.0
 11
81.09999999999999
 21
44.0
 31
0.0
  0
LINE
  5
FE
330
1E
100
AcDbEntity
  8
0
100
AcDbLine
 10
74.40000000000001
 20
44.0
 30
0.0
 11
77.5
 21
44.0
 31
0.0
  0
LINE
  5
FF
330
1E
100
AcDbEntity
  8
0
100
AcDbLine
 10
72.0
 20
44.0
 30
0.0
 11
74.40000000000001
 21
44.0
 31
0.0
  0
LINE
  5
100
330
1E
100
AcDbEntity
  8
0
100
AcDbLine
 10
85.0
 20
50.0
 30
0.0
 11
88.9
 21
50.0
 31
0.0
  0
LINE
  5
101
330
1E
100
AcDbEntity
  8
0
100
AcDbLine
 10
100.0
 20
50.0
 30
0.0
 11
101.6
 21
50.0
 31
0.0
  0
LINE
  5
102
330
1E
100
AcDbEntity
  8
0
100
AcDbLine
 10
98.0
 20
50.0
 30
0.0
 11
99.50000000000001
 21
50.0
 31
0.0
  0
LINE
  5
103
330
1E
100
AcDbEntity
  8
0
100
AcDbLine
 10
95.6
 20
50.0
 30
0.0
 11
98.0
 21
50.0
 31
0.0
  0
LINE
  5
104
330
1E
100
AcDbEntity
  8
0
100
AcDbLine
 10
108.4999999999999
 20
45.0
 30
0.0
 11
109.0
 21
45.0
 31
0.0
  0
LINE
  5
105
330
1E
100
AcDbEntity
  8
0
100
AcDbLine
 10
105.4
 20
50.0
 30
0.0
 11
107.6999999999999
 21
50.0
 31
0.0
  0
LINE
  5
106
330
1E
100
AcDbEntity
  8
0
100
AcDbLine
 10
168.0
 20
50.0
 30
0.0
 11
169.5
 21
50.5
 31
0.0
  0
LINE
  5
107
330
1E
100
AcDbEntity
  8
0
100
AcDbLine
 10
107.6999999999999
 20
50.0
 30
0.0
 11
108.4999999999999
 21
50.0
 31
0.0
  0
LINE
  5
108
330
1E
100
AcDbEntity
  8
0
100
AcDbLine
 10
108.4999999999999
 20
50.0
 30
0.0
 11
108.4999999999999
 21
43.0
 31
0.0
  0
LINE
  5
109
330
1E
100
AcDbEntity
  8
0
100
AcDbLine
 10
108.4999999999999
 20
50.0
 30
0.0
 11
168.0
 21
50.0
 31
0.0
  0
LINE
  5
10A
330
1E
100
AcDbEntity
  8
0
100
AcDbLine
 10
101.6
 20
50.0
 30
0.0
 11
105.4
 21
50.0
 31
0.0
  0
LINE
  5
10B
330
1E
100
AcDbEntity
  8
0
100
AcDbLine
 10
109.0
 20
45.0
 30
0.0
 11
110.0
 21
44.0
 31
0.0
  0
LINE
  5
10C
330
1E
100
AcDbEntity
  8
0
100
AcDbLine
 10
100.0
 20
50.0
 30
0.0
 11
100.0
 21
44.0
 31
0.0
  0
LINE
  5
10D
330
1E
100
AcDbEntity
  8
0
100
AcDbLine
 10
99.50000000000001
 20
50.0
 30
0.0
 11
100.0
 21
50.0
 31
0.0
  0
LINE
  5
10E
330
1E
100
AcDbEntity
  8
0
100
AcDbLine
 10
92.5
 20
50.0
 30
0.0
 11
95.6
 21
50.0
 31
0.0
  0
LINE
  5
10F
330
1E
100
AcDbEntity
  8
0
100
AcDbLine
 10
88.9
 20
50.0
 30
0.0
 11
92.5
 21
50.0
 31
0.0
  0
LINE
  5
110
330
1E
100
AcDbEntity
  8
0
100
AcDbLine
 10
81.09999999999999
 20
50.0
 30
0.0
 11
85.0
 21
50.0
 31
0.0
  0
LINE
  5
111
330
1E
100
AcDbEntity
  8
0
100
AcDbLine
 10
77.5
 20
50.0
 30
0.0
 11
81.09999999999999
 21
50.0
 31
0.0
  0
LINE
  5
112
330
1E
100
AcDbEntity
  8
0
100
AcDbLine
 10
74.40000000000001
 20
50.0
 30
0.0
 11
77.5
 21
50.0
 31
0.0
  0
LINE
  5
113
330
1E
100
AcDbEntity
  8
0
100
AcDbLine
 10
85.0
 20
50.5
 30
0.0
 11
168.0
 21
50.5
 31
0.0
  0
LINE
  5
114
330
1E
100
AcDbEntity
  8
0
100
AcDbLine
 10
168.0
 20
50.5
 30
0.0
 11
169.0
 21
50.5
 31
0.0
  0
LINE
  5
115
330
1E
100
AcDbEntity
  8
0
100
AcDbLine
 10
85.0
 20
65.0
 30
0.0
 11
168.0
 21
65.0
 31
0.0
  0
LINE
  5
116
330
1E
100
AcDbEntity
  8
0
100
AcDbLine
 10
168.0
 20
65.0
 30
0.0
 11
169.5
 21
65.0
 31
0.0
  0
LINE
  5
117
330
1E
100
AcDbEntity
  8
0
100
AcDbLine
 10
169.0
 20
50.5
 30
0.0
 11
169.5
 21
52.0
 31
0.0
  0
LINE
  5
118
330
1E
100
AcDbEntity
  8
0
100
AcDbLine
 10
169.0
 20
50.5
 30
0.0
 11
169.5
 21
50.5
 31
0.0
  0
LINE
  5
119
330
1E
100
AcDbEntity
  8
0
100
AcDbLine
 10
169.0
 20
50.5
 30
0.0
 11
169.5
 21
52.0
 31
0.0
  0
LINE
  5
11A
330
1E
100
AcDbEntity
  8
0
100
AcDbLine
 10
169.5
 20
50.5
 30
0.0
 11
170.0
 21
52.0
 31
0.0
  0
LINE
  5
11B
330
1E
100
AcDbEntity
  8
0
100
AcDbLine
 10
169.5
 20
52.0
 30
0.0
 11
169.5
 21
65.0
 31
0.0
  0
LINE
  5
11C
330
1E
100
AcDbEntity
  8
0
100
AcDbLine
 10
170.0
 20
52.0
 30
0.0
 11
170.0
 21
65.0
 31
0.0
  0
LINE
  5
11D
330
1E
100
AcDbEntity
  8
0
100
AcDbLine
 10
170.0
 20
65.0
 30
0.0
 11
170.0
 21
52.0
 31
0.0
  0
LINE
  5
11E
330
1E
100
AcDbEntity
  8
0
100
AcDbLine
 10
169.5
 20
65.0
 30
0.0
 11
170.0
 21
65.0
 31
0.0
  0
LINE
  5
11F
330
1E
100
AcDbEntity
  8
0
100
AcDbLine
 10
169.5
 20
65.0
 30
0.0
 11
169.5
 21
52.0
 31
0.0
  0
LINE
  5
120
330
1E
100
AcDbEntity
  8
0
100
AcDbLine
 10
72.0
 20
50.0
 30
0.0
 11
74.40000000000001
 21
50.0
 31
0.0
  0
LINE
  5
121
330
1E
100
AcDbEntity
  8
0
100
AcDbLine
 10
70.5
 20
50.0
 30
0.0
 11
72.0
 21
50.0
 31
0.0
  0
LINE
  5
122
330
1E
100
AcDbEntity
  8
0
100
AcDbLine
 10
70.5
 20
44.0
 30
0.0
 11
72.0
 21
44.0
 31
0.0
  0
LINE
  5
123
330
1E
100
AcDbEntity
  8
0
100
AcDbLine
 10
70.0
 20
44.0
 30
0.0
 11
70.5
 21
44.0
 31
0.0
  0
LINE
  5
124
330
1E
100
AcDbEntity
  8
0
100
AcDbLine
 10
70.0
 20
44.0
 30
0.0
 11
71.0
 21
43.0
 31
0.0
  0
LINE
  5
125
330
1E
100
AcDbEntity
  8
0
100
AcDbLine
 10
70.0
 20
44.0
 30
0.0
 11
70.0
 21
50.0
 31
0.0
  0
ENDSEC
  0
SECTION
  2
OBJECTS
  0
DICTIONARY
  5
C
330
0
100
AcDbDictionary
  3
ACAD_GROUP
350
D
  3
ACAD_LAYOUT
350
19
  3
ACAD_MLINESTYLE
350
16
  3
ACAD_PLOTSETTINGS
350
18
  3
ACAD_PLOTSTYLENAME
350
E
  3
ACDBHEADERROUNDTRIPXREC
350
12D
  3
ACDBVARIABLEDICTIONARY
350
12A
  0
DICTIONARY
  5
14F
330
1E
100
AcDbDictionary
280
     1
  3
ACAD_LAYOUTSELFREF
360
150
  0
DICTIONARY
  5
14D
330
1A
100
AcDbDictionary
280
     1
  3
ACAD_LAYOUTSELFREF
360
14E
  0
DICTIONARY
  5
D
102
{ACAD_REACTORS
330
C
102
}
330
C
100
AcDbDictionary
  0
DICTIONARY
  5
19
102
{ACAD_REACTORS
330
C
102
}
330
C
100
AcDbDictionary
  0
DICTIONARY
  5
16
102
{ACAD_REACTORS
330
C
102
}
330
C
100
AcDbDictionary
  3
STANDARD
350
17
  0
DICTIONARY
  5
18
102
{ACAD_REACTORS
330
C
102
}
330
C
100
AcDbDictionary
  0
ACDBDICTIONARYWDFLT
  5
E
102
{ACAD_REACTORS
330
C
102
}
330
C
100
AcDbDictionary
281
     1
  3
Normal
350
F
100
AcDbDictionaryWithDefault
340
F
  0
DICTIONARY
  5
12D
102
{ACAD_REACTORS
330
C
102
}
330
C
100
AcDbDictionary
  3
CEPSNTYPE
350
137
  3
FINGERPRINTGUID
350
138
  3
HYPERLINKBASE
350
130
  3
INSUNITS
350
136
  3
LAYOUTDICT
350
132
  3
LWETCUNION
350
135
  3
PLOTSETDICT
350
133
  3
PLOTSTYLNAMDICT
350
134
  3
PSVPSCALE
350
13A
  3
PUCSBASE
350
13D
  3
PUCSORGBACK
350
143
  3
PUCSORGBOTTOM
350
13F
  3
PUCSORGFRONT
350
142
  3
PUCSORGLEFT
350
140
  3
PUCSORGRIGHT
350
141
  3
PUCSORGTOP
350
13E
  3
PUCSORTHOREF
350
13B
  3
PUCSORTHOVIEW
350
13C
  3
STYLESHEET
350
131
  3
TSTACKALIGN
350
12E
  3
TSTACKSIZE
350
12F
  3
UCSBASE
350
146
  3
UCSORGBACK
350
14C
  3
UCSORGBOTTOM
350
148
  3
UCSORGFRONT
350
14B
  3
UCSORGLEFT
350
149
  3
UCSORGRIGHT
350
14A
  3
UCSORGTOP
350
147
  3
UCSORTHOREF
350
144
  3
UCSORTHOVIEW
350
145
  3
VERSIONGUID
350
139
  0
DICTIONARY
  5
12A
102
{ACAD_REACTORS
330
C
102
}
330
C
100
AcDbDictionary
  3
DIMASSOC
350
12B
  0
XRECORD
  5
150
102
{ACAD_REACTORS
330
14F
102
}
330
14F
100
AcDbXrecord
340
1E
  0
XRECORD
  5
14E
102
{ACAD_REACTORS
330
14D
102
}
330
14D
100
AcDbXrecord
340
1A
  0
MLINESTYLE
  5
17
102
{ACAD_REACTORS
330
16
102
}
330
16
100
AcDbMlineStyle
  2
STANDARD
 70
     0
  3

 62
   256
 51
90.0
 52
90.0
 71
     2
 49
0.5
 62
   256
  6
BYLAYER
 49
-0.5
 62
   256
  6
BYLAYER
  0
ACDBPLACEHOLDER
  5
F
102
{ACAD_REACTORS
330
E
102
}
330
E
100
AcDbPlaceHolder
280
     0
  0
XRECORD
  5
137
102
{ACAD_REACTORS
330
12D
102
}
330
12D
100
AcDbXrecord
 90
        0
  0
XRECORD
  5
138
102
{ACAD_REACTORS
330
12D
102
}
330
12D
100
AcDbXrecord
  1
{332467D5-9A38-4836-A706-528B497F2A69}
  0
XRECORD
  5
130
102
{ACAD_REACTORS
330
12D
102
}
330
12D
100
AcDbXrecord
  1

  0
XRECORD
  5
136
102
{ACAD_REACTORS
330
12D
102
}
330
12D
100
AcDbXrecord
 90
        0
  0
XRECORD
  5
132
102
{ACAD_REACTORS
330
12D
102
}
330
12D
100
AcDbXrecord
340
19
  0
XRECORD
  5
135
102
{ACAD_REACTORS
330
12D
102
}
330
12D
100
AcDbXrecord
 90
    10781
  0
XRECORD
  5
133
102
{ACAD_REACTORS
330
12D
102
}
330
12D
100
AcDbXrecord
340
18
  0
XRECORD
  5
134
102
{ACAD_REACTORS
330
12D
102
}
330
12D
100
AcDbXrecord
340
E
  0
XRECORD
  5
13A
102
{ACAD_REACTORS
330
12D
102
}
330
12D
100
AcDbXrecord
 40
0.0
  0
XRECORD
  5
13D
102
{ACAD_REACTORS
330
12D
102
}
330
12D
100
AcDbXrecord
340
0
  0
XRECORD
  5
143
102
{ACAD_REACTORS
330
12D
102
}
330
12D
100
AcDbXrecord
 10
0.0
 20
0.0
 30
0.0
  0
XRECORD
  5
13F
102
{ACAD_REACTORS
330
12D
102
}
330
12D
100
AcDbXrecord
 10
0.0
 20
0.0
 30
0.0
  0
XRECORD
  5
142
102
{ACAD_REACTORS
330
12D
102
}
330
12D
100
AcDbXrecord
 10
0.0
 20
0.0
 30
0.0
  0
XRECORD
  5
140
102
{ACAD_REACTORS
330
12D
102
}
330
12D
100
AcDbXrecord
 10
0.0
 20
0.0
 30
0.0
  0
XRECORD
  5
141
102
{ACAD_REACTORS
330
12D
102
}
330
12D
100
AcDbXrecord
 10
0.0
 20
0.0
 30
0.0
  0
XRECORD
  5
13E
102
{ACAD_REACTORS
330
12D
102
}
330
12D
100
AcDbXrecord
 10
0.0
 20
0.0
 30
0.0
  0
XRECORD
  5
13B
102
{ACAD_REACTORS
330
12D
102
}
330
12D
100
AcDbXrecord
340
0
  0
XRECORD
  5
13C
102
{ACAD_REACTORS
330
12D
102
}
330
12D
100
AcDbXrecord
 70
     0
  0
XRECORD
  5
131
102
{ACAD_REACTORS
330
12D
102
}
330
12D
100
AcDbXrecord
  1

  0
XRECORD
  5
12E
102
{ACAD_REACTORS
330
12D
102
}
330
12D
100
AcDbXrecord
 90
        1
  0
XRECORD
  5
12F
102
{ACAD_REACTORS
330
12D
102
}
330
12D
100
AcDbXrecord
 90
       70
  0
XRECORD
  5
146
102
{ACAD_REACTORS
330
12D
102
}
330
12D
100
AcDbXrecord
340
0
  0
XRECORD
  5
14C
102
{ACAD_REACTORS
330
12D
102
}
330
12D
100
AcDbXrecord
 10
0.0
 20
0.0
 30
0.0
  0
XRECORD
  5
148
102
{ACAD_REACTORS
330
12D
102
}
330
12D
100
AcDbXrecord
 10
0.0
 20
0.0
 30
0.0
  0
XRECORD
  5
14B
102
{ACAD_REACTORS
330
12D
102
}
330
12D
100
AcDbXrecord
 10
0.0
 20
0.0
 30
0.0
  0
XRECORD
  5
149
102
{ACAD_REACTORS
330
12D
102
}
330
12D
100
AcDbXrecord
 10
0.0
 20
0.0
 30
0.0
  0
XRECORD
  5
14A
102
{ACAD_REACTORS
330
12D
102
}
330
12D
100
AcDbXrecord
 10
0.0
 20
0.0
 30
0.0
  0
XRECORD
  5
147
102
{ACAD_REACTORS
330
12D
102
}
330
12D
100
AcDbXrecord
 10
0.0
 20
0.0
 30
0.0
  0
XRECORD
  5
144
102
{ACAD_REACTORS
330
12D
102
}
330
12D
100
AcDbXrecord
340
0
  0
XRECORD
  5
145
102
{ACAD_REACTORS
330
12D
102
}
330
12D
100
AcDbXrecord
 70
     1
  0
XRECORD
  5
139
102
{ACAD_REACTORS
330
12D
102
}
330
12D
100
AcDbXrecord
  1
{A985646D-3D24-4B4D-AC0C-3E6D86185031}
  0
DICTIONARYVAR
  5
12B
102
{ACAD_REACTORS
330
12A
102
}
330
12A
100
DictionaryVariables
280
     0
  1
1
  0
ENDSEC
  0
EOF
