  0
SECTION
  2
HEADER
  9
$ACADVER
  1
AC1014
  9
$ACADMAINTVER
 70
     9
  9
$DWGCODEPAGE
  3
ANSI_1252
  9
$INSBASE
 10
0.0
 20
0.0
 30
0.0
  9
$EXTMIN
 10
0.249999999999998
 20
0.0000000000000013
 30
0.0
  9
$EXTMAX
 10
403.7499999999999
 20
236.0
 30
0.0
  9
$LIMMIN
 10
0.0
 20
0.0
  9
$LIMMAX
 10
12.0
 20
9.0
  9
$ORTHOMODE
 70
     0
  9
$REGENMODE
 70
     1
  9
$FILLMODE
 70
     1
  9
$QTEXTMODE
 70
     0
  9
$MIRRTEXT
 70
     1
  9
$DRAGMODE
 70
     2
  9
$LTSCALE
 40
1.0
  9
$OSMODE
 70
    37
  9
$ATTMODE
 70
     1
  9
$TEXTSIZE
 40
0.2
  9
$TRACEWID
 40
0.05
  9
$TEXTSTYLE
  7
STANDARD
  9
$CLAYER
  8
0
  9
$CELTYPE
  6
CONTINUOUS
  9
$CECOLOR
 62
   256
  9
$CELTSCALE
 40
1.0
  9
$DELOBJ
 70
     1
  9
$DISPSILH
 70
     0
  9
$DIMSCALE
 40
1.0
  9
$DIMASZ
 40
0.18
  9
$DIMEXO
 40
0.0625
  9
$DIMDLI
 40
0.38
  9
$DIMRND
 40
0.0
  9
$DIMDLE
 40
0.0
  9
$DIMEXE
 40
0.18
  9
$DIMTP
 40
0.0
  9
$DIMTM
 40
0.0
  9
$DIMTXT
 40
0.18
  9
$DIMCEN
 40
0.09
  9
$DIMTSZ
 40
0.0
  9
$DIMTOL
 70
     0
  9
$DIMLIM
 70
     0
  9
$DIMTIH
 70
     1
  9
$DIMTOH
 70
     1
  9
$DIMSE1
 70
     0
  9
$DIMSE2
 70
     0
  9
$DIMTAD
 70
     0
  9
$DIMZIN
 70
     0
  9
$DIMBLK
  1

  9
$DIMASO
 70
     1
  9
$DIMSHO
 70
     1
  9
$DIMPOST
  1

  9
$DIMAPOST
  1

  9
$DIMALT
 70
     0
  9
$DIMALTD
 70
     2
  9
$DIMALTF
 40
25.4
  9
$DIMLFAC
 40
1.0
  9
$DIMTOFL
 70
     0
  9
$DIMTVP
 40
0.0
  9
$DIMTIX
 70
     0
  9
$DIMSOXD
 70
     0
  9
$DIMSAH
 70
     0
  9
$DIMBLK1
  1

  9
$DIMBLK2
  1

  9
$DIMSTYLE
  2
STANDARD
  9
$DIMCLRD
 70
     0
  9
$DIMCLRE
 70
     0
  9
$DIMCLRT
 70
     0
  9
$DIMTFAC
 40
1.0
  9
$DIMGAP
 40
0.09
  9
$DIMJUST
 70
     0
  9
$DIMSD1
 70
     0
  9
$DIMSD2
 70
     0
  9
$DIMTOLJ
 70
     1
  9
$DIMTZIN
 70
     0
  9
$DIMALTZ
 70
     0
  9
$DIMALTTZ
 70
     0
  9
$DIMFIT
 70
     3
  9
$DIMUPT
 70
     0
  9
$DIMUNIT
 70
     2
  9
$DIMDEC
 70
     4
  9
$DIMTDEC
 70
     4
  9
$DIMALTU
 70
     2
  9
$DIMALTTD
 70
     2
  9
$DIMTXSTY
  7
STANDARD
  9
$DIMAUNIT
 70
     0
  9
$LUNITS
 70
     2
  9
$LUPREC
 70
     4
  9
$SKETCHINC
 40
0.1
  9
$FILLETRAD
 40
0.0
  9
$AUNITS
 70
     0
  9
$AUPREC
 70
     0
  9
$MENU
  1
.
  9
$ELEVATION
 40
0.0
  9
$PELEVATION
 40
0.0
  9
$THICKNESS
 40
0.0
  9
$LIMCHECK
 70
     0
  9
$BLIPMODE
 70
     0
  9
$CHAMFERA
 40
0.0
  9
$CHAMFERB
 40
0.0
  9
$CHAMFERC
 40
0.0
  9
$CHAMFERD
 40
0.0
  9
$SKPOLY
 70
     0
  9
$TDCREATE
 40
2454687.562120578
  9
$TDUPDATE
 40
2454687.567348448
  9
$TDINDWG
 40
0.0052280440
  9
$TDUSRTIMER
 40
0.0052280440
  9
$USRTIMER
 70
     1
  9
$ANGBASE
 50
0.0
  9
$ANGDIR
 70
     0
  9
$PDMODE
 70
     0
  9
$PDSIZE
 40
0.0
  9
$PLINEWID
 40
0.0
  9
$COORDS
 70
     1
  9
$SPLFRAME
 70
     0
  9
$SPLINETYPE
 70
     6
  9
$SPLINESEGS
 70
     8
  9
$ATTDIA
 70
     0
  9
$ATTREQ
 70
     1
  9
$HANDLING
 70
 22529
  9
$HANDSEED
  5
34B
  9
$SURFTAB1
 70
     6
  9
$SURFTAB2
 70
     6
  9
$SURFTYPE
 70
     6
  9
$SURFU
 70
     6
  9
$SURFV
 70
     6
  9
$UCSNAME
  2

  9
$UCSORG
 10
0.0
 20
0.0
 30
0.0
  9
$UCSXDIR
 10
1.0
 20
0.0
 30
0.0
  9
$UCSYDIR
 10
0.0
 20
1.0
 30
0.0
  9
$PUCSNAME
  2

  9
$PUCSORG
 10
0.0
 20
0.0
 30
0.0
  9
$PUCSXDIR
 10
1.0
 20
0.0
 30
0.0
  9
$PUCSYDIR
 10
0.0
 20
1.0
 30
0.0
  9
$USERI1
 70
     0
  9
$USERI2
 70
     0
  9
$USERI3
 70
     0
  9
$USERI4
 70
     0
  9
$USERI5
 70
     0
  9
$USERR1
 40
0.0
  9
$USERR2
 40
0.0
  9
$USERR3
 40
0.0
  9
$USERR4
 40
0.0
  9
$USERR5
 40
0.0
  9
$WORLDVIEW
 70
     1
  9
$SHADEDGE
 70
     3
  9
$SHADEDIF
 70
    70
  9
$TILEMODE
 70
     1
  9
$MAXACTVP
 70
    64
  9
$PINSBASE
 10
0.0
 20
0.0
 30
0.0
  9
$PLIMCHECK
 70
     0
  9
$PEXTMIN
 10
1.000000000000000E+20
 20
1.000000000000000E+20
 30
1.000000000000000E+20
  9
$PEXTMAX
 10
-1.000000000000000E+20
 20
-1.000000000000000E+20
 30
-1.000000000000000E+20
  9
$PLIMMIN
 10
0.0
 20
0.0
  9
$PLIMMAX
 10
12.0
 20
9.0
  9
$UNITMODE
 70
     0
  9
$VISRETAIN
 70
     1
  9
$PLINEGEN
 70
     0
  9
$PSLTSCALE
 70
     1
  9
$TREEDEPTH
 70
  3020
  9
$PICKSTYLE
 70
     1
  9
$CMLSTYLE
  2
STANDARD
  9
$CMLJUST
 70
     0
  9
$CMLSCALE
 40
1.0
  9
$PROXYGRAPHICS
 70
     1
  9
$MEASUREMENT
 70
     0
  0
ENDSEC
  0
SECTION
  2
CLASSES
  0
CLASS
  1
ACDBDICTIONARYWDFLT
  2
AcDbDictionaryWithDefault
  3
AutoCAD 2000
 90
        0
280
     0
281
     0
  0
CLASS
  1
ACDBPLACEHOLDER
  2
AcDbPlaceHolder
  3
AutoCAD 2000
 90
        0
280
     0
281
     0
  0
CLASS
  1
LAYOUT
  2
AcDbLayout
  3
AutoCAD 2000
 90
        0
280
     0
281
     0
  0
CLASS
  1
DICTIONARYVAR
  2
AcDbDictionaryVar
  3
AutoCAD 2000
 90
        0
280
     0
281
     0
  0
CLASS
  1
LONG_TRANSACTION
  2
AcDbLongTransaction
  3
AutoCAD 2000
 90
        0
280
     0
281
     0
  0
CLASS
  1
LWPOLYLINE
  2
AcDbPolyline
  3
AutoCAD 2000
 90
        0
280
     0
281
     1
  0
CLASS
  1
HATCH
  2
AcDbHatch
  3
AutoCAD 2000
 90
        0
280
     0
281
     1
  0
CLASS
  1
XRECORD
  2
AcDbXrecord
  3
AutoCAD 2000
 90
        0
280
     0
281
     0
  0
ENDSEC
  0
SECTION
  2
TABLES
  0
TABLE
  2
VPORT
  5
8
330
0
100
AcDbSymbolTable
 70
     2
  0
VPORT
  5
326
330
8
100
AcDbSymbolTableRecord
100
AcDbViewportTableRecord
  2
*ACTIVE
 70
     0
 10
0.0
 20
0.0
 11
1.0
 21
1.0
 12
202.0
 22
118.0
 13
0.0
 23
0.0
 14
1.0
 24
1.0
 15
0.0
 25
0.0
 16
0.0
 26
0.0
 36
1.0
 17
0.0
 27
0.0
 37
0.0
 40
237.8107416879795
 41
2.043533930857874
 42
50.0
 43
0.0
 44
0.0
 50
0.0
 51
0.0
 71
     0
 72
   100
 73
     1
 74
     3
 75
     0
 76
     0
 77
     0
 78
     0
  0
ENDTAB
  0
TABLE
  2
LTYPE
  5
5
330
0
100
AcDbSymbolTable
 70
     1
  0
LTYPE
  5
13
330
5
100
AcDbSymbolTableRecord
100
AcDbLinetypeTableRecord
  2
BYBLOCK
 70
     0
  3

 72
    65
 73
     0
 40
0.0
  0
LTYPE
  5
14
330
5
100
AcDbSymbolTableRecord
100
AcDbLinetypeTableRecord
  2
BYLAYER
 70
     0
  3

 72
    65
 73
     0
 40
0.0
  0
LTYPE
  5
15
330
5
100
AcDbSymbolTableRecord
100
AcDbLinetypeTableRecord
  2
CONTINUOUS
 70
     0
  3
Solid line
 72
    65
 73
     0
 40
0.0
  0
ENDTAB
  0
TABLE
  2
LAYER
  5
2
330
0
100
AcDbSymbolTable
 70
     1
  0
LAYER
  5
10
330
2
100
AcDbSymbolTableRecord
100
AcDbLayerTableRecord
  2
0
 70
     0
 62
     7
  6
CONTINUOUS
  0
ENDTAB
  0
TABLE
  2
STYLE
  5
3
330
0
100
AcDbSymbolTable
 70
     1
  0
STYLE
  5
11
330
3
100
AcDbSymbolTableRecord
100
AcDbTextStyleTableRecord
  2
STANDARD
 70
     0
 40
0.0
 41
1.0
 50
0.0
 71
     0
 42
0.2
  3
txt
  4

  0
ENDTAB
  0
TABLE
  2
VIEW
  5
6
330
0
100
AcDbSymbolTable
 70
     0
  0
ENDTAB
  0
TABLE
  2
UCS
  5
7
330
0
100
AcDbSymbolTable
 70
     0
  0
ENDTAB
  0
TABLE
  2
APPID
  5
9
330
0
100
AcDbSymbolTable
 70
     1
  0
APPID
  5
12
330
9
100
AcDbSymbolTableRecord
100
AcDbRegAppTableRecord
  2
ACAD
 70
     0
  0
ENDTAB
  0
TABLE
  2
DIMSTYLE
  5
A
330
0
100
AcDbSymbolTable
 70
     1
  0
DIMSTYLE
105
319
330
A
100
AcDbSymbolTableRecord
100
AcDbDimStyleTableRecord
  2
STANDARD
 70
     0
  3

  4

  5

  6

  7

 40
1.0
 41
0.18
 42
0.0625
 43
0.38
 44
0.18
 45
0.0
 46
0.0
 47
0.0
 48
0.0
140
0.18
141
0.09
142
0.0
143
25.4
144
1.0
145
0.0
146
1.0
147
0.09
 71
     0
 72
     0
 73
     1
 74
     1
 75
     0
 76
     0
 77
     0
 78
     0
170
     0
171
     2
172
     0
173
     0
174
     0
175
     0
176
     0
177
     0
178
     0
270
     2
271
     4
272
     4
273
     2
274
     2
340
11
275
     0
280
     0
281
     0
282
     0
283
     1
284
     0
285
     0
286
     0
287
     3
288
     0
  0
ENDTAB
  0
TABLE
  2
BLOCK_RECORD
  5
1
330
0
100
AcDbSymbolTable
 70
     0
  0
BLOCK_RECORD
  5
1E
102
{ACAD_XDICTIONARY
360
349
102
}
330
1
100
AcDbSymbolTableRecord
100
AcDbBlockTableRecord
  2
*MODEL_SPACE
  0
BLOCK_RECORD
  5
1A
102
{ACAD_XDICTIONARY
360
347
102
}
330
1
100
AcDbSymbolTableRecord
100
AcDbBlockTableRecord
  2
*PAPER_SPACE
  0
ENDTAB
  0
ENDSEC
  0
SECTION
  2
BLOCKS
  0
BLOCK
  5
1F
330
1E
100
AcDbEntity
  8
0
100
AcDbBlockBegin
  2
*MODEL_SPACE
 70
     0
 10
0.0
 20
0.0
 30
0.0
  3
*MODEL_SPACE
  1

  0
ENDBLK
  5
20
330
1E
100
AcDbEntity
  8
0
100
AcDbBlockEnd
  0
BLOCK
  5
1B
330
1A
100
AcDbEntity
 67
     1
  8
0
100
AcDbBlockBegin
  2
*PAPER_SPACE
 70
     0
 10
0.0
 20
0.0
 30
0.0
  3
*PAPER_SPACE
  1

  0
ENDBLK
  5
1C
330
1A
100
AcDbEntity
 67
     1
  8
0
100
AcDbBlockEnd
  0
ENDSEC
  0
SECTION
  2
ENTITIES
  0
LINE
  5
22
330
1E
100
AcDbEntity
  8
0
100
AcDbLine
 10
0.7499999999999949
 20
157.0
 30
0.0
 11
31.45
 21
157.0
 31
0.0
  0
LINE
  5
23
330
1E
100
AcDbEntity
  8
0
100
AcDbLine
 10
0.249999999999998
 20
157.5
 30
0.0
 11
0.7499999999999979
 21
157.0
 31
0.0
  0
LINE
  5
24
330
1E
100
AcDbEntity
  8
0
100
AcDbLine
 10
0.25
 20
157.5
 30
0.0
 11
30.85
 21
157.5
 31
0.0
  0
LINE
  5
25
330
1E
100
AcDbEntity
  8
0
100
AcDbLine
 10
0.25
 20
172.5
 30
0.0
 11
30.85
 21
172.5
 31
0.0
  0
LINE
  5
26
330
1E
100
AcDbEntity
  8
0
100
AcDbLine
 10
0.249999999999998
 20
172.5
 30
0.0
 11
0.7499999999999979
 21
173.0
 31
0.0
  0
LINE
  5
27
330
1E
100
AcDbEntity
  8
0
100
AcDbLine
 10
0.7499999999999979
 20
157.0
 30
0.0
 11
31.45
 21
157.0
 31
0.0
  0
LINE
  5
28
330
1E
100
AcDbEntity
  8
0
100
AcDbLine
 10
0.249999999999998
 20
157.5
 30
0.0
 11
0.249999999999998
 21
172.5
 31
0.0
  0
LINE
  5
29
330
1E
100
AcDbEntity
  8
0
100
AcDbLine
 10
0.249999999999998
 20
157.5
 30
0.0
 11
30.85
 21
157.5
 31
0.0
  0
LINE
  5
2A
330
1E
100
AcDbEntity
  8
0
100
AcDbLine
 10
0.249999999999998
 20
157.5
 30
0.0
 11
0.7499999999999979
 21
157.0
 31
0.0
  0
LINE
  5
2B
330
1E
100
AcDbEntity
  8
0
100
AcDbLine
 10
0.7499999999999949
 20
173.0
 30
0.0
 11
31.45
 21
173.0
 31
0.0
  0
LINE
  5
2C
330
1E
100
AcDbEntity
  8
0
100
AcDbLine
 10
0.249999999999998
 20
172.5
 30
0.0
 11
0.249999999999998
 21
157.5
 31
0.0
  0
LINE
  5
2D
330
1E
100
AcDbEntity
  8
0
100
AcDbLine
 10
0.249999999999998
 20
172.5
 30
0.0
 11
0.7499999999999979
 21
173.0
 31
0.0
  0
LINE
  5
2E
330
1E
100
AcDbEntity
  8
0
100
AcDbLine
 10
0.249999999999998
 20
172.5
 30
0.0
 11
30.85
 21
172.5
 31
0.0
  0
LINE
  5
2F
330
1E
100
AcDbEntity
  8
0
100
AcDbLine
 10
31.55
 20
157.0
 30
0.0
 11
31.75
 21
157.0
 31
0.0
  0
LINE
  5
30
330
1E
100
AcDbEntity
  8
0
100
AcDbLine
 10
38.95
 20
157.0
 30
0.0
 11
39.04999999999999
 21
157.0
 31
0.0
  0
LINE
  5
31
330
1E
100
AcDbEntity
  8
0
100
AcDbLine
 10
121.75
 20
0.0000000000000013
 30
0.0
 11
135.25
 21
0.0000000000000013
 31
0.0
  0
LINE
  5
32
330
1E
100
AcDbEntity
  8
0
100
AcDbLine
 10
121.25
 20
0.500000000000001
 30
0.0
 11
121.75
 21
0.0000000000000013
 31
0.0
  0
LINE
  5
33
330
1E
100
AcDbEntity
  8
0
100
AcDbLine
 10
121.25
 20
0.500000000000001
 30
0.0
 11
121.25
 21
27.5
 31
0.0
  0
LINE
  5
34
330
1E
100
AcDbEntity
  8
0
100
AcDbLine
 10
121.25
 20
0.500000000000001
 30
0.0
 11
121.75
 21
0.0000000000000013
 31
0.0
  0
LINE
  5
35
330
1E
100
AcDbEntity
  8
0
100
AcDbLine
 10
121.25
 20
0.5000000000000031
 30
0.0
 11
121.25
 21
2.2
 31
0.0
  0
LINE
  5
36
330
1E
100
AcDbEntity
  8
0
100
AcDbLine
 10
121.25
 20
2.2
 30
0.0
 11
121.25
 21
6.599999999999999
 31
0.0
  0
LINE
  5
37
330
1E
100
AcDbEntity
  8
0
100
AcDbLine
 10
121.25
 20
2.2
 30
0.0
 11
121.25
 21
0.5000000000000031
 31
0.0
  0
LINE
  5
38
330
1E
100
AcDbEntity
  8
0
100
AcDbLine
 10
121.75
 20
0.0000000000000028
 30
0.0
 11
121.75
 21
1.7
 31
0.0
  0
LINE
  5
39
330
1E
100
AcDbEntity
  8
0
100
AcDbLine
 10
121.75
 20
1.7
 30
0.0
 11
121.75
 21
6.2
 31
0.0
  0
LINE
  5
3A
330
1E
100
AcDbEntity
  8
0
100
AcDbLine
 10
121.75
 20
1.7
 30
0.0
 11
121.75
 21
0.0000000000000029
 31
0.0
  0
LINE
  5
3B
330
1E
100
AcDbEntity
  8
0
100
AcDbLine
 10
121.25
 20
6.599999999999999
 30
0.0
 11
121.25
 21
13.9
 31
0.0
  0
LINE
  5
3C
330
1E
100
AcDbEntity
  8
0
100
AcDbLine
 10
121.25
 20
6.599999999999999
 30
0.0
 11
121.25
 21
2.2
 31
0.0
  0
LINE
  5
3D
330
1E
100
AcDbEntity
  8
0
100
AcDbLine
 10
121.25
 20
13.9
 30
0.0
 11
121.25
 21
23.39999999999999
 31
0.0
  0
LINE
  5
3E
330
1E
100
AcDbEntity
  8
0
100
AcDbLine
 10
121.25
 20
13.9
 30
0.0
 11
121.25
 21
6.599999999999999
 31
0.0
  0
LINE
  5
3F
330
1E
100
AcDbEntity
  8
0
100
AcDbLine
 10
121.75
 20
6.2
 30
0.0
 11
121.75
 21
13.6
 31
0.0
  0
LINE
  5
40
330
1E
100
AcDbEntity
  8
0
100
AcDbLine
 10
121.75
 20
6.2
 30
0.0
 11
121.75
 21
1.7
 31
0.0
  0
LINE
  5
41
330
1E
100
AcDbEntity
  8
0
100
AcDbLine
 10
121.75
 20
13.6
 30
0.0
 11
121.75
 21
23.1
 31
0.0
  0
LINE
  5
42
330
1E
100
AcDbEntity
  8
0
100
AcDbLine
 10
121.75
 20
13.6
 30
0.0
 11
121.75
 21
6.2
 31
0.0
  0
LINE
  5
43
330
1E
100
AcDbEntity
  8
0
100
AcDbLine
 10
121.25
 20
27.5
 30
0.0
 11
121.25
 21
28.1
 31
0.0
  0
LINE
  5
44
330
1E
100
AcDbEntity
  8
0
100
AcDbLine
 10
121.25
 20
27.5
 30
0.0
 11
121.25
 21
0.500000000000002
 31
0.0
  0
LINE
  5
45
330
1E
100
AcDbEntity
  8
0
100
AcDbLine
 10
121.25
 20
28.1
 30
0.0
 11
121.25
 21
30.0
 31
0.0
  0
LINE
  5
46
330
1E
100
AcDbEntity
  8
0
100
AcDbLine
 10
121.25
 20
28.1
 30
0.0
 11
121.25
 21
27.5
 31
0.0
  0
LINE
  5
47
330
1E
100
AcDbEntity
  8
0
100
AcDbLine
 10
121.25
 20
30.0
 30
0.0
 11
121.25
 21
32.9
 31
0.0
  0
LINE
  5
48
330
1E
100
AcDbEntity
  8
0
100
AcDbLine
 10
121.25
 20
30.0
 30
0.0
 11
121.25
 21
28.1
 31
0.0
  0
LINE
  5
49
330
1E
100
AcDbEntity
  8
0
100
AcDbLine
 10
121.25
 20
32.9
 30
0.0
 11
121.25
 21
36.79999999999999
 31
0.0
  0
LINE
  5
4A
330
1E
100
AcDbEntity
  8
0
100
AcDbLine
 10
121.25
 20
32.9
 30
0.0
 11
121.25
 21
30.0
 31
0.0
  0
LINE
  5
4B
330
1E
100
AcDbEntity
  8
0
100
AcDbLine
 10
121.25
 20
23.39999999999999
 30
0.0
 11
121.25
 21
34.29999999999999
 31
0.0
  0
LINE
  5
4C
330
1E
100
AcDbEntity
  8
0
100
AcDbLine
 10
121.25
 20
23.39999999999999
 30
0.0
 11
121.25
 21
13.9
 31
0.0
  0
LINE
  5
4D
330
1E
100
AcDbEntity
  8
0
100
AcDbLine
 10
121.25
 20
36.79999999999999
 30
0.0
 11
121.25
 21
41.2
 31
0.0
  0
LINE
  5
4E
330
1E
100
AcDbEntity
  8
0
100
AcDbLine
 10
121.25
 20
36.79999999999999
 30
0.0
 11
121.25
 21
32.9
 31
0.0
  0
LINE
  5
4F
330
1E
100
AcDbEntity
  8
0
100
AcDbLine
 10
121.25
 20
41.2
 30
0.0
 11
121.25
 21
46.0
 31
0.0
  0
LINE
  5
50
330
1E
100
AcDbEntity
  8
0
100
AcDbLine
 10
121.25
 20
41.2
 30
0.0
 11
121.25
 21
36.79999999999999
 31
0.0
  0
LINE
  5
51
330
1E
100
AcDbEntity
  8
0
100
AcDbLine
 10
121.25
 20
46.0
 30
0.0
 11
121.25
 21
226.0
 31
0.0
  0
LINE
  5
52
330
1E
100
AcDbEntity
  8
0
100
AcDbLine
 10
121.25
 20
46.0
 30
0.0
 11
121.25
 21
41.2
 31
0.0
  0
LINE
  5
53
330
1E
100
AcDbEntity
  8
0
100
AcDbLine
 10
121.25
 20
34.29999999999999
 30
0.0
 11
121.25
 21
46.0
 31
0.0
  0
LINE
  5
54
330
1E
100
AcDbEntity
  8
0
100
AcDbLine
 10
121.25
 20
34.29999999999999
 30
0.0
 11
121.25
 21
23.39999999999999
 31
0.0
  0
LINE
  5
55
330
1E
100
AcDbEntity
  8
0
100
AcDbLine
 10
121.25
 20
46.0
 30
0.0
 11
121.25
 21
226.0
 31
0.0
  0
LINE
  5
56
330
1E
100
AcDbEntity
  8
0
100
AcDbLine
 10
121.25
 20
46.0
 30
0.0
 11
121.25
 21
34.29999999999999
 31
0.0
  0
LINE
  5
57
330
1E
100
AcDbEntity
  8
0
100
AcDbLine
 10
121.75
 20
23.1
 30
0.0
 11
121.75
 21
34.2
 31
0.0
  0
LINE
  5
58
330
1E
100
AcDbEntity
  8
0
100
AcDbLine
 10
121.75
 20
23.1
 30
0.0
 11
121.75
 21
13.6
 31
0.0
  0
LINE
  5
59
330
1E
100
AcDbEntity
  8
0
100
AcDbLine
 10
148.75
 20
0.0000000000000013
 30
0.0
 11
149.2499999999999
 21
0.500000000000001
 31
0.0
  0
LINE
  5
5A
330
1E
100
AcDbEntity
  8
0
100
AcDbLine
 10
135.25
 20
0.0000000000000013
 30
0.0
 11
148.75
 21
0.0000000000000013
 31
0.0
  0
LINE
  5
5B
330
1E
100
AcDbEntity
  8
0
100
AcDbLine
 10
148.75
 20
0.0000000000000028
 30
0.0
 11
148.75
 21
1.7
 31
0.0
  0
LINE
  5
5C
330
1E
100
AcDbEntity
  8
0
100
AcDbLine
 10
148.75
 20
0.0000000000000013
 30
0.0
 11
149.2499999999999
 21
0.500000000000001
 31
0.0
  0
LINE
  5
5D
330
1E
100
AcDbEntity
  8
0
100
AcDbLine
 10
148.75
 20
1.7
 30
0.0
 11
148.75
 21
0.0000000000000029
 31
0.0
  0
LINE
  5
5E
330
1E
100
AcDbEntity
  8
0
100
AcDbLine
 10
148.75
 20
1.7
 30
0.0
 11
148.75
 21
6.2
 31
0.0
  0
LINE
  5
5F
330
1E
100
AcDbEntity
  8
0
100
AcDbLine
 10
148.75
 20
6.2
 30
0.0
 11
148.75
 21
1.7
 31
0.0
  0
LINE
  5
60
330
1E
100
AcDbEntity
  8
0
100
AcDbLine
 10
148.75
 20
6.2
 30
0.0
 11
148.75
 21
13.6
 31
0.0
  0
LINE
  5
61
330
1E
100
AcDbEntity
  8
0
100
AcDbLine
 10
148.75
 20
13.6
 30
0.0
 11
148.75
 21
6.2
 31
0.0
  0
LINE
  5
62
330
1E
100
AcDbEntity
  8
0
100
AcDbLine
 10
148.75
 20
13.6
 30
0.0
 11
148.75
 21
23.1
 31
0.0
  0
LINE
  5
63
330
1E
100
AcDbEntity
  8
0
100
AcDbLine
 10
148.75
 20
23.1
 30
0.0
 11
148.75
 21
13.6
 31
0.0
  0
LINE
  5
64
330
1E
100
AcDbEntity
  8
0
100
AcDbLine
 10
148.75
 20
23.1
 30
0.0
 11
148.75
 21
34.2
 31
0.0
  0
LINE
  5
65
330
1E
100
AcDbEntity
  8
0
100
AcDbLine
 10
148.75
 20
34.2
 30
0.0
 11
148.75
 21
23.1
 31
0.0
  0
LINE
  5
66
330
1E
100
AcDbEntity
  8
0
100
AcDbLine
 10
148.75
 20
34.2
 30
0.0
 11
148.75
 21
46.0
 31
0.0
  0
LINE
  5
67
330
1E
100
AcDbEntity
  8
0
100
AcDbLine
 10
149.2499999999999
 20
0.5000000000000031
 30
0.0
 11
149.2499999999999
 21
2.2
 31
0.0
  0
LINE
  5
68
330
1E
100
AcDbEntity
  8
0
100
AcDbLine
 10
149.2499999999999
 20
2.2
 30
0.0
 11
149.2499999999999
 21
0.5000000000000031
 31
0.0
  0
LINE
  5
69
330
1E
100
AcDbEntity
  8
0
100
AcDbLine
 10
149.2499999999999
 20
2.2
 30
0.0
 11
149.2499999999999
 21
6.599999999999999
 31
0.0
  0
LINE
  5
6A
330
1E
100
AcDbEntity
  8
0
100
AcDbLine
 10
149.2499999999999
 20
6.599999999999999
 30
0.0
 11
149.2499999999999
 21
2.2
 31
0.0
  0
LINE
  5
6B
330
1E
100
AcDbEntity
  8
0
100
AcDbLine
 10
149.2499999999999
 20
6.599999999999999
 30
0.0
 11
149.2499999999999
 21
13.9
 31
0.0
  0
LINE
  5
6C
330
1E
100
AcDbEntity
  8
0
100
AcDbLine
 10
149.2499999999999
 20
13.9
 30
0.0
 11
149.2499999999999
 21
6.599999999999999
 31
0.0
  0
LINE
  5
6D
330
1E
100
AcDbEntity
  8
0
100
AcDbLine
 10
149.2499999999999
 20
13.9
 30
0.0
 11
149.2499999999999
 21
23.39999999999999
 31
0.0
  0
LINE
  5
6E
330
1E
100
AcDbEntity
  8
0
100
AcDbLine
 10
149.2499999999999
 20
23.39999999999999
 30
0.0
 11
149.2499999999999
 21
13.9
 31
0.0
  0
LINE
  5
6F
330
1E
100
AcDbEntity
  8
0
100
AcDbLine
 10
149.2499999999999
 20
23.39999999999999
 30
0.0
 11
149.2499999999999
 21
34.29999999999999
 31
0.0
  0
LINE
  5
70
330
1E
100
AcDbEntity
  8
0
100
AcDbLine
 10
149.2499999999999
 20
34.29999999999999
 30
0.0
 11
149.2499999999999
 21
23.39999999999999
 31
0.0
  0
LINE
  5
71
330
1E
100
AcDbEntity
  8
0
100
AcDbLine
 10
149.2499999999999
 20
34.29999999999999
 30
0.0
 11
149.2499999999999
 21
46.0
 31
0.0
  0
LINE
  5
72
330
1E
100
AcDbEntity
  8
0
100
AcDbLine
 10
149.2499999999999
 20
46.0
 30
0.0
 11
149.2499999999999
 21
34.29999999999999
 31
0.0
  0
LINE
  5
73
330
1E
100
AcDbEntity
  8
0
100
AcDbLine
 10
149.2499999999999
 20
46.0
 30
0.0
 11
149.2499999999999
 21
226.0
 31
0.0
  0
LINE
  5
74
330
1E
100
AcDbEntity
  8
0
100
AcDbLine
 10
148.75
 20
46.0
 30
0.0
 11
148.75
 21
34.2
 31
0.0
  0
LINE
  5
75
330
1E
100
AcDbEntity
  8
0
100
AcDbLine
 10
148.75
 20
46.0
 30
0.0
 11
148.75
 21
226.0
 31
0.0
  0
LINE
  5
76
330
1E
100
AcDbEntity
  8
0
100
AcDbLine
 10
121.75
 20
34.2
 30
0.0
 11
121.75
 21
46.0
 31
0.0
  0
LINE
  5
77
330
1E
100
AcDbEntity
  8
0
100
AcDbLine
 10
121.75
 20
34.2
 30
0.0
 11
121.75
 21
23.1
 31
0.0
  0
LINE
  5
78
330
1E
100
AcDbEntity
  8
0
100
AcDbLine
 10
132.4779999999999
 20
115.66
 30
0.0
 11
135.25
 21
115.2639999999999
 31
0.0
  0
LINE
  5
79
330
1E
100
AcDbEntity
  8
0
100
AcDbLine
 10
129.926
 20
116.716
 30
0.0
 11
132.4779999999999
 21
115.66
 31
0.0
  0
LINE
  5
7A
330
1E
100
AcDbEntity
  8
0
100
AcDbLine
 10
132.434
 20
115.396
 30
0.0
 11
135.25
 21
115.0
 31
0.0
  0
LINE
  5
7B
330
1E
100
AcDbEntity
  8
0
100
AcDbLine
 10
129.7939999999999
 20
116.452
 30
0.0
 11
132.434
 21
115.396
 31
0.0
  0
LINE
  5
7C
330
1E
100
AcDbEntity
  8
0
100
AcDbLine
 10
135.25
 20
115.2639999999999
 30
0.0
 11
138.022
 21
115.66
 31
0.0
  0
LINE
  5
7D
330
1E
100
AcDbEntity
  8
0
100
AcDbLine
 10
138.022
 20
115.66
 30
0.0
 11
140.5739999999999
 21
116.716
 31
0.0
  0
LINE
  5
7E
330
1E
100
AcDbEntity
  8
0
100
AcDbLine
 10
127.682
 20
118.432
 30
0.0
 11
129.926
 21
116.716
 31
0.0
  0
LINE
  5
7F
330
1E
100
AcDbEntity
  8
0
100
AcDbLine
 10
127.462
 20
118.212
 30
0.0
 11
129.7939999999999
 21
116.452
 31
0.0
  0
LINE
  5
80
330
1E
100
AcDbEntity
  8
0
100
AcDbLine
 10
140.5739999999999
 20
116.716
 30
0.0
 11
142.8179999999999
 21
118.432
 31
0.0
  0
LINE
  5
81
330
1E
100
AcDbEntity
  8
0
100
AcDbLine
 10
143.0379999999999
 20
118.212
 30
0.0
 11
144.798
 21
120.544
 31
0.0
  0
LINE
  5
82
330
1E
100
AcDbEntity
  8
0
100
AcDbLine
 10
125.966
 20
120.676
 30
0.0
 11
127.682
 21
118.432
 31
0.0
  0
LINE
  5
83
330
1E
100
AcDbEntity
  8
0
100
AcDbLine
 10
124.91
 20
123.228
 30
0.0
 11
125.966
 21
120.676
 31
0.0
  0
LINE
  5
84
330
1E
100
AcDbEntity
  8
0
100
AcDbLine
 10
125.702
 20
120.544
 30
0.0
 11
127.462
 21
118.212
 31
0.0
  0
LINE
  5
85
330
1E
100
AcDbEntity
  8
0
100
AcDbLine
 10
124.646
 20
123.184
 30
0.0
 11
125.702
 21
120.544
 31
0.0
  0
LINE
  5
86
330
1E
100
AcDbEntity
  8
0
100
AcDbLine
 10
142.8179999999999
 20
118.432
 30
0.0
 11
144.5339999999999
 21
120.676
 31
0.0
  0
LINE
  5
87
330
1E
100
AcDbEntity
  8
0
100
AcDbLine
 10
149.2499999999999
 20
115.3384095835709
 30
0.0
 11
151.9899999999999
 21
115.42
 31
0.0
  0
LINE
  5
88
330
1E
100
AcDbEntity
  8
0
100
AcDbLine
 10
154.1949999999999
 20
115.5189999999999
 30
0.0
 11
163.6319999999999
 21
116.1829999999999
 31
0.0
  0
LINE
  5
89
330
1E
100
AcDbEntity
  8
0
100
AcDbLine
 10
151.9899999999999
 20
115.42
 30
0.0
 11
154.1949999999999
 21
115.5189999999999
 31
0.0
  0
LINE
  5
8A
330
1E
100
AcDbEntity
  8
0
100
AcDbLine
 10
163.6319999999999
 20
116.1829999999999
 30
0.0
 11
175.9819999999999
 21
117.892
 31
0.0
  0
LINE
  5
8B
330
1E
100
AcDbEntity
  8
0
100
AcDbLine
 10
175.9819999999999
 20
117.892
 30
0.0
 11
191.654
 21
120.384
 31
0.0
  0
LINE
  5
8C
330
1E
100
AcDbEntity
  8
0
100
AcDbLine
 10
191.654
 20
120.384
 30
0.0
 11
206.95
 21
123.353
 31
0.0
  0
LINE
  5
8D
330
1E
100
AcDbEntity
  8
0
100
AcDbLine
 10
144.798
 20
120.544
 30
0.0
 11
145.8539999999999
 21
123.184
 31
0.0
  0
LINE
  5
8E
330
1E
100
AcDbEntity
  8
0
100
AcDbLine
 10
144.5339999999999
 20
120.676
 30
0.0
 11
145.5899999999999
 21
123.228
 31
0.0
  0
LINE
  5
8F
330
1E
100
AcDbEntity
  8
0
100
AcDbLine
 10
124.91
 20
128.772
 30
0.0
 11
125.966
 21
131.3239999999999
 31
0.0
  0
LINE
  5
90
330
1E
100
AcDbEntity
  8
0
100
AcDbLine
 10
124.5139999999999
 20
126.0
 30
0.0
 11
124.91
 21
123.228
 31
0.0
  0
LINE
  5
91
330
1E
100
AcDbEntity
  8
0
100
AcDbLine
 10
124.5139999999999
 20
126.0
 30
0.0
 11
124.91
 21
128.772
 31
0.0
  0
LINE
  5
92
330
1E
100
AcDbEntity
  8
0
100
AcDbLine
 10
125.966
 20
131.3239999999999
 30
0.0
 11
127.682
 21
133.5679999999999
 31
0.0
  0
LINE
  5
93
330
1E
100
AcDbEntity
  8
0
100
AcDbLine
 10
124.646
 20
128.8159999999999
 30
0.0
 11
125.702
 21
131.456
 31
0.0
  0
LINE
  5
94
330
1E
100
AcDbEntity
  8
0
100
AcDbLine
 10
124.2499999999999
 20
126.0
 30
0.0
 11
124.646
 21
128.8159999999999
 31
0.0
  0
LINE
  5
95
330
1E
100
AcDbEntity
  8
0
100
AcDbLine
 10
127.682
 20
133.5679999999999
 30
0.0
 11
129.926
 21
135.284
 31
0.0
  0
LINE
  5
96
330
1E
100
AcDbEntity
  8
0
100
AcDbLine
 10
125.702
 20
131.456
 30
0.0
 11
127.462
 21
133.7879999999999
 31
0.0
  0
LINE
  5
97
330
1E
100
AcDbEntity
  8
0
100
AcDbLine
 10
129.926
 20
135.284
 30
0.0
 11
132.4779999999999
 21
136.34
 31
0.0
  0
LINE
  5
98
330
1E
100
AcDbEntity
  8
0
100
AcDbLine
 10
132.4779999999999
 20
136.34
 30
0.0
 11
135.25
 21
136.7359999999999
 31
0.0
  0
LINE
  5
99
330
1E
100
AcDbEntity
  8
0
100
AcDbLine
 10
129.7939999999999
 20
135.548
 30
0.0
 11
132.434
 21
136.6039999999999
 31
0.0
  0
LINE
  5
9A
330
1E
100
AcDbEntity
  8
0
100
AcDbLine
 10
127.462
 20
133.7879999999999
 30
0.0
 11
129.7939999999999
 21
135.548
 31
0.0
  0
LINE
  5
9B
330
1E
100
AcDbEntity
  8
0
100
AcDbLine
 10
135.25
 20
137.0
 30
0.0
 11
138.0659999999999
 21
136.6039999999999
 31
0.0
  0
LINE
  5
9C
330
1E
100
AcDbEntity
  8
0
100
AcDbLine
 10
135.25
 20
136.7359999999999
 30
0.0
 11
138.022
 21
136.34
 31
0.0
  0
LINE
  5
9D
330
1E
100
AcDbEntity
  8
0
100
AcDbLine
 10
138.0659999999999
 20
136.6039999999999
 30
0.0
 11
140.706
 21
135.548
 31
0.0
  0
LINE
  5
9E
330
1E
100
AcDbEntity
  8
0
100
AcDbLine
 10
138.022
 20
136.34
 30
0.0
 11
140.5739999999999
 21
135.284
 31
0.0
  0
LINE
  5
9F
330
1E
100
AcDbEntity
  8
0
100
AcDbLine
 10
143.0379999999999
 20
133.7879999999999
 30
0.0
 11
144.798
 21
131.456
 31
0.0
  0
LINE
  5
A0
330
1E
100
AcDbEntity
  8
0
100
AcDbLine
 10
140.706
 20
135.548
 30
0.0
 11
143.0379999999999
 21
133.7879999999999
 31
0.0
  0
LINE
  5
A1
330
1E
100
AcDbEntity
  8
0
100
AcDbLine
 10
140.5739999999999
 20
135.284
 30
0.0
 11
142.8179999999999
 21
133.5679999999999
 31
0.0
  0
LINE
  5
A2
330
1E
100
AcDbEntity
  8
0
100
AcDbLine
 10
142.8179999999999
 20
133.5679999999999
 30
0.0
 11
144.5339999999999
 21
131.3239999999999
 31
0.0
  0
LINE
  5
A3
330
1E
100
AcDbEntity
  8
0
100
AcDbLine
 10
144.798
 20
131.456
 30
0.0
 11
145.8539999999999
 21
128.8159999999999
 31
0.0
  0
LINE
  5
A4
330
1E
100
AcDbEntity
  8
0
100
AcDbLine
 10
144.5339999999999
 20
131.3239999999999
 30
0.0
 11
145.5899999999999
 21
128.772
 31
0.0
  0
LINE
  5
A5
330
1E
100
AcDbEntity
  8
0
100
AcDbLine
 10
206.95
 20
123.353
 30
0.0
 11
224.3709999999999
 21
127.09
 31
0.0
  0
LINE
  5
A6
330
1E
100
AcDbEntity
  8
0
100
AcDbLine
 10
224.3709999999999
 20
127.09
 30
0.0
 11
241.052
 21
131.042
 31
0.0
  0
LINE
  5
A7
330
1E
100
AcDbEntity
  8
0
100
AcDbLine
 10
149.2499999999999
 20
129.7581187084519
 30
0.0
 11
152.954
 21
129.872
 31
0.0
  0
LINE
  5
A8
330
1E
100
AcDbEntity
  8
0
100
AcDbLine
 10
152.0741980532509
 20
129.844950058855
 30
0.0
 11
160.1069999999999
 21
130.411
 31
0.0
  0
LINE
  5
A9
330
1E
100
AcDbEntity
  8
0
100
AcDbLine
 10
160.1069999999999
 20
130.411
 30
0.0
 11
172.458
 21
132.12
 31
0.0
  0
LINE
  5
AA
330
1E
100
AcDbEntity
  8
0
100
AcDbLine
 10
172.458
 20
132.12
 30
0.0
 11
188.129
 21
134.6119999999999
 31
0.0
  0
LINE
  5
AB
330
1E
100
AcDbEntity
  8
0
100
AcDbLine
 10
188.129
 20
134.6119999999999
 30
0.0
 11
203.425
 21
137.58
 31
0.0
  0
LINE
  5
AC
330
1E
100
AcDbEntity
  8
0
100
AcDbLine
 10
203.425
 20
137.58
 30
0.0
 11
220.8459999999999
 21
141.317
 31
0.0
  0
LINE
  5
AD
330
1E
100
AcDbEntity
  8
0
100
AcDbLine
 10
220.8459999999999
 20
141.317
 30
0.0
 11
237.5269999999999
 21
145.27
 31
0.0
  0
LINE
  5
AE
330
1E
100
AcDbEntity
  8
0
100
AcDbLine
 10
145.8539999999999
 20
128.8159999999999
 30
0.0
 11
146.25
 21
126.0
 31
0.0
  0
LINE
  5
AF
330
1E
100
AcDbEntity
  8
0
100
AcDbLine
 10
145.5899999999999
 20
128.772
 30
0.0
 11
145.9859999999999
 21
126.0
 31
0.0
  0
LINE
  5
B0
330
1E
100
AcDbEntity
  8
0
100
AcDbLine
 10
145.5899999999999
 20
123.228
 30
0.0
 11
145.9859999999999
 21
126.0
 31
0.0
  0
LINE
  5
B1
330
1E
100
AcDbEntity
  8
0
100
AcDbLine
 10
231.4499999999999
 20
157.0
 30
0.0
 11
231.55
 21
157.0
 31
0.0
  0
LINE
  5
B2
330
1E
100
AcDbEntity
  8
0
100
AcDbLine
 10
200.7499999999999
 20
157.0
 30
0.0
 11
231.4499999999999
 21
157.0
 31
0.0
  0
LINE
  5
B3
330
1E
100
AcDbEntity
  8
0
100
AcDbLine
 10
231.55
 20
157.0
 30
0.0
 11
231.7499999999999
 21
157.0
 31
0.0
  0
LINE
  5
B4
330
1E
100
AcDbEntity
  8
0
100
AcDbLine
 10
231.7499999999999
 20
157.0
 30
0.0
 11
235.25
 21
157.0
 31
0.0
  0
LINE
  5
B5
330
1E
100
AcDbEntity
  8
0
100
AcDbLine
 10
237.5269999999999
 20
145.27
 30
0.0
 11
252.527
 21
149.09
 31
0.0
  0
LINE
  5
B6
330
1E
100
AcDbEntity
  8
0
100
AcDbLine
 10
238.9499999999999
 20
157.0
 30
0.0
 11
239.05
 21
157.0
 31
0.0
  0
LINE
  5
B7
330
1E
100
AcDbEntity
  8
0
100
AcDbLine
 10
318.25
 20
108.3129999999999
 30
0.0
 11
326.55
 21
107.5949999999999
 31
0.0
  0
LINE
  5
B8
330
1E
100
AcDbEntity
  8
0
100
AcDbLine
 10
301.6499999999999
 20
111.102
 30
0.0
 11
309.45
 21
109.539
 31
0.0
  0
LINE
  5
B9
330
1E
100
AcDbEntity
  8
0
100
AcDbLine
 10
287.55
 20
115.667
 30
0.0
 11
294.2499999999999
 21
113.216
 31
0.0
  0
LINE
  5
BA
330
1E
100
AcDbEntity
  8
0
100
AcDbLine
 10
276.75
 20
121.626
 30
0.0
 11
281.7499999999999
 21
118.4979999999999
 31
0.0
  0
LINE
  5
BB
330
1E
100
AcDbEntity
  8
0
100
AcDbLine
 10
281.7499999999999
 20
118.4979999999999
 30
0.0
 11
287.55
 21
115.667
 31
0.0
  0
LINE
  5
BC
330
1E
100
AcDbEntity
  8
0
100
AcDbLine
 10
280.9499999999999
 20
119.151
 30
0.0
 11
286.85
 21
116.277
 31
0.0
  0
LINE
  5
BD
330
1E
100
AcDbEntity
  8
0
100
AcDbLine
 10
275.95
 20
122.3209999999999
 30
0.0
 11
280.9499999999999
 21
119.151
 31
0.0
  0
LINE
  5
BE
330
1E
100
AcDbEntity
  8
0
100
AcDbLine
 10
275.95
 20
122.3209999999999
 30
0.0
 11
276.75
 21
121.626
 31
0.0
  0
LINE
  5
BF
330
1E
100
AcDbEntity
  8
0
100
AcDbLine
 10
272.05
 20
125.6589999999999
 30
0.0
 11
275.95
 21
122.3209999999999
 31
0.0
  0
LINE
  5
C0
330
1E
100
AcDbEntity
  8
0
100
AcDbLine
 10
286.85
 20
116.277
 30
0.0
 11
293.6499999999999
 21
113.7839999999999
 31
0.0
  0
LINE
  5
C1
330
1E
100
AcDbEntity
  8
0
100
AcDbLine
 10
294.2499999999999
 20
113.216
 30
0.0
 11
301.6499999999999
 21
111.102
 31
0.0
  0
LINE
  5
C2
330
1E
100
AcDbEntity
  8
0
100
AcDbLine
 10
293.6499999999999
 20
113.7839999999999
 30
0.0
 11
301.1499999999999
 21
111.671
 31
0.0
  0
LINE
  5
C3
330
1E
100
AcDbEntity
  8
0
100
AcDbLine
 10
301.1499999999999
 20
111.671
 30
0.0
 11
309.05
 21
110.0219999999999
 31
0.0
  0
LINE
  5
C4
330
1E
100
AcDbEntity
  8
0
100
AcDbLine
 10
309.45
 20
109.539
 30
0.0
 11
318.25
 21
108.3129999999999
 31
0.0
  0
LINE
  5
C5
330
1E
100
AcDbEntity
  8
0
100
AcDbLine
 10
309.05
 20
110.0219999999999
 30
0.0
 11
317.5499999999999
 21
108.8389999999999
 31
0.0
  0
LINE
  5
C6
330
1E
100
AcDbEntity
  8
0
100
AcDbLine
 10
317.5499999999999
 20
108.8389999999999
 30
0.0
 11
326.4499999999999
 21
108.0779999999999
 31
0.0
  0
LINE
  5
C7
330
1E
100
AcDbEntity
  8
0
100
AcDbLine
 10
326.4499999999999
 20
108.0779999999999
 30
0.0
 11
335.25
 21
107.7829999999999
 31
0.0
  0
LINE
  5
C8
330
1E
100
AcDbEntity
  8
0
100
AcDbLine
 10
317.5499999999999
 20
127.872
 30
0.0
 11
326.4499999999999
 21
127.1109999999999
 31
0.0
  0
LINE
  5
C9
330
1E
100
AcDbEntity
  8
0
100
AcDbLine
 10
343.9499999999999
 20
107.5949999999999
 30
0.0
 11
352.2499999999999
 21
108.3129999999999
 31
0.0
  0
LINE
  5
CA
330
1E
100
AcDbEntity
  8
0
100
AcDbLine
 10
335.25
 20
107.2989999999999
 30
0.0
 11
343.9499999999999
 21
107.5949999999999
 31
0.0
  0
LINE
  5
CB
330
1E
100
AcDbEntity
  8
0
100
AcDbLine
 10
352.2499999999999
 20
108.3129999999999
 30
0.0
 11
361.05
 21
109.539
 31
0.0
  0
LINE
  5
CC
330
1E
100
AcDbEntity
  8
0
100
AcDbLine
 10
361.05
 20
109.539
 30
0.0
 11
368.85
 21
111.102
 31
0.0
  0
LINE
  5
CD
330
1E
100
AcDbEntity
  8
0
100
AcDbLine
 10
368.85
 20
111.102
 30
0.0
 11
376.25
 21
113.216
 31
0.0
  0
LINE
  5
CE
330
1E
100
AcDbEntity
  8
0
100
AcDbLine
 10
376.25
 20
113.216
 30
0.0
 11
382.9499999999999
 21
115.667
 31
0.0
  0
LINE
  5
CF
330
1E
100
AcDbEntity
  8
0
100
AcDbLine
 10
376.85
 20
113.7839999999999
 30
0.0
 11
383.65
 21
116.277
 31
0.0
  0
LINE
  5
D0
330
1E
100
AcDbEntity
  8
0
100
AcDbLine
 10
369.35
 20
111.671
 30
0.0
 11
376.85
 21
113.7839999999999
 31
0.0
  0
LINE
  5
D1
330
1E
100
AcDbEntity
  8
0
100
AcDbLine
 10
361.45
 20
110.0219999999999
 30
0.0
 11
369.35
 21
111.671
 31
0.0
  0
LINE
  5
D2
330
1E
100
AcDbEntity
  8
0
100
AcDbLine
 10
352.95
 20
108.8389999999999
 30
0.0
 11
361.45
 21
110.0219999999999
 31
0.0
  0
LINE
  5
D3
330
1E
100
AcDbEntity
  8
0
100
AcDbLine
 10
344.05
 20
108.0779999999999
 30
0.0
 11
352.95
 21
108.8389999999999
 31
0.0
  0
LINE
  5
D4
330
1E
100
AcDbEntity
  8
0
100
AcDbLine
 10
335.25
 20
107.7829999999999
 30
0.0
 11
344.05
 21
108.0779999999999
 31
0.0
  0
LINE
  5
D5
330
1E
100
AcDbEntity
  8
0
100
AcDbLine
 10
382.9499999999999
 20
115.667
 30
0.0
 11
388.75
 21
118.4979999999999
 31
0.0
  0
LINE
  5
D6
330
1E
100
AcDbEntity
  8
0
100
AcDbLine
 10
388.75
 20
118.4979999999999
 30
0.0
 11
393.75
 21
121.626
 31
0.0
  0
LINE
  5
D7
330
1E
100
AcDbEntity
  8
0
100
AcDbLine
 10
383.65
 20
116.277
 30
0.0
 11
389.55
 21
119.151
 31
0.0
  0
LINE
  5
D8
330
1E
100
AcDbEntity
  8
0
100
AcDbLine
 10
393.75
 20
121.626
 30
0.0
 11
394.55
 21
122.3209999999999
 31
0.0
  0
LINE
  5
D9
330
1E
100
AcDbEntity
  8
0
100
AcDbLine
 10
389.55
 20
119.151
 30
0.0
 11
394.55
 21
122.3209999999999
 31
0.0
  0
LINE
  5
DA
330
1E
100
AcDbEntity
  8
0
100
AcDbLine
 10
335.25
 20
126.815
 30
0.0
 11
344.05
 21
127.1109999999999
 31
0.0
  0
LINE
  5
DB
330
1E
100
AcDbEntity
  8
0
100
AcDbLine
 10
352.95
 20
127.872
 30
0.0
 11
361.45
 21
129.055
 31
0.0
  0
LINE
  5
DC
330
1E
100
AcDbEntity
  8
0
100
AcDbLine
 10
344.05
 20
127.1109999999999
 30
0.0
 11
352.95
 21
127.872
 31
0.0
  0
LINE
  5
DD
330
1E
100
AcDbEntity
  8
0
100
AcDbLine
 10
343.9499999999999
 20
128.4399999999999
 30
0.0
 11
352.2499999999999
 21
129.1579999999999
 31
0.0
  0
LINE
  5
DE
330
1E
100
AcDbEntity
  8
0
100
AcDbLine
 10
335.25
 20
128.144
 30
0.0
 11
343.9499999999999
 21
128.4399999999999
 31
0.0
  0
LINE
  5
DF
330
1E
100
AcDbEntity
  8
0
100
AcDbLine
 10
394.55
 20
122.3209999999999
 30
0.0
 11
398.45
 21
125.6589999999999
 31
0.0
  0
LINE
  5
E0
330
1E
100
AcDbEntity
  8
0
100
AcDbLine
 10
398.45
 20
125.6589999999999
 30
0.0
 11
401.25
 21
129.252
 31
0.0
  0
LINE
  5
E1
330
1E
100
AcDbEntity
  8
0
100
AcDbLine
 10
326.55
 20
107.5949999999999
 30
0.0
 11
335.25
 21
107.2989999999999
 31
0.0
  0
LINE
  5
E2
330
1E
100
AcDbEntity
  8
0
100
AcDbLine
 10
326.4499999999999
 20
127.1109999999999
 30
0.0
 11
335.25
 21
126.815
 31
0.0
  0
LINE
  5
E3
330
1E
100
AcDbEntity
  8
0
100
AcDbLine
 10
269.2499999999999
 20
129.252
 30
0.0
 11
272.05
 21
125.6589999999999
 31
0.0
  0
LINE
  5
E4
330
1E
100
AcDbEntity
  8
0
100
AcDbLine
 10
309.05
 20
129.055
 30
0.0
 11
317.5499999999999
 21
127.872
 31
0.0
  0
LINE
  5
E5
330
1E
100
AcDbEntity
  8
0
100
AcDbLine
 10
241.052
 20
131.042
 30
0.0
 11
256.052
 21
134.8619999999999
 31
0.0
  0
LINE
  5
E6
330
1E
100
AcDbEntity
  8
0
100
AcDbLine
 10
267.45
 20
133.013
 30
0.0
 11
269.2499999999999
 21
129.252
 31
0.0
  0
LINE
  5
E7
330
1E
100
AcDbEntity
  8
0
100
AcDbLine
 10
293.6499999999999
 20
132.816
 30
0.0
 11
301.1499999999999
 21
130.703
 31
0.0
  0
LINE
  5
E8
330
1E
100
AcDbEntity
  8
0
100
AcDbLine
 10
301.1499999999999
 20
130.703
 30
0.0
 11
309.05
 21
129.055
 31
0.0
  0
LINE
  5
E9
330
1E
100
AcDbEntity
  8
0
100
AcDbLine
 10
256.052
 20
134.8619999999999
 30
0.0
 11
266.7499999999999
 21
137.8209284799069
 31
0.0
  0
LINE
  5
EA
330
1E
100
AcDbEntity
  8
0
100
AcDbLine
 10
252.527
 20
149.09
 30
0.0
 11
266.7499999999999
 21
153.0238979033199
 31
0.0
  0
LINE
  5
EB
330
1E
100
AcDbEntity
  8
0
100
AcDbLine
 10
266.7499999999999
 20
136.732
 30
0.0
 11
267.45
 21
133.013
 31
0.0
  0
LINE
  5
EC
330
1E
100
AcDbEntity
  8
0
100
AcDbLine
 10
266.7499999999999
 20
136.732
 30
0.0
 11
266.7499999999999
 21
155.764
 31
0.0
  0
LINE
  5
ED
330
1E
100
AcDbEntity
  8
0
100
AcDbLine
 10
267.45
 20
152.0449999999999
 30
0.0
 11
269.2499999999999
 21
148.2839999999999
 31
0.0
  0
LINE
  5
EE
330
1E
100
AcDbEntity
  8
0
100
AcDbLine
 10
266.7499999999999
 20
155.764
 30
0.0
 11
267.45
 21
152.0449999999999
 31
0.0
  0
LINE
  5
EF
330
1E
100
AcDbEntity
  8
0
100
AcDbLine
 10
266.7499999999999
 20
155.764
 30
0.0
 11
266.7499999999999
 21
136.732
 31
0.0
  0
LINE
  5
F0
330
1E
100
AcDbEntity
  8
0
100
AcDbLine
 10
266.7499999999999
 20
155.764
 30
0.0
 11
267.45
 21
159.4829999999999
 31
0.0
  0
LINE
  5
F1
330
1E
100
AcDbEntity
  8
0
100
AcDbLine
 10
269.2499999999999
 20
148.2839999999999
 30
0.0
 11
272.05
 21
144.692
 31
0.0
  0
LINE
  5
F2
330
1E
100
AcDbEntity
  8
0
100
AcDbLine
 10
275.95
 20
141.3529999999999
 30
0.0
 11
280.9499999999999
 21
138.1829999999999
 31
0.0
  0
LINE
  5
F3
330
1E
100
AcDbEntity
  8
0
100
AcDbLine
 10
272.05
 20
144.692
 30
0.0
 11
275.95
 21
141.3529999999999
 31
0.0
  0
LINE
  5
F4
330
1E
100
AcDbEntity
  8
0
100
AcDbLine
 10
280.9499999999999
 20
138.1829999999999
 30
0.0
 11
286.85
 21
135.3099999999999
 31
0.0
  0
LINE
  5
F5
330
1E
100
AcDbEntity
  8
0
100
AcDbLine
 10
281.7499999999999
 20
139.3429999999999
 30
0.0
 11
287.55
 21
136.512
 31
0.0
  0
LINE
  5
F6
330
1E
100
AcDbEntity
  8
0
100
AcDbLine
 10
276.75
 20
142.471
 30
0.0
 11
281.7499999999999
 21
139.3429999999999
 31
0.0
  0
LINE
  5
F7
330
1E
100
AcDbEntity
  8
0
100
AcDbLine
 10
273.05
 20
145.767
 30
0.0
 11
276.75
 21
142.471
 31
0.0
  0
LINE
  5
F8
330
1E
100
AcDbEntity
  8
0
100
AcDbLine
 10
270.1499999999999
 20
149.4859999999999
 30
0.0
 11
273.05
 21
145.767
 31
0.0
  0
LINE
  5
F9
330
1E
100
AcDbEntity
  8
0
100
AcDbLine
 10
268.4499999999999
 20
152.994
 30
0.0
 11
270.1499999999999
 21
149.4859999999999
 31
0.0
  0
LINE
  5
FA
330
1E
100
AcDbEntity
  8
0
100
AcDbLine
 10
267.75
 20
156.671
 30
0.0
 11
268.4499999999999
 21
152.994
 31
0.0
  0
LINE
  5
FB
330
1E
100
AcDbEntity
  8
0
100
AcDbLine
 10
267.75
 20
156.671
 30
0.0
 11
268.4499999999999
 21
160.347
 31
0.0
  0
LINE
  5
FC
330
1E
100
AcDbEntity
  8
0
100
AcDbLine
 10
286.85
 20
135.3099999999999
 30
0.0
 11
293.6499999999999
 21
132.816
 31
0.0
  0
LINE
  5
FD
330
1E
100
AcDbEntity
  8
0
100
AcDbLine
 10
287.55
 20
136.512
 30
0.0
 11
294.2499999999999
 21
134.061
 31
0.0
  0
LINE
  5
FE
330
1E
100
AcDbEntity
  8
0
100
AcDbLine
 10
294.2499999999999
 20
134.061
 30
0.0
 11
301.6499999999999
 21
131.9479999999999
 31
0.0
  0
LINE
  5
FF
330
1E
100
AcDbEntity
  8
0
100
AcDbLine
 10
301.6499999999999
 20
131.9479999999999
 30
0.0
 11
309.45
 21
130.3839999999999
 31
0.0
  0
LINE
  5
100
330
1E
100
AcDbEntity
  8
0
100
AcDbLine
 10
309.45
 20
130.3839999999999
 30
0.0
 11
318.25
 21
129.1579999999999
 31
0.0
  0
LINE
  5
101
330
1E
100
AcDbEntity
  8
0
100
AcDbLine
 10
361.45
 20
129.055
 30
0.0
 11
369.35
 21
130.703
 31
0.0
  0
LINE
  5
102
330
1E
100
AcDbEntity
  8
0
100
AcDbLine
 10
369.35
 20
130.703
 30
0.0
 11
376.85
 21
132.816
 31
0.0
  0
LINE
  5
103
330
1E
100
AcDbEntity
  8
0
100
AcDbLine
 10
376.85
 20
132.816
 30
0.0
 11
383.65
 21
135.3099999999999
 31
0.0
  0
LINE
  5
104
330
1E
100
AcDbEntity
  8
0
100
AcDbLine
 10
376.25
 20
134.061
 30
0.0
 11
382.9499999999999
 21
136.512
 31
0.0
  0
LINE
  5
105
330
1E
100
AcDbEntity
  8
0
100
AcDbLine
 10
368.85
 20
131.9479999999999
 30
0.0
 11
376.25
 21
134.061
 31
0.0
  0
LINE
  5
106
330
1E
100
AcDbEntity
  8
0
100
AcDbLine
 10
361.05
 20
130.3839999999999
 30
0.0
 11
368.85
 21
131.9479999999999
 31
0.0
  0
LINE
  5
107
330
1E
100
AcDbEntity
  8
0
100
AcDbLine
 10
352.2499999999999
 20
129.1579999999999
 30
0.0
 11
361.05
 21
130.3839999999999
 31
0.0
  0
LINE
  5
108
330
1E
100
AcDbEntity
  8
0
100
AcDbLine
 10
383.65
 20
135.3099999999999
 30
0.0
 11
389.55
 21
138.1829999999999
 31
0.0
  0
LINE
  5
109
330
1E
100
AcDbEntity
  8
0
100
AcDbLine
 10
382.9499999999999
 20
136.512
 30
0.0
 11
388.75
 21
139.3429999999999
 31
0.0
  0
LINE
  5
10A
330
1E
100
AcDbEntity
  8
0
100
AcDbLine
 10
389.55
 20
138.1829999999999
 30
0.0
 11
394.55
 21
141.3529999999999
 31
0.0
  0
LINE
  5
10B
330
1E
100
AcDbEntity
  8
0
100
AcDbLine
 10
394.55
 20
141.3529999999999
 30
0.0
 11
398.45
 21
144.692
 31
0.0
  0
LINE
  5
10C
330
1E
100
AcDbEntity
  8
0
100
AcDbLine
 10
388.75
 20
139.3429999999999
 30
0.0
 11
393.75
 21
142.471
 31
0.0
  0
LINE
  5
10D
330
1E
100
AcDbEntity
  8
0
100
AcDbLine
 10
393.75
 20
142.471
 30
0.0
 11
397.4499999999999
 21
145.767
 31
0.0
  0
LINE
  5
10E
330
1E
100
AcDbEntity
  8
0
100
AcDbLine
 10
401.25
 20
129.252
 30
0.0
 11
403.0499999999999
 21
133.013
 31
0.0
  0
LINE
  5
10F
330
1E
100
AcDbEntity
  8
0
100
AcDbLine
 10
398.45
 20
144.692
 30
0.0
 11
401.25
 21
148.2839999999999
 31
0.0
  0
LINE
  5
110
330
1E
100
AcDbEntity
  8
0
100
AcDbLine
 10
401.25
 20
148.2839999999999
 30
0.0
 11
403.0499999999999
 21
152.0449999999999
 31
0.0
  0
LINE
  5
111
330
1E
100
AcDbEntity
  8
0
100
AcDbLine
 10
397.4499999999999
 20
145.767
 30
0.0
 11
400.35
 21
149.4859999999999
 31
0.0
  0
LINE
  5
112
330
1E
100
AcDbEntity
  8
0
100
AcDbLine
 10
400.35
 20
149.4859999999999
 30
0.0
 11
402.05
 21
152.994
 31
0.0
  0
LINE
  5
113
330
1E
100
AcDbEntity
  8
0
100
AcDbLine
 10
403.7499999999999
 20
136.732
 30
0.0
 11
403.7499999999999
 21
155.764
 31
0.0
  0
LINE
  5
114
330
1E
100
AcDbEntity
  8
0
100
AcDbLine
 10
403.0499999999999
 20
133.013
 30
0.0
 11
403.7499999999999
 21
136.732
 31
0.0
  0
LINE
  5
115
330
1E
100
AcDbEntity
  8
0
100
AcDbLine
 10
403.0499999999999
 20
152.0449999999999
 30
0.0
 11
403.7499999999999
 21
155.764
 31
0.0
  0
LINE
  5
116
330
1E
100
AcDbEntity
  8
0
100
AcDbLine
 10
402.05
 20
152.994
 30
0.0
 11
402.7499999999999
 21
156.671
 31
0.0
  0
LINE
  5
117
330
1E
100
AcDbEntity
  8
0
100
AcDbLine
 10
403.7499999999999
 20
155.764
 30
0.0
 11
403.7499999999999
 21
136.732
 31
0.0
  0
LINE
  5
118
330
1E
100
AcDbEntity
  8
0
100
AcDbLine
 10
318.25
 20
129.1579999999999
 30
0.0
 11
326.55
 21
128.4399999999999
 31
0.0
  0
LINE
  5
119
330
1E
100
AcDbEntity
  8
0
100
AcDbLine
 10
326.55
 20
128.4399999999999
 30
0.0
 11
335.25
 21
128.144
 31
0.0
  0
LINE
  5
11A
330
1E
100
AcDbEntity
  8
0
100
AcDbLine
 10
239.05
 20
157.0
 30
0.0
 11
266.9826431836519
 21
157.0
 31
0.0
  0
LINE
  5
11B
330
1E
100
AcDbEntity
  8
0
100
AcDbLine
 10
239.05
 20
157.0
 30
0.0
 11
239.65
 21
157.5
 31
0.0
  0
LINE
  5
11C
330
1E
100
AcDbEntity
  8
0
100
AcDbLine
 10
238.75
 20
157.0
 30
0.0
 11
238.9499999999999
 21
157.0
 31
0.0
  0
LINE
  5
11D
330
1E
100
AcDbEntity
  8
0
100
AcDbLine
 10
238.75
 20
157.0
 30
0.0
 11
239.25
 21
157.5
 31
0.0
  0
LINE
  5
11E
330
1E
100
AcDbEntity
  8
0
100
AcDbLine
 10
235.25
 20
157.0
 30
0.0
 11
238.75
 21
157.0
 31
0.0
  0
LINE
  5
11F
330
1E
100
AcDbEntity
  8
0
100
AcDbLine
 10
121.75
 20
46.0
 30
0.0
 11
121.75
 21
226.0
 31
0.0
  0
LINE
  5
120
330
1E
100
AcDbEntity
  8
0
100
AcDbLine
 10
121.75
 20
46.0
 30
0.0
 11
121.75
 21
34.2
 31
0.0
  0
LINE
  5
121
330
1E
100
AcDbEntity
  8
0
100
AcDbLine
 10
39.04999999999999
 20
157.0
 30
0.0
 11
69.75
 21
157.0
 31
0.0
  0
LINE
  5
122
330
1E
100
AcDbEntity
  8
0
100
AcDbLine
 10
39.04999999999999
 20
157.0
 30
0.0
 11
39.64999999999999
 21
157.5
 31
0.0
  0
LINE
  5
123
330
1E
100
AcDbEntity
  8
0
100
AcDbLine
 10
69.75
 20
157.0
 30
0.0
 11
70.25
 21
157.5
 31
0.0
  0
LINE
  5
124
330
1E
100
AcDbEntity
  8
0
100
AcDbLine
 10
38.75
 20
157.0
 30
0.0
 11
38.95
 21
157.0
 31
0.0
  0
LINE
  5
125
330
1E
100
AcDbEntity
  8
0
100
AcDbLine
 10
38.75
 20
157.0
 30
0.0
 11
39.25
 21
157.5
 31
0.0
  0
LINE
  5
126
330
1E
100
AcDbEntity
  8
0
100
AcDbLine
 10
35.25
 20
157.0
 30
0.0
 11
38.75
 21
157.0
 31
0.0
  0
LINE
  5
127
330
1E
100
AcDbEntity
  8
0
100
AcDbLine
 10
31.75
 20
157.0
 30
0.0
 11
35.25
 21
157.0
 31
0.0
  0
LINE
  5
128
330
1E
100
AcDbEntity
  8
0
100
AcDbLine
 10
30.85
 20
157.5
 30
0.0
 11
30.85
 21
172.5
 31
0.0
  0
LINE
  5
129
330
1E
100
AcDbEntity
  8
0
100
AcDbLine
 10
30.85
 20
157.5
 30
0.0
 11
31.05
 21
157.5
 31
0.0
  0
LINE
  5
12A
330
1E
100
AcDbEntity
  8
0
100
AcDbLine
 10
30.85
 20
157.5
 30
0.0
 11
31.45
 21
157.0
 31
0.0
  0
LINE
  5
12B
330
1E
100
AcDbEntity
  8
0
100
AcDbLine
 10
30.85
 20
172.5
 30
0.0
 11
31.45
 21
173.0
 31
0.0
  0
LINE
  5
12C
330
1E
100
AcDbEntity
  8
0
100
AcDbLine
 10
30.85
 20
172.5
 30
0.0
 11
31.05
 21
172.5
 31
0.0
  0
LINE
  5
12D
330
1E
100
AcDbEntity
  8
0
100
AcDbLine
 10
30.85
 20
172.5
 30
0.0
 11
30.85
 21
157.5
 31
0.0
  0
LINE
  5
12E
330
1E
100
AcDbEntity
  8
0
100
AcDbLine
 10
31.05
 20
157.5
 30
0.0
 11
31.25
 21
157.5
 31
0.0
  0
LINE
  5
12F
330
1E
100
AcDbEntity
  8
0
100
AcDbLine
 10
31.25
 20
157.5
 30
0.0
 11
35.25
 21
157.5
 31
0.0
  0
LINE
  5
130
330
1E
100
AcDbEntity
  8
0
100
AcDbLine
 10
31.25
 20
157.5
 30
0.0
 11
31.25
 21
172.5
 31
0.0
  0
LINE
  5
131
330
1E
100
AcDbEntity
  8
0
100
AcDbLine
 10
31.25
 20
157.5
 30
0.0
 11
31.75
 21
157.0
 31
0.0
  0
LINE
  5
132
330
1E
100
AcDbEntity
  8
0
100
AcDbLine
 10
31.05
 20
172.5
 30
0.0
 11
31.25
 21
172.5
 31
0.0
  0
LINE
  5
133
330
1E
100
AcDbEntity
  8
0
100
AcDbLine
 10
31.25
 20
172.5
 30
0.0
 11
35.25
 21
172.5
 31
0.0
  0
LINE
  5
134
330
1E
100
AcDbEntity
  8
0
100
AcDbLine
 10
31.25
 20
172.5
 30
0.0
 11
31.75
 21
173.0
 31
0.0
  0
LINE
  5
135
330
1E
100
AcDbEntity
  8
0
100
AcDbLine
 10
31.25
 20
172.5
 30
0.0
 11
31.25
 21
157.5
 31
0.0
  0
LINE
  5
136
330
1E
100
AcDbEntity
  8
0
100
AcDbLine
 10
35.25
 20
157.5
 30
0.0
 11
39.25
 21
157.5
 31
0.0
  0
LINE
  5
137
330
1E
100
AcDbEntity
  8
0
100
AcDbLine
 10
30.25
 20
173.0
 30
0.0
 11
30.25
 21
208.0
 31
0.0
  0
LINE
  5
138
330
1E
100
AcDbEntity
  8
0
100
AcDbLine
 10
31.45
 20
173.0
 30
0.0
 11
31.55
 21
173.0
 31
0.0
  0
LINE
  5
139
330
1E
100
AcDbEntity
  8
0
100
AcDbLine
 10
31.55
 20
173.0
 30
0.0
 11
31.75
 21
173.0
 31
0.0
  0
LINE
  5
13A
330
1E
100
AcDbEntity
  8
0
100
AcDbLine
 10
31.75
 20
173.0
 30
0.0
 11
35.25
 21
173.0
 31
0.0
  0
LINE
  5
13B
330
1E
100
AcDbEntity
  8
0
100
AcDbLine
 10
35.25
 20
172.5
 30
0.0
 11
39.25
 21
172.5
 31
0.0
  0
LINE
  5
13C
330
1E
100
AcDbEntity
  8
0
100
AcDbLine
 10
38.75
 20
173.0
 30
0.0
 11
38.95
 21
173.0
 31
0.0
  0
LINE
  5
13D
330
1E
100
AcDbEntity
  8
0
100
AcDbLine
 10
38.75
 20
173.0
 30
0.0
 11
39.25
 21
172.5
 31
0.0
  0
LINE
  5
13E
330
1E
100
AcDbEntity
  8
0
100
AcDbLine
 10
35.25
 20
173.0
 30
0.0
 11
38.75
 21
173.0
 31
0.0
  0
LINE
  5
13F
330
1E
100
AcDbEntity
  8
0
100
AcDbLine
 10
14.3357
 20
226.0
 30
0.0
 11
17.25
 21
226.0
 31
0.0
  0
LINE
  5
140
330
1E
100
AcDbEntity
  8
0
100
AcDbLine
 10
14.3357
 20
226.0
 30
0.0
 11
20.5929
 21
226.0
 31
0.0
  0
LINE
  5
141
330
1E
100
AcDbEntity
  8
0
100
AcDbLine
 10
9.62143
 20
226.0
 30
0.0
 11
14.3357
 21
226.0
 31
0.0
  0
LINE
  5
142
330
1E
100
AcDbEntity
  8
0
100
AcDbLine
 10
6.707139999999998
 20
226.0
 30
0.0
 11
9.62143
 21
226.0
 31
0.0
  0
LINE
  5
143
330
1E
100
AcDbEntity
  8
0
100
AcDbLine
 10
5.678569999999999
 20
226.0
 30
0.0
 11
6.707139999999998
 21
226.0
 31
0.0
  0
LINE
  5
144
330
1E
100
AcDbEntity
  8
0
100
AcDbLine
 10
5.25
 20
236.0
 30
0.0
 11
6.36429
 21
236.0
 31
0.0
  0
LINE
  5
145
330
1E
100
AcDbEntity
  8
0
100
AcDbLine
 10
5.25
 20
236.0
 30
0.0
 11
5.25
 21
226.5
 31
0.0
  0
LINE
  5
146
330
1E
100
AcDbEntity
  8
0
100
AcDbLine
 10
9.278569999999991
 20
226.5
 30
0.0
 11
14.0786
 21
226.5
 31
0.0
  0
LINE
  5
147
330
1E
100
AcDbEntity
  8
0
100
AcDbLine
 10
6.36429
 20
226.5
 30
0.0
 11
9.278569999999991
 21
226.5
 31
0.0
  0
LINE
  5
148
330
1E
100
AcDbEntity
  8
0
100
AcDbLine
 10
14.0786
 20
226.5
 30
0.0
 11
20.3357
 21
226.5
 31
0.0
  0
LINE
  5
149
330
1E
100
AcDbEntity
  8
0
100
AcDbLine
 10
14.0786
 20
236.0
 30
0.0
 11
20.3357
 21
236.0
 31
0.0
  0
LINE
  5
14A
330
1E
100
AcDbEntity
  8
0
100
AcDbLine
 10
9.278569999999991
 20
236.0
 30
0.0
 11
14.0786
 21
236.0
 31
0.0
  0
LINE
  5
14B
330
1E
100
AcDbEntity
  8
0
100
AcDbLine
 10
6.36429
 20
236.0
 30
0.0
 11
9.278569999999991
 21
236.0
 31
0.0
  0
LINE
  5
14C
330
1E
100
AcDbEntity
  8
0
100
AcDbLine
 10
5.25
 20
226.5
 30
0.0
 11
5.25
 21
236.0
 31
0.0
  0
LINE
  5
14D
330
1E
100
AcDbEntity
  8
0
100
AcDbLine
 10
5.25
 20
226.5
 30
0.0
 11
5.678569999999999
 21
226.0
 31
0.0
  0
LINE
  5
14E
330
1E
100
AcDbEntity
  8
0
100
AcDbLine
 10
5.25
 20
226.5
 30
0.0
 11
6.36429
 21
226.5
 31
0.0
  0
LINE
  5
14F
330
1E
100
AcDbEntity
  8
0
100
AcDbLine
 10
17.25
 20
226.0
 30
0.0
 11
17.25
 21
208.4999999999999
 31
0.0
  0
LINE
  5
150
330
1E
100
AcDbEntity
  8
0
100
AcDbLine
 10
17.25
 20
226.0
 30
0.0
 11
17.94999999999999
 21
226.0
 31
0.0
  0
LINE
  5
151
330
1E
100
AcDbEntity
  8
0
100
AcDbLine
 10
33.95
 20
208.0
 30
0.0
 11
35.25
 21
208.0
 31
0.0
  0
LINE
  5
152
330
1E
100
AcDbEntity
  8
0
100
AcDbLine
 10
32.75
 20
208.0
 30
0.0
 11
33.95
 21
208.0
 31
0.0
  0
LINE
  5
153
330
1E
100
AcDbEntity
  8
0
100
AcDbLine
 10
31.75
 20
208.0
 30
0.0
 11
32.75
 21
208.0
 31
0.0
  0
LINE
  5
154
330
1E
100
AcDbEntity
  8
0
100
AcDbLine
 10
30.95
 20
208.0
 30
0.0
 11
31.75
 21
208.0
 31
0.0
  0
LINE
  5
155
330
1E
100
AcDbEntity
  8
0
100
AcDbLine
 10
30.44999999999999
 20
208.0
 30
0.0
 11
30.95
 21
208.0
 31
0.0
  0
LINE
  5
156
330
1E
100
AcDbEntity
  8
0
100
AcDbLine
 10
30.25
 20
208.0
 30
0.0
 11
30.25
 21
173.0
 31
0.0
  0
LINE
  5
157
330
1E
100
AcDbEntity
  8
0
100
AcDbLine
 10
30.25
 20
208.0
 30
0.0
 11
30.44999999999999
 21
208.0
 31
0.0
  0
LINE
  5
158
330
1E
100
AcDbEntity
  8
0
100
AcDbLine
 10
30.75
 20
208.0
 30
0.0
 11
35.25
 21
208.0
 31
0.0
  0
LINE
  5
159
330
1E
100
AcDbEntity
  8
0
100
AcDbLine
 10
36.54999999999999
 20
208.0
 30
0.0
 11
37.75
 21
208.0
 31
0.0
  0
LINE
  5
15A
330
1E
100
AcDbEntity
  8
0
100
AcDbLine
 10
37.75
 20
208.0
 30
0.0
 11
38.75
 21
208.0
 31
0.0
  0
LINE
  5
15B
330
1E
100
AcDbEntity
  8
0
100
AcDbLine
 10
38.75
 20
208.0
 30
0.0
 11
39.55
 21
208.0
 31
0.0
  0
LINE
  5
15C
330
1E
100
AcDbEntity
  8
0
100
AcDbLine
 10
35.25
 20
208.0
 30
0.0
 11
39.75
 21
208.0
 31
0.0
  0
LINE
  5
15D
330
1E
100
AcDbEntity
  8
0
100
AcDbLine
 10
35.25
 20
208.0
 30
0.0
 11
36.54999999999999
 21
208.0
 31
0.0
  0
LINE
  5
15E
330
1E
100
AcDbEntity
  8
0
100
AcDbLine
 10
26.55
 20
208.0
 30
0.0
 11
30.25
 21
208.0
 31
0.0
  0
LINE
  5
15F
330
1E
100
AcDbEntity
  8
0
100
AcDbLine
 10
26.55
 20
208.0
 30
0.0
 11
30.75
 21
208.0
 31
0.0
  0
LINE
  5
160
330
1E
100
AcDbEntity
  8
0
100
AcDbLine
 10
22.85
 20
208.0
 30
0.0
 11
26.55
 21
208.0
 31
0.0
  0
LINE
  5
161
330
1E
100
AcDbEntity
  8
0
100
AcDbLine
 10
20.05
 20
208.0
 30
0.0
 11
22.85
 21
208.0
 31
0.0
  0
LINE
  5
162
330
1E
100
AcDbEntity
  8
0
100
AcDbLine
 10
18.35
 20
208.0
 30
0.0
 11
20.05
 21
208.0
 31
0.0
  0
LINE
  5
163
330
1E
100
AcDbEntity
  8
0
100
AcDbLine
 10
17.94999999999999
 20
226.0
 30
0.0
 11
19.64999999999999
 21
226.0
 31
0.0
  0
LINE
  5
164
330
1E
100
AcDbEntity
  8
0
100
AcDbLine
 10
30.64999999999999
 20
208.4999999999999
 30
0.0
 11
35.25
 21
208.4999999999999
 31
0.0
  0
LINE
  5
165
330
1E
100
AcDbEntity
  8
0
100
AcDbLine
 10
26.35
 20
208.4999999999999
 30
0.0
 11
30.64999999999999
 21
208.4999999999999
 31
0.0
  0
LINE
  5
166
330
1E
100
AcDbEntity
  8
0
100
AcDbLine
 10
22.55
 20
208.4999999999999
 30
0.0
 11
26.35
 21
208.4999999999999
 31
0.0
  0
LINE
  5
167
330
1E
100
AcDbEntity
  8
0
100
AcDbLine
 10
20.5929
 20
226.0
 30
0.0
 11
27.6214
 21
226.0
 31
0.0
  0
LINE
  5
168
330
1E
100
AcDbEntity
  8
0
100
AcDbLine
 10
27.6214
 20
226.0
 30
0.0
 11
35.25
 21
226.0
 31
0.0
  0
LINE
  5
169
330
1E
100
AcDbEntity
  8
0
100
AcDbLine
 10
30.64999999999999
 20
226.0
 30
0.0
 11
35.25
 21
226.0
 31
0.0
  0
LINE
  5
16A
330
1E
100
AcDbEntity
  8
0
100
AcDbLine
 10
26.35
 20
226.0
 30
0.0
 11
30.64999999999999
 21
226.0
 31
0.0
  0
LINE
  5
16B
330
1E
100
AcDbEntity
  8
0
100
AcDbLine
 10
22.55
 20
226.0
 30
0.0
 11
26.35
 21
226.0
 31
0.0
  0
LINE
  5
16C
330
1E
100
AcDbEntity
  8
0
100
AcDbLine
 10
19.64999999999999
 20
226.0
 30
0.0
 11
22.55
 21
226.0
 31
0.0
  0
LINE
  5
16D
330
1E
100
AcDbEntity
  8
0
100
AcDbLine
 10
19.64999999999999
 20
208.4999999999999
 30
0.0
 11
22.55
 21
208.4999999999999
 31
0.0
  0
LINE
  5
16E
330
1E
100
AcDbEntity
  8
0
100
AcDbLine
 10
17.94999999999999
 20
208.4999999999999
 30
0.0
 11
19.64999999999999
 21
208.4999999999999
 31
0.0
  0
LINE
  5
16F
330
1E
100
AcDbEntity
  8
0
100
AcDbLine
 10
27.53569999999999
 20
226.5
 30
0.0
 11
35.25
 21
226.5
 31
0.0
  0
LINE
  5
170
330
1E
100
AcDbEntity
  8
0
100
AcDbLine
 10
20.3357
 20
226.5
 30
0.0
 11
27.53569999999999
 21
226.5
 31
0.0
  0
LINE
  5
171
330
1E
100
AcDbEntity
  8
0
100
AcDbLine
 10
27.53569999999999
 20
236.0
 30
0.0
 11
35.25
 21
236.0
 31
0.0
  0
LINE
  5
172
330
1E
100
AcDbEntity
  8
0
100
AcDbLine
 10
20.3357
 20
236.0
 30
0.0
 11
27.53569999999999
 21
236.0
 31
0.0
  0
LINE
  5
173
330
1E
100
AcDbEntity
  8
0
100
AcDbLine
 10
35.25
 20
226.5
 30
0.0
 11
42.96429999999999
 21
226.5
 31
0.0
  0
LINE
  5
174
330
1E
100
AcDbEntity
  8
0
100
AcDbLine
 10
35.25
 20
236.0
 30
0.0
 11
42.96429999999999
 21
236.0
 31
0.0
  0
LINE
  5
175
330
1E
100
AcDbEntity
  8
0
100
AcDbLine
 10
35.25
 20
226.0
 30
0.0
 11
39.85
 21
226.0
 31
0.0
  0
LINE
  5
176
330
1E
100
AcDbEntity
  8
0
100
AcDbLine
 10
35.25
 20
226.0
 30
0.0
 11
42.8786
 21
226.0
 31
0.0
  0
LINE
  5
177
330
1E
100
AcDbEntity
  8
0
100
AcDbLine
 10
35.25
 20
208.4999999999999
 30
0.0
 11
39.85
 21
208.4999999999999
 31
0.0
  0
LINE
  5
178
330
1E
100
AcDbEntity
  8
0
100
AcDbLine
 10
17.75
 20
208.0
 30
0.0
 11
18.35
 21
208.0
 31
0.0
  0
LINE
  5
179
330
1E
100
AcDbEntity
  8
0
100
AcDbLine
 10
17.25
 20
208.4999999999999
 30
0.0
 11
17.25
 21
226.0
 31
0.0
  0
LINE
  5
17A
330
1E
100
AcDbEntity
  8
0
100
AcDbLine
 10
17.25
 20
208.4999999999999
 30
0.0
 11
17.75
 21
208.0
 31
0.0
  0
LINE
  5
17B
330
1E
100
AcDbEntity
  8
0
100
AcDbLine
 10
17.25
 20
208.4999999999999
 30
0.0
 11
17.94999999999999
 21
208.4999999999999
 31
0.0
  0
LINE
  5
17C
330
1E
100
AcDbEntity
  8
0
100
AcDbLine
 10
38.95
 20
173.0
 30
0.0
 11
39.04999999999999
 21
173.0
 31
0.0
  0
LINE
  5
17D
330
1E
100
AcDbEntity
  8
0
100
AcDbLine
 10
39.25
 20
157.5
 30
0.0
 11
39.25
 21
172.5
 31
0.0
  0
LINE
  5
17E
330
1E
100
AcDbEntity
  8
0
100
AcDbLine
 10
39.25
 20
157.5
 30
0.0
 11
39.45
 21
157.5
 31
0.0
  0
LINE
  5
17F
330
1E
100
AcDbEntity
  8
0
100
AcDbLine
 10
39.25
 20
172.5
 30
0.0
 11
39.45
 21
172.5
 31
0.0
  0
LINE
  5
180
330
1E
100
AcDbEntity
  8
0
100
AcDbLine
 10
39.25
 20
172.5
 30
0.0
 11
39.25
 21
157.5
 31
0.0
  0
LINE
  5
181
330
1E
100
AcDbEntity
  8
0
100
AcDbLine
 10
39.45
 20
157.5
 30
0.0
 11
39.64999999999999
 21
157.5
 31
0.0
  0
LINE
  5
182
330
1E
100
AcDbEntity
  8
0
100
AcDbLine
 10
39.64999999999999
 20
157.5
 30
0.0
 11
70.25
 21
157.5
 31
0.0
  0
LINE
  5
183
330
1E
100
AcDbEntity
  8
0
100
AcDbLine
 10
39.64999999999999
 20
157.5
 30
0.0
 11
39.64999999999999
 21
172.5
 31
0.0
  0
LINE
  5
184
330
1E
100
AcDbEntity
  8
0
100
AcDbLine
 10
39.45
 20
172.5
 30
0.0
 11
39.64999999999999
 21
172.5
 31
0.0
  0
LINE
  5
185
330
1E
100
AcDbEntity
  8
0
100
AcDbLine
 10
230.8499999999999
 20
157.5
 30
0.0
 11
230.8499999999999
 21
172.5
 31
0.0
  0
LINE
  5
186
330
1E
100
AcDbEntity
  8
0
100
AcDbLine
 10
230.8499999999999
 20
157.5
 30
0.0
 11
231.05
 21
157.5
 31
0.0
  0
LINE
  5
187
330
1E
100
AcDbEntity
  8
0
100
AcDbLine
 10
230.8499999999999
 20
157.5
 30
0.0
 11
231.4499999999999
 21
157.0
 31
0.0
  0
LINE
  5
188
330
1E
100
AcDbEntity
  8
0
100
AcDbLine
 10
200.2499999999999
 20
157.5
 30
0.0
 11
200.2499999999999
 21
172.5
 31
0.0
  0
LINE
  5
189
330
1E
100
AcDbEntity
  8
0
100
AcDbLine
 10
200.2499999999999
 20
157.5
 30
0.0
 11
230.8499999999999
 21
157.5
 31
0.0
  0
LINE
  5
18A
330
1E
100
AcDbEntity
  8
0
100
AcDbLine
 10
200.2499999999999
 20
157.5
 30
0.0
 11
200.7499999999999
 21
157.0
 31
0.0
  0
LINE
  5
18B
330
1E
100
AcDbEntity
  8
0
100
AcDbLine
 10
230.8499999999999
 20
172.5
 30
0.0
 11
231.4499999999999
 21
173.0
 31
0.0
  0
LINE
  5
18C
330
1E
100
AcDbEntity
  8
0
100
AcDbLine
 10
230.8499999999999
 20
172.5
 30
0.0
 11
231.05
 21
172.5
 31
0.0
  0
LINE
  5
18D
330
1E
100
AcDbEntity
  8
0
100
AcDbLine
 10
230.8499999999999
 20
172.5
 30
0.0
 11
230.8499999999999
 21
157.5
 31
0.0
  0
LINE
  5
18E
330
1E
100
AcDbEntity
  8
0
100
AcDbLine
 10
200.2499999999999
 20
172.5
 30
0.0
 11
200.2499999999999
 21
157.5
 31
0.0
  0
LINE
  5
18F
330
1E
100
AcDbEntity
  8
0
100
AcDbLine
 10
200.2499999999999
 20
172.5
 30
0.0
 11
200.7499999999999
 21
173.0
 31
0.0
  0
LINE
  5
190
330
1E
100
AcDbEntity
  8
0
100
AcDbLine
 10
200.2499999999999
 20
172.5
 30
0.0
 11
230.8499999999999
 21
172.5
 31
0.0
  0
LINE
  5
191
330
1E
100
AcDbEntity
  8
0
100
AcDbLine
 10
231.05
 20
157.5
 30
0.0
 11
231.25
 21
157.5
 31
0.0
  0
LINE
  5
192
330
1E
100
AcDbEntity
  8
0
100
AcDbLine
 10
239.4499999999999
 20
157.5
 30
0.0
 11
239.65
 21
157.5
 31
0.0
  0
LINE
  5
193
330
1E
100
AcDbEntity
  8
0
100
AcDbLine
 10
239.65
 20
157.5
 30
0.0
 11
267.076754503899
 21
157.5
 31
0.0
  0
LINE
  5
194
330
1E
100
AcDbEntity
  8
0
100
AcDbLine
 10
239.65
 20
157.5
 30
0.0
 11
239.65
 21
172.5
 31
0.0
  0
LINE
  5
195
330
1E
100
AcDbEntity
  8
0
100
AcDbLine
 10
239.25
 20
157.5
 30
0.0
 11
239.25
 21
172.5
 31
0.0
  0
LINE
  5
196
330
1E
100
AcDbEntity
  8
0
100
AcDbLine
 10
239.25
 20
157.5
 30
0.0
 11
239.4499999999999
 21
157.5
 31
0.0
  0
LINE
  5
197
330
1E
100
AcDbEntity
  8
0
100
AcDbLine
 10
235.25
 20
157.5
 30
0.0
 11
239.25
 21
157.5
 31
0.0
  0
LINE
  5
198
330
1E
100
AcDbEntity
  8
0
100
AcDbLine
 10
239.4499999999999
 20
172.5
 30
0.0
 11
239.65
 21
172.5
 31
0.0
  0
LINE
  5
199
330
1E
100
AcDbEntity
  8
0
100
AcDbLine
 10
267.45
 20
159.4829999999999
 30
0.0
 11
269.2499999999999
 21
163.245
 31
0.0
  0
LINE
  5
19A
330
1E
100
AcDbEntity
  8
0
100
AcDbLine
 10
269.2499999999999
 20
163.245
 30
0.0
 11
272.05
 21
166.837
 31
0.0
  0
LINE
  5
19B
330
1E
100
AcDbEntity
  8
0
100
AcDbLine
 10
270.1499999999999
 20
163.8549999999999
 30
0.0
 11
273.05
 21
167.574
 31
0.0
  0
LINE
  5
19C
330
1E
100
AcDbEntity
  8
0
100
AcDbLine
 10
268.4499999999999
 20
160.347
 30
0.0
 11
270.1499999999999
 21
163.8549999999999
 31
0.0
  0
LINE
  5
19D
330
1E
100
AcDbEntity
  8
0
100
AcDbLine
 10
403.0499999999999
 20
159.4829999999999
 30
0.0
 11
403.7499999999999
 21
155.764
 31
0.0
  0
LINE
  5
19E
330
1E
100
AcDbEntity
  8
0
100
AcDbLine
 10
398.45
 20
166.837
 30
0.0
 11
401.25
 21
163.245
 31
0.0
  0
LINE
  5
19F
330
1E
100
AcDbEntity
  8
0
100
AcDbLine
 10
397.4499999999999
 20
167.574
 30
0.0
 11
400.35
 21
163.8549999999999
 31
0.0
  0
LINE
  5
1A0
330
1E
100
AcDbEntity
  8
0
100
AcDbLine
 10
401.25
 20
163.245
 30
0.0
 11
403.0499999999999
 21
159.4829999999999
 31
0.0
  0
LINE
  5
1A1
330
1E
100
AcDbEntity
  8
0
100
AcDbLine
 10
400.35
 20
163.8549999999999
 30
0.0
 11
402.05
 21
160.347
 31
0.0
  0
LINE
  5
1A2
330
1E
100
AcDbEntity
  8
0
100
AcDbLine
 10
402.05
 20
160.347
 30
0.0
 11
402.7499999999999
 21
156.671
 31
0.0
  0
LINE
  5
1A3
330
1E
100
AcDbEntity
  8
0
100
AcDbLine
 10
272.05
 20
166.837
 30
0.0
 11
275.95
 21
170.1759999999999
 31
0.0
  0
LINE
  5
1A4
330
1E
100
AcDbEntity
  8
0
100
AcDbLine
 10
275.95
 20
170.1759999999999
 30
0.0
 11
276.75
 21
170.8709999999999
 31
0.0
  0
LINE
  5
1A5
330
1E
100
AcDbEntity
  8
0
100
AcDbLine
 10
275.95
 20
170.1759999999999
 30
0.0
 11
276.0194371494
 21
170.2200092652899
 31
0.0
  0
LINE
  5
1A6
330
1E
100
AcDbEntity
  8
0
100
AcDbLine
 10
394.4805628506
 20
170.2200092652899
 30
0.0
 11
394.55
 21
170.1759999999999
 31
0.0
  0
LINE
  5
1A7
330
1E
100
AcDbEntity
  8
0
100
AcDbLine
 10
394.55
 20
170.1759999999999
 30
0.0
 11
398.45
 21
166.837
 31
0.0
  0
LINE
  5
1A8
330
1E
100
AcDbEntity
  8
0
100
AcDbLine
 10
393.75
 20
170.8709999999999
 30
0.0
 11
397.4499999999999
 21
167.574
 31
0.0
  0
LINE
  5
1A9
330
1E
100
AcDbEntity
  8
0
100
AcDbLine
 10
393.75
 20
170.8709999999999
 30
0.0
 11
394.55
 21
170.1759999999999
 31
0.0
  0
LINE
  5
1AA
330
1E
100
AcDbEntity
  8
0
100
AcDbLine
 10
276.75
 20
170.8709999999999
 30
0.0
 11
281.7499999999999
 21
173.9979999999999
 31
0.0
  0
LINE
  5
1AB
330
1E
100
AcDbEntity
  8
0
100
AcDbLine
 10
273.05
 20
167.574
 30
0.0
 11
276.75
 21
170.8709999999999
 31
0.0
  0
LINE
  5
1AC
330
1E
100
AcDbEntity
  8
0
100
AcDbLine
 10
270.25
 20
164.5278571428569
 30
0.0
 11
270.25
 21
172.5
 31
0.0
  0
LINE
  5
1AD
330
1E
100
AcDbEntity
  8
0
100
AcDbLine
 10
270.25
 20
172.5
 30
0.0
 11
270.25
 21
164.5278571428569
 31
0.0
  0
LINE
  5
1AE
330
1E
100
AcDbEntity
  8
0
100
AcDbLine
 10
239.65
 20
172.5
 30
0.0
 11
270.25
 21
172.5
 31
0.0
  0
LINE
  5
1AF
330
1E
100
AcDbEntity
  8
0
100
AcDbLine
 10
239.65
 20
172.5
 30
0.0
 11
239.65
 21
157.5
 31
0.0
  0
LINE
  5
1B0
330
1E
100
AcDbEntity
  8
0
100
AcDbLine
 10
239.25
 20
172.5
 30
0.0
 11
239.4499999999999
 21
172.5
 31
0.0
  0
LINE
  5
1B1
330
1E
100
AcDbEntity
  8
0
100
AcDbLine
 10
239.25
 20
172.5
 30
0.0
 11
239.25
 21
157.5
 31
0.0
  0
LINE
  5
1B2
330
1E
100
AcDbEntity
  8
0
100
AcDbLine
 10
235.25
 20
172.5
 30
0.0
 11
239.25
 21
172.5
 31
0.0
  0
LINE
  5
1B3
330
1E
100
AcDbEntity
  8
0
100
AcDbLine
 10
231.25
 20
157.5
 30
0.0
 11
235.25
 21
157.5
 31
0.0
  0
LINE
  5
1B4
330
1E
100
AcDbEntity
  8
0
100
AcDbLine
 10
231.25
 20
157.5
 30
0.0
 11
231.25
 21
172.5
 31
0.0
  0
LINE
  5
1B5
330
1E
100
AcDbEntity
  8
0
100
AcDbLine
 10
231.25
 20
157.5
 30
0.0
 11
231.7499999999999
 21
157.0
 31
0.0
  0
LINE
  5
1B6
330
1E
100
AcDbEntity
  8
0
100
AcDbLine
 10
231.05
 20
172.5
 30
0.0
 11
231.25
 21
172.5
 31
0.0
  0
LINE
  5
1B7
330
1E
100
AcDbEntity
  8
0
100
AcDbLine
 10
231.25
 20
172.5
 30
0.0
 11
235.25
 21
172.5
 31
0.0
  0
LINE
  5
1B8
330
1E
100
AcDbEntity
  8
0
100
AcDbLine
 10
231.25
 20
172.5
 30
0.0
 11
231.7499999999999
 21
173.0
 31
0.0
  0
LINE
  5
1B9
330
1E
100
AcDbEntity
  8
0
100
AcDbLine
 10
231.25
 20
172.5
 30
0.0
 11
231.25
 21
157.5
 31
0.0
  0
LINE
  5
1BA
330
1E
100
AcDbEntity
  8
0
100
AcDbLine
 10
70.25
 20
157.5
 30
0.0
 11
70.25
 21
172.5
 31
0.0
  0
LINE
  5
1BB
330
1E
100
AcDbEntity
  8
0
100
AcDbLine
 10
230.25
 20
173.0
 30
0.0
 11
230.25
 21
208.0
 31
0.0
  0
LINE
  5
1BC
330
1E
100
AcDbEntity
  8
0
100
AcDbLine
 10
231.4499999999999
 20
173.0
 30
0.0
 11
231.55
 21
173.0
 31
0.0
  0
LINE
  5
1BD
330
1E
100
AcDbEntity
  8
0
100
AcDbLine
 10
200.7499999999999
 20
173.0
 30
0.0
 11
231.4499999999999
 21
173.0
 31
0.0
  0
LINE
  5
1BE
330
1E
100
AcDbEntity
  8
0
100
AcDbLine
 10
238.9499999999999
 20
173.0
 30
0.0
 11
239.05
 21
173.0
 31
0.0
  0
LINE
  5
1BF
330
1E
100
AcDbEntity
  8
0
100
AcDbLine
 10
269.75
 20
173.0
 30
0.0
 11
270.25
 21
172.5
 31
0.0
  0
LINE
  5
1C0
330
1E
100
AcDbEntity
  8
0
100
AcDbLine
 10
239.05
 20
173.0
 30
0.0
 11
269.75
 21
173.0
 31
0.0
  0
LINE
  5
1C1
330
1E
100
AcDbEntity
  8
0
100
AcDbLine
 10
239.05
 20
173.0
 30
0.0
 11
239.65
 21
172.5
 31
0.0
  0
LINE
  5
1C2
330
1E
100
AcDbEntity
  8
0
100
AcDbLine
 10
240.2499999999999
 20
173.0
 30
0.0
 11
240.2499999999999
 21
208.0
 31
0.0
  0
LINE
  5
1C3
330
1E
100
AcDbEntity
  8
0
100
AcDbLine
 10
238.75
 20
173.0
 30
0.0
 11
238.9499999999999
 21
173.0
 31
0.0
  0
LINE
  5
1C4
330
1E
100
AcDbEntity
  8
0
100
AcDbLine
 10
238.75
 20
173.0
 30
0.0
 11
239.25
 21
172.5
 31
0.0
  0
LINE
  5
1C5
330
1E
100
AcDbEntity
  8
0
100
AcDbLine
 10
235.25
 20
173.0
 30
0.0
 11
238.75
 21
173.0
 31
0.0
  0
LINE
  5
1C6
330
1E
100
AcDbEntity
  8
0
100
AcDbLine
 10
231.55
 20
173.0
 30
0.0
 11
231.7499999999999
 21
173.0
 31
0.0
  0
LINE
  5
1C7
330
1E
100
AcDbEntity
  8
0
100
AcDbLine
 10
231.7499999999999
 20
173.0
 30
0.0
 11
235.25
 21
173.0
 31
0.0
  0
LINE
  5
1C8
330
1E
100
AcDbEntity
  8
0
100
AcDbLine
 10
40.25
 20
173.0
 30
0.0
 11
40.25
 21
208.0
 31
0.0
  0
LINE
  5
1C9
330
1E
100
AcDbEntity
  8
0
100
AcDbLine
 10
70.25
 20
172.5
 30
0.0
 11
70.25
 21
157.5
 31
0.0
  0
LINE
  5
1CA
330
1E
100
AcDbEntity
  8
0
100
AcDbLine
 10
39.64999999999999
 20
172.5
 30
0.0
 11
70.25
 21
172.5
 31
0.0
  0
LINE
  5
1CB
330
1E
100
AcDbEntity
  8
0
100
AcDbLine
 10
39.64999999999999
 20
172.5
 30
0.0
 11
39.64999999999999
 21
157.5
 31
0.0
  0
LINE
  5
1CC
330
1E
100
AcDbEntity
  8
0
100
AcDbLine
 10
39.55
 20
208.0
 30
0.0
 11
40.04999999999999
 21
208.0
 31
0.0
  0
LINE
  5
1CD
330
1E
100
AcDbEntity
  8
0
100
AcDbLine
 10
40.04999999999999
 20
208.0
 30
0.0
 11
40.25
 21
208.0
 31
0.0
  0
LINE
  5
1CE
330
1E
100
AcDbEntity
  8
0
100
AcDbLine
 10
39.75
 20
208.0
 30
0.0
 11
43.95
 21
208.0
 31
0.0
  0
LINE
  5
1CF
330
1E
100
AcDbEntity
  8
0
100
AcDbLine
 10
40.25
 20
208.0
 30
0.0
 11
43.95
 21
208.0
 31
0.0
  0
LINE
  5
1D0
330
1E
100
AcDbEntity
  8
0
100
AcDbLine
 10
40.25
 20
208.0
 30
0.0
 11
40.25
 21
173.0
 31
0.0
  0
LINE
  5
1D1
330
1E
100
AcDbEntity
  8
0
100
AcDbLine
 10
43.95
 20
208.0
 30
0.0
 11
47.64999999999999
 21
208.0
 31
0.0
  0
LINE
  5
1D2
330
1E
100
AcDbEntity
  8
0
100
AcDbLine
 10
47.64999999999999
 20
208.0
 30
0.0
 11
50.45
 21
208.0
 31
0.0
  0
LINE
  5
1D3
330
1E
100
AcDbEntity
  8
0
100
AcDbLine
 10
50.45
 20
208.0
 30
0.0
 11
52.14999999999999
 21
208.0
 31
0.0
  0
LINE
  5
1D4
330
1E
100
AcDbEntity
  8
0
100
AcDbLine
 10
52.75
 20
208.0
 30
0.0
 11
53.25
 21
208.4999999999999
 31
0.0
  0
LINE
  5
1D5
330
1E
100
AcDbEntity
  8
0
100
AcDbLine
 10
39.85
 20
208.4999999999999
 30
0.0
 11
44.15
 21
208.4999999999999
 31
0.0
  0
LINE
  5
1D6
330
1E
100
AcDbEntity
  8
0
100
AcDbLine
 10
44.15
 20
208.4999999999999
 30
0.0
 11
47.95
 21
208.4999999999999
 31
0.0
  0
LINE
  5
1D7
330
1E
100
AcDbEntity
  8
0
100
AcDbLine
 10
47.95
 20
208.4999999999999
 30
0.0
 11
50.85
 21
208.4999999999999
 31
0.0
  0
LINE
  5
1D8
330
1E
100
AcDbEntity
  8
0
100
AcDbLine
 10
50.85
 20
208.4999999999999
 30
0.0
 11
52.54999999999999
 21
208.4999999999999
 31
0.0
  0
LINE
  5
1D9
330
1E
100
AcDbEntity
  8
0
100
AcDbLine
 10
42.8786
 20
226.0
 30
0.0
 11
49.90709999999999
 21
226.0
 31
0.0
  0
LINE
  5
1DA
330
1E
100
AcDbEntity
  8
0
100
AcDbLine
 10
39.85
 20
226.0
 30
0.0
 11
44.15
 21
226.0
 31
0.0
  0
LINE
  5
1DB
330
1E
100
AcDbEntity
  8
0
100
AcDbLine
 10
44.15
 20
226.0
 30
0.0
 11
47.95
 21
226.0
 31
0.0
  0
LINE
  5
1DC
330
1E
100
AcDbEntity
  8
0
100
AcDbLine
 10
49.90709999999999
 20
226.0
 30
0.0
 11
56.1643
 21
226.0
 31
0.0
  0
LINE
  5
1DD
330
1E
100
AcDbEntity
  8
0
100
AcDbLine
 10
47.95
 20
226.0
 30
0.0
 11
50.85
 21
226.0
 31
0.0
  0
LINE
  5
1DE
330
1E
100
AcDbEntity
  8
0
100
AcDbLine
 10
42.96429999999999
 20
226.5
 30
0.0
 11
50.16429999999999
 21
226.5
 31
0.0
  0
LINE
  5
1DF
330
1E
100
AcDbEntity
  8
0
100
AcDbLine
 10
50.16429999999999
 20
226.5
 30
0.0
 11
56.4214
 21
226.5
 31
0.0
  0
LINE
  5
1E0
330
1E
100
AcDbEntity
  8
0
100
AcDbLine
 10
42.96429999999999
 20
236.0
 30
0.0
 11
50.16429999999999
 21
236.0
 31
0.0
  0
LINE
  5
1E1
330
1E
100
AcDbEntity
  8
0
100
AcDbLine
 10
50.16429999999999
 20
236.0
 30
0.0
 11
56.4214
 21
236.0
 31
0.0
  0
LINE
  5
1E2
330
1E
100
AcDbEntity
  8
0
100
AcDbLine
 10
50.85
 20
226.0
 30
0.0
 11
52.54999999999999
 21
226.0
 31
0.0
  0
LINE
  5
1E3
330
1E
100
AcDbEntity
  8
0
100
AcDbLine
 10
52.54999999999999
 20
226.0
 30
0.0
 11
53.25
 21
226.0
 31
0.0
  0
LINE
  5
1E4
330
1E
100
AcDbEntity
  8
0
100
AcDbLine
 10
52.54999999999999
 20
208.4999999999999
 30
0.0
 11
53.25
 21
208.4999999999999
 31
0.0
  0
LINE
  5
1E5
330
1E
100
AcDbEntity
  8
0
100
AcDbLine
 10
53.25
 20
208.4999999999999
 30
0.0
 11
53.25
 21
226.0
 31
0.0
  0
LINE
  5
1E6
330
1E
100
AcDbEntity
  8
0
100
AcDbLine
 10
52.14999999999999
 20
208.0
 30
0.0
 11
52.75
 21
208.0
 31
0.0
  0
LINE
  5
1E7
330
1E
100
AcDbEntity
  8
0
100
AcDbLine
 10
233.95
 20
208.0
 30
0.0
 11
235.25
 21
208.0
 31
0.0
  0
LINE
  5
1E8
330
1E
100
AcDbEntity
  8
0
100
AcDbLine
 10
232.75
 20
208.0
 30
0.0
 11
233.95
 21
208.0
 31
0.0
  0
LINE
  5
1E9
330
1E
100
AcDbEntity
  8
0
100
AcDbLine
 10
231.7499999999999
 20
208.0
 30
0.0
 11
232.75
 21
208.0
 31
0.0
  0
LINE
  5
1EA
330
1E
100
AcDbEntity
  8
0
100
AcDbLine
 10
230.9499999999999
 20
208.0
 30
0.0
 11
231.7499999999999
 21
208.0
 31
0.0
  0
LINE
  5
1EB
330
1E
100
AcDbEntity
  8
0
100
AcDbLine
 10
230.4499999999999
 20
208.0
 30
0.0
 11
230.9499999999999
 21
208.0
 31
0.0
  0
LINE
  5
1EC
330
1E
100
AcDbEntity
  8
0
100
AcDbLine
 10
230.25
 20
208.0
 30
0.0
 11
230.25
 21
173.0
 31
0.0
  0
LINE
  5
1ED
330
1E
100
AcDbEntity
  8
0
100
AcDbLine
 10
230.25
 20
208.0
 30
0.0
 11
230.4499999999999
 21
208.0
 31
0.0
  0
LINE
  5
1EE
330
1E
100
AcDbEntity
  8
0
100
AcDbLine
 10
230.75
 20
208.0
 30
0.0
 11
235.25
 21
208.0
 31
0.0
  0
LINE
  5
1EF
330
1E
100
AcDbEntity
  8
0
100
AcDbLine
 10
236.55
 20
208.0
 30
0.0
 11
237.7499999999999
 21
208.0
 31
0.0
  0
LINE
  5
1F0
330
1E
100
AcDbEntity
  8
0
100
AcDbLine
 10
237.7499999999999
 20
208.0
 30
0.0
 11
238.75
 21
208.0
 31
0.0
  0
LINE
  5
1F1
330
1E
100
AcDbEntity
  8
0
100
AcDbLine
 10
238.75
 20
208.0
 30
0.0
 11
239.55
 21
208.0
 31
0.0
  0
LINE
  5
1F2
330
1E
100
AcDbEntity
  8
0
100
AcDbLine
 10
239.55
 20
208.0
 30
0.0
 11
240.05
 21
208.0
 31
0.0
  0
LINE
  5
1F3
330
1E
100
AcDbEntity
  8
0
100
AcDbLine
 10
240.05
 20
208.0
 30
0.0
 11
240.2499999999999
 21
208.0
 31
0.0
  0
LINE
  5
1F4
330
1E
100
AcDbEntity
  8
0
100
AcDbLine
 10
235.25
 20
208.0
 30
0.0
 11
239.7499999999999
 21
208.0
 31
0.0
  0
LINE
  5
1F5
330
1E
100
AcDbEntity
  8
0
100
AcDbLine
 10
235.25
 20
208.0
 30
0.0
 11
236.55
 21
208.0
 31
0.0
  0
LINE
  5
1F6
330
1E
100
AcDbEntity
  8
0
100
AcDbLine
 10
239.7499999999999
 20
208.0
 30
0.0
 11
243.9499999999999
 21
208.0
 31
0.0
  0
LINE
  5
1F7
330
1E
100
AcDbEntity
  8
0
100
AcDbLine
 10
240.2499999999999
 20
208.0
 30
0.0
 11
243.9499999999999
 21
208.0
 31
0.0
  0
LINE
  5
1F8
330
1E
100
AcDbEntity
  8
0
100
AcDbLine
 10
240.2499999999999
 20
208.0
 30
0.0
 11
240.2499999999999
 21
173.0
 31
0.0
  0
LINE
  5
1F9
330
1E
100
AcDbEntity
  8
0
100
AcDbLine
 10
243.9499999999999
 20
208.0
 30
0.0
 11
247.65
 21
208.0
 31
0.0
  0
LINE
  5
1FA
330
1E
100
AcDbEntity
  8
0
100
AcDbLine
 10
247.65
 20
208.0
 30
0.0
 11
250.4499999999999
 21
208.0
 31
0.0
  0
LINE
  5
1FB
330
1E
100
AcDbEntity
  8
0
100
AcDbLine
 10
250.4499999999999
 20
208.0
 30
0.0
 11
252.15
 21
208.0
 31
0.0
  0
LINE
  5
1FC
330
1E
100
AcDbEntity
  8
0
100
AcDbLine
 10
287.55
 20
176.83
 30
0.0
 11
294.2499999999999
 21
179.2809999999999
 31
0.0
  0
LINE
  5
1FD
330
1E
100
AcDbEntity
  8
0
100
AcDbLine
 10
294.2499999999999
 20
179.2809999999999
 30
0.0
 11
301.6499999999999
 21
181.394
 31
0.0
  0
LINE
  5
1FE
330
1E
100
AcDbEntity
  8
0
100
AcDbLine
 10
301.6499999999999
 20
181.394
 30
0.0
 11
309.45
 21
182.9579999999999
 31
0.0
  0
LINE
  5
1FF
330
1E
100
AcDbEntity
  8
0
100
AcDbLine
 10
309.45
 20
182.9579999999999
 30
0.0
 11
318.25
 21
184.1829999999999
 31
0.0
  0
LINE
  5
200
330
1E
100
AcDbEntity
  8
0
100
AcDbLine
 10
281.7499999999999
 20
173.9979999999999
 30
0.0
 11
287.55
 21
176.83
 31
0.0
  0
LINE
  5
201
330
1E
100
AcDbEntity
  8
0
100
AcDbLine
 10
252.7499999999999
 20
208.0
 30
0.0
 11
253.25
 21
208.4999999999999
 31
0.0
  0
LINE
  5
202
330
1E
100
AcDbEntity
  8
0
100
AcDbLine
 10
252.15
 20
208.0
 30
0.0
 11
252.7499999999999
 21
208.0
 31
0.0
  0
LINE
  5
203
330
1E
100
AcDbEntity
  8
0
100
AcDbLine
 10
226.55
 20
208.0
 30
0.0
 11
230.25
 21
208.0
 31
0.0
  0
LINE
  5
204
330
1E
100
AcDbEntity
  8
0
100
AcDbLine
 10
226.55
 20
208.0
 30
0.0
 11
230.75
 21
208.0
 31
0.0
  0
LINE
  5
205
330
1E
100
AcDbEntity
  8
0
100
AcDbLine
 10
222.8499999999999
 20
208.0
 30
0.0
 11
226.55
 21
208.0
 31
0.0
  0
LINE
  5
206
330
1E
100
AcDbEntity
  8
0
100
AcDbLine
 10
220.05
 20
208.0
 30
0.0
 11
222.8499999999999
 21
208.0
 31
0.0
  0
LINE
  5
207
330
1E
100
AcDbEntity
  8
0
100
AcDbLine
 10
218.3499999999999
 20
208.0
 30
0.0
 11
220.05
 21
208.0
 31
0.0
  0
LINE
  5
208
330
1E
100
AcDbEntity
  8
0
100
AcDbLine
 10
217.75
 20
208.0
 30
0.0
 11
218.3499999999999
 21
208.0
 31
0.0
  0
LINE
  5
209
330
1E
100
AcDbEntity
  8
0
100
AcDbLine
 10
318.25
 20
184.1829999999999
 30
0.0
 11
326.55
 21
184.902
 31
0.0
  0
LINE
  5
20A
330
1E
100
AcDbEntity
  8
0
100
AcDbLine
 10
324.234610647724
 20
184.701425910327
 30
0.0
 11
324.25
 21
208.0
 31
0.0
  0
LINE
  5
20B
330
1E
100
AcDbEntity
  8
0
100
AcDbLine
 10
326.55
 20
184.902
 30
0.0
 11
335.25
 21
185.197
 31
0.0
  0
LINE
  5
20C
330
1E
100
AcDbEntity
  8
0
100
AcDbLine
 10
325.702
 20
208.0
 30
0.0
 11
327.462
 21
208.0
 31
0.0
  0
LINE
  5
20D
330
1E
100
AcDbEntity
  8
0
100
AcDbLine
 10
324.6459999999999
 20
208.0
 30
0.0
 11
325.702
 21
208.0
 31
0.0
  0
LINE
  5
20E
330
1E
100
AcDbEntity
  8
0
100
AcDbLine
 10
324.25
 20
208.0
 30
0.0
 11
324.6459999999999
 21
208.0
 31
0.0
  0
LINE
  5
20F
330
1E
100
AcDbEntity
  8
0
100
AcDbLine
 10
326.225904178054
 20
184.873924711328
 30
0.0
 11
328.55
 21
186.6999999999999
 31
0.0
  0
LINE
  5
210
330
1E
100
AcDbEntity
  8
0
100
AcDbLine
 10
327.742755476213
 20
184.9424440075269
 30
0.0
 11
329.05
 21
185.945
 31
0.0
  0
LINE
  5
211
330
1E
100
AcDbEntity
  8
0
100
AcDbLine
 10
329.05
 20
185.945
 30
0.0
 11
332.05
 21
187.1229999999999
 31
0.0
  0
LINE
  5
212
330
1E
100
AcDbEntity
  8
0
100
AcDbLine
 10
331.05
 20
186.730333333333
 30
0.0
 11
332.05
 21
187.133
 31
0.0
  0
LINE
  5
213
330
1E
100
AcDbEntity
  8
0
100
AcDbLine
 10
329.794
 20
208.0
 30
0.0
 11
332.434
 21
208.0
 31
0.0
  0
LINE
  5
214
330
1E
100
AcDbEntity
  8
0
100
AcDbLine
 10
327.462
 20
208.0
 30
0.0
 11
329.794
 21
208.0
 31
0.0
  0
LINE
  5
215
330
1E
100
AcDbEntity
  8
0
100
AcDbLine
 10
328.55
 20
186.6999999999999
 30
0.0
 11
331.7499999999999
 21
188.0
 31
0.0
  0
LINE
  5
216
330
1E
100
AcDbEntity
  8
0
100
AcDbLine
 10
332.05
 20
187.133
 30
0.0
 11
335.25
 21
187.58
 31
0.0
  0
LINE
  5
217
330
1E
100
AcDbEntity
  8
0
100
AcDbLine
 10
338.45
 20
187.133
 30
0.0
 11
339.4499999999999
 21
186.730333333333
 31
0.0
  0
LINE
  5
218
330
1E
100
AcDbEntity
  8
0
100
AcDbLine
 10
338.45
 20
187.1229999999999
 30
0.0
 11
341.4499999999999
 21
185.945
 31
0.0
  0
LINE
  5
219
330
1E
100
AcDbEntity
  8
0
100
AcDbLine
 10
335.25
 20
187.58
 30
0.0
 11
338.45
 21
187.133
 31
0.0
  0
LINE
  5
21A
330
1E
100
AcDbEntity
  8
0
100
AcDbLine
 10
335.25
 20
187.5769999999999
 30
0.0
 11
338.45
 21
187.1229999999999
 31
0.0
  0
LINE
  5
21B
330
1E
100
AcDbEntity
  8
0
100
AcDbLine
 10
332.05
 20
187.1229999999999
 30
0.0
 11
335.25
 21
187.5769999999999
 31
0.0
  0
LINE
  5
21C
330
1E
100
AcDbEntity
  8
0
100
AcDbLine
 10
335.25
 20
185.197
 30
0.0
 11
343.9499999999999
 21
184.902
 31
0.0
  0
LINE
  5
21D
330
1E
100
AcDbEntity
  8
0
100
AcDbLine
 10
338.75
 20
188.0
 30
0.0
 11
341.9499999999999
 21
186.6999999999999
 31
0.0
  0
LINE
  5
21E
330
1E
100
AcDbEntity
  8
0
100
AcDbLine
 10
332.434
 20
208.0
 30
0.0
 11
335.25
 21
208.0
 31
0.0
  0
LINE
  5
21F
330
1E
100
AcDbEntity
  8
0
100
AcDbLine
 10
338.0659999999999
 20
208.0
 30
0.0
 11
340.7059999999999
 21
208.0
 31
0.0
  0
LINE
  5
220
330
1E
100
AcDbEntity
  8
0
100
AcDbLine
 10
335.25
 20
188.4999999999999
 30
0.0
 11
338.75
 21
188.0
 31
0.0
  0
LINE
  5
221
330
1E
100
AcDbEntity
  8
0
100
AcDbLine
 10
331.7499999999999
 20
188.0
 30
0.0
 11
335.25
 21
188.4999999999999
 31
0.0
  0
LINE
  5
222
330
1E
100
AcDbEntity
  8
0
100
AcDbLine
 10
330.75
 20
208.0
 30
0.0
 11
335.25
 21
208.0
 31
0.0
  0
LINE
  5
223
330
1E
100
AcDbEntity
  8
0
100
AcDbLine
 10
326.55
 20
208.0
 30
0.0
 11
330.75
 21
208.0
 31
0.0
  0
LINE
  5
224
330
1E
100
AcDbEntity
  8
0
100
AcDbLine
 10
322.85
 20
208.0
 30
0.0
 11
326.55
 21
208.0
 31
0.0
  0
LINE
  5
225
330
1E
100
AcDbEntity
  8
0
100
AcDbLine
 10
322.85
 20
208.0
 30
0.0
 11
324.25
 21
208.0
 31
0.0
  0
LINE
  5
226
330
1E
100
AcDbEntity
  8
0
100
AcDbLine
 10
320.05
 20
208.0
 30
0.0
 11
322.85
 21
208.0
 31
0.0
  0
LINE
  5
227
330
1E
100
AcDbEntity
  8
0
100
AcDbLine
 10
318.35
 20
208.0
 30
0.0
 11
320.05
 21
208.0
 31
0.0
  0
LINE
  5
228
330
1E
100
AcDbEntity
  8
0
100
AcDbLine
 10
317.75
 20
208.0
 30
0.0
 11
318.35
 21
208.0
 31
0.0
  0
LINE
  5
229
330
1E
100
AcDbEntity
  8
0
100
AcDbLine
 10
230.65
 20
208.4999999999999
 30
0.0
 11
235.25
 21
208.4999999999999
 31
0.0
  0
LINE
  5
22A
330
1E
100
AcDbEntity
  8
0
100
AcDbLine
 10
226.35
 20
208.4999999999999
 30
0.0
 11
230.65
 21
208.4999999999999
 31
0.0
  0
LINE
  5
22B
330
1E
100
AcDbEntity
  8
0
100
AcDbLine
 10
222.55
 20
208.4999999999999
 30
0.0
 11
226.35
 21
208.4999999999999
 31
0.0
  0
LINE
  5
22C
330
1E
100
AcDbEntity
  8
0
100
AcDbLine
 10
219.6499999999999
 20
208.4999999999999
 30
0.0
 11
222.55
 21
208.4999999999999
 31
0.0
  0
LINE
  5
22D
330
1E
100
AcDbEntity
  8
0
100
AcDbLine
 10
217.9499999999999
 20
208.4999999999999
 30
0.0
 11
219.6499999999999
 21
208.4999999999999
 31
0.0
  0
LINE
  5
22E
330
1E
100
AcDbEntity
  8
0
100
AcDbLine
 10
235.25
 20
208.4999999999999
 30
0.0
 11
239.8499999999999
 21
208.4999999999999
 31
0.0
  0
LINE
  5
22F
330
1E
100
AcDbEntity
  8
0
100
AcDbLine
 10
239.8499999999999
 20
208.4999999999999
 30
0.0
 11
244.15
 21
208.4999999999999
 31
0.0
  0
LINE
  5
230
330
1E
100
AcDbEntity
  8
0
100
AcDbLine
 10
244.15
 20
208.4999999999999
 30
0.0
 11
247.9499999999999
 21
208.4999999999999
 31
0.0
  0
LINE
  5
231
330
1E
100
AcDbEntity
  8
0
100
AcDbLine
 10
247.9499999999999
 20
208.4999999999999
 30
0.0
 11
250.85
 21
208.4999999999999
 31
0.0
  0
LINE
  5
232
330
1E
100
AcDbEntity
  8
0
100
AcDbLine
 10
250.85
 20
208.4999999999999
 30
0.0
 11
252.55
 21
208.4999999999999
 31
0.0
  0
LINE
  5
233
330
1E
100
AcDbEntity
  8
0
100
AcDbLine
 10
252.55
 20
208.4999999999999
 30
0.0
 11
253.25
 21
208.4999999999999
 31
0.0
  0
LINE
  5
234
330
1E
100
AcDbEntity
  8
0
100
AcDbLine
 10
253.25
 20
208.4999999999999
 30
0.0
 11
253.25
 21
226.0
 31
0.0
  0
LINE
  5
235
330
1E
100
AcDbEntity
  8
0
100
AcDbLine
 10
217.2499999999999
 20
208.4999999999999
 30
0.0
 11
217.2499999999999
 21
226.0
 31
0.0
  0
LINE
  5
236
330
1E
100
AcDbEntity
  8
0
100
AcDbLine
 10
217.2499999999999
 20
208.4999999999999
 30
0.0
 11
217.75
 21
208.0
 31
0.0
  0
LINE
  5
237
330
1E
100
AcDbEntity
  8
0
100
AcDbLine
 10
217.2499999999999
 20
208.4999999999999
 30
0.0
 11
217.9499999999999
 21
208.4999999999999
 31
0.0
  0
LINE
  5
238
330
1E
100
AcDbEntity
  8
0
100
AcDbLine
 10
330.6499999999999
 20
208.4999999999999
 30
0.0
 11
335.25
 21
208.4999999999999
 31
0.0
  0
LINE
  5
239
330
1E
100
AcDbEntity
  8
0
100
AcDbLine
 10
326.35
 20
208.4999999999999
 30
0.0
 11
330.6499999999999
 21
208.4999999999999
 31
0.0
  0
LINE
  5
23A
330
1E
100
AcDbEntity
  8
0
100
AcDbLine
 10
322.55
 20
208.4999999999999
 30
0.0
 11
326.35
 21
208.4999999999999
 31
0.0
  0
LINE
  5
23B
330
1E
100
AcDbEntity
  8
0
100
AcDbLine
 10
319.6499999999999
 20
208.4999999999999
 30
0.0
 11
322.55
 21
208.4999999999999
 31
0.0
  0
LINE
  5
23C
330
1E
100
AcDbEntity
  8
0
100
AcDbLine
 10
317.9499999999999
 20
208.4999999999999
 30
0.0
 11
319.6499999999999
 21
208.4999999999999
 31
0.0
  0
LINE
  5
23D
330
1E
100
AcDbEntity
  8
0
100
AcDbLine
 10
317.2499999999999
 20
208.4999999999999
 30
0.0
 11
317.9499999999999
 21
208.4999999999999
 31
0.0
  0
LINE
  5
23E
330
1E
100
AcDbEntity
  8
0
100
AcDbLine
 10
317.2499999999999
 20
208.4999999999999
 30
0.0
 11
317.75
 21
208.0
 31
0.0
  0
LINE
  5
23F
330
1E
100
AcDbEntity
  8
0
100
AcDbLine
 10
317.2499999999999
 20
208.4999999999999
 30
0.0
 11
317.2499999999999
 21
226.0
 31
0.0
  0
LINE
  5
240
330
1E
100
AcDbEntity
  8
0
100
AcDbLine
 10
335.25
 20
208.0
 30
0.0
 11
339.7499999999999
 21
208.0
 31
0.0
  0
LINE
  5
241
330
1E
100
AcDbEntity
  8
0
100
AcDbLine
 10
335.25
 20
208.0
 30
0.0
 11
338.0659999999999
 21
208.0
 31
0.0
  0
LINE
  5
242
330
1E
100
AcDbEntity
  8
0
100
AcDbLine
 10
339.7499999999999
 20
208.0
 30
0.0
 11
343.9499999999999
 21
208.0
 31
0.0
  0
LINE
  5
243
330
1E
100
AcDbEntity
  8
0
100
AcDbLine
 10
335.25
 20
208.4999999999999
 30
0.0
 11
339.85
 21
208.4999999999999
 31
0.0
  0
LINE
  5
244
330
1E
100
AcDbEntity
  8
0
100
AcDbLine
 10
341.4499999999999
 20
185.945
 30
0.0
 11
342.757244523787
 21
184.9424440075269
 31
0.0
  0
LINE
  5
245
330
1E
100
AcDbEntity
  8
0
100
AcDbLine
 10
343.9499999999999
 20
184.902
 30
0.0
 11
352.2499999999999
 21
184.1829999999999
 31
0.0
  0
LINE
  5
246
330
1E
100
AcDbEntity
  8
0
100
AcDbLine
 10
340.7059999999999
 20
208.0
 30
0.0
 11
343.0379999999999
 21
208.0
 31
0.0
  0
LINE
  5
247
330
1E
100
AcDbEntity
  8
0
100
AcDbLine
 10
343.0379999999999
 20
208.0
 30
0.0
 11
344.798
 21
208.0
 31
0.0
  0
LINE
  5
248
330
1E
100
AcDbEntity
  8
0
100
AcDbLine
 10
341.9499999999999
 20
186.6999999999999
 30
0.0
 11
344.274095821946
 21
184.873924711328
 31
0.0
  0
LINE
  5
249
330
1E
100
AcDbEntity
  8
0
100
AcDbLine
 10
344.798
 20
208.0
 30
0.0
 11
345.854
 21
208.0
 31
0.0
  0
LINE
  5
24A
330
1E
100
AcDbEntity
  8
0
100
AcDbLine
 10
345.854
 20
208.0
 30
0.0
 11
346.2499999999999
 21
208.0
 31
0.0
  0
LINE
  5
24B
330
1E
100
AcDbEntity
  8
0
100
AcDbLine
 10
346.2499999999999
 20
208.0
 30
0.0
 11
347.6499999999999
 21
208.0
 31
0.0
  0
LINE
  5
24C
330
1E
100
AcDbEntity
  8
0
100
AcDbLine
 10
346.2499999999999
 20
208.0
 30
0.0
 11
346.2653893522759
 21
184.701425910327
 31
0.0
  0
LINE
  5
24D
330
1E
100
AcDbEntity
  8
0
100
AcDbLine
 10
343.9499999999999
 20
208.0
 30
0.0
 11
347.6499999999999
 21
208.0
 31
0.0
  0
LINE
  5
24E
330
1E
100
AcDbEntity
  8
0
100
AcDbLine
 10
347.6499999999999
 20
208.0
 30
0.0
 11
350.45
 21
208.0
 31
0.0
  0
LINE
  5
24F
330
1E
100
AcDbEntity
  8
0
100
AcDbLine
 10
339.85
 20
208.4999999999999
 30
0.0
 11
344.15
 21
208.4999999999999
 31
0.0
  0
LINE
  5
250
330
1E
100
AcDbEntity
  8
0
100
AcDbLine
 10
344.15
 20
208.4999999999999
 30
0.0
 11
347.9499999999999
 21
208.4999999999999
 31
0.0
  0
LINE
  5
251
330
1E
100
AcDbEntity
  8
0
100
AcDbLine
 10
352.2499999999999
 20
184.1829999999999
 30
0.0
 11
361.05
 21
182.9579999999999
 31
0.0
  0
LINE
  5
252
330
1E
100
AcDbEntity
  8
0
100
AcDbLine
 10
350.45
 20
208.0
 30
0.0
 11
352.1499999999999
 21
208.0
 31
0.0
  0
LINE
  5
253
330
1E
100
AcDbEntity
  8
0
100
AcDbLine
 10
352.1499999999999
 20
208.0
 30
0.0
 11
352.7499999999999
 21
208.0
 31
0.0
  0
LINE
  5
254
330
1E
100
AcDbEntity
  8
0
100
AcDbLine
 10
347.9499999999999
 20
208.4999999999999
 30
0.0
 11
350.85
 21
208.4999999999999
 31
0.0
  0
LINE
  5
255
330
1E
100
AcDbEntity
  8
0
100
AcDbLine
 10
350.85
 20
208.4999999999999
 30
0.0
 11
352.55
 21
208.4999999999999
 31
0.0
  0
LINE
  5
256
330
1E
100
AcDbEntity
  8
0
100
AcDbLine
 10
382.9499999999999
 20
176.83
 30
0.0
 11
388.75
 21
173.9979999999999
 31
0.0
  0
LINE
  5
257
330
1E
100
AcDbEntity
  8
0
100
AcDbLine
 10
388.75
 20
173.9979999999999
 30
0.0
 11
393.75
 21
170.8709999999999
 31
0.0
  0
LINE
  5
258
330
1E
100
AcDbEntity
  8
0
100
AcDbLine
 10
376.25
 20
179.2809999999999
 30
0.0
 11
382.9499999999999
 21
176.83
 31
0.0
  0
LINE
  5
259
330
1E
100
AcDbEntity
  8
0
100
AcDbLine
 10
368.85
 20
181.394
 30
0.0
 11
376.25
 21
179.2809999999999
 31
0.0
  0
LINE
  5
25A
330
1E
100
AcDbEntity
  8
0
100
AcDbLine
 10
361.05
 20
182.9579999999999
 30
0.0
 11
368.85
 21
181.394
 31
0.0
  0
LINE
  5
25B
330
1E
100
AcDbEntity
  8
0
100
AcDbLine
 10
352.7499999999999
 20
208.0
 30
0.0
 11
353.25
 21
208.4999999999999
 31
0.0
  0
LINE
  5
25C
330
1E
100
AcDbEntity
  8
0
100
AcDbLine
 10
352.55
 20
208.4999999999999
 30
0.0
 11
353.25
 21
208.4999999999999
 31
0.0
  0
LINE
  5
25D
330
1E
100
AcDbEntity
  8
0
100
AcDbLine
 10
56.1643
 20
226.0
 30
0.0
 11
60.8786
 21
226.0
 31
0.0
  0
LINE
  5
25E
330
1E
100
AcDbEntity
  8
0
100
AcDbLine
 10
120.5929999999999
 20
226.0
 30
0.0
 11
121.25
 21
226.0
 31
0.0
  0
LINE
  5
25F
330
1E
100
AcDbEntity
  8
0
100
AcDbLine
 10
120.5929999999999
 20
226.0
 30
0.0
 11
127.621
 21
226.0
 31
0.0
  0
LINE
  5
260
330
1E
100
AcDbEntity
  8
0
100
AcDbLine
 10
114.3359999999999
 20
226.0
 30
0.0
 11
120.5929999999999
 21
226.0
 31
0.0
  0
LINE
  5
261
330
1E
100
AcDbEntity
  8
0
100
AcDbLine
 10
109.621
 20
226.0
 30
0.0
 11
114.3359999999999
 21
226.0
 31
0.0
  0
LINE
  5
262
330
1E
100
AcDbEntity
  8
0
100
AcDbLine
 10
106.707
 20
226.0
 30
0.0
 11
109.621
 21
226.0
 31
0.0
  0
LINE
  5
263
330
1E
100
AcDbEntity
  8
0
100
AcDbLine
 10
105.679
 20
226.0
 30
0.0
 11
106.707
 21
226.0
 31
0.0
  0
LINE
  5
264
330
1E
100
AcDbEntity
  8
0
100
AcDbLine
 10
64.8214
 20
226.0
 30
0.0
 11
65.25
 21
226.5
 31
0.0
  0
LINE
  5
265
330
1E
100
AcDbEntity
  8
0
100
AcDbLine
 10
60.8786
 20
226.0
 30
0.0
 11
63.79290000000001
 21
226.0
 31
0.0
  0
LINE
  5
266
330
1E
100
AcDbEntity
  8
0
100
AcDbLine
 10
63.79290000000001
 20
226.0
 30
0.0
 11
64.8214
 21
226.0
 31
0.0
  0
LINE
  5
267
330
1E
100
AcDbEntity
  8
0
100
AcDbLine
 10
127.621
 20
226.0
 30
0.0
 11
135.25
 21
226.0
 31
0.0
  0
LINE
  5
268
330
1E
100
AcDbEntity
  8
0
100
AcDbLine
 10
142.879
 20
226.0
 30
0.0
 11
149.907
 21
226.0
 31
0.0
  0
LINE
  5
269
330
1E
100
AcDbEntity
  8
0
100
AcDbLine
 10
149.907
 20
226.0
 30
0.0
 11
156.1639999999999
 21
226.0
 31
0.0
  0
LINE
  5
26A
330
1E
100
AcDbEntity
  8
0
100
AcDbLine
 10
156.1639999999999
 20
226.0
 30
0.0
 11
160.8789999999999
 21
226.0
 31
0.0
  0
LINE
  5
26B
330
1E
100
AcDbEntity
  8
0
100
AcDbLine
 10
214.3359999999999
 20
226.0
 30
0.0
 11
217.2499999999999
 21
226.0
 31
0.0
  0
LINE
  5
26C
330
1E
100
AcDbEntity
  8
0
100
AcDbLine
 10
214.3359999999999
 20
226.0
 30
0.0
 11
220.5929999999999
 21
226.0
 31
0.0
  0
LINE
  5
26D
330
1E
100
AcDbEntity
  8
0
100
AcDbLine
 10
209.6209999999999
 20
226.0
 30
0.0
 11
214.3359999999999
 21
226.0
 31
0.0
  0
LINE
  5
26E
330
1E
100
AcDbEntity
  8
0
100
AcDbLine
 10
206.707
 20
226.0
 30
0.0
 11
209.6209999999999
 21
226.0
 31
0.0
  0
LINE
  5
26F
330
1E
100
AcDbEntity
  8
0
100
AcDbLine
 10
205.6789999999999
 20
226.0
 30
0.0
 11
206.707
 21
226.0
 31
0.0
  0
LINE
  5
270
330
1E
100
AcDbEntity
  8
0
100
AcDbLine
 10
164.8209999999999
 20
226.0
 30
0.0
 11
165.25
 21
226.5
 31
0.0
  0
LINE
  5
271
330
1E
100
AcDbEntity
  8
0
100
AcDbLine
 10
160.8789999999999
 20
226.0
 30
0.0
 11
163.793
 21
226.0
 31
0.0
  0
LINE
  5
272
330
1E
100
AcDbEntity
  8
0
100
AcDbLine
 10
163.793
 20
226.0
 30
0.0
 11
164.8209999999999
 21
226.0
 31
0.0
  0
LINE
  5
273
330
1E
100
AcDbEntity
  8
0
100
AcDbLine
 10
220.5929999999999
 20
226.0
 30
0.0
 11
227.6209999999999
 21
226.0
 31
0.0
  0
LINE
  5
274
330
1E
100
AcDbEntity
  8
0
100
AcDbLine
 10
227.6209999999999
 20
226.0
 30
0.0
 11
235.25
 21
226.0
 31
0.0
  0
LINE
  5
275
330
1E
100
AcDbEntity
  8
0
100
AcDbLine
 10
230.65
 20
226.0
 30
0.0
 11
235.25
 21
226.0
 31
0.0
  0
LINE
  5
276
330
1E
100
AcDbEntity
  8
0
100
AcDbLine
 10
226.35
 20
226.0
 30
0.0
 11
230.65
 21
226.0
 31
0.0
  0
LINE
  5
277
330
1E
100
AcDbEntity
  8
0
100
AcDbLine
 10
222.55
 20
226.0
 30
0.0
 11
226.35
 21
226.0
 31
0.0
  0
LINE
  5
278
330
1E
100
AcDbEntity
  8
0
100
AcDbLine
 10
219.6499999999999
 20
226.0
 30
0.0
 11
222.55
 21
226.0
 31
0.0
  0
LINE
  5
279
330
1E
100
AcDbEntity
  8
0
100
AcDbLine
 10
217.9499999999999
 20
226.0
 30
0.0
 11
219.6499999999999
 21
226.0
 31
0.0
  0
LINE
  5
27A
330
1E
100
AcDbEntity
  8
0
100
AcDbLine
 10
217.2499999999999
 20
226.0
 30
0.0
 11
217.2499999999999
 21
208.4999999999999
 31
0.0
  0
LINE
  5
27B
330
1E
100
AcDbEntity
  8
0
100
AcDbLine
 10
217.2499999999999
 20
226.0
 30
0.0
 11
217.9499999999999
 21
226.0
 31
0.0
  0
LINE
  5
27C
330
1E
100
AcDbEntity
  8
0
100
AcDbLine
 10
242.879
 20
226.0
 30
0.0
 11
249.907
 21
226.0
 31
0.0
  0
LINE
  5
27D
330
1E
100
AcDbEntity
  8
0
100
AcDbLine
 10
235.25
 20
226.0
 30
0.0
 11
239.8499999999999
 21
226.0
 31
0.0
  0
LINE
  5
27E
330
1E
100
AcDbEntity
  8
0
100
AcDbLine
 10
235.25
 20
226.0
 30
0.0
 11
242.879
 21
226.0
 31
0.0
  0
LINE
  5
27F
330
1E
100
AcDbEntity
  8
0
100
AcDbLine
 10
239.8499999999999
 20
226.0
 30
0.0
 11
244.15
 21
226.0
 31
0.0
  0
LINE
  5
280
330
1E
100
AcDbEntity
  8
0
100
AcDbLine
 10
249.907
 20
226.0
 30
0.0
 11
256.164
 21
226.0
 31
0.0
  0
LINE
  5
281
330
1E
100
AcDbEntity
  8
0
100
AcDbLine
 10
244.15
 20
226.0
 30
0.0
 11
247.9499999999999
 21
226.0
 31
0.0
  0
LINE
  5
282
330
1E
100
AcDbEntity
  8
0
100
AcDbLine
 10
247.9499999999999
 20
226.0
 30
0.0
 11
250.85
 21
226.0
 31
0.0
  0
LINE
  5
283
330
1E
100
AcDbEntity
  8
0
100
AcDbLine
 10
250.85
 20
226.0
 30
0.0
 11
252.55
 21
226.0
 31
0.0
  0
LINE
  5
284
330
1E
100
AcDbEntity
  8
0
100
AcDbLine
 10
252.55
 20
226.0
 30
0.0
 11
253.25
 21
226.0
 31
0.0
  0
LINE
  5
285
330
1E
100
AcDbEntity
  8
0
100
AcDbLine
 10
256.164
 20
226.0
 30
0.0
 11
260.879
 21
226.0
 31
0.0
  0
LINE
  5
286
330
1E
100
AcDbEntity
  8
0
100
AcDbLine
 10
314.336
 20
226.0
 30
0.0
 11
317.2499999999999
 21
226.0
 31
0.0
  0
LINE
  5
287
330
1E
100
AcDbEntity
  8
0
100
AcDbLine
 10
314.336
 20
226.0
 30
0.0
 11
320.593
 21
226.0
 31
0.0
  0
LINE
  5
288
330
1E
100
AcDbEntity
  8
0
100
AcDbLine
 10
309.6209999999999
 20
226.0
 30
0.0
 11
314.336
 21
226.0
 31
0.0
  0
LINE
  5
289
330
1E
100
AcDbEntity
  8
0
100
AcDbLine
 10
306.707
 20
226.0
 30
0.0
 11
309.6209999999999
 21
226.0
 31
0.0
  0
LINE
  5
28A
330
1E
100
AcDbEntity
  8
0
100
AcDbLine
 10
305.679
 20
226.0
 30
0.0
 11
306.707
 21
226.0
 31
0.0
  0
LINE
  5
28B
330
1E
100
AcDbEntity
  8
0
100
AcDbLine
 10
264.8209999999999
 20
226.0
 30
0.0
 11
265.2499999999999
 21
226.5
 31
0.0
  0
LINE
  5
28C
330
1E
100
AcDbEntity
  8
0
100
AcDbLine
 10
260.879
 20
226.0
 30
0.0
 11
263.793
 21
226.0
 31
0.0
  0
LINE
  5
28D
330
1E
100
AcDbEntity
  8
0
100
AcDbLine
 10
263.793
 20
226.0
 30
0.0
 11
264.8209999999999
 21
226.0
 31
0.0
  0
LINE
  5
28E
330
1E
100
AcDbEntity
  8
0
100
AcDbLine
 10
253.25
 20
226.0
 30
0.0
 11
253.25
 21
208.4999999999999
 31
0.0
  0
LINE
  5
28F
330
1E
100
AcDbEntity
  8
0
100
AcDbLine
 10
253.25
 20
226.0
 30
0.0
 11
256.164
 21
226.0
 31
0.0
  0
LINE
  5
290
330
1E
100
AcDbEntity
  8
0
100
AcDbLine
 10
149.2499999999999
 20
226.0
 30
0.0
 11
149.2499999999999
 21
46.0
 31
0.0
  0
LINE
  5
291
330
1E
100
AcDbEntity
  8
0
100
AcDbLine
 10
149.2499999999999
 20
226.0
 30
0.0
 11
149.907
 21
226.0
 31
0.0
  0
LINE
  5
292
330
1E
100
AcDbEntity
  8
0
100
AcDbLine
 10
148.75
 20
226.0
 30
0.0
 11
148.75
 21
46.0
 31
0.0
  0
LINE
  5
293
330
1E
100
AcDbEntity
  8
0
100
AcDbLine
 10
148.75
 20
226.0
 30
0.0
 11
149.2499999999999
 21
226.0
 31
0.0
  0
LINE
  5
294
330
1E
100
AcDbEntity
  8
0
100
AcDbLine
 10
135.25
 20
226.0
 30
0.0
 11
148.75
 21
226.0
 31
0.0
  0
LINE
  5
295
330
1E
100
AcDbEntity
  8
0
100
AcDbLine
 10
135.25
 20
226.0
 30
0.0
 11
142.879
 21
226.0
 31
0.0
  0
LINE
  5
296
330
1E
100
AcDbEntity
  8
0
100
AcDbLine
 10
121.25
 20
226.0
 30
0.0
 11
121.75
 21
226.0
 31
0.0
  0
LINE
  5
297
330
1E
100
AcDbEntity
  8
0
100
AcDbLine
 10
121.25
 20
226.0
 30
0.0
 11
121.25
 21
46.0
 31
0.0
  0
LINE
  5
298
330
1E
100
AcDbEntity
  8
0
100
AcDbLine
 10
121.75
 20
226.0
 30
0.0
 11
135.25
 21
226.0
 31
0.0
  0
LINE
  5
299
330
1E
100
AcDbEntity
  8
0
100
AcDbLine
 10
121.75
 20
226.0
 30
0.0
 11
121.75
 21
46.0
 31
0.0
  0
LINE
  5
29A
330
1E
100
AcDbEntity
  8
0
100
AcDbLine
 10
320.593
 20
226.0
 30
0.0
 11
327.6209999999999
 21
226.0
 31
0.0
  0
LINE
  5
29B
330
1E
100
AcDbEntity
  8
0
100
AcDbLine
 10
327.6209999999999
 20
226.0
 30
0.0
 11
335.25
 21
226.0
 31
0.0
  0
LINE
  5
29C
330
1E
100
AcDbEntity
  8
0
100
AcDbLine
 10
330.6499999999999
 20
226.0
 30
0.0
 11
335.25
 21
226.0
 31
0.0
  0
LINE
  5
29D
330
1E
100
AcDbEntity
  8
0
100
AcDbLine
 10
326.35
 20
226.0
 30
0.0
 11
330.6499999999999
 21
226.0
 31
0.0
  0
LINE
  5
29E
330
1E
100
AcDbEntity
  8
0
100
AcDbLine
 10
322.55
 20
226.0
 30
0.0
 11
326.35
 21
226.0
 31
0.0
  0
LINE
  5
29F
330
1E
100
AcDbEntity
  8
0
100
AcDbLine
 10
319.6499999999999
 20
226.0
 30
0.0
 11
322.55
 21
226.0
 31
0.0
  0
LINE
  5
2A0
330
1E
100
AcDbEntity
  8
0
100
AcDbLine
 10
317.9499999999999
 20
226.0
 30
0.0
 11
319.6499999999999
 21
226.0
 31
0.0
  0
LINE
  5
2A1
330
1E
100
AcDbEntity
  8
0
100
AcDbLine
 10
317.2499999999999
 20
226.0
 30
0.0
 11
317.2499999999999
 21
208.4999999999999
 31
0.0
  0
LINE
  5
2A2
330
1E
100
AcDbEntity
  8
0
100
AcDbLine
 10
317.2499999999999
 20
226.0
 30
0.0
 11
317.9499999999999
 21
226.0
 31
0.0
  0
LINE
  5
2A3
330
1E
100
AcDbEntity
  8
0
100
AcDbLine
 10
335.25
 20
226.0
 30
0.0
 11
339.85
 21
226.0
 31
0.0
  0
LINE
  5
2A4
330
1E
100
AcDbEntity
  8
0
100
AcDbLine
 10
335.25
 20
226.0
 30
0.0
 11
342.879
 21
226.0
 31
0.0
  0
LINE
  5
2A5
330
1E
100
AcDbEntity
  8
0
100
AcDbLine
 10
342.879
 20
226.0
 30
0.0
 11
349.9069999999999
 21
226.0
 31
0.0
  0
LINE
  5
2A6
330
1E
100
AcDbEntity
  8
0
100
AcDbLine
 10
339.85
 20
226.0
 30
0.0
 11
344.15
 21
226.0
 31
0.0
  0
LINE
  5
2A7
330
1E
100
AcDbEntity
  8
0
100
AcDbLine
 10
344.15
 20
226.0
 30
0.0
 11
347.9499999999999
 21
226.0
 31
0.0
  0
LINE
  5
2A8
330
1E
100
AcDbEntity
  8
0
100
AcDbLine
 10
349.9069999999999
 20
226.0
 30
0.0
 11
356.164
 21
226.0
 31
0.0
  0
LINE
  5
2A9
330
1E
100
AcDbEntity
  8
0
100
AcDbLine
 10
347.9499999999999
 20
226.0
 30
0.0
 11
350.85
 21
226.0
 31
0.0
  0
LINE
  5
2AA
330
1E
100
AcDbEntity
  8
0
100
AcDbLine
 10
56.4214
 20
226.5
 30
0.0
 11
61.2214
 21
226.5
 31
0.0
  0
LINE
  5
2AB
330
1E
100
AcDbEntity
  8
0
100
AcDbLine
 10
61.2214
 20
226.5
 30
0.0
 11
64.13569999999999
 21
226.5
 31
0.0
  0
LINE
  5
2AC
330
1E
100
AcDbEntity
  8
0
100
AcDbLine
 10
56.4214
 20
236.0
 30
0.0
 11
61.2214
 21
236.0
 31
0.0
  0
LINE
  5
2AD
330
1E
100
AcDbEntity
  8
0
100
AcDbLine
 10
64.13569999999999
 20
226.5
 30
0.0
 11
65.25
 21
226.5
 31
0.0
  0
LINE
  5
2AE
330
1E
100
AcDbEntity
  8
0
100
AcDbLine
 10
65.25
 20
226.5
 30
0.0
 11
65.25
 21
236.0
 31
0.0
  0
LINE
  5
2AF
330
1E
100
AcDbEntity
  8
0
100
AcDbLine
 10
61.2214
 20
236.0
 30
0.0
 11
64.13569999999999
 21
236.0
 31
0.0
  0
LINE
  5
2B0
330
1E
100
AcDbEntity
  8
0
100
AcDbLine
 10
64.13569999999999
 20
236.0
 30
0.0
 11
65.25
 21
236.0
 31
0.0
  0
LINE
  5
2B1
330
1E
100
AcDbEntity
  8
0
100
AcDbLine
 10
105.2499999999999
 20
236.0
 30
0.0
 11
106.3639999999999
 21
236.0
 31
0.0
  0
LINE
  5
2B2
330
1E
100
AcDbEntity
  8
0
100
AcDbLine
 10
105.2499999999999
 20
236.0
 30
0.0
 11
105.2499999999999
 21
226.5
 31
0.0
  0
LINE
  5
2B3
330
1E
100
AcDbEntity
  8
0
100
AcDbLine
 10
127.536
 20
226.5
 30
0.0
 11
135.25
 21
226.5
 31
0.0
  0
LINE
  5
2B4
330
1E
100
AcDbEntity
  8
0
100
AcDbLine
 10
120.3359999999999
 20
226.5
 30
0.0
 11
127.536
 21
226.5
 31
0.0
  0
LINE
  5
2B5
330
1E
100
AcDbEntity
  8
0
100
AcDbLine
 10
114.0789999999999
 20
226.5
 30
0.0
 11
120.3359999999999
 21
226.5
 31
0.0
  0
LINE
  5
2B6
330
1E
100
AcDbEntity
  8
0
100
AcDbLine
 10
109.2789999999999
 20
226.5
 30
0.0
 11
114.0789999999999
 21
226.5
 31
0.0
  0
LINE
  5
2B7
330
1E
100
AcDbEntity
  8
0
100
AcDbLine
 10
106.3639999999999
 20
226.5
 30
0.0
 11
109.2789999999999
 21
226.5
 31
0.0
  0
LINE
  5
2B8
330
1E
100
AcDbEntity
  8
0
100
AcDbLine
 10
127.536
 20
236.0
 30
0.0
 11
135.25
 21
236.0
 31
0.0
  0
LINE
  5
2B9
330
1E
100
AcDbEntity
  8
0
100
AcDbLine
 10
120.3359999999999
 20
236.0
 30
0.0
 11
127.536
 21
236.0
 31
0.0
  0
LINE
  5
2BA
330
1E
100
AcDbEntity
  8
0
100
AcDbLine
 10
114.0789999999999
 20
236.0
 30
0.0
 11
120.3359999999999
 21
236.0
 31
0.0
  0
LINE
  5
2BB
330
1E
100
AcDbEntity
  8
0
100
AcDbLine
 10
109.2789999999999
 20
236.0
 30
0.0
 11
114.0789999999999
 21
236.0
 31
0.0
  0
LINE
  5
2BC
330
1E
100
AcDbEntity
  8
0
100
AcDbLine
 10
106.3639999999999
 20
236.0
 30
0.0
 11
109.2789999999999
 21
236.0
 31
0.0
  0
LINE
  5
2BD
330
1E
100
AcDbEntity
  8
0
100
AcDbLine
 10
135.25
 20
226.5
 30
0.0
 11
142.964
 21
226.5
 31
0.0
  0
LINE
  5
2BE
330
1E
100
AcDbEntity
  8
0
100
AcDbLine
 10
142.964
 20
226.5
 30
0.0
 11
150.1639999999999
 21
226.5
 31
0.0
  0
LINE
  5
2BF
330
1E
100
AcDbEntity
  8
0
100
AcDbLine
 10
150.1639999999999
 20
226.5
 30
0.0
 11
156.4209999999999
 21
226.5
 31
0.0
  0
LINE
  5
2C0
330
1E
100
AcDbEntity
  8
0
100
AcDbLine
 10
135.25
 20
236.0
 30
0.0
 11
142.964
 21
236.0
 31
0.0
  0
LINE
  5
2C1
330
1E
100
AcDbEntity
  8
0
100
AcDbLine
 10
142.964
 20
236.0
 30
0.0
 11
150.1639999999999
 21
236.0
 31
0.0
  0
LINE
  5
2C2
330
1E
100
AcDbEntity
  8
0
100
AcDbLine
 10
156.4209999999999
 20
226.5
 30
0.0
 11
161.221
 21
226.5
 31
0.0
  0
LINE
  5
2C3
330
1E
100
AcDbEntity
  8
0
100
AcDbLine
 10
161.221
 20
226.5
 30
0.0
 11
164.1359999999999
 21
226.5
 31
0.0
  0
LINE
  5
2C4
330
1E
100
AcDbEntity
  8
0
100
AcDbLine
 10
150.1639999999999
 20
236.0
 30
0.0
 11
156.4209999999999
 21
236.0
 31
0.0
  0
LINE
  5
2C5
330
1E
100
AcDbEntity
  8
0
100
AcDbLine
 10
156.4209999999999
 20
236.0
 30
0.0
 11
161.221
 21
236.0
 31
0.0
  0
LINE
  5
2C6
330
1E
100
AcDbEntity
  8
0
100
AcDbLine
 10
227.5359999999999
 20
226.5
 30
0.0
 11
235.25
 21
226.5
 31
0.0
  0
LINE
  5
2C7
330
1E
100
AcDbEntity
  8
0
100
AcDbLine
 10
220.3359999999999
 20
226.5
 30
0.0
 11
227.5359999999999
 21
226.5
 31
0.0
  0
LINE
  5
2C8
330
1E
100
AcDbEntity
  8
0
100
AcDbLine
 10
214.0789999999999
 20
226.5
 30
0.0
 11
220.3359999999999
 21
226.5
 31
0.0
  0
LINE
  5
2C9
330
1E
100
AcDbEntity
  8
0
100
AcDbLine
 10
209.279
 20
226.5
 30
0.0
 11
214.0789999999999
 21
226.5
 31
0.0
  0
LINE
  5
2CA
330
1E
100
AcDbEntity
  8
0
100
AcDbLine
 10
206.3639999999999
 20
226.5
 30
0.0
 11
209.279
 21
226.5
 31
0.0
  0
LINE
  5
2CB
330
1E
100
AcDbEntity
  8
0
100
AcDbLine
 10
235.25
 20
226.5
 30
0.0
 11
242.964
 21
226.5
 31
0.0
  0
LINE
  5
2CC
330
1E
100
AcDbEntity
  8
0
100
AcDbLine
 10
242.964
 20
226.5
 30
0.0
 11
250.164
 21
226.5
 31
0.0
  0
LINE
  5
2CD
330
1E
100
AcDbEntity
  8
0
100
AcDbLine
 10
250.164
 20
226.5
 30
0.0
 11
256.421
 21
226.5
 31
0.0
  0
LINE
  5
2CE
330
1E
100
AcDbEntity
  8
0
100
AcDbLine
 10
256.421
 20
226.5
 30
0.0
 11
261.221
 21
226.5
 31
0.0
  0
LINE
  5
2CF
330
1E
100
AcDbEntity
  8
0
100
AcDbLine
 10
261.221
 20
226.5
 30
0.0
 11
264.1359999999999
 21
226.5
 31
0.0
  0
LINE
  5
2D0
330
1E
100
AcDbEntity
  8
0
100
AcDbLine
 10
264.1359999999999
 20
226.5
 30
0.0
 11
265.2499999999999
 21
226.5
 31
0.0
  0
LINE
  5
2D1
330
1E
100
AcDbEntity
  8
0
100
AcDbLine
 10
327.536
 20
226.5
 30
0.0
 11
335.25
 21
226.5
 31
0.0
  0
LINE
  5
2D2
330
1E
100
AcDbEntity
  8
0
100
AcDbLine
 10
320.3359999999999
 20
226.5
 30
0.0
 11
327.536
 21
226.5
 31
0.0
  0
LINE
  5
2D3
330
1E
100
AcDbEntity
  8
0
100
AcDbLine
 10
314.0789999999999
 20
226.5
 30
0.0
 11
320.3359999999999
 21
226.5
 31
0.0
  0
LINE
  5
2D4
330
1E
100
AcDbEntity
  8
0
100
AcDbLine
 10
309.2789999999999
 20
226.5
 30
0.0
 11
314.0789999999999
 21
226.5
 31
0.0
  0
LINE
  5
2D5
330
1E
100
AcDbEntity
  8
0
100
AcDbLine
 10
306.364
 20
226.5
 30
0.0
 11
309.2789999999999
 21
226.5
 31
0.0
  0
LINE
  5
2D6
330
1E
100
AcDbEntity
  8
0
100
AcDbLine
 10
335.25
 20
226.5
 30
0.0
 11
342.964
 21
226.5
 31
0.0
  0
LINE
  5
2D7
330
1E
100
AcDbEntity
  8
0
100
AcDbLine
 10
342.964
 20
226.5
 30
0.0
 11
350.164
 21
226.5
 31
0.0
  0
LINE
  5
2D8
330
1E
100
AcDbEntity
  8
0
100
AcDbLine
 10
350.164
 20
226.5
 30
0.0
 11
356.421
 21
226.5
 31
0.0
  0
LINE
  5
2D9
330
1E
100
AcDbEntity
  8
0
100
AcDbLine
 10
305.25
 20
226.5
 30
0.0
 11
305.25
 21
236.0
 31
0.0
  0
LINE
  5
2DA
330
1E
100
AcDbEntity
  8
0
100
AcDbLine
 10
305.25
 20
226.5
 30
0.0
 11
305.679
 21
226.0
 31
0.0
  0
LINE
  5
2DB
330
1E
100
AcDbEntity
  8
0
100
AcDbLine
 10
305.25
 20
226.5
 30
0.0
 11
306.364
 21
226.5
 31
0.0
  0
LINE
  5
2DC
330
1E
100
AcDbEntity
  8
0
100
AcDbLine
 10
265.2499999999999
 20
226.5
 30
0.0
 11
265.2499999999999
 21
236.0
 31
0.0
  0
LINE
  5
2DD
330
1E
100
AcDbEntity
  8
0
100
AcDbLine
 10
205.25
 20
226.5
 30
0.0
 11
205.25
 21
236.0
 31
0.0
  0
LINE
  5
2DE
330
1E
100
AcDbEntity
  8
0
100
AcDbLine
 10
205.25
 20
226.5
 30
0.0
 11
205.6789999999999
 21
226.0
 31
0.0
  0
LINE
  5
2DF
330
1E
100
AcDbEntity
  8
0
100
AcDbLine
 10
205.25
 20
226.5
 30
0.0
 11
206.3639999999999
 21
226.5
 31
0.0
  0
LINE
  5
2E0
330
1E
100
AcDbEntity
  8
0
100
AcDbLine
 10
164.1359999999999
 20
226.5
 30
0.0
 11
165.25
 21
226.5
 31
0.0
  0
LINE
  5
2E1
330
1E
100
AcDbEntity
  8
0
100
AcDbLine
 10
227.5359999999999
 20
236.0
 30
0.0
 11
235.25
 21
236.0
 31
0.0
  0
LINE
  5
2E2
330
1E
100
AcDbEntity
  8
0
100
AcDbLine
 10
220.3359999999999
 20
236.0
 30
0.0
 11
227.5359999999999
 21
236.0
 31
0.0
  0
LINE
  5
2E3
330
1E
100
AcDbEntity
  8
0
100
AcDbLine
 10
214.0789999999999
 20
236.0
 30
0.0
 11
220.3359999999999
 21
236.0
 31
0.0
  0
LINE
  5
2E4
330
1E
100
AcDbEntity
  8
0
100
AcDbLine
 10
209.279
 20
236.0
 30
0.0
 11
214.0789999999999
 21
236.0
 31
0.0
  0
LINE
  5
2E5
330
1E
100
AcDbEntity
  8
0
100
AcDbLine
 10
206.3639999999999
 20
236.0
 30
0.0
 11
209.279
 21
236.0
 31
0.0
  0
LINE
  5
2E6
330
1E
100
AcDbEntity
  8
0
100
AcDbLine
 10
205.25
 20
236.0
 30
0.0
 11
206.3639999999999
 21
236.0
 31
0.0
  0
LINE
  5
2E7
330
1E
100
AcDbEntity
  8
0
100
AcDbLine
 10
205.25
 20
236.0
 30
0.0
 11
205.25
 21
226.5
 31
0.0
  0
LINE
  5
2E8
330
1E
100
AcDbEntity
  8
0
100
AcDbLine
 10
235.25
 20
236.0
 30
0.0
 11
242.964
 21
236.0
 31
0.0
  0
LINE
  5
2E9
330
1E
100
AcDbEntity
  8
0
100
AcDbLine
 10
242.964
 20
236.0
 30
0.0
 11
250.164
 21
236.0
 31
0.0
  0
LINE
  5
2EA
330
1E
100
AcDbEntity
  8
0
100
AcDbLine
 10
250.164
 20
236.0
 30
0.0
 11
256.421
 21
236.0
 31
0.0
  0
LINE
  5
2EB
330
1E
100
AcDbEntity
  8
0
100
AcDbLine
 10
256.421
 20
236.0
 30
0.0
 11
261.221
 21
236.0
 31
0.0
  0
LINE
  5
2EC
330
1E
100
AcDbEntity
  8
0
100
AcDbLine
 10
261.221
 20
236.0
 30
0.0
 11
264.1359999999999
 21
236.0
 31
0.0
  0
LINE
  5
2ED
330
1E
100
AcDbEntity
  8
0
100
AcDbLine
 10
264.1359999999999
 20
236.0
 30
0.0
 11
265.2499999999999
 21
236.0
 31
0.0
  0
LINE
  5
2EE
330
1E
100
AcDbEntity
  8
0
100
AcDbLine
 10
327.536
 20
236.0
 30
0.0
 11
335.25
 21
236.0
 31
0.0
  0
LINE
  5
2EF
330
1E
100
AcDbEntity
  8
0
100
AcDbLine
 10
320.3359999999999
 20
236.0
 30
0.0
 11
327.536
 21
236.0
 31
0.0
  0
LINE
  5
2F0
330
1E
100
AcDbEntity
  8
0
100
AcDbLine
 10
314.0789999999999
 20
236.0
 30
0.0
 11
320.3359999999999
 21
236.0
 31
0.0
  0
LINE
  5
2F1
330
1E
100
AcDbEntity
  8
0
100
AcDbLine
 10
309.2789999999999
 20
236.0
 30
0.0
 11
314.0789999999999
 21
236.0
 31
0.0
  0
LINE
  5
2F2
330
1E
100
AcDbEntity
  8
0
100
AcDbLine
 10
306.364
 20
236.0
 30
0.0
 11
309.2789999999999
 21
236.0
 31
0.0
  0
LINE
  5
2F3
330
1E
100
AcDbEntity
  8
0
100
AcDbLine
 10
305.25
 20
236.0
 30
0.0
 11
306.364
 21
236.0
 31
0.0
  0
LINE
  5
2F4
330
1E
100
AcDbEntity
  8
0
100
AcDbLine
 10
305.25
 20
236.0
 30
0.0
 11
305.25
 21
226.5
 31
0.0
  0
LINE
  5
2F5
330
1E
100
AcDbEntity
  8
0
100
AcDbLine
 10
335.25
 20
236.0
 30
0.0
 11
342.964
 21
236.0
 31
0.0
  0
LINE
  5
2F6
330
1E
100
AcDbEntity
  8
0
100
AcDbLine
 10
342.964
 20
236.0
 30
0.0
 11
350.164
 21
236.0
 31
0.0
  0
LINE
  5
2F7
330
1E
100
AcDbEntity
  8
0
100
AcDbLine
 10
350.164
 20
236.0
 30
0.0
 11
356.421
 21
236.0
 31
0.0
  0
LINE
  5
2F8
330
1E
100
AcDbEntity
  8
0
100
AcDbLine
 10
265.2499999999999
 20
236.0
 30
0.0
 11
265.2499999999999
 21
226.5
 31
0.0
  0
LINE
  5
2F9
330
1E
100
AcDbEntity
  8
0
100
AcDbLine
 10
165.25
 20
226.5
 30
0.0
 11
165.25
 21
236.0
 31
0.0
  0
LINE
  5
2FA
330
1E
100
AcDbEntity
  8
0
100
AcDbLine
 10
161.221
 20
236.0
 30
0.0
 11
164.1359999999999
 21
236.0
 31
0.0
  0
LINE
  5
2FB
330
1E
100
AcDbEntity
  8
0
100
AcDbLine
 10
164.1359999999999
 20
236.0
 30
0.0
 11
165.25
 21
236.0
 31
0.0
  0
LINE
  5
2FC
330
1E
100
AcDbEntity
  8
0
100
AcDbLine
 10
105.2499999999999
 20
226.5
 30
0.0
 11
105.2499999999999
 21
236.0
 31
0.0
  0
LINE
  5
2FD
330
1E
100
AcDbEntity
  8
0
100
AcDbLine
 10
105.2499999999999
 20
226.5
 30
0.0
 11
105.679
 21
226.0
 31
0.0
  0
LINE
  5
2FE
330
1E
100
AcDbEntity
  8
0
100
AcDbLine
 10
105.2499999999999
 20
226.5
 30
0.0
 11
106.3639999999999
 21
226.5
 31
0.0
  0
LINE
  5
2FF
330
1E
100
AcDbEntity
  8
0
100
AcDbLine
 10
165.25
 20
236.0
 30
0.0
 11
165.25
 21
226.5
 31
0.0
  0
LINE
  5
300
330
1E
100
AcDbEntity
  8
0
100
AcDbLine
 10
65.25
 20
236.0
 30
0.0
 11
65.25
 21
226.5
 31
0.0
  0
LINE
  5
301
330
1E
100
AcDbEntity
  8
0
100
AcDbLine
 10
350.85
 20
226.0
 30
0.0
 11
352.55
 21
226.0
 31
0.0
  0
LINE
  5
302
330
1E
100
AcDbEntity
  8
0
100
AcDbLine
 10
356.164
 20
226.0
 30
0.0
 11
360.879
 21
226.0
 31
0.0
  0
LINE
  5
303
330
1E
100
AcDbEntity
  8
0
100
AcDbLine
 10
360.879
 20
226.0
 30
0.0
 11
363.793
 21
226.0
 31
0.0
  0
LINE
  5
304
330
1E
100
AcDbEntity
  8
0
100
AcDbLine
 10
364.8209999999999
 20
226.0
 30
0.0
 11
365.2499999999999
 21
226.5
 31
0.0
  0
LINE
  5
305
330
1E
100
AcDbEntity
  8
0
100
AcDbLine
 10
363.793
 20
226.0
 30
0.0
 11
364.8209999999999
 21
226.0
 31
0.0
  0
LINE
  5
306
330
1E
100
AcDbEntity
  8
0
100
AcDbLine
 10
356.421
 20
226.5
 30
0.0
 11
361.221
 21
226.5
 31
0.0
  0
LINE
  5
307
330
1E
100
AcDbEntity
  8
0
100
AcDbLine
 10
361.221
 20
226.5
 30
0.0
 11
364.1359999999999
 21
226.5
 31
0.0
  0
LINE
  5
308
330
1E
100
AcDbEntity
  8
0
100
AcDbLine
 10
356.421
 20
236.0
 30
0.0
 11
361.221
 21
236.0
 31
0.0
  0
LINE
  5
309
330
1E
100
AcDbEntity
  8
0
100
AcDbLine
 10
364.1359999999999
 20
226.5
 30
0.0
 11
365.2499999999999
 21
226.5
 31
0.0
  0
LINE
  5
30A
330
1E
100
AcDbEntity
  8
0
100
AcDbLine
 10
365.2499999999999
 20
226.5
 30
0.0
 11
365.2499999999999
 21
236.0
 31
0.0
  0
LINE
  5
30B
330
1E
100
AcDbEntity
  8
0
100
AcDbLine
 10
361.221
 20
236.0
 30
0.0
 11
364.1359999999999
 21
236.0
 31
0.0
  0
LINE
  5
30C
330
1E
100
AcDbEntity
  8
0
100
AcDbLine
 10
364.1359999999999
 20
236.0
 30
0.0
 11
365.2499999999999
 21
236.0
 31
0.0
  0
LINE
  5
30D
330
1E
100
AcDbEntity
  8
0
100
AcDbLine
 10
365.2499999999999
 20
236.0
 30
0.0
 11
365.2499999999999
 21
226.5
 31
0.0
  0
LINE
  5
30E
330
1E
100
AcDbEntity
  8
0
100
AcDbLine
 10
353.25
 20
226.0
 30
0.0
 11
353.25
 21
208.4999999999999
 31
0.0
  0
LINE
  5
30F
330
1E
100
AcDbEntity
  8
0
100
AcDbLine
 10
353.25
 20
226.0
 30
0.0
 11
356.164
 21
226.0
 31
0.0
  0
LINE
  5
310
330
1E
100
AcDbEntity
  8
0
100
AcDbLine
 10
352.55
 20
226.0
 30
0.0
 11
353.25
 21
226.0
 31
0.0
  0
LINE
  5
311
330
1E
100
AcDbEntity
  8
0
100
AcDbLine
 10
353.25
 20
208.4999999999999
 30
0.0
 11
353.25
 21
226.0
 31
0.0
  0
LINE
  5
312
330
1E
100
AcDbEntity
  8
0
100
AcDbLine
 10
53.25
 20
226.0
 30
0.0
 11
53.25
 21
208.4999999999999
 31
0.0
  0
LINE
  5
313
330
1E
100
AcDbEntity
  8
0
100
AcDbLine
 10
53.25
 20
226.0
 30
0.0
 11
56.1643
 21
226.0
 31
0.0
  0
LINE
  5
314
330
1E
100
AcDbEntity
  8
0
100
AcDbLine
 10
69.75
 20
173.0
 30
0.0
 11
70.25
 21
172.5
 31
0.0
  0
LINE
  5
315
330
1E
100
AcDbEntity
  8
0
100
AcDbLine
 10
39.04999999999999
 20
173.0
 30
0.0
 11
69.75
 21
173.0
 31
0.0
  0
LINE
  5
316
330
1E
100
AcDbEntity
  8
0
100
AcDbLine
 10
39.04999999999999
 20
173.0
 30
0.0
 11
39.64999999999999
 21
172.5
 31
0.0
  0
LINE
  5
317
330
1E
100
AcDbEntity
  8
0
100
AcDbLine
 10
31.45
 20
157.0
 30
0.0
 11
31.55
 21
157.0
 31
0.0
  0
LINE
  5
318
330
1E
100
AcDbEntity
  8
0
100
AcDbLine
 10
0.7499999999999979
 20
173.0
 30
0.0
 11
31.45
 21
173.0
 31
0.0
  0
LINE
  5
31D
330
1E
100
AcDbEntity
  8
0
100
AcDbLine
 10
124.646
 20
123.184
 30
0.0
 11
124.646
 21
123.184
 31
0.0
  0
LINE
  5
31E
330
1E
100
AcDbEntity
  8
0
100
AcDbLine
 10
124.646
 20
123.184
 30
0.0
 11
124.2499999999999
 21
126.0
 31
0.0
  0
LINE
  5
31F
330
1E
100
AcDbEntity
  8
0
100
AcDbLine
 10
132.434
 20
136.6039999999999
 30
0.0
 11
135.25
 21
137.0
 31
0.0
  0
LINE
  5
320
330
1E
100
AcDbEntity
  8
0
100
AcDbLine
 10
146.25
 20
126.0
 30
0.0
 11
145.8539999999999
 21
123.184
 31
0.0
  0
LINE
  5
321
330
1E
100
AcDbEntity
  8
0
100
AcDbLine
 10
135.25
 20
115.0
 30
0.0
 11
138.1968536936467
 21
115.4526961731684
 31
0.0
  0
LINE
  5
322
330
1E
100
AcDbEntity
  8
0
100
AcDbLine
 10
138.1968536936467
 20
115.4526961731684
 30
0.0
 11
140.787889356324
 21
116.552744507828
 31
0.0
  0
LINE
  5
323
330
1E
100
AcDbEntity
  8
0
100
AcDbLine
 10
140.787889356324
 20
116.552744507828
 30
0.0
 11
143.0379999999999
 21
118.212
 31
0.0
  0
ENDSEC
  0
SECTION
  2
OBJECTS
  0
DICTIONARY
  5
C
330
0
100
AcDbDictionary
  3
ACAD_GROUP
350
D
  3
ACAD_LAYOUT
350
19
  3
ACAD_MLINESTYLE
350
16
  3
ACAD_PLOTSETTINGS
350
18
  3
ACAD_PLOTSTYLENAME
350
E
  3
ACDBHEADERROUNDTRIPXREC
350
327
  3
ACDBVARIABLEDICTIONARY
350
324
  0
DICTIONARY
  5
349
330
1E
100
AcDbDictionary
280
     1
  3
ACAD_LAYOUTSELFREF
360
34A
  0
DICTIONARY
  5
347
330
1A
100
AcDbDictionary
280
     1
  3
ACAD_LAYOUTSELFREF
360
348
  0
DICTIONARY
  5
D
102
{ACAD_REACTORS
330
C
102
}
330
C
100
AcDbDictionary
  0
DICTIONARY
  5
19
102
{ACAD_REACTORS
330
C
102
}
330
C
100
AcDbDictionary
  0
DICTIONARY
  5
16
102
{ACAD_REACTORS
330
C
102
}
330
C
100
AcDbDictionary
  3
STANDARD
350
17
  0
DICTIONARY
  5
18
102
{ACAD_REACTORS
330
C
102
}
330
C
100
AcDbDictionary
  0
ACDBDICTIONARYWDFLT
  5
E
102
{ACAD_REACTORS
330
C
102
}
330
C
100
AcDbDictionary
281
     1
  3
Normal
350
F
100
AcDbDictionaryWithDefault
340
F
  0
DICTIONARY
  5
327
102
{ACAD_REACTORS
330
C
102
}
330
C
100
AcDbDictionary
  3
CEPSNTYPE
350
331
  3
FINGERPRINTGUID
350
332
  3
HYPERLINKBASE
350
32A
  3
INSUNITS
350
330
  3
LAYOUTDICT
350
32C
  3
LWETCUNION
350
32F
  3
PLOTSETDICT
350
32D
  3
PLOTSTYLNAMDICT
350
32E
  3
PSVPSCALE
350
334
  3
PUCSBASE
350
337
  3
PUCSORGBACK
350
33D
  3
PUCSORGBOTTOM
350
339
  3
PUCSORGFRONT
350
33C
  3
PUCSORGLEFT
350
33A
  3
PUCSORGRIGHT
350
33B
  3
PUCSORGTOP
350
338
  3
PUCSORTHOREF
350
335
  3
PUCSORTHOVIEW
350
336
  3
STYLESHEET
350
32B
  3
TSTACKALIGN
350
328
  3
TSTACKSIZE
350
329
  3
UCSBASE
350
340
  3
UCSORGBACK
350
346
  3
UCSORGBOTTOM
350
342
  3
UCSORGFRONT
350
345
  3
UCSORGLEFT
350
343
  3
UCSORGRIGHT
350
344
  3
UCSORGTOP
350
341
  3
UCSORTHOREF
350
33E
  3
UCSORTHOVIEW
350
33F
  3
VERSIONGUID
350
333
  0
DICTIONARY
  5
324
102
{ACAD_REACTORS
330
C
102
}
330
C
100
AcDbDictionary
  3
DIMASSOC
350
325
  0
XRECORD
  5
34A
102
{ACAD_REACTORS
330
349
102
}
330
349
100
AcDbXrecord
340
1E
  0
XRECORD
  5
348
102
{ACAD_REACTORS
330
347
102
}
330
347
100
AcDbXrecord
340
1A
  0
MLINESTYLE
  5
17
102
{ACAD_REACTORS
330
16
102
}
330
16
100
AcDbMlineStyle
  2
STANDARD
 70
     0
  3

 62
   256
 51
90.0
 52
90.0
 71
     2
 49
0.5
 62
   256
  6
BYLAYER
 49
-0.5
 62
   256
  6
BYLAYER
  0
ACDBPLACEHOLDER
  5
F
102
{ACAD_REACTORS
330
E
102
}
330
E
100
AcDbPlaceHolder
280
     0
  0
XRECORD
  5
331
102
{ACAD_REACTORS
330
327
102
}
330
327
100
AcDbXrecord
 90
        0
  0
XRECORD
  5
332
102
{ACAD_REACTORS
330
327
102
}
330
327
100
AcDbXrecord
  1
{8E798038-DD0F-4896-BDDD-01BEFA885252}
  0
XRECORD
  5
32A
102
{ACAD_REACTORS
330
327
102
}
330
327
100
AcDbXrecord
  1

  0
XRECORD
  5
330
102
{ACAD_REACTORS
330
327
102
}
330
327
100
AcDbXrecord
 90
        0
  0
XRECORD
  5
32C
102
{ACAD_REACTORS
330
327
102
}
330
327
100
AcDbXrecord
340
19
  0
XRECORD
  5
32F
102
{ACAD_REACTORS
330
327
102
}
330
327
100
AcDbXrecord
 90
    10781
  0
XRECORD
  5
32D
102
{ACAD_REACTORS
330
327
102
}
330
327
100
AcDbXrecord
340
18
  0
XRECORD
  5
32E
102
{ACAD_REACTORS
330
327
102
}
330
327
100
AcDbXrecord
340
E
  0
XRECORD
  5
334
102
{ACAD_REACTORS
330
327
102
}
330
327
100
AcDbXrecord
 40
0.0
  0
XRECORD
  5
337
102
{ACAD_REACTORS
330
327
102
}
330
327
100
AcDbXrecord
340
0
  0
XRECORD
  5
33D
102
{ACAD_REACTORS
330
327
102
}
330
327
100
AcDbXrecord
 10
0.0
 20
0.0
 30
0.0
  0
XRECORD
  5
339
102
{ACAD_REACTORS
330
327
102
}
330
327
100
AcDbXrecord
 10
0.0
 20
0.0
 30
0.0
  0
XRECORD
  5
33C
102
{ACAD_REACTORS
330
327
102
}
330
327
100
AcDbXrecord
 10
0.0
 20
0.0
 30
0.0
  0
XRECORD
  5
33A
102
{ACAD_REACTORS
330
327
102
}
330
327
100
AcDbXrecord
 10
0.0
 20
0.0
 30
0.0
  0
XRECORD
  5
33B
102
{ACAD_REACTORS
330
327
102
}
330
327
100
AcDbXrecord
 10
0.0
 20
0.0
 30
0.0
  0
XRECORD
  5
338
102
{ACAD_REACTORS
330
327
102
}
330
327
100
AcDbXrecord
 10
0.0
 20
0.0
 30
0.0
  0
XRECORD
  5
335
102
{ACAD_REACTORS
330
327
102
}
330
327
100
AcDbXrecord
340
0
  0
XRECORD
  5
336
102
{ACAD_REACTORS
330
327
102
}
330
327
100
AcDbXrecord
 70
     0
  0
XRECORD
  5
32B
102
{ACAD_REACTORS
330
327
102
}
330
327
100
AcDbXrecord
  1

  0
XRECORD
  5
328
102
{ACAD_REACTORS
330
327
102
}
330
327
100
AcDbXrecord
 90
        1
  0
XRECORD
  5
329
102
{ACAD_REACTORS
330
327
102
}
330
327
100
AcDbXrecord
 90
       70
  0
XRECORD
  5
340
102
{ACAD_REACTORS
330
327
102
}
330
327
100
AcDbXrecord
340
0
  0
XRECORD
  5
346
102
{ACAD_REACTORS
330
327
102
}
330
327
100
AcDbXrecord
 10
0.0
 20
0.0
 30
0.0
  0
XRECORD
  5
342
102
{ACAD_REACTORS
330
327
102
}
330
327
100
AcDbXrecord
 10
0.0
 20
0.0
 30
0.0
  0
XRECORD
  5
345
102
{ACAD_REACTORS
330
327
102
}
330
327
100
AcDbXrecord
 10
0.0
 20
0.0
 30
0.0
  0
XRECORD
  5
343
102
{ACAD_REACTORS
330
327
102
}
330
327
100
AcDbXrecord
 10
0.0
 20
0.0
 30
0.0
  0
XRECORD
  5
344
102
{ACAD_REACTORS
330
327
102
}
330
327
100
AcDbXrecord
 10
0.0
 20
0.0
 30
0.0
  0
XRECORD
  5
341
102
{ACAD_REACTORS
330
327
102
}
330
327
100
AcDbXrecord
 10
0.0
 20
0.0
 30
0.0
  0
XRECORD
  5
33E
102
{ACAD_REACTORS
330
327
102
}
330
327
100
AcDbXrecord
340
0
  0
XRECORD
  5
33F
102
{ACAD_REACTORS
330
327
102
}
330
327
100
AcDbXrecord
 70
     1
  0
XRECORD
  5
333
102
{ACAD_REACTORS
330
327
102
}
330
327
100
AcDbXrecord
  1
{C6C86C4F-7F3F-4F6C-8CA7-BABFB953B121}
  0
DICTIONARYVAR
  5
325
102
{ACAD_REACTORS
330
324
102
}
330
324
100
DictionaryVariables
280
     0
  1
1
  0
ENDSEC
  0
EOF
