  0
SECTION
  2
HEADER
  9
$ACADVER
  1
AC1014
  9
$ACADMAINTVER
 70
     9
  9
$DWGCODEPAGE
  3
ANSI_1252
  9
$INSBASE
 10
0.0
 20
0.0
 30
0.0
  9
$EXTMIN
 10
0.250000000000003
 20
-0.115449999999991
 30
0.0
  9
$EXTMAX
 10
423.7499999999998
 20
759.11545
 30
0.0
  9
$LIMMIN
 10
0.0
 20
0.0
  9
$LIMMAX
 10
12.0
 20
9.0
  9
$ORTHOMODE
 70
     0
  9
$REGENMODE
 70
     1
  9
$FILLMODE
 70
     1
  9
$QTEXTMODE
 70
     0
  9
$MIRRTEXT
 70
     1
  9
$DRAGMODE
 70
     2
  9
$LTSCALE
 40
1.0
  9
$OSMODE
 70
    37
  9
$ATTMODE
 70
     1
  9
$TEXTSIZE
 40
0.2
  9
$TRACEWID
 40
0.05
  9
$TEXTSTYLE
  7
STANDARD
  9
$CLAYER
  8
0
  9
$CELTYPE
  6
CONTINUOUS
  9
$CECOLOR
 62
   256
  9
$CELTSCALE
 40
1.0
  9
$DELOBJ
 70
     1
  9
$DISPSILH
 70
     0
  9
$DIMSCALE
 40
1.0
  9
$DIMASZ
 40
0.18
  9
$DIMEXO
 40
0.0625
  9
$DIMDLI
 40
0.38
  9
$DIMRND
 40
0.0
  9
$DIMDLE
 40
0.0
  9
$DIMEXE
 40
0.18
  9
$DIMTP
 40
0.0
  9
$DIMTM
 40
0.0
  9
$DIMTXT
 40
0.18
  9
$DIMCEN
 40
0.09
  9
$DIMTSZ
 40
0.0
  9
$DIMTOL
 70
     0
  9
$DIMLIM
 70
     0
  9
$DIMTIH
 70
     1
  9
$DIMTOH
 70
     1
  9
$DIMSE1
 70
     0
  9
$DIMSE2
 70
     0
  9
$DIMTAD
 70
     0
  9
$DIMZIN
 70
     0
  9
$DIMBLK
  1

  9
$DIMASO
 70
     1
  9
$DIMSHO
 70
     1
  9
$DIMPOST
  1

  9
$DIMAPOST
  1

  9
$DIMALT
 70
     0
  9
$DIMALTD
 70
     2
  9
$DIMALTF
 40
25.4
  9
$DIMLFAC
 40
1.0
  9
$DIMTOFL
 70
     0
  9
$DIMTVP
 40
0.0
  9
$DIMTIX
 70
     0
  9
$DIMSOXD
 70
     0
  9
$DIMSAH
 70
     0
  9
$DIMBLK1
  1

  9
$DIMBLK2
  1

  9
$DIMSTYLE
  2
STANDARD
  9
$DIMCLRD
 70
     0
  9
$DIMCLRE
 70
     0
  9
$DIMCLRT
 70
     0
  9
$DIMTFAC
 40
1.0
  9
$DIMGAP
 40
0.09
  9
$DIMJUST
 70
     0
  9
$DIMSD1
 70
     0
  9
$DIMSD2
 70
     0
  9
$DIMTOLJ
 70
     1
  9
$DIMTZIN
 70
     0
  9
$DIMALTZ
 70
     0
  9
$DIMALTTZ
 70
     0
  9
$DIMFIT
 70
     3
  9
$DIMUPT
 70
     0
  9
$DIMUNIT
 70
     2
  9
$DIMDEC
 70
     4
  9
$DIMTDEC
 70
     4
  9
$DIMALTU
 70
     2
  9
$DIMALTTD
 70
     2
  9
$DIMTXSTY
  7
STANDARD
  9
$DIMAUNIT
 70
     0
  9
$LUNITS
 70
     2
  9
$LUPREC
 70
     4
  9
$SKETCHINC
 40
0.1
  9
$FILLETRAD
 40
0.0
  9
$AUNITS
 70
     0
  9
$AUPREC
 70
     0
  9
$MENU
  1
.
  9
$ELEVATION
 40
0.0
  9
$PELEVATION
 40
0.0
  9
$THICKNESS
 40
0.0
  9
$LIMCHECK
 70
     0
  9
$BLIPMODE
 70
     0
  9
$CHAMFERA
 40
0.0
  9
$CHAMFERB
 40
0.0
  9
$CHAMFERC
 40
0.0
  9
$CHAMFERD
 40
0.0
  9
$SKPOLY
 70
     0
  9
$TDCREATE
 40
2454635.817341759
  9
$TDUPDATE
 40
2454687.558879838
  9
$TDINDWG
 40
0.0074139120
  9
$TDUSRTIMER
 40
0.0074139120
  9
$USRTIMER
 70
     1
  9
$ANGBASE
 50
0.0
  9
$ANGDIR
 70
     0
  9
$PDMODE
 70
     0
  9
$PDSIZE
 40
0.0
  9
$PLINEWID
 40
0.0
  9
$COORDS
 70
     1
  9
$SPLFRAME
 70
     0
  9
$SPLINETYPE
 70
     6
  9
$SPLINESEGS
 70
     8
  9
$ATTDIA
 70
     0
  9
$ATTREQ
 70
     1
  9
$HANDLING
 70
 22529
  9
$HANDSEED
  5
597
  9
$SURFTAB1
 70
     6
  9
$SURFTAB2
 70
     6
  9
$SURFTYPE
 70
     6
  9
$SURFU
 70
     6
  9
$SURFV
 70
     6
  9
$UCSNAME
  2

  9
$UCSORG
 10
0.0
 20
0.0
 30
0.0
  9
$UCSXDIR
 10
1.0
 20
0.0
 30
0.0
  9
$UCSYDIR
 10
0.0
 20
1.0
 30
0.0
  9
$PUCSNAME
  2

  9
$PUCSORG
 10
0.0
 20
0.0
 30
0.0
  9
$PUCSXDIR
 10
1.0
 20
0.0
 30
0.0
  9
$PUCSYDIR
 10
0.0
 20
1.0
 30
0.0
  9
$USERI1
 70
     0
  9
$USERI2
 70
     0
  9
$USERI3
 70
     0
  9
$USERI4
 70
     0
  9
$USERI5
 70
     0
  9
$USERR1
 40
0.0
  9
$USERR2
 40
0.0
  9
$USERR3
 40
0.0
  9
$USERR4
 40
0.0
  9
$USERR5
 40
0.0
  9
$WORLDVIEW
 70
     1
  9
$SHADEDGE
 70
     3
  9
$SHADEDIF
 70
    70
  9
$TILEMODE
 70
     1
  9
$MAXACTVP
 70
    64
  9
$PINSBASE
 10
0.0
 20
0.0
 30
0.0
  9
$PLIMCHECK
 70
     0
  9
$PEXTMIN
 10
1.000000000000000E+20
 20
1.000000000000000E+20
 30
1.000000000000000E+20
  9
$PEXTMAX
 10
-1.000000000000000E+20
 20
-1.000000000000000E+20
 30
-1.000000000000000E+20
  9
$PLIMMIN
 10
0.0
 20
0.0
  9
$PLIMMAX
 10
12.0
 20
9.0
  9
$UNITMODE
 70
     0
  9
$VISRETAIN
 70
     1
  9
$PLINEGEN
 70
     0
  9
$PSLTSCALE
 70
     1
  9
$TREEDEPTH
 70
  3020
  9
$PICKSTYLE
 70
     1
  9
$CMLSTYLE
  2
STANDARD
  9
$CMLJUST
 70
     0
  9
$CMLSCALE
 40
1.0
  9
$PROXYGRAPHICS
 70
     1
  9
$MEASUREMENT
 70
     0
  0
ENDSEC
  0
SECTION
  2
CLASSES
  0
CLASS
  1
ACDBDICTIONARYWDFLT
  2
AcDbDictionaryWithDefault
  3
AutoCAD 2000
 90
        0
280
     0
281
     0
  0
CLASS
  1
ACDBPLACEHOLDER
  2
AcDbPlaceHolder
  3
AutoCAD 2000
 90
        0
280
     0
281
     0
  0
CLASS
  1
LAYOUT
  2
AcDbLayout
  3
AutoCAD 2000
 90
        0
280
     0
281
     0
  0
CLASS
  1
DICTIONARYVAR
  2
AcDbDictionaryVar
  3
AutoCAD 2000
 90
        0
280
     0
281
     0
  0
CLASS
  1
LONG_TRANSACTION
  2
AcDbLongTransaction
  3
AutoCAD 2000
 90
        0
280
     0
281
     0
  0
CLASS
  1
LWPOLYLINE
  2
AcDbPolyline
  3
AutoCAD 2000
 90
        0
280
     0
281
     1
  0
CLASS
  1
HATCH
  2
AcDbHatch
  3
AutoCAD 2000
 90
        0
280
     0
281
     1
  0
CLASS
  1
XRECORD
  2
AcDbXrecord
  3
AutoCAD 2000
 90
        0
280
     0
281
     0
  0
ENDSEC
  0
SECTION
  2
TABLES
  0
TABLE
  2
VPORT
  5
8
330
0
100
AcDbSymbolTable
 70
     2
  0
VPORT
  5
572
330
8
100
AcDbSymbolTableRecord
100
AcDbViewportTableRecord
  2
*ACTIVE
 70
     0
 10
0.0
 20
0.0
 11
1.0
 21
1.0
 12
211.9999999999999
 22
379.4999999999999
 13
0.0
 23
0.0
 14
1.0
 24
1.0
 15
0.0
 25
0.0
 16
0.0
 26
0.0
 36
1.0
 17
0.0
 27
0.0
 37
0.0
 40
765.0562010230179
 41
2.043533930857874
 42
50.0
 43
0.0
 44
0.0
 50
0.0
 51
0.0
 71
     0
 72
   100
 73
     1
 74
     3
 75
     0
 76
     0
 77
     0
 78
     0
  0
ENDTAB
  0
TABLE
  2
LTYPE
  5
5
330
0
100
AcDbSymbolTable
 70
     1
  0
LTYPE
  5
13
330
5
100
AcDbSymbolTableRecord
100
AcDbLinetypeTableRecord
  2
BYBLOCK
 70
     0
  3

 72
    65
 73
     0
 40
0.0
  0
LTYPE
  5
14
330
5
100
AcDbSymbolTableRecord
100
AcDbLinetypeTableRecord
  2
BYLAYER
 70
     0
  3

 72
    65
 73
     0
 40
0.0
  0
LTYPE
  5
15
330
5
100
AcDbSymbolTableRecord
100
AcDbLinetypeTableRecord
  2
CONTINUOUS
 70
     0
  3
Solid line
 72
    65
 73
     0
 40
0.0
  0
ENDTAB
  0
TABLE
  2
LAYER
  5
2
330
0
100
AcDbSymbolTable
 70
     1
  0
LAYER
  5
10
330
2
100
AcDbSymbolTableRecord
100
AcDbLayerTableRecord
  2
0
 70
     0
 62
     7
  6
CONTINUOUS
  0
ENDTAB
  0
TABLE
  2
STYLE
  5
3
330
0
100
AcDbSymbolTable
 70
     1
  0
STYLE
  5
11
330
3
100
AcDbSymbolTableRecord
100
AcDbTextStyleTableRecord
  2
STANDARD
 70
     0
 40
0.0
 41
1.0
 50
0.0
 71
     0
 42
0.2
  3
txt
  4

  0
ENDTAB
  0
TABLE
  2
VIEW
  5
6
330
0
100
AcDbSymbolTable
 70
     0
  0
ENDTAB
  0
TABLE
  2
UCS
  5
7
330
0
100
AcDbSymbolTable
 70
     0
  0
ENDTAB
  0
TABLE
  2
APPID
  5
9
330
0
100
AcDbSymbolTable
 70
     1
  0
APPID
  5
12
330
9
100
AcDbSymbolTableRecord
100
AcDbRegAppTableRecord
  2
ACAD
 70
     0
  0
ENDTAB
  0
TABLE
  2
DIMSTYLE
  5
A
330
0
100
AcDbSymbolTable
 70
     1
  0
DIMSTYLE
105
564
330
A
100
AcDbSymbolTableRecord
100
AcDbDimStyleTableRecord
  2
STANDARD
 70
     0
  3

  4

  5

  6

  7

 40
1.0
 41
0.18
 42
0.0625
 43
0.38
 44
0.18
 45
0.0
 46
0.0
 47
0.0
 48
0.0
140
0.18
141
0.09
142
0.0
143
25.4
144
1.0
145
0.0
146
1.0
147
0.09
 71
     0
 72
     0
 73
     1
 74
     1
 75
     0
 76
     0
 77
     0
 78
     0
170
     0
171
     2
172
     0
173
     0
174
     0
175
     0
176
     0
177
     0
178
     0
270
     2
271
     4
272
     4
273
     2
274
     2
340
11
275
     0
280
     0
281
     0
282
     0
283
     1
284
     0
285
     0
286
     0
287
     3
288
     0
  0
ENDTAB
  0
TABLE
  2
BLOCK_RECORD
  5
1
330
0
100
AcDbSymbolTable
 70
     0
  0
BLOCK_RECORD
  5
1E
102
{ACAD_XDICTIONARY
360
595
102
}
330
1
100
AcDbSymbolTableRecord
100
AcDbBlockTableRecord
  2
*MODEL_SPACE
  0
BLOCK_RECORD
  5
1A
102
{ACAD_XDICTIONARY
360
593
102
}
330
1
100
AcDbSymbolTableRecord
100
AcDbBlockTableRecord
  2
*PAPER_SPACE
  0
ENDTAB
  0
ENDSEC
  0
SECTION
  2
BLOCKS
  0
BLOCK
  5
1F
330
1E
100
AcDbEntity
  8
0
100
AcDbBlockBegin
  2
*MODEL_SPACE
 70
     0
 10
0.0
 20
0.0
 30
0.0
  3
*MODEL_SPACE
  1

  0
ENDBLK
  5
20
330
1E
100
AcDbEntity
  8
0
100
AcDbBlockEnd
  0
BLOCK
  5
1B
330
1A
100
AcDbEntity
 67
     1
  8
0
100
AcDbBlockBegin
  2
*PAPER_SPACE
 70
     0
 10
0.0
 20
0.0
 30
0.0
  3
*PAPER_SPACE
  1

  0
ENDBLK
  5
1C
330
1A
100
AcDbEntity
 67
     1
  8
0
100
AcDbBlockEnd
  0
ENDSEC
  0
SECTION
  2
ENTITIES
  0
LINE
  5
22
330
1E
100
AcDbEntity
  8
0
100
AcDbLine
 10
24.75
 20
467.5134499999998
 30
0.0
 11
141.25
 21
467.5134499999998
 31
0.0
  0
LINE
  5
23
330
1E
100
AcDbEntity
  8
0
100
AcDbLine
 10
24.75
 20
467.5134499999998
 30
0.0
 11
24.75
 21
468.01345
 31
0.0
  0
LINE
  5
24
330
1E
100
AcDbEntity
  8
0
100
AcDbLine
 10
0.250000000000003
 20
495.0134499999998
 30
0.0
 11
60.25
 21
495.0134499999998
 31
0.0
  0
LINE
  5
25
330
1E
100
AcDbEntity
  8
0
100
AcDbLine
 10
0.7500000000000079
 20
494.5134499999999
 30
0.0
 11
59.75
 21
494.5134499999999
 31
0.0
  0
LINE
  5
26
330
1E
100
AcDbEntity
  8
0
100
AcDbLine
 10
0.7500000000000079
 20
494.5134499999999
 30
0.0
 11
47.25
 21
494.5134499999999
 31
0.0
  0
LINE
  5
27
330
1E
100
AcDbEntity
  8
0
100
AcDbLine
 10
0.250000000000008
 20
495.0134499999998
 30
0.0
 11
0.7500000000000079
 21
494.5134499999999
 31
0.0
  0
LINE
  5
28
330
1E
100
AcDbEntity
  8
0
100
AcDbLine
 10
0.250000000000008
 20
495.0134499999998
 30
0.0
 11
0.250000000000008
 21
502.01345
 31
0.0
  0
LINE
  5
29
330
1E
100
AcDbEntity
  8
0
100
AcDbLine
 10
0.250000000000008
 20
495.0134499999998
 30
0.0
 11
60.25
 21
495.0134499999998
 31
0.0
  0
LINE
  5
2A
330
1E
100
AcDbEntity
  8
0
100
AcDbLine
 10
0.7500000000000091
 20
494.5134499999999
 30
0.0
 11
47.25
 21
494.5134499999999
 31
0.0
  0
LINE
  5
2B
330
1E
100
AcDbEntity
  8
0
100
AcDbLine
 10
0.7500000000000091
 20
494.5134499999999
 30
0.0
 11
59.75
 21
494.5134499999999
 31
0.0
  0
LINE
  5
2C
330
1E
100
AcDbEntity
  8
0
100
AcDbLine
 10
0.250000000000008
 20
502.01345
 30
0.0
 11
0.7500000000000079
 21
502.51345
 31
0.0
  0
LINE
  5
2D
330
1E
100
AcDbEntity
  8
0
100
AcDbLine
 10
0.250000000000003
 20
502.01345
 30
0.0
 11
60.25
 21
502.01345
 31
0.0
  0
LINE
  5
2E
330
1E
100
AcDbEntity
  8
0
100
AcDbLine
 10
0.7500000000000091
 20
502.51345
 30
0.0
 11
59.75
 21
502.51345
 31
0.0
  0
LINE
  5
2F
330
1E
100
AcDbEntity
  8
0
100
AcDbLine
 10
0.7500000000000079
 20
502.51345
 30
0.0
 11
59.75
 21
502.51345
 31
0.0
  0
LINE
  5
30
330
1E
100
AcDbEntity
  8
0
100
AcDbLine
 10
0.250000000000008
 20
502.01345
 30
0.0
 11
0.250000000000008
 21
495.0134499999998
 31
0.0
  0
LINE
  5
31
330
1E
100
AcDbEntity
  8
0
100
AcDbLine
 10
0.250000000000008
 20
502.01345
 30
0.0
 11
0.7500000000000079
 21
502.51345
 31
0.0
  0
LINE
  5
32
330
1E
100
AcDbEntity
  8
0
100
AcDbLine
 10
0.250000000000008
 20
502.01345
 30
0.0
 11
60.25
 21
502.01345
 31
0.0
  0
LINE
  5
33
330
1E
100
AcDbEntity
  8
0
100
AcDbLine
 10
0.250000000000008
 20
495.0134499999998
 30
0.0
 11
0.7500000000000079
 21
494.5134499999999
 31
0.0
  0
LINE
  5
34
330
1E
100
AcDbEntity
  8
0
100
AcDbLine
 10
24.25
 20
494.5134499999999
 30
0.0
 11
24.25
 21
468.01345
 31
0.0
  0
LINE
  5
35
330
1E
100
AcDbEntity
  8
0
100
AcDbLine
 10
24.25
 20
529.01345
 30
0.0
 11
24.25
 21
502.51345
 31
0.0
  0
LINE
  5
36
330
1E
100
AcDbEntity
  8
0
100
AcDbLine
 10
24.25
 20
529.01345
 30
0.0
 11
24.75
 21
529.51345
 31
0.0
  0
LINE
  5
37
330
1E
100
AcDbEntity
  8
0
100
AcDbLine
 10
24.25
 20
529.01345
 30
0.0
 11
24.75
 21
529.01345
 31
0.0
  0
LINE
  5
38
330
1E
100
AcDbEntity
  8
0
100
AcDbLine
 10
24.25
 20
502.51345
 30
0.0
 11
24.25
 21
529.01345
 31
0.0
  0
LINE
  5
39
330
1E
100
AcDbEntity
  8
0
100
AcDbLine
 10
24.75
 20
494.5134499999999
 30
0.0
 11
24.75
 21
468.01345
 31
0.0
  0
LINE
  5
3A
330
1E
100
AcDbEntity
  8
0
100
AcDbLine
 10
24.75
 20
529.01345
 30
0.0
 11
24.75
 21
529.51345
 31
0.0
  0
LINE
  5
3B
330
1E
100
AcDbEntity
  8
0
100
AcDbLine
 10
24.75
 20
529.01345
 30
0.0
 11
144.25
 21
529.01345
 31
0.0
  0
LINE
  5
3C
330
1E
100
AcDbEntity
  8
0
100
AcDbLine
 10
24.75
 20
529.01345
 30
0.0
 11
24.75
 21
502.51345
 31
0.0
  0
LINE
  5
3D
330
1E
100
AcDbEntity
  8
0
100
AcDbLine
 10
24.75
 20
502.51345
 30
0.0
 11
24.75
 21
529.01345
 31
0.0
  0
LINE
  5
3E
330
1E
100
AcDbEntity
  8
0
100
AcDbLine
 10
24.75
 20
529.01345
 30
0.0
 11
144.25
 21
529.01345
 31
0.0
  0
LINE
  5
3F
330
1E
100
AcDbEntity
  8
0
100
AcDbLine
 10
24.75
 20
529.51345
 30
0.0
 11
144.514
 21
529.51345
 31
0.0
  0
LINE
  5
40
330
1E
100
AcDbEntity
  8
0
100
AcDbLine
 10
24.75
 20
468.01345
 30
0.0
 11
141.25
 21
468.01345
 31
0.0
  0
LINE
  5
41
330
1E
100
AcDbEntity
  8
0
100
AcDbLine
 10
24.75
 20
468.01345
 30
0.0
 11
24.75
 21
467.5134499999998
 31
0.0
  0
LINE
  5
42
330
1E
100
AcDbEntity
  8
0
100
AcDbLine
 10
24.75
 20
468.01345
 30
0.0
 11
24.75
 21
494.5134499999999
 31
0.0
  0
LINE
  5
43
330
1E
100
AcDbEntity
  8
0
100
AcDbLine
 10
24.75
 20
468.01345
 30
0.0
 11
141.25
 21
468.01345
 31
0.0
  0
LINE
  5
44
330
1E
100
AcDbEntity
  8
0
100
AcDbLine
 10
24.75
 20
529.51345
 30
0.0
 11
144.514
 21
529.51345
 31
0.0
  0
LINE
  5
45
330
1E
100
AcDbEntity
  8
0
100
AcDbLine
 10
24.75
 20
529.51345
 30
0.0
 11
24.75
 21
529.01345
 31
0.0
  0
LINE
  5
46
330
1E
100
AcDbEntity
  8
0
100
AcDbLine
 10
24.25
 20
468.01345
 30
0.0
 11
24.75
 21
467.5134499999998
 31
0.0
  0
LINE
  5
47
330
1E
100
AcDbEntity
  8
0
100
AcDbLine
 10
24.25
 20
468.01345
 30
0.0
 11
24.25
 21
494.5134499999999
 31
0.0
  0
LINE
  5
48
330
1E
100
AcDbEntity
  8
0
100
AcDbLine
 10
24.25
 20
468.01345
 30
0.0
 11
24.75
 21
468.01345
 31
0.0
  0
LINE
  5
49
330
1E
100
AcDbEntity
  8
0
100
AcDbLine
 10
24.75
 20
467.5134499999998
 30
0.0
 11
141.25
 21
467.5134499999998
 31
0.0
  0
LINE
  5
4A
330
1E
100
AcDbEntity
  8
0
100
AcDbLine
 10
55.25
 20
481.01345
 30
0.0
 11
59.75
 21
481.61345
 31
0.0
  0
LINE
  5
4B
330
1E
100
AcDbEntity
  8
0
100
AcDbLine
 10
59.75
 20
481.61345
 30
0.0
 11
63.95
 21
483.3134499999999
 31
0.0
  0
LINE
  5
4C
330
1E
100
AcDbEntity
  8
0
100
AcDbLine
 10
50.75
 20
481.61345
 30
0.0
 11
55.25
 21
481.01345
 31
0.0
  0
LINE
  5
4D
330
1E
100
AcDbEntity
  8
0
100
AcDbLine
 10
55.25
 20
480.51345
 30
0.0
 11
59.85
 21
481.2134499999998
 31
0.0
  0
LINE
  5
4E
330
1E
100
AcDbEntity
  8
0
100
AcDbLine
 10
141.7499999999999
 20
441.5134499999998
 30
0.0
 11
142.25
 21
441.5134499999998
 31
0.0
  0
LINE
  5
4F
330
1E
100
AcDbEntity
  8
0
100
AcDbLine
 10
141.7499999999999
 20
441.5134499999998
 30
0.0
 11
141.7499999999999
 21
442.0134499999998
 31
0.0
  0
LINE
  5
50
330
1E
100
AcDbEntity
  8
0
100
AcDbLine
 10
141.7499999999999
 20
441.5134499999998
 30
0.0
 11
155.25
 21
441.5134499999998
 31
0.0
  0
LINE
  5
51
330
1E
100
AcDbEntity
  8
0
100
AcDbLine
 10
141.25
 20
442.0134499999998
 30
0.0
 11
141.25
 21
466.5134499999998
 31
0.0
  0
LINE
  5
52
330
1E
100
AcDbEntity
  8
0
100
AcDbLine
 10
141.25
 20
442.0134499999998
 30
0.0
 11
141.7499999999999
 21
442.0134499999998
 31
0.0
  0
LINE
  5
53
330
1E
100
AcDbEntity
  8
0
100
AcDbLine
 10
141.25
 20
442.0134499999998
 30
0.0
 11
141.7499999999999
 21
441.5134499999998
 31
0.0
  0
LINE
  5
54
330
1E
100
AcDbEntity
  8
0
100
AcDbLine
 10
141.25
 20
466.5134499999998
 30
0.0
 11
141.25
 21
478.31345
 31
0.0
  0
LINE
  5
55
330
1E
100
AcDbEntity
  8
0
100
AcDbLine
 10
141.25
 20
466.5134499999998
 30
0.0
 11
141.25
 21
471.3134499999998
 31
0.0
  0
LINE
  5
56
330
1E
100
AcDbEntity
  8
0
100
AcDbLine
 10
141.25
 20
466.5134499999998
 30
0.0
 11
141.25
 21
442.0134499999998
 31
0.0
  0
LINE
  5
57
330
1E
100
AcDbEntity
  8
0
100
AcDbLine
 10
142.467
 20
436.61345
 30
0.0
 11
142.9429999999999
 21
436.61345
 31
0.0
  0
LINE
  5
58
330
1E
100
AcDbEntity
  8
0
100
AcDbLine
 10
142.467
 20
436.61345
 30
0.0
 11
155.25
 21
436.5134499999999
 31
0.0
  0
LINE
  5
59
330
1E
100
AcDbEntity
  8
0
100
AcDbLine
 10
142.727
 20
436.8634499999997
 30
0.0
 11
143.983
 21
436.8634499999997
 31
0.0
  0
LINE
  5
5A
330
1E
100
AcDbEntity
  8
0
100
AcDbLine
 10
143.983
 20
436.8634499999997
 30
0.0
 11
146.0629999999999
 21
436.8634499999997
 31
0.0
  0
LINE
  5
5B
330
1E
100
AcDbEntity
  8
0
100
AcDbLine
 10
142.9429999999999
 20
436.61345
 30
0.0
 11
144.1999999999999
 21
436.61345
 31
0.0
  0
LINE
  5
5C
330
1E
100
AcDbEntity
  8
0
100
AcDbLine
 10
148.3159999999999
 20
144.06245
 30
0.0
 11
151.9979999999998
 21
120.8514499999999
 31
0.0
  0
LINE
  5
5D
330
1E
100
AcDbEntity
  8
0
100
AcDbLine
 10
151.9979999999998
 20
120.8514499999999
 30
0.0
 11
157.627
 21
97.24145
 31
0.0
  0
LINE
  5
5E
330
1E
100
AcDbEntity
  8
0
100
AcDbLine
 10
157.627
 20
97.24145
 30
0.0
 11
166.729
 21
73.73145
 31
0.0
  0
LINE
  5
5F
330
1E
100
AcDbEntity
  8
0
100
AcDbLine
 10
146.9599999999998
 20
163.9864499999999
 30
0.0
 11
147.373596760005
 21
436.575066234374
 31
0.0
  0
LINE
  5
60
330
1E
100
AcDbEntity
  8
0
100
AcDbLine
 10
146.9599999999998
 20
163.9864499999999
 30
0.0
 11
148.3159999999999
 21
144.06245
 31
0.0
  0
LINE
  5
61
330
1E
100
AcDbEntity
  8
0
100
AcDbLine
 10
146.9599999999998
 20
163.9864499999999
 30
0.0
 11
147.373596760005
 21
436.575066234374
 31
0.0
  0
LINE
  5
62
330
1E
100
AcDbEntity
  8
0
100
AcDbLine
 10
160.287
 20
164.52645
 30
0.0
 11
160.657087476875
 21
436.555749049338
 31
0.0
  0
LINE
  5
63
330
1E
100
AcDbEntity
  8
0
100
AcDbLine
 10
160.287
 20
164.52645
 30
0.0
 11
161.547
 21
145.39945
 31
0.0
  0
LINE
  5
64
330
1E
100
AcDbEntity
  8
0
100
AcDbLine
 10
160.287
 20
164.52645
 30
0.0
 11
160.657087476875
 21
436.555749049338
 31
0.0
  0
LINE
  5
65
330
1E
100
AcDbEntity
  8
0
100
AcDbLine
 10
161.547
 20
145.39945
 30
0.0
 11
165.032
 21
123.98145
 31
0.0
  0
LINE
  5
66
330
1E
100
AcDbEntity
  8
0
100
AcDbLine
 10
165.032
 20
123.98145
 30
0.0
 11
170.1279999999998
 21
102.86245
 31
0.0
  0
LINE
  5
67
330
1E
100
AcDbEntity
  8
0
100
AcDbLine
 10
146.2369999999999
 20
436.61345
 30
0.0
 11
148.8799999999999
 21
436.61345
 31
0.0
  0
LINE
  5
68
330
1E
100
AcDbEntity
  8
0
100
AcDbLine
 10
148.8799999999999
 20
436.61345
 30
0.0
 11
151.9569999999999
 21
436.61345
 31
0.0
  0
LINE
  5
69
330
1E
100
AcDbEntity
  8
0
100
AcDbLine
 10
151.9569999999999
 20
436.61345
 30
0.0
 11
155.25
 21
436.61345
 31
0.0
  0
LINE
  5
6A
330
1E
100
AcDbEntity
  8
0
100
AcDbLine
 10
161.62
 20
436.61345
 30
0.0
 11
164.263
 21
436.61345
 31
0.0
  0
LINE
  5
6B
330
1E
100
AcDbEntity
  8
0
100
AcDbLine
 10
158.543
 20
436.61345
 30
0.0
 11
161.62
 21
436.61345
 31
0.0
  0
LINE
  5
6C
330
1E
100
AcDbEntity
  8
0
100
AcDbLine
 10
155.25
 20
436.61345
 30
0.0
 11
158.543
 21
436.61345
 31
0.0
  0
LINE
  5
6D
330
1E
100
AcDbEntity
  8
0
100
AcDbLine
 10
155.25
 20
436.5134499999999
 30
0.0
 11
168.0329999999998
 21
436.61345
 31
0.0
  0
LINE
  5
6E
330
1E
100
AcDbEntity
  8
0
100
AcDbLine
 10
166.729
 20
73.73145
 30
0.0
 11
176.672
 21
52.71155
 31
0.0
  0
LINE
  5
6F
330
1E
100
AcDbEntity
  8
0
100
AcDbLine
 10
259.444
 20
-0.115449999999991
 30
0.0
 11
275.5729999999999
 21
1.67775000000001
 31
0.0
  0
LINE
  5
70
330
1E
100
AcDbEntity
  8
0
100
AcDbLine
 10
212.05776188137
 20
15.3075019296649
 30
0.0
 11
222.619
 21
8.779350000000018
 31
0.0
  0
LINE
  5
71
330
1E
100
AcDbEntity
  8
0
100
AcDbLine
 10
212.05776188137
 20
15.3075019296649
 30
0.0
 11
222.619
 21
8.779350000000018
 31
0.0
  0
LINE
  5
72
330
1E
100
AcDbEntity
  8
0
100
AcDbLine
 10
206.342
 20
18.84055
 30
0.0
 11
206.678503705223
 21
18.6325490736016
 31
0.0
  0
LINE
  5
73
330
1E
100
AcDbEntity
  8
0
100
AcDbLine
 10
222.619
 20
8.779350000000018
 30
0.0
 11
223.15
 21
8.551450000000018
 31
0.0
  0
LINE
  5
74
330
1E
100
AcDbEntity
  8
0
100
AcDbLine
 10
176.672
 20
52.71155
 30
0.0
 11
189.8459999999999
 21
35.97554999999999
 31
0.0
  0
LINE
  5
75
330
1E
100
AcDbEntity
  8
0
100
AcDbLine
 10
189.8459999999999
 20
35.97554999999999
 30
0.0
 11
206.342
 21
18.84055
 31
0.0
  0
LINE
  5
76
330
1E
100
AcDbEntity
  8
0
100
AcDbLine
 10
170.1279999999998
 20
102.86245
 30
0.0
 11
178.2159999999999
 21
81.64345
 31
0.0
  0
LINE
  5
77
330
1E
100
AcDbEntity
  8
0
100
AcDbLine
 10
178.2159999999999
 20
81.64345
 30
0.0
 11
186.988
 21
62.71555
 31
0.0
  0
LINE
  5
78
330
1E
100
AcDbEntity
  8
0
100
AcDbLine
 10
186.988
 20
62.71555
 30
0.0
 11
198.672
 21
47.77255
 31
0.0
  0
LINE
  5
79
330
1E
100
AcDbEntity
  8
0
100
AcDbLine
 10
213.335317036528
 20
32.147297129175
 30
0.0
 11
227.232446224029
 21
23.5401055555541
 31
0.0
  0
LINE
  5
7A
330
1E
100
AcDbEntity
  8
0
100
AcDbLine
 10
198.672
 20
47.77255
 30
0.0
 11
213.443
 21
32.03255
 31
0.0
  0
LINE
  5
7B
330
1E
100
AcDbEntity
  8
0
100
AcDbLine
 10
213.335317036528
 20
32.147297129175
 30
0.0
 11
227.232446224029
 21
23.5401055555541
 31
0.0
  0
LINE
  5
7C
330
1E
100
AcDbEntity
  8
0
100
AcDbLine
 10
227.30705642277
 20
23.4941557068434
 30
0.0
 11
243.588
 21
17.41754999999999
 31
0.0
  0
LINE
  5
7D
330
1E
100
AcDbEntity
  8
0
100
AcDbLine
 10
223.15
 20
8.551450000000018
 30
0.0
 11
241.629
 21
1.67775000000002
 31
0.0
  0
LINE
  5
7E
330
1E
100
AcDbEntity
  8
0
100
AcDbLine
 10
243.588
 20
17.41754999999999
 30
0.0
 11
259.1359999999998
 21
15.82354999999999
 31
0.0
  0
LINE
  5
7F
330
1E
100
AcDbEntity
  8
0
100
AcDbLine
 10
241.629
 20
1.67775000000002
 30
0.0
 11
259.444
 21
-0.115449999999991
 31
0.0
  0
LINE
  5
80
330
1E
100
AcDbEntity
  8
0
100
AcDbLine
 10
241.629
 20
1.67775000000002
 30
0.0
 11
259.444
 21
-0.115449999999991
 31
0.0
  0
LINE
  5
81
330
1E
100
AcDbEntity
  8
0
100
AcDbLine
 10
275.5729999999999
 20
1.67775000000002
 30
0.0
 11
293.786
 21
8.551450000000018
 31
0.0
  0
LINE
  5
82
330
1E
100
AcDbEntity
  8
0
100
AcDbLine
 10
317.109
 20
47.90155
 30
0.0
 11
328.134
 21
62.84455
 31
0.0
  0
LINE
  5
83
330
1E
100
AcDbEntity
  8
0
100
AcDbLine
 10
325.6639999999998
 20
35.94655
 30
0.0
 11
338.193
 21
52.58355
 31
0.0
  0
LINE
  5
84
330
1E
100
AcDbEntity
  8
0
100
AcDbLine
 10
328.134
 20
62.84455
 30
0.0
 11
336.0939999999998
 21
81.67244999999999
 31
0.0
  0
LINE
  5
85
330
1E
100
AcDbEntity
  8
0
100
AcDbLine
 10
350.105
 20
144.85945
 30
0.0
 11
350.624
 21
163.9864499999999
 31
0.0
  0
LINE
  5
86
330
1E
100
AcDbEntity
  8
0
100
AcDbLine
 10
347.448
 20
123.4414499999999
 30
0.0
 11
350.105
 21
144.85945
 31
0.0
  0
LINE
  5
87
330
1E
100
AcDbEntity
  8
0
100
AcDbLine
 10
343.169
 20
102.3214499999999
 30
0.0
 11
347.448
 21
123.4414499999999
 31
0.0
  0
LINE
  5
88
330
1E
100
AcDbEntity
  8
0
100
AcDbLine
 10
360.583
 20
121.39145
 30
0.0
 11
363.3669999999998
 21
144.60245
 31
0.0
  0
LINE
  5
89
330
1E
100
AcDbEntity
  8
0
100
AcDbLine
 10
355.8669999999998
 20
97.78145000000002
 30
0.0
 11
360.583
 21
121.39145
 31
0.0
  0
LINE
  5
8A
330
1E
100
AcDbEntity
  8
0
100
AcDbLine
 10
347.675
 20
74.27145
 30
0.0
 11
355.8669999999998
 21
97.78145000000002
 31
0.0
  0
LINE
  5
8B
330
1E
100
AcDbEntity
  8
0
100
AcDbLine
 10
338.545
 20
53.25155
 30
0.0
 11
347.675
 21
74.27145
 31
0.0
  0
LINE
  5
8C
330
1E
100
AcDbEntity
  8
0
100
AcDbLine
 10
338.193
 20
52.58355
 30
0.0
 11
338.545
 21
53.25155
 31
0.0
  0
LINE
  5
8D
330
1E
100
AcDbEntity
  8
0
100
AcDbLine
 10
303.024
 20
32.36055
 30
0.0
 11
317.109
 21
47.90155
 31
0.0
  0
LINE
  5
8E
330
1E
100
AcDbEntity
  8
0
100
AcDbLine
 10
309.757
 20
18.51354999999998
 30
0.0
 11
325.6639999999998
 21
35.94655
 31
0.0
  0
LINE
  5
8F
330
1E
100
AcDbEntity
  8
0
100
AcDbLine
 10
289.052
 20
23.49455
 30
0.0
 11
303.024
 21
32.36055
 31
0.0
  0
LINE
  5
90
330
1E
100
AcDbEntity
  8
0
100
AcDbLine
 10
293.786
 20
8.551450000000018
 30
0.0
 11
309.757
 21
18.51354999999998
 31
0.0
  0
LINE
  5
91
330
1E
100
AcDbEntity
  8
0
100
AcDbLine
 10
273.0059999999999
 20
17.41754999999999
 30
0.0
 11
289.052
 21
23.49455
 31
0.0
  0
LINE
  5
92
330
1E
100
AcDbEntity
  8
0
100
AcDbLine
 10
275.5729999999999
 20
1.67775000000001
 30
0.0
 11
293.786
 21
8.551450000000018
 31
0.0
  0
LINE
  5
93
330
1E
100
AcDbEntity
  8
0
100
AcDbLine
 10
259.1359999999998
 20
15.82354999999999
 30
0.0
 11
273.0059999999999
 21
17.41754999999999
 31
0.0
  0
LINE
  5
94
330
1E
100
AcDbEntity
  8
0
100
AcDbLine
 10
259.444
 20
-0.115449999999991
 30
0.0
 11
275.5729999999999
 21
1.67775000000001
 31
0.0
  0
LINE
  5
95
330
1E
100
AcDbEntity
  8
0
100
AcDbLine
 10
168.0329999999998
 20
436.61345
 30
0.0
 11
168.25
 21
436.8634499999997
 31
0.0
  0
LINE
  5
96
330
1E
100
AcDbEntity
  8
0
100
AcDbLine
 10
167.557
 20
436.61345
 30
0.0
 11
168.0329999999998
 21
436.61345
 31
0.0
  0
LINE
  5
97
330
1E
100
AcDbEntity
  8
0
100
AcDbLine
 10
166.3
 20
436.61345
 30
0.0
 11
167.557
 21
436.61345
 31
0.0
  0
LINE
  5
98
330
1E
100
AcDbEntity
  8
0
100
AcDbLine
 10
146.0629999999999
 20
436.8634499999997
 30
0.0
 11
148.793
 21
436.8634499999997
 31
0.0
  0
LINE
  5
99
330
1E
100
AcDbEntity
  8
0
100
AcDbLine
 10
148.793
 20
436.8634499999997
 30
0.0
 11
151.9129999999998
 21
436.8634499999997
 31
0.0
  0
LINE
  5
9A
330
1E
100
AcDbEntity
  8
0
100
AcDbLine
 10
151.9129999999998
 20
436.8634499999997
 30
0.0
 11
155.25
 21
436.8634499999997
 31
0.0
  0
LINE
  5
9B
330
1E
100
AcDbEntity
  8
0
100
AcDbLine
 10
167.7729999999999
 20
436.8634499999997
 30
0.0
 11
168.25
 21
436.8634499999997
 31
0.0
  0
LINE
  5
9C
330
1E
100
AcDbEntity
  8
0
100
AcDbLine
 10
168.25
 20
436.8634499999997
 30
0.0
 11
168.25
 21
441.5134499999998
 31
0.0
  0
LINE
  5
9D
330
1E
100
AcDbEntity
  8
0
100
AcDbLine
 10
166.5169999999999
 20
436.8634499999997
 30
0.0
 11
167.7729999999999
 21
436.8634499999997
 31
0.0
  0
LINE
  5
9E
330
1E
100
AcDbEntity
  8
0
100
AcDbLine
 10
164.437
 20
436.8634499999997
 30
0.0
 11
166.5169999999999
 21
436.8634499999997
 31
0.0
  0
LINE
  5
9F
330
1E
100
AcDbEntity
  8
0
100
AcDbLine
 10
161.707
 20
436.8634499999997
 30
0.0
 11
164.437
 21
436.8634499999997
 31
0.0
  0
LINE
  5
A0
330
1E
100
AcDbEntity
  8
0
100
AcDbLine
 10
158.587
 20
436.8634499999997
 30
0.0
 11
161.707
 21
436.8634499999997
 31
0.0
  0
LINE
  5
A1
330
1E
100
AcDbEntity
  8
0
100
AcDbLine
 10
155.25
 20
436.8634499999997
 30
0.0
 11
158.587
 21
436.8634499999997
 31
0.0
  0
LINE
  5
A2
330
1E
100
AcDbEntity
  8
0
100
AcDbLine
 10
164.263
 20
436.61345
 30
0.0
 11
166.3
 21
436.61345
 31
0.0
  0
LINE
  5
A3
330
1E
100
AcDbEntity
  8
0
100
AcDbLine
 10
144.1999999999999
 20
436.61345
 30
0.0
 11
146.2369999999999
 21
436.61345
 31
0.0
  0
LINE
  5
A4
330
1E
100
AcDbEntity
  8
0
100
AcDbLine
 10
142.25
 20
441.5134499999998
 30
0.0
 11
142.727
 21
441.5134499999998
 31
0.0
  0
LINE
  5
A5
330
1E
100
AcDbEntity
  8
0
100
AcDbLine
 10
142.25
 20
441.5134499999998
 30
0.0
 11
142.25
 21
436.8634499999997
 31
0.0
  0
LINE
  5
A6
330
1E
100
AcDbEntity
  8
0
100
AcDbLine
 10
142.727
 20
441.5134499999998
 30
0.0
 11
143.983
 21
441.5134499999998
 31
0.0
  0
LINE
  5
A7
330
1E
100
AcDbEntity
  8
0
100
AcDbLine
 10
143.983
 20
441.5134499999998
 30
0.0
 11
146.0629999999999
 21
441.5134499999998
 31
0.0
  0
LINE
  5
A8
330
1E
100
AcDbEntity
  8
0
100
AcDbLine
 10
146.0629999999999
 20
441.5134499999998
 30
0.0
 11
148.793
 21
441.5134499999998
 31
0.0
  0
LINE
  5
A9
330
1E
100
AcDbEntity
  8
0
100
AcDbLine
 10
148.793
 20
441.5134499999998
 30
0.0
 11
151.9129999999998
 21
441.5134499999998
 31
0.0
  0
LINE
  5
AA
330
1E
100
AcDbEntity
  8
0
100
AcDbLine
 10
151.9129999999998
 20
441.5134499999998
 30
0.0
 11
155.25
 21
441.5134499999998
 31
0.0
  0
LINE
  5
AB
330
1E
100
AcDbEntity
  8
0
100
AcDbLine
 10
167.7729999999999
 20
441.5134499999998
 30
0.0
 11
168.25
 21
441.5134499999998
 31
0.0
  0
LINE
  5
AC
330
1E
100
AcDbEntity
  8
0
100
AcDbLine
 10
166.5169999999999
 20
441.5134499999998
 30
0.0
 11
167.7729999999999
 21
441.5134499999998
 31
0.0
  0
LINE
  5
AD
330
1E
100
AcDbEntity
  8
0
100
AcDbLine
 10
164.437
 20
441.5134499999998
 30
0.0
 11
166.5169999999999
 21
441.5134499999998
 31
0.0
  0
LINE
  5
AE
330
1E
100
AcDbEntity
  8
0
100
AcDbLine
 10
161.707
 20
441.5134499999998
 30
0.0
 11
164.437
 21
441.5134499999998
 31
0.0
  0
LINE
  5
AF
330
1E
100
AcDbEntity
  8
0
100
AcDbLine
 10
158.587
 20
441.5134499999998
 30
0.0
 11
161.707
 21
441.5134499999998
 31
0.0
  0
LINE
  5
B0
330
1E
100
AcDbEntity
  8
0
100
AcDbLine
 10
155.25
 20
442.0134499999998
 30
0.0
 11
168.75
 21
442.0134499999998
 31
0.0
  0
LINE
  5
B1
330
1E
100
AcDbEntity
  8
0
100
AcDbLine
 10
155.25
 20
441.5134499999998
 30
0.0
 11
158.587
 21
441.5134499999998
 31
0.0
  0
LINE
  5
B2
330
1E
100
AcDbEntity
  8
0
100
AcDbLine
 10
155.25
 20
441.5134499999998
 30
0.0
 11
168.75
 21
441.5134499999998
 31
0.0
  0
LINE
  5
B3
330
1E
100
AcDbEntity
  8
0
100
AcDbLine
 10
168.75
 20
466.5134499999998
 30
0.0
 11
168.75
 21
442.0134499999998
 31
0.0
  0
LINE
  5
B4
330
1E
100
AcDbEntity
  8
0
100
AcDbLine
 10
168.75
 20
466.5134499999998
 30
0.0
 11
168.75
 21
478.41345
 31
0.0
  0
LINE
  5
B5
330
1E
100
AcDbEntity
  8
0
100
AcDbLine
 10
169.25
 20
442.0134499999998
 30
0.0
 11
169.25
 21
466.5134499999998
 31
0.0
  0
LINE
  5
B6
330
1E
100
AcDbEntity
  8
0
100
AcDbLine
 10
169.25
 20
466.5134499999998
 30
0.0
 11
169.25
 21
442.0134499999998
 31
0.0
  0
LINE
  5
B7
330
1E
100
AcDbEntity
  8
0
100
AcDbLine
 10
169.25
 20
466.5134499999998
 30
0.0
 11
169.25
 21
478.31345
 31
0.0
  0
LINE
  5
B8
330
1E
100
AcDbEntity
  8
0
100
AcDbLine
 10
168.75
 20
442.0134499999998
 30
0.0
 11
169.25
 21
442.0134499999998
 31
0.0
  0
LINE
  5
B9
330
1E
100
AcDbEntity
  8
0
100
AcDbLine
 10
168.75
 20
442.0134499999998
 30
0.0
 11
168.75
 21
441.5134499999998
 31
0.0
  0
LINE
  5
BA
330
1E
100
AcDbEntity
  8
0
100
AcDbLine
 10
168.75
 20
442.0134499999998
 30
0.0
 11
168.75
 21
466.5134499999998
 31
0.0
  0
LINE
  5
BB
330
1E
100
AcDbEntity
  8
0
100
AcDbLine
 10
168.75
 20
441.5134499999998
 30
0.0
 11
169.25
 21
442.0134499999998
 31
0.0
  0
LINE
  5
BC
330
1E
100
AcDbEntity
  8
0
100
AcDbLine
 10
168.75
 20
441.5134499999998
 30
0.0
 11
168.75
 21
442.0134499999998
 31
0.0
  0
LINE
  5
BD
330
1E
100
AcDbEntity
  8
0
100
AcDbLine
 10
168.25
 20
441.5134499999998
 30
0.0
 11
168.25
 21
436.8634499999997
 31
0.0
  0
LINE
  5
BE
330
1E
100
AcDbEntity
  8
0
100
AcDbLine
 10
168.25
 20
441.5134499999998
 30
0.0
 11
168.75
 21
441.5134499999998
 31
0.0
  0
LINE
  5
BF
330
1E
100
AcDbEntity
  8
0
100
AcDbLine
 10
142.25
 20
436.8634499999997
 30
0.0
 11
142.25
 21
441.5134499999998
 31
0.0
  0
LINE
  5
C0
330
1E
100
AcDbEntity
  8
0
100
AcDbLine
 10
142.25
 20
436.8634499999997
 30
0.0
 11
142.467
 21
436.61345
 31
0.0
  0
LINE
  5
C1
330
1E
100
AcDbEntity
  8
0
100
AcDbLine
 10
142.25
 20
436.8634499999997
 30
0.0
 11
142.727
 21
436.8634499999997
 31
0.0
  0
LINE
  5
C2
330
1E
100
AcDbEntity
  8
0
100
AcDbLine
 10
141.7499999999999
 20
442.0134499999998
 30
0.0
 11
141.7499999999999
 21
466.5134499999998
 31
0.0
  0
LINE
  5
C3
330
1E
100
AcDbEntity
  8
0
100
AcDbLine
 10
141.7499999999999
 20
442.0134499999998
 30
0.0
 11
155.25
 21
442.0134499999998
 31
0.0
  0
LINE
  5
C4
330
1E
100
AcDbEntity
  8
0
100
AcDbLine
 10
141.7499999999999
 20
442.0134499999998
 30
0.0
 11
141.7499999999999
 21
441.5134499999998
 31
0.0
  0
LINE
  5
C5
330
1E
100
AcDbEntity
  8
0
100
AcDbLine
 10
141.7499999999999
 20
466.5134499999998
 30
0.0
 11
141.7499999999999
 21
478.41345
 31
0.0
  0
LINE
  5
C6
330
1E
100
AcDbEntity
  8
0
100
AcDbLine
 10
141.7499999999999
 20
466.5134499999998
 30
0.0
 11
141.7499999999999
 21
442.0134499999998
 31
0.0
  0
LINE
  5
C7
330
1E
100
AcDbEntity
  8
0
100
AcDbLine
 10
362.917703647528
 20
467.5134499999998
 30
0.0
 11
385.7499999999998
 21
467.5134499999998
 31
0.0
  0
LINE
  5
C8
330
1E
100
AcDbEntity
  8
0
100
AcDbLine
 10
205.25
 20
467.5134499999998
 30
0.0
 11
349.591500492508
 21
467.5134499999998
 31
0.0
  0
LINE
  5
C9
330
1E
100
AcDbEntity
  8
0
100
AcDbLine
 10
205.25
 20
467.5134499999998
 30
0.0
 11
349.591500492508
 21
467.5134499999998
 31
0.0
  0
LINE
  5
CA
330
1E
100
AcDbEntity
  8
0
100
AcDbLine
 10
363.3669999999998
 20
144.60245
 30
0.0
 11
363.9509999999998
 21
164.52645
 31
0.0
  0
LINE
  5
CB
330
1E
100
AcDbEntity
  8
0
100
AcDbLine
 10
385.7499999999998
 20
467.5134499999998
 30
0.0
 11
386.25
 21
468.01345
 31
0.0
  0
LINE
  5
CC
330
1E
100
AcDbEntity
  8
0
100
AcDbLine
 10
385.7499999999998
 20
467.5134499999998
 30
0.0
 11
385.7499999999998
 21
468.01345
 31
0.0
  0
LINE
  5
CD
330
1E
100
AcDbEntity
  8
0
100
AcDbLine
 10
362.917703647528
 20
467.5134499999998
 30
0.0
 11
385.7499999999998
 21
467.5134499999998
 31
0.0
  0
LINE
  5
CE
330
1E
100
AcDbEntity
  8
0
100
AcDbLine
 10
141.25
 20
471.3134499999998
 30
0.0
 11
141.25
 21
475.71345
 31
0.0
  0
LINE
  5
CF
330
1E
100
AcDbEntity
  8
0
100
AcDbLine
 10
141.25
 20
471.3134499999998
 30
0.0
 11
141.25
 21
466.5134499999998
 31
0.0
  0
LINE
  5
D0
330
1E
100
AcDbEntity
  8
0
100
AcDbLine
 10
141.25
 20
475.71345
 30
0.0
 11
141.25
 21
479.6134499999998
 31
0.0
  0
LINE
  5
D1
330
1E
100
AcDbEntity
  8
0
100
AcDbLine
 10
141.25
 20
475.71345
 30
0.0
 11
141.25
 21
471.3134499999998
 31
0.0
  0
LINE
  5
D2
330
1E
100
AcDbEntity
  8
0
100
AcDbLine
 10
169.25
 20
478.31345
 30
0.0
 11
169.25
 21
466.5134499999998
 31
0.0
  0
LINE
  5
D3
330
1E
100
AcDbEntity
  8
0
100
AcDbLine
 10
169.25
 20
478.31345
 30
0.0
 11
169.25
 21
489.21345
 31
0.0
  0
LINE
  5
D4
330
1E
100
AcDbEntity
  8
0
100
AcDbLine
 10
168.75
 20
478.41345
 30
0.0
 11
168.75
 21
466.5134499999998
 31
0.0
  0
LINE
  5
D5
330
1E
100
AcDbEntity
  8
0
100
AcDbLine
 10
168.75
 20
478.41345
 30
0.0
 11
168.75
 21
489.4134499999998
 31
0.0
  0
LINE
  5
D6
330
1E
100
AcDbEntity
  8
0
100
AcDbLine
 10
141.25
 20
478.31345
 30
0.0
 11
141.25
 21
489.21345
 31
0.0
  0
LINE
  5
D7
330
1E
100
AcDbEntity
  8
0
100
AcDbLine
 10
141.25
 20
478.31345
 30
0.0
 11
141.25
 21
466.5134499999998
 31
0.0
  0
LINE
  5
D8
330
1E
100
AcDbEntity
  8
0
100
AcDbLine
 10
141.25
 20
479.6134499999998
 30
0.0
 11
141.25
 21
482.61345
 31
0.0
  0
LINE
  5
D9
330
1E
100
AcDbEntity
  8
0
100
AcDbLine
 10
141.25
 20
479.6134499999998
 30
0.0
 11
141.25
 21
475.71345
 31
0.0
  0
LINE
  5
DA
330
1E
100
AcDbEntity
  8
0
100
AcDbLine
 10
141.25
 20
482.61345
 30
0.0
 11
141.25
 21
484.41345
 31
0.0
  0
LINE
  5
DB
330
1E
100
AcDbEntity
  8
0
100
AcDbLine
 10
141.25
 20
482.61345
 30
0.0
 11
141.25
 21
479.6134499999998
 31
0.0
  0
LINE
  5
DC
330
1E
100
AcDbEntity
  8
0
100
AcDbLine
 10
141.7499999999999
 20
478.41345
 30
0.0
 11
141.7499999999999
 21
489.4134499999998
 31
0.0
  0
LINE
  5
DD
330
1E
100
AcDbEntity
  8
0
100
AcDbLine
 10
141.7499999999999
 20
478.41345
 30
0.0
 11
141.7499999999999
 21
466.5134499999998
 31
0.0
  0
LINE
  5
DE
330
1E
100
AcDbEntity
  8
0
100
AcDbLine
 10
205.25
 20
468.01345
 30
0.0
 11
349.589799656162
 21
468.01345
 31
0.0
  0
LINE
  5
DF
330
1E
100
AcDbEntity
  8
0
100
AcDbLine
 10
386.25
 20
468.01345
 30
0.0
 11
386.25
 21
529.01345
 31
0.0
  0
LINE
  5
E0
330
1E
100
AcDbEntity
  8
0
100
AcDbLine
 10
362.9159984648758
 20
468.01345
 30
0.0
 11
385.7499999999998
 21
468.01345
 31
0.0
  0
LINE
  5
E1
330
1E
100
AcDbEntity
  8
0
100
AcDbLine
 10
255.25
 20
481.01345
 30
0.0
 11
259.75
 21
481.61345
 31
0.0
  0
LINE
  5
E2
330
1E
100
AcDbEntity
  8
0
100
AcDbLine
 10
345.25
 20
476.0134499999998
 30
0.0
 11
347.1499999999998
 21
476.0134499999998
 31
0.0
  0
LINE
  5
E3
330
1E
100
AcDbEntity
  8
0
100
AcDbLine
 10
343.55
 20
476.0134499999998
 30
0.0
 11
345.75
 21
476.0134499999998
 31
0.0
  0
LINE
  5
E4
330
1E
100
AcDbEntity
  8
0
100
AcDbLine
 10
348.55
 20
476.0134499999998
 30
0.0
 11
349.562586274618
 21
476.0134499999998
 31
0.0
  0
LINE
  5
E5
330
1E
100
AcDbEntity
  8
0
100
AcDbLine
 10
362.888715542441
 20
476.0134499999998
 30
0.0
 11
363.35
 21
476.0134499999998
 31
0.0
  0
LINE
  5
E6
330
1E
100
AcDbEntity
  8
0
100
AcDbLine
 10
362.888715542441
 20
476.0134499999998
 30
0.0
 11
364.7499999999998
 21
476.0134499999998
 31
0.0
  0
LINE
  5
E7
330
1E
100
AcDbEntity
  8
0
100
AcDbLine
 10
363.35
 20
476.0134499999998
 30
0.0
 11
364.7499999999998
 21
476.0134499999998
 31
0.0
  0
LINE
  5
E8
330
1E
100
AcDbEntity
  8
0
100
AcDbLine
 10
363.35
 20
476.0134499999998
 30
0.0
 11
365.2499999999998
 21
476.0134499999998
 31
0.0
  0
LINE
  5
E9
330
1E
100
AcDbEntity
  8
0
100
AcDbLine
 10
363.35
 20
476.0134499999998
 30
0.0
 11
363.35
 21
521.01345
 31
0.0
  0
LINE
  5
EA
330
1E
100
AcDbEntity
  8
0
100
AcDbLine
 10
364.7499999999998
 20
476.0134499999998
 30
0.0
 11
366.9499999999998
 21
476.0134499999998
 31
0.0
  0
LINE
  5
EB
330
1E
100
AcDbEntity
  8
0
100
AcDbLine
 10
364.7499999999998
 20
476.0134499999998
 30
0.0
 11
364.7499999999998
 21
521.01345
 31
0.0
  0
LINE
  5
EC
330
1E
100
AcDbEntity
  8
0
100
AcDbLine
 10
365.2499999999998
 20
476.0134499999998
 30
0.0
 11
366.35
 21
476.0134499999998
 31
0.0
  0
LINE
  5
ED
330
1E
100
AcDbEntity
  8
0
100
AcDbLine
 10
368.75
 20
476.0134499999998
 30
0.0
 11
368.75
 21
521.01345
 31
0.0
  0
LINE
  5
EE
330
1E
100
AcDbEntity
  8
0
100
AcDbLine
 10
366.9499999999998
 20
476.0134499999998
 30
0.0
 11
368.25
 21
476.0134499999998
 31
0.0
  0
LINE
  5
EF
330
1E
100
AcDbEntity
  8
0
100
AcDbLine
 10
366.35
 20
476.0134499999998
 30
0.0
 11
366.7499999999998
 21
476.0134499999998
 31
0.0
  0
LINE
  5
F0
330
1E
100
AcDbEntity
  8
0
100
AcDbLine
 10
368.25
 20
476.0134499999998
 30
0.0
 11
368.75
 21
476.0134499999998
 31
0.0
  0
LINE
  5
F1
330
1E
100
AcDbEntity
  8
0
100
AcDbLine
 10
347.1499999999998
 20
476.0134499999998
 30
0.0
 11
347.1499999999998
 21
521.01345
 31
0.0
  0
LINE
  5
F2
330
1E
100
AcDbEntity
  8
0
100
AcDbLine
 10
347.1499999999998
 20
476.0134499999998
 30
0.0
 11
349.55
 21
476.0134499999998
 31
0.0
  0
LINE
  5
F3
330
1E
100
AcDbEntity
  8
0
100
AcDbLine
 10
345.75
 20
476.0134499999998
 30
0.0
 11
347.1499999999998
 21
476.0134499999998
 31
0.0
  0
LINE
  5
F4
330
1E
100
AcDbEntity
  8
0
100
AcDbLine
 10
345.75
 20
476.0134499999998
 30
0.0
 11
348.55
 21
476.0134499999998
 31
0.0
  0
LINE
  5
F5
330
1E
100
AcDbEntity
  8
0
100
AcDbLine
 10
345.75
 20
476.0134499999998
 30
0.0
 11
345.75
 21
521.01345
 31
0.0
  0
LINE
  5
F6
330
1E
100
AcDbEntity
  8
0
100
AcDbLine
 10
344.15
 20
476.0134499999998
 30
0.0
 11
345.25
 21
476.0134499999998
 31
0.0
  0
LINE
  5
F7
330
1E
100
AcDbEntity
  8
0
100
AcDbLine
 10
342.2499999999998
 20
476.0134499999998
 30
0.0
 11
343.55
 21
476.0134499999998
 31
0.0
  0
LINE
  5
F8
330
1E
100
AcDbEntity
  8
0
100
AcDbLine
 10
343.75
 20
476.0134499999998
 30
0.0
 11
344.15
 21
476.0134499999998
 31
0.0
  0
LINE
  5
F9
330
1E
100
AcDbEntity
  8
0
100
AcDbLine
 10
341.7499999999999
 20
476.0134499999998
 30
0.0
 11
342.2499999999998
 21
476.0134499999998
 31
0.0
  0
LINE
  5
FA
330
1E
100
AcDbEntity
  8
0
100
AcDbLine
 10
341.7499999999999
 20
476.0134499999998
 30
0.0
 11
341.7499999999999
 21
521.01345
 31
0.0
  0
LINE
  5
FB
330
1E
100
AcDbEntity
  8
0
100
AcDbLine
 10
259.85
 20
481.2134499999998
 30
0.0
 11
264.1499999999999
 21
482.91345
 31
0.0
  0
LINE
  5
FC
330
1E
100
AcDbEntity
  8
0
100
AcDbLine
 10
255.25
 20
480.51345
 30
0.0
 11
259.85
 21
481.2134499999998
 31
0.0
  0
LINE
  5
FD
330
1E
100
AcDbEntity
  8
0
100
AcDbLine
 10
259.75
 20
481.61345
 30
0.0
 11
263.9499999999999
 21
483.3134499999999
 31
0.0
  0
LINE
  5
FE
330
1E
100
AcDbEntity
  8
0
100
AcDbLine
 10
264.1499999999999
 20
482.91345
 30
0.0
 11
267.9499999999999
 21
485.81345
 31
0.0
  0
LINE
  5
FF
330
1E
100
AcDbEntity
  8
0
100
AcDbLine
 10
250.7499999999999
 20
481.61345
 30
0.0
 11
255.25
 21
481.01345
 31
0.0
  0
LINE
  5
100
330
1E
100
AcDbEntity
  8
0
100
AcDbLine
 10
250.6499999999999
 20
481.2134499999998
 30
0.0
 11
255.25
 21
480.51345
 31
0.0
  0
LINE
  5
101
330
1E
100
AcDbEntity
  8
0
100
AcDbLine
 10
246.3499999999999
 20
482.91345
 30
0.0
 11
250.6499999999999
 21
481.2134499999998
 31
0.0
  0
LINE
  5
102
330
1E
100
AcDbEntity
  8
0
100
AcDbLine
 10
385.7499999999998
 20
468.01345
 30
0.0
 11
385.7499999999998
 21
529.01345
 31
0.0
  0
LINE
  5
103
330
1E
100
AcDbEntity
  8
0
100
AcDbLine
 10
385.7499999999998
 20
468.01345
 30
0.0
 11
386.25
 21
468.01345
 31
0.0
  0
LINE
  5
104
330
1E
100
AcDbEntity
  8
0
100
AcDbLine
 10
385.7499999999998
 20
468.01345
 30
0.0
 11
385.7499999999998
 21
467.5134499999998
 31
0.0
  0
LINE
  5
105
330
1E
100
AcDbEntity
  8
0
100
AcDbLine
 10
169.25
 20
468.01345
 30
0.0
 11
205.25
 21
468.01345
 31
0.0
  0
LINE
  5
106
330
1E
100
AcDbEntity
  8
0
100
AcDbLine
 10
169.25
 20
467.5134499999998
 30
0.0
 11
205.25
 21
467.5134499999998
 31
0.0
  0
LINE
  5
107
330
1E
100
AcDbEntity
  8
0
100
AcDbLine
 10
59.85
 20
481.2134499999998
 30
0.0
 11
64.15
 21
482.91345
 31
0.0
  0
LINE
  5
108
330
1E
100
AcDbEntity
  8
0
100
AcDbLine
 10
64.15
 20
482.91345
 30
0.0
 11
67.95
 21
485.81345
 31
0.0
  0
LINE
  5
109
330
1E
100
AcDbEntity
  8
0
100
AcDbLine
 10
50.65
 20
481.2134499999998
 30
0.0
 11
55.25
 21
480.51345
 31
0.0
  0
LINE
  5
10A
330
1E
100
AcDbEntity
  8
0
100
AcDbLine
 10
63.95
 20
483.3134499999999
 30
0.0
 11
67.65
 21
486.11345
 31
0.0
  0
LINE
  5
10B
330
1E
100
AcDbEntity
  8
0
100
AcDbLine
 10
67.65
 20
486.11345
 30
0.0
 11
70.45
 21
489.81345
 31
0.0
  0
LINE
  5
10C
330
1E
100
AcDbEntity
  8
0
100
AcDbLine
 10
46.55
 20
483.3134499999999
 30
0.0
 11
50.75
 21
481.61345
 31
0.0
  0
LINE
  5
10D
330
1E
100
AcDbEntity
  8
0
100
AcDbLine
 10
42.85
 20
486.11345
 30
0.0
 11
46.55
 21
483.3134499999999
 31
0.0
  0
LINE
  5
10E
330
1E
100
AcDbEntity
  8
0
100
AcDbLine
 10
141.25
 20
484.41345
 30
0.0
 11
141.25
 21
485.01345
 31
0.0
  0
LINE
  5
10F
330
1E
100
AcDbEntity
  8
0
100
AcDbLine
 10
141.25
 20
484.41345
 30
0.0
 11
141.25
 21
482.61345
 31
0.0
  0
LINE
  5
110
330
1E
100
AcDbEntity
  8
0
100
AcDbLine
 10
141.25
 20
485.01345
 30
0.0
 11
141.25
 21
484.41345
 31
0.0
  0
LINE
  5
111
330
1E
100
AcDbEntity
  8
0
100
AcDbLine
 10
263.9499999999999
 20
483.3134499999999
 30
0.0
 11
267.6499999999999
 21
486.11345
 31
0.0
  0
LINE
  5
112
330
1E
100
AcDbEntity
  8
0
100
AcDbLine
 10
267.9499999999999
 20
485.81345
 30
0.0
 11
270.85
 21
489.61345
 31
0.0
  0
LINE
  5
113
330
1E
100
AcDbEntity
  8
0
100
AcDbLine
 10
246.55
 20
483.3134499999999
 30
0.0
 11
250.7499999999999
 21
481.61345
 31
0.0
  0
LINE
  5
114
330
1E
100
AcDbEntity
  8
0
100
AcDbLine
 10
267.6499999999999
 20
486.11345
 30
0.0
 11
270.4499999999999
 21
489.81345
 31
0.0
  0
LINE
  5
115
330
1E
100
AcDbEntity
  8
0
100
AcDbLine
 10
242.85
 20
486.11345
 30
0.0
 11
246.55
 21
483.3134499999999
 31
0.0
  0
LINE
  5
116
330
1E
100
AcDbEntity
  8
0
100
AcDbLine
 10
242.5499999999999
 20
485.81345
 30
0.0
 11
246.3499999999999
 21
482.91345
 31
0.0
  0
LINE
  5
117
330
1E
100
AcDbEntity
  8
0
100
AcDbLine
 10
141.25
 20
485.01345
 30
0.0
 11
141.25
 21
512.01345
 31
0.0
  0
LINE
  5
118
330
1E
100
AcDbEntity
  8
0
100
AcDbLine
 10
70.84999999999998
 20
489.61345
 30
0.0
 11
72.54999999999999
 21
493.91345
 31
0.0
  0
LINE
  5
119
330
1E
100
AcDbEntity
  8
0
100
AcDbLine
 10
141.25
 20
489.21345
 30
0.0
 11
141.25
 21
498.61345
 31
0.0
  0
LINE
  5
11A
330
1E
100
AcDbEntity
  8
0
100
AcDbLine
 10
141.25
 20
489.21345
 30
0.0
 11
141.25
 21
478.31345
 31
0.0
  0
LINE
  5
11B
330
1E
100
AcDbEntity
  8
0
100
AcDbLine
 10
169.25
 20
489.21345
 30
0.0
 11
169.25
 21
478.31345
 31
0.0
  0
LINE
  5
11C
330
1E
100
AcDbEntity
  8
0
100
AcDbLine
 10
169.25
 20
489.21345
 30
0.0
 11
169.25
 21
498.61345
 31
0.0
  0
LINE
  5
11D
330
1E
100
AcDbEntity
  8
0
100
AcDbLine
 10
270.85
 20
489.61345
 30
0.0
 11
272.55
 21
493.91345
 31
0.0
  0
LINE
  5
11E
330
1E
100
AcDbEntity
  8
0
100
AcDbLine
 10
239.65
 20
489.61345
 30
0.0
 11
242.5499999999999
 21
485.81345
 31
0.0
  0
LINE
  5
11F
330
1E
100
AcDbEntity
  8
0
100
AcDbLine
 10
168.75
 20
489.4134499999998
 30
0.0
 11
168.75
 21
478.41345
 31
0.0
  0
LINE
  5
120
330
1E
100
AcDbEntity
  8
0
100
AcDbLine
 10
168.75
 20
489.4134499999998
 30
0.0
 11
168.75
 21
499.0134499999999
 31
0.0
  0
LINE
  5
121
330
1E
100
AcDbEntity
  8
0
100
AcDbLine
 10
141.7499999999999
 20
489.4134499999998
 30
0.0
 11
141.7499999999999
 21
499.0134499999999
 31
0.0
  0
LINE
  5
122
330
1E
100
AcDbEntity
  8
0
100
AcDbLine
 10
141.7499999999999
 20
489.4134499999998
 30
0.0
 11
141.7499999999999
 21
478.41345
 31
0.0
  0
LINE
  5
123
330
1E
100
AcDbEntity
  8
0
100
AcDbLine
 10
368.75
 20
487.567021428571
 30
0.0
 11
370.4499999999999
 21
489.81345
 31
0.0
  0
LINE
  5
124
330
1E
100
AcDbEntity
  8
0
100
AcDbLine
 10
370.85
 20
489.61345
 30
0.0
 11
372.55
 21
493.91345
 31
0.0
  0
LINE
  5
125
330
1E
100
AcDbEntity
  8
0
100
AcDbLine
 10
368.75
 20
486.861725862069
 30
0.0
 11
370.85
 21
489.61345
 31
0.0
  0
LINE
  5
126
330
1E
100
AcDbEntity
  8
0
100
AcDbLine
 10
339.6499999999998
 20
489.61345
 30
0.0
 11
341.7499999999999
 21
486.861725862069
 31
0.0
  0
LINE
  5
127
330
1E
100
AcDbEntity
  8
0
100
AcDbLine
 10
67.95
 20
485.81345
 30
0.0
 11
70.84999999999998
 21
489.61345
 31
0.0
  0
LINE
  5
128
330
1E
100
AcDbEntity
  8
0
100
AcDbLine
 10
46.35
 20
482.91345
 30
0.0
 11
50.65
 21
481.2134499999998
 31
0.0
  0
LINE
  5
129
330
1E
100
AcDbEntity
  8
0
100
AcDbLine
 10
42.54999999999999
 20
485.81345
 30
0.0
 11
46.35
 21
482.91345
 31
0.0
  0
LINE
  5
12A
330
1E
100
AcDbEntity
  8
0
100
AcDbLine
 10
70.45
 20
489.81345
 30
0.0
 11
72.15
 21
494.01345
 31
0.0
  0
LINE
  5
12B
330
1E
100
AcDbEntity
  8
0
100
AcDbLine
 10
47.25
 20
494.5134499999999
 30
0.0
 11
48.55
 21
494.5134499999999
 31
0.0
  0
LINE
  5
12C
330
1E
100
AcDbEntity
  8
0
100
AcDbLine
 10
48.55
 20
494.5134499999999
 30
0.0
 11
49.64999999999999
 21
494.5134499999999
 31
0.0
  0
LINE
  5
12D
330
1E
100
AcDbEntity
  8
0
100
AcDbLine
 10
49.64999999999999
 20
494.5134499999999
 30
0.0
 11
50.45
 21
494.5134499999999
 31
0.0
  0
LINE
  5
12E
330
1E
100
AcDbEntity
  8
0
100
AcDbLine
 10
59.75
 20
494.5134499999999
 30
0.0
 11
60.25
 21
495.0134499999998
 31
0.0
  0
LINE
  5
12F
330
1E
100
AcDbEntity
  8
0
100
AcDbLine
 10
50.45
 20
494.5134499999999
 30
0.0
 11
50.75
 21
494.5134499999999
 31
0.0
  0
LINE
  5
130
330
1E
100
AcDbEntity
  8
0
100
AcDbLine
 10
50.75
 20
494.5134499999999
 30
0.0
 11
59.75
 21
494.5134499999999
 31
0.0
  0
LINE
  5
131
330
1E
100
AcDbEntity
  8
0
100
AcDbLine
 10
72.15
 20
494.01345
 30
0.0
 11
72.75
 21
498.51345
 31
0.0
  0
LINE
  5
132
330
1E
100
AcDbEntity
  8
0
100
AcDbLine
 10
40.04999999999999
 20
489.81345
 30
0.0
 11
42.85
 21
486.11345
 31
0.0
  0
LINE
  5
133
330
1E
100
AcDbEntity
  8
0
100
AcDbLine
 10
38.35
 20
494.01345
 30
0.0
 11
40.04999999999999
 21
489.81345
 31
0.0
  0
LINE
  5
134
330
1E
100
AcDbEntity
  8
0
100
AcDbLine
 10
59.75
 20
502.51345
 30
0.0
 11
60.25
 21
502.01345
 31
0.0
  0
LINE
  5
135
330
1E
100
AcDbEntity
  8
0
100
AcDbLine
 10
60.25
 20
502.01345
 30
0.0
 11
60.25
 21
495.0134499999998
 31
0.0
  0
LINE
  5
136
330
1E
100
AcDbEntity
  8
0
100
AcDbLine
 10
60.25
 20
495.0134499999998
 30
0.0
 11
60.25
 21
502.01345
 31
0.0
  0
LINE
  5
137
330
1E
100
AcDbEntity
  8
0
100
AcDbLine
 10
38.28333333333329
 20
502.51345
 30
0.0
 11
38.35
 21
503.0134499999999
 31
0.0
  0
LINE
  5
138
330
1E
100
AcDbEntity
  8
0
100
AcDbLine
 10
38.28333333333329
 20
494.5134499999999
 30
0.0
 11
38.35
 21
494.01345
 31
0.0
  0
LINE
  5
139
330
1E
100
AcDbEntity
  8
0
100
AcDbLine
 10
37.95
 20
493.91345
 30
0.0
 11
39.64999999999999
 21
489.61345
 31
0.0
  0
LINE
  5
13A
330
1E
100
AcDbEntity
  8
0
100
AcDbLine
 10
38.35
 20
503.0134499999999
 30
0.0
 11
40.04999999999999
 21
507.21345
 31
0.0
  0
LINE
  5
13B
330
1E
100
AcDbEntity
  8
0
100
AcDbLine
 10
42.85
 20
510.91345
 30
0.0
 11
46.55
 21
513.71345
 31
0.0
  0
LINE
  5
13C
330
1E
100
AcDbEntity
  8
0
100
AcDbLine
 10
40.04999999999999
 20
507.21345
 30
0.0
 11
42.85
 21
510.91345
 31
0.0
  0
LINE
  5
13D
330
1E
100
AcDbEntity
  8
0
100
AcDbLine
 10
42.54999999999999
 20
511.21345
 30
0.0
 11
46.35
 21
514.1134499999998
 31
0.0
  0
LINE
  5
13E
330
1E
100
AcDbEntity
  8
0
100
AcDbLine
 10
39.64999999999999
 20
507.41345
 30
0.0
 11
42.54999999999999
 21
511.21345
 31
0.0
  0
LINE
  5
13F
330
1E
100
AcDbEntity
  8
0
100
AcDbLine
 10
37.95
 20
503.11345
 30
0.0
 11
39.64999999999999
 21
507.41345
 31
0.0
  0
LINE
  5
140
330
1E
100
AcDbEntity
  8
0
100
AcDbLine
 10
67.65
 20
510.91345
 30
0.0
 11
70.45
 21
507.21345
 31
0.0
  0
LINE
  5
141
330
1E
100
AcDbEntity
  8
0
100
AcDbLine
 10
70.45
 20
507.21345
 30
0.0
 11
72.15
 21
503.0134499999999
 31
0.0
  0
LINE
  5
142
330
1E
100
AcDbEntity
  8
0
100
AcDbLine
 10
46.55
 20
513.71345
 30
0.0
 11
50.75
 21
515.41345
 31
0.0
  0
LINE
  5
143
330
1E
100
AcDbEntity
  8
0
100
AcDbLine
 10
50.75
 20
515.41345
 30
0.0
 11
55.25
 21
516.01345
 31
0.0
  0
LINE
  5
144
330
1E
100
AcDbEntity
  8
0
100
AcDbLine
 10
59.75
 20
515.41345
 30
0.0
 11
63.95
 21
513.71345
 31
0.0
  0
LINE
  5
145
330
1E
100
AcDbEntity
  8
0
100
AcDbLine
 10
63.95
 20
513.71345
 30
0.0
 11
67.65
 21
510.91345
 31
0.0
  0
LINE
  5
146
330
1E
100
AcDbEntity
  8
0
100
AcDbLine
 10
64.15
 20
514.1134499999998
 30
0.0
 11
67.95
 21
511.21345
 31
0.0
  0
LINE
  5
147
330
1E
100
AcDbEntity
  8
0
100
AcDbLine
 10
67.95
 20
511.21345
 30
0.0
 11
70.84999999999998
 21
507.41345
 31
0.0
  0
LINE
  5
148
330
1E
100
AcDbEntity
  8
0
100
AcDbLine
 10
72.15
 20
503.0134499999999
 30
0.0
 11
72.75
 21
498.51345
 31
0.0
  0
LINE
  5
149
330
1E
100
AcDbEntity
  8
0
100
AcDbLine
 10
70.84999999999998
 20
507.41345
 30
0.0
 11
72.54999999999999
 21
503.11345
 31
0.0
  0
LINE
  5
14A
330
1E
100
AcDbEntity
  8
0
100
AcDbLine
 10
59.85
 20
515.81345
 30
0.0
 11
64.15
 21
514.1134499999998
 31
0.0
  0
LINE
  5
14B
330
1E
100
AcDbEntity
  8
0
100
AcDbLine
 10
72.54999999999999
 20
503.11345
 30
0.0
 11
73.25
 21
498.51345
 31
0.0
  0
LINE
  5
14C
330
1E
100
AcDbEntity
  8
0
100
AcDbLine
 10
55.25
 20
516.01345
 30
0.0
 11
59.75
 21
515.41345
 31
0.0
  0
LINE
  5
14D
330
1E
100
AcDbEntity
  8
0
100
AcDbLine
 10
55.25
 20
516.51345
 30
0.0
 11
59.85
 21
515.81345
 31
0.0
  0
LINE
  5
14E
330
1E
100
AcDbEntity
  8
0
100
AcDbLine
 10
50.65
 20
515.81345
 30
0.0
 11
55.25
 21
516.51345
 31
0.0
  0
LINE
  5
14F
330
1E
100
AcDbEntity
  8
0
100
AcDbLine
 10
46.35
 20
514.1134499999998
 30
0.0
 11
50.65
 21
515.81345
 31
0.0
  0
LINE
  5
150
330
1E
100
AcDbEntity
  8
0
100
AcDbLine
 10
37.8586956521739
 20
502.51345
 30
0.0
 11
37.95
 21
503.11345
 31
0.0
  0
LINE
  5
151
330
1E
100
AcDbEntity
  8
0
100
AcDbLine
 10
141.25
 20
498.61345
 30
0.0
 11
141.25
 21
505.9134499999998
 31
0.0
  0
LINE
  5
152
330
1E
100
AcDbEntity
  8
0
100
AcDbLine
 10
141.25
 20
498.61345
 30
0.0
 11
141.25
 21
489.21345
 31
0.0
  0
LINE
  5
153
330
1E
100
AcDbEntity
  8
0
100
AcDbLine
 10
141.25
 20
505.9134499999998
 30
0.0
 11
141.25
 21
510.4134499999998
 31
0.0
  0
LINE
  5
154
330
1E
100
AcDbEntity
  8
0
100
AcDbLine
 10
141.25
 20
505.9134499999998
 30
0.0
 11
141.25
 21
498.61345
 31
0.0
  0
LINE
  5
155
330
1E
100
AcDbEntity
  8
0
100
AcDbLine
 10
141.7499999999999
 20
499.0134499999999
 30
0.0
 11
141.7499999999999
 21
506.31345
 31
0.0
  0
LINE
  5
156
330
1E
100
AcDbEntity
  8
0
100
AcDbLine
 10
141.7499999999999
 20
499.0134499999999
 30
0.0
 11
141.7499999999999
 21
489.4134499999998
 31
0.0
  0
LINE
  5
157
330
1E
100
AcDbEntity
  8
0
100
AcDbLine
 10
141.25
 20
510.4134499999998
 30
0.0
 11
141.25
 21
512.01345
 31
0.0
  0
LINE
  5
158
330
1E
100
AcDbEntity
  8
0
100
AcDbLine
 10
141.25
 20
510.4134499999998
 30
0.0
 11
141.25
 21
505.9134499999998
 31
0.0
  0
LINE
  5
159
330
1E
100
AcDbEntity
  8
0
100
AcDbLine
 10
141.25
 20
512.01345
 30
0.0
 11
141.7499999999999
 21
512.51345
 31
0.0
  0
LINE
  5
15A
330
1E
100
AcDbEntity
  8
0
100
AcDbLine
 10
141.25
 20
512.01345
 30
0.0
 11
141.25
 21
510.4134499999998
 31
0.0
  0
LINE
  5
15B
330
1E
100
AcDbEntity
  8
0
100
AcDbLine
 10
141.7499999999999
 20
506.31345
 30
0.0
 11
141.7499999999999
 21
510.81345
 31
0.0
  0
LINE
  5
15C
330
1E
100
AcDbEntity
  8
0
100
AcDbLine
 10
141.7499999999999
 20
506.31345
 30
0.0
 11
141.7499999999999
 21
499.0134499999999
 31
0.0
  0
LINE
  5
15D
330
1E
100
AcDbEntity
  8
0
100
AcDbLine
 10
149.2499999999999
 20
512.51345
 30
0.0
 11
149.2499999999999
 21
517.51345
 31
0.0
  0
LINE
  5
15E
330
1E
100
AcDbEntity
  8
0
100
AcDbLine
 10
161.25
 20
512.51345
 30
0.0
 11
161.25
 21
517.51345
 31
0.0
  0
LINE
  5
15F
330
1E
100
AcDbEntity
  8
0
100
AcDbLine
 10
155.25
 20
512.51345
 30
0.0
 11
168.75
 21
512.51345
 31
0.0
  0
LINE
  5
160
330
1E
100
AcDbEntity
  8
0
100
AcDbLine
 10
141.7499999999999
 20
510.81345
 30
0.0
 11
141.7499999999999
 21
512.51345
 31
0.0
  0
LINE
  5
161
330
1E
100
AcDbEntity
  8
0
100
AcDbLine
 10
141.7499999999999
 20
510.81345
 30
0.0
 11
141.7499999999999
 21
506.31345
 31
0.0
  0
LINE
  5
162
330
1E
100
AcDbEntity
  8
0
100
AcDbLine
 10
147.682
 20
517.51345
 30
0.0
 11
149.926
 21
517.51345
 31
0.0
  0
LINE
  5
163
330
1E
100
AcDbEntity
  8
0
100
AcDbLine
 10
147.682
 20
517.51345
 30
0.0
 11
149.2499999999999
 21
517.51345
 31
0.0
  0
LINE
  5
164
330
1E
100
AcDbEntity
  8
0
100
AcDbLine
 10
145.966
 20
517.51345
 30
0.0
 11
147.682
 21
517.51345
 31
0.0
  0
LINE
  5
165
330
1E
100
AcDbEntity
  8
0
100
AcDbLine
 10
144.91
 20
517.51345
 30
0.0
 11
145.966
 21
517.51345
 31
0.0
  0
LINE
  5
166
330
1E
100
AcDbEntity
  8
0
100
AcDbLine
 10
144.514
 20
517.51345
 30
0.0
 11
144.91
 21
517.51345
 31
0.0
  0
LINE
  5
167
330
1E
100
AcDbEntity
  8
0
100
AcDbLine
 10
149.926
 20
517.51345
 30
0.0
 11
152.4779999999998
 21
517.51345
 31
0.0
  0
LINE
  5
168
330
1E
100
AcDbEntity
  8
0
100
AcDbLine
 10
152.4779999999998
 20
517.51345
 30
0.0
 11
155.25
 21
517.51345
 31
0.0
  0
LINE
  5
169
330
1E
100
AcDbEntity
  8
0
100
AcDbLine
 10
153.7139999999999
 20
517.51345
 30
0.0
 11
155.25
 21
517.51345
 31
0.0
  0
LINE
  5
16A
330
1E
100
AcDbEntity
  8
0
100
AcDbLine
 10
152.2739999999999
 20
517.51345
 30
0.0
 11
153.7139999999999
 21
517.51345
 31
0.0
  0
LINE
  5
16B
330
1E
100
AcDbEntity
  8
0
100
AcDbLine
 10
151.002
 20
517.51345
 30
0.0
 11
152.2739999999999
 21
517.51345
 31
0.0
  0
LINE
  5
16C
330
1E
100
AcDbEntity
  8
0
100
AcDbLine
 10
150.042
 20
517.51345
 30
0.0
 11
151.002
 21
517.51345
 31
0.0
  0
LINE
  5
16D
330
1E
100
AcDbEntity
  8
0
100
AcDbLine
 10
149.466
 20
517.51345
 30
0.0
 11
150.042
 21
517.51345
 31
0.0
  0
LINE
  5
16E
330
1E
100
AcDbEntity
  8
0
100
AcDbLine
 10
149.2499999999999
 20
517.51345
 30
0.0
 11
149.466
 21
517.51345
 31
0.0
  0
LINE
  5
16F
330
1E
100
AcDbEntity
  8
0
100
AcDbLine
 10
149.2499999999999
 20
517.51345
 30
0.0
 11
149.2499999999999
 21
512.51345
 31
0.0
  0
LINE
  5
170
330
1E
100
AcDbEntity
  8
0
100
AcDbLine
 10
158.022
 20
517.51345
 30
0.0
 11
160.5739999999999
 21
517.51345
 31
0.0
  0
LINE
  5
171
330
1E
100
AcDbEntity
  8
0
100
AcDbLine
 10
155.25
 20
517.51345
 30
0.0
 11
156.786
 21
517.51345
 31
0.0
  0
LINE
  5
172
330
1E
100
AcDbEntity
  8
0
100
AcDbLine
 10
155.25
 20
517.51345
 30
0.0
 11
158.022
 21
517.51345
 31
0.0
  0
LINE
  5
173
330
1E
100
AcDbEntity
  8
0
100
AcDbLine
 10
156.786
 20
517.51345
 30
0.0
 11
158.2259999999999
 21
517.51345
 31
0.0
  0
LINE
  5
174
330
1E
100
AcDbEntity
  8
0
100
AcDbLine
 10
158.2259999999999
 20
517.51345
 30
0.0
 11
159.4979999999999
 21
517.51345
 31
0.0
  0
LINE
  5
175
330
1E
100
AcDbEntity
  8
0
100
AcDbLine
 10
159.4979999999999
 20
517.51345
 30
0.0
 11
160.458
 21
517.51345
 31
0.0
  0
LINE
  5
176
330
1E
100
AcDbEntity
  8
0
100
AcDbLine
 10
160.5739999999999
 20
517.51345
 30
0.0
 11
162.8179999999999
 21
517.51345
 31
0.0
  0
LINE
  5
177
330
1E
100
AcDbEntity
  8
0
100
AcDbLine
 10
160.458
 20
517.51345
 30
0.0
 11
161.0339999999998
 21
517.51345
 31
0.0
  0
LINE
  5
178
330
1E
100
AcDbEntity
  8
0
100
AcDbLine
 10
144.25
 20
517.97545
 30
0.0
 11
144.514
 21
517.51345
 31
0.0
  0
LINE
  5
179
330
1E
100
AcDbEntity
  8
0
100
AcDbLine
 10
144.25
 20
517.97545
 30
0.0
 11
144.25
 21
529.05245
 31
0.0
  0
LINE
  5
17A
330
1E
100
AcDbEntity
  8
0
100
AcDbLine
 10
152.4779999999998
 20
529.51345
 30
0.0
 11
155.25
 21
529.51345
 31
0.0
  0
LINE
  5
17B
330
1E
100
AcDbEntity
  8
0
100
AcDbLine
 10
149.926
 20
529.51345
 30
0.0
 11
152.4779999999998
 21
529.51345
 31
0.0
  0
LINE
  5
17C
330
1E
100
AcDbEntity
  8
0
100
AcDbLine
 10
147.682
 20
529.51345
 30
0.0
 11
149.926
 21
529.51345
 31
0.0
  0
LINE
  5
17D
330
1E
100
AcDbEntity
  8
0
100
AcDbLine
 10
145.966
 20
529.51345
 30
0.0
 11
147.682
 21
529.51345
 31
0.0
  0
LINE
  5
17E
330
1E
100
AcDbEntity
  8
0
100
AcDbLine
 10
144.91
 20
529.51345
 30
0.0
 11
145.966
 21
529.51345
 31
0.0
  0
LINE
  5
17F
330
1E
100
AcDbEntity
  8
0
100
AcDbLine
 10
144.514
 20
529.51345
 30
0.0
 11
144.91
 21
529.51345
 31
0.0
  0
LINE
  5
180
330
1E
100
AcDbEntity
  8
0
100
AcDbLine
 10
144.25
 20
529.05245
 30
0.0
 11
144.25
 21
517.97545
 31
0.0
  0
LINE
  5
181
330
1E
100
AcDbEntity
  8
0
100
AcDbLine
 10
144.25
 20
529.05245
 30
0.0
 11
144.514
 21
529.51345
 31
0.0
  0
LINE
  5
182
330
1E
100
AcDbEntity
  8
0
100
AcDbLine
 10
155.25
 20
529.51345
 30
0.0
 11
158.022
 21
529.51345
 31
0.0
  0
LINE
  5
183
330
1E
100
AcDbEntity
  8
0
100
AcDbLine
 10
158.022
 20
529.51345
 30
0.0
 11
160.5739999999999
 21
529.51345
 31
0.0
  0
LINE
  5
184
330
1E
100
AcDbEntity
  8
0
100
AcDbLine
 10
160.5739999999999
 20
529.51345
 30
0.0
 11
162.8179999999999
 21
529.51345
 31
0.0
  0
LINE
  5
185
330
1E
100
AcDbEntity
  8
0
100
AcDbLine
 10
161.0339999999998
 20
517.51345
 30
0.0
 11
161.25
 21
517.51345
 31
0.0
  0
LINE
  5
186
330
1E
100
AcDbEntity
  8
0
100
AcDbLine
 10
162.8179999999999
 20
517.51345
 30
0.0
 11
164.534
 21
517.51345
 31
0.0
  0
LINE
  5
187
330
1E
100
AcDbEntity
  8
0
100
AcDbLine
 10
164.534
 20
517.51345
 30
0.0
 11
165.59
 21
517.51345
 31
0.0
  0
LINE
  5
188
330
1E
100
AcDbEntity
  8
0
100
AcDbLine
 10
162.8179999999999
 20
529.51345
 30
0.0
 11
164.534
 21
529.51345
 31
0.0
  0
LINE
  5
189
330
1E
100
AcDbEntity
  8
0
100
AcDbLine
 10
165.59
 20
517.51345
 30
0.0
 11
165.9859999999999
 21
517.51345
 31
0.0
  0
LINE
  5
18A
330
1E
100
AcDbEntity
  8
0
100
AcDbLine
 10
165.9859999999999
 20
517.51345
 30
0.0
 11
166.25
 21
517.97545
 31
0.0
  0
LINE
  5
18B
330
1E
100
AcDbEntity
  8
0
100
AcDbLine
 10
166.25
 20
529.05245
 30
0.0
 11
166.25
 21
517.97545
 31
0.0
  0
LINE
  5
18C
330
1E
100
AcDbEntity
  8
0
100
AcDbLine
 10
166.25
 20
517.97545
 30
0.0
 11
166.25
 21
529.05245
 31
0.0
  0
LINE
  5
18D
330
1E
100
AcDbEntity
  8
0
100
AcDbLine
 10
164.534
 20
529.51345
 30
0.0
 11
165.59
 21
529.51345
 31
0.0
  0
LINE
  5
18E
330
1E
100
AcDbEntity
  8
0
100
AcDbLine
 10
165.59
 20
529.51345
 30
0.0
 11
165.9859999999999
 21
529.51345
 31
0.0
  0
LINE
  5
18F
330
1E
100
AcDbEntity
  8
0
100
AcDbLine
 10
161.25
 20
517.51345
 30
0.0
 11
161.25
 21
512.51345
 31
0.0
  0
LINE
  5
190
330
1E
100
AcDbEntity
  8
0
100
AcDbLine
 10
161.25
 20
517.51345
 30
0.0
 11
162.8179999999999
 21
517.51345
 31
0.0
  0
LINE
  5
191
330
1E
100
AcDbEntity
  8
0
100
AcDbLine
 10
141.7499999999999
 20
512.51345
 30
0.0
 11
155.25
 21
512.51345
 31
0.0
  0
LINE
  5
192
330
1E
100
AcDbEntity
  8
0
100
AcDbLine
 10
141.7499999999999
 20
512.51345
 30
0.0
 11
141.7499999999999
 21
510.81345
 31
0.0
  0
LINE
  5
193
330
1E
100
AcDbEntity
  8
0
100
AcDbLine
 10
237.7499999999999
 20
498.51345
 30
0.0
 11
238.35
 21
494.01345
 31
0.0
  0
LINE
  5
194
330
1E
100
AcDbEntity
  8
0
100
AcDbLine
 10
237.7499999999999
 20
498.51345
 30
0.0
 11
238.35
 21
503.0134499999999
 31
0.0
  0
LINE
  5
195
330
1E
100
AcDbEntity
  8
0
100
AcDbLine
 10
270.4499999999999
 20
489.81345
 30
0.0
 11
272.1499999999999
 21
494.01345
 31
0.0
  0
LINE
  5
196
330
1E
100
AcDbEntity
  8
0
100
AcDbLine
 10
272.1499999999999
 20
494.01345
 30
0.0
 11
272.2166666666669
 21
494.5134499999999
 31
0.0
  0
LINE
  5
197
330
1E
100
AcDbEntity
  8
0
100
AcDbLine
 10
272.55
 20
493.91345
 30
0.0
 11
272.641304347826
 21
494.5134499999999
 31
0.0
  0
LINE
  5
198
330
1E
100
AcDbEntity
  8
0
100
AcDbLine
 10
240.05
 20
489.81345
 30
0.0
 11
242.85
 21
486.11345
 31
0.0
  0
LINE
  5
199
330
1E
100
AcDbEntity
  8
0
100
AcDbLine
 10
250.7499999999999
 20
494.5134499999999
 30
0.0
 11
309.75
 21
494.5134499999999
 31
0.0
  0
LINE
  5
19A
330
1E
100
AcDbEntity
  8
0
100
AcDbLine
 10
250.7499999999999
 20
494.5134499999999
 30
0.0
 11
259.75
 21
494.5134499999999
 31
0.0
  0
LINE
  5
19B
330
1E
100
AcDbEntity
  8
0
100
AcDbLine
 10
250.2499999999999
 20
495.0134499999998
 30
0.0
 11
310.25
 21
495.0134499999998
 31
0.0
  0
LINE
  5
19C
330
1E
100
AcDbEntity
  8
0
100
AcDbLine
 10
250.2499999999999
 20
495.0134499999998
 30
0.0
 11
250.7499999999999
 21
494.5134499999999
 31
0.0
  0
LINE
  5
19D
330
1E
100
AcDbEntity
  8
0
100
AcDbLine
 10
250.2499999999999
 20
495.0134499999998
 30
0.0
 11
250.2499999999999
 21
502.01345
 31
0.0
  0
LINE
  5
19E
330
1E
100
AcDbEntity
  8
0
100
AcDbLine
 10
309.75
 20
494.5134499999999
 30
0.0
 11
310.25
 21
495.0134499999998
 31
0.0
  0
LINE
  5
19F
330
1E
100
AcDbEntity
  8
0
100
AcDbLine
 10
263.2499999999999
 20
494.5134499999999
 30
0.0
 11
309.75
 21
494.5134499999999
 31
0.0
  0
LINE
  5
1A0
330
1E
100
AcDbEntity
  8
0
100
AcDbLine
 10
261.9499999999999
 20
494.5134499999999
 30
0.0
 11
263.2499999999999
 21
494.5134499999999
 31
0.0
  0
LINE
  5
1A1
330
1E
100
AcDbEntity
  8
0
100
AcDbLine
 10
260.85
 20
494.5134499999999
 30
0.0
 11
261.9499999999999
 21
494.5134499999999
 31
0.0
  0
LINE
  5
1A2
330
1E
100
AcDbEntity
  8
0
100
AcDbLine
 10
310.25
 20
495.0134499999998
 30
0.0
 11
310.25
 21
502.01345
 31
0.0
  0
LINE
  5
1A3
330
1E
100
AcDbEntity
  8
0
100
AcDbLine
 10
260.05
 20
494.5134499999999
 30
0.0
 11
260.85
 21
494.5134499999999
 31
0.0
  0
LINE
  5
1A4
330
1E
100
AcDbEntity
  8
0
100
AcDbLine
 10
259.75
 20
494.5134499999999
 30
0.0
 11
260.05
 21
494.5134499999999
 31
0.0
  0
LINE
  5
1A5
330
1E
100
AcDbEntity
  8
0
100
AcDbLine
 10
238.35
 20
494.01345
 30
0.0
 11
240.05
 21
489.81345
 31
0.0
  0
LINE
  5
1A6
330
1E
100
AcDbEntity
  8
0
100
AcDbLine
 10
237.9499999999999
 20
493.91345
 30
0.0
 11
239.65
 21
489.61345
 31
0.0
  0
LINE
  5
1A7
330
1E
100
AcDbEntity
  8
0
100
AcDbLine
 10
237.25
 20
498.51345
 30
0.0
 11
237.9499999999999
 21
493.91345
 31
0.0
  0
LINE
  5
1A8
330
1E
100
AcDbEntity
  8
0
100
AcDbLine
 10
237.25
 20
498.51345
 30
0.0
 11
237.9499999999999
 21
503.11345
 31
0.0
  0
LINE
  5
1A9
330
1E
100
AcDbEntity
  8
0
100
AcDbLine
 10
349.513265422242
 20
490.51245
 30
0.0
 11
350.624
 21
163.9864499999999
 31
0.0
  0
LINE
  5
1AA
330
1E
100
AcDbEntity
  8
0
100
AcDbLine
 10
349.513265422242
 20
490.51245
 30
0.0
 11
350.624
 21
163.9864499999999
 31
0.0
  0
LINE
  5
1AB
330
1E
100
AcDbEntity
  8
0
100
AcDbLine
 10
355.25
 20
490.51245
 30
0.0
 11
357.85
 21
490.51245
 31
0.0
  0
LINE
  5
1AC
330
1E
100
AcDbEntity
  8
0
100
AcDbLine
 10
357.85
 20
490.51245
 30
0.0
 11
360.25
 21
490.51245
 31
0.0
  0
LINE
  5
1AD
330
1E
100
AcDbEntity
  8
0
100
AcDbLine
 10
362.839268655893
 20
490.51245
 30
0.0
 11
363.35
 21
490.51245
 31
0.0
  0
LINE
  5
1AE
330
1E
100
AcDbEntity
  8
0
100
AcDbLine
 10
362.839268655893
 20
490.51245
 30
0.0
 11
363.9509999999998
 21
164.52645
 31
0.0
  0
LINE
  5
1AF
330
1E
100
AcDbEntity
  8
0
100
AcDbLine
 10
362.839268655893
 20
490.51245
 30
0.0
 11
363.9509999999998
 21
164.52645
 31
0.0
  0
LINE
  5
1B0
330
1E
100
AcDbEntity
  8
0
100
AcDbLine
 10
360.25
 20
490.51245
 30
0.0
 11
362.35
 21
490.51245
 31
0.0
  0
LINE
  5
1B1
330
1E
100
AcDbEntity
  8
0
100
AcDbLine
 10
362.35
 20
490.51245
 30
0.0
 11
363.35
 21
490.51245
 31
0.0
  0
LINE
  5
1B2
330
1E
100
AcDbEntity
  8
0
100
AcDbLine
 10
352.6499999999998
 20
490.51245
 30
0.0
 11
355.25
 21
490.51245
 31
0.0
  0
LINE
  5
1B3
330
1E
100
AcDbEntity
  8
0
100
AcDbLine
 10
350.2499999999998
 20
490.51245
 30
0.0
 11
352.6499999999998
 21
490.51245
 31
0.0
  0
LINE
  5
1B4
330
1E
100
AcDbEntity
  8
0
100
AcDbLine
 10
348.15
 20
490.51245
 30
0.0
 11
350.2499999999998
 21
490.51245
 31
0.0
  0
LINE
  5
1B5
330
1E
100
AcDbEntity
  8
0
100
AcDbLine
 10
348.15
 20
490.51245
 30
0.0
 11
349.513265422242
 21
490.51245
 31
0.0
  0
LINE
  5
1B6
330
1E
100
AcDbEntity
  8
0
100
AcDbLine
 10
347.1499999999998
 20
490.51245
 30
0.0
 11
348.15
 21
490.51245
 31
0.0
  0
LINE
  5
1B7
330
1E
100
AcDbEntity
  8
0
100
AcDbLine
 10
340.05
 20
489.81345
 30
0.0
 11
341.7499999999999
 21
487.567021428571
 31
0.0
  0
LINE
  5
1B8
330
1E
100
AcDbEntity
  8
0
100
AcDbLine
 10
338.35
 20
494.01345
 30
0.0
 11
340.05
 21
489.81345
 31
0.0
  0
LINE
  5
1B9
330
1E
100
AcDbEntity
  8
0
100
AcDbLine
 10
337.95
 20
493.91345
 30
0.0
 11
339.6499999999998
 21
489.61345
 31
0.0
  0
LINE
  5
1BA
330
1E
100
AcDbEntity
  8
0
100
AcDbLine
 10
370.4499999999999
 20
489.81345
 30
0.0
 11
372.1499999999998
 21
494.01345
 31
0.0
  0
LINE
  5
1BB
330
1E
100
AcDbEntity
  8
0
100
AcDbLine
 10
372.1499999999998
 20
494.01345
 30
0.0
 11
372.75
 21
498.51345
 31
0.0
  0
LINE
  5
1BC
330
1E
100
AcDbEntity
  8
0
100
AcDbLine
 10
337.7499999999999
 20
498.51345
 30
0.0
 11
338.35
 21
503.0134499999999
 31
0.0
  0
LINE
  5
1BD
330
1E
100
AcDbEntity
  8
0
100
AcDbLine
 10
337.7499999999999
 20
498.51345
 30
0.0
 11
338.35
 21
494.01345
 31
0.0
  0
LINE
  5
1BE
330
1E
100
AcDbEntity
  8
0
100
AcDbLine
 10
169.25
 20
498.61345
 30
0.0
 11
169.25
 21
489.21345
 31
0.0
  0
LINE
  5
1BF
330
1E
100
AcDbEntity
  8
0
100
AcDbLine
 10
169.25
 20
498.61345
 30
0.0
 11
169.25
 21
505.9134499999998
 31
0.0
  0
LINE
  5
1C0
330
1E
100
AcDbEntity
  8
0
100
AcDbLine
 10
250.7499999999999
 20
502.51345
 30
0.0
 11
309.75
 21
502.51345
 31
0.0
  0
LINE
  5
1C1
330
1E
100
AcDbEntity
  8
0
100
AcDbLine
 10
250.2499999999999
 20
502.01345
 30
0.0
 11
310.25
 21
502.01345
 31
0.0
  0
LINE
  5
1C2
330
1E
100
AcDbEntity
  8
0
100
AcDbLine
 10
250.2499999999999
 20
502.01345
 30
0.0
 11
250.2499999999999
 21
495.0134499999998
 31
0.0
  0
LINE
  5
1C3
330
1E
100
AcDbEntity
  8
0
100
AcDbLine
 10
250.2499999999999
 20
502.01345
 30
0.0
 11
250.7499999999999
 21
502.51345
 31
0.0
  0
LINE
  5
1C4
330
1E
100
AcDbEntity
  8
0
100
AcDbLine
 10
238.35
 20
503.0134499999999
 30
0.0
 11
240.05
 21
507.21345
 31
0.0
  0
LINE
  5
1C5
330
1E
100
AcDbEntity
  8
0
100
AcDbLine
 10
237.9499999999999
 20
503.11345
 30
0.0
 11
239.65
 21
507.41345
 31
0.0
  0
LINE
  5
1C6
330
1E
100
AcDbEntity
  8
0
100
AcDbLine
 10
272.1499999999999
 20
503.0134499999999
 30
0.0
 11
272.2166666666669
 21
502.51345
 31
0.0
  0
LINE
  5
1C7
330
1E
100
AcDbEntity
  8
0
100
AcDbLine
 10
309.75
 20
502.51345
 30
0.0
 11
310.25
 21
502.01345
 31
0.0
  0
LINE
  5
1C8
330
1E
100
AcDbEntity
  8
0
100
AcDbLine
 10
310.25
 20
502.01345
 30
0.0
 11
310.25
 21
495.0134499999998
 31
0.0
  0
LINE
  5
1C9
330
1E
100
AcDbEntity
  8
0
100
AcDbLine
 10
272.55
 20
503.11345
 30
0.0
 11
272.641304347826
 21
502.51345
 31
0.0
  0
LINE
  5
1CA
330
1E
100
AcDbEntity
  8
0
100
AcDbLine
 10
168.75
 20
499.0134499999999
 30
0.0
 11
168.75
 21
489.4134499999998
 31
0.0
  0
LINE
  5
1CB
330
1E
100
AcDbEntity
  8
0
100
AcDbLine
 10
168.75
 20
499.0134499999999
 30
0.0
 11
168.75
 21
506.31345
 31
0.0
  0
LINE
  5
1CC
330
1E
100
AcDbEntity
  8
0
100
AcDbLine
 10
338.35
 20
503.0134499999999
 30
0.0
 11
340.05
 21
507.21345
 31
0.0
  0
LINE
  5
1CD
330
1E
100
AcDbEntity
  8
0
100
AcDbLine
 10
337.95
 20
503.11345
 30
0.0
 11
339.6499999999998
 21
507.41345
 31
0.0
  0
LINE
  5
1CE
330
1E
100
AcDbEntity
  8
0
100
AcDbLine
 10
337.25
 20
498.51345
 30
0.0
 11
337.95
 21
503.11345
 31
0.0
  0
LINE
  5
1CF
330
1E
100
AcDbEntity
  8
0
100
AcDbLine
 10
337.25
 20
498.51345
 30
0.0
 11
337.95
 21
493.91345
 31
0.0
  0
LINE
  5
1D0
330
1E
100
AcDbEntity
  8
0
100
AcDbLine
 10
372.55
 20
493.91345
 30
0.0
 11
373.2499999999998
 21
498.51345
 31
0.0
  0
LINE
  5
1D1
330
1E
100
AcDbEntity
  8
0
100
AcDbLine
 10
372.1499999999998
 20
503.0134499999999
 30
0.0
 11
372.75
 21
498.51345
 31
0.0
  0
LINE
  5
1D2
330
1E
100
AcDbEntity
  8
0
100
AcDbLine
 10
169.25
 20
505.9134499999998
 30
0.0
 11
169.25
 21
498.61345
 31
0.0
  0
LINE
  5
1D3
330
1E
100
AcDbEntity
  8
0
100
AcDbLine
 10
169.25
 20
505.9134499999998
 30
0.0
 11
169.25
 21
510.4134499999998
 31
0.0
  0
LINE
  5
1D4
330
1E
100
AcDbEntity
  8
0
100
AcDbLine
 10
240.05
 20
507.21345
 30
0.0
 11
242.85
 21
510.91345
 31
0.0
  0
LINE
  5
1D5
330
1E
100
AcDbEntity
  8
0
100
AcDbLine
 10
239.65
 20
507.41345
 30
0.0
 11
242.5499999999999
 21
511.21345
 31
0.0
  0
LINE
  5
1D6
330
1E
100
AcDbEntity
  8
0
100
AcDbLine
 10
270.4499999999999
 20
507.21345
 30
0.0
 11
272.1499999999999
 21
503.0134499999999
 31
0.0
  0
LINE
  5
1D7
330
1E
100
AcDbEntity
  8
0
100
AcDbLine
 10
270.85
 20
507.41345
 30
0.0
 11
272.55
 21
503.11345
 31
0.0
  0
LINE
  5
1D8
330
1E
100
AcDbEntity
  8
0
100
AcDbLine
 10
168.75
 20
506.31345
 30
0.0
 11
168.75
 21
499.0134499999999
 31
0.0
  0
LINE
  5
1D9
330
1E
100
AcDbEntity
  8
0
100
AcDbLine
 10
168.75
 20
506.31345
 30
0.0
 11
168.75
 21
510.81345
 31
0.0
  0
LINE
  5
1DA
330
1E
100
AcDbEntity
  8
0
100
AcDbLine
 10
340.05
 20
507.21345
 30
0.0
 11
341.7499999999999
 21
509.4598785714289
 31
0.0
  0
LINE
  5
1DB
330
1E
100
AcDbEntity
  8
0
100
AcDbLine
 10
339.6499999999998
 20
507.41345
 30
0.0
 11
341.7499999999999
 21
510.165174137931
 31
0.0
  0
LINE
  5
1DC
330
1E
100
AcDbEntity
  8
0
100
AcDbLine
 10
368.75
 20
509.4598785714289
 30
0.0
 11
370.4499999999999
 21
507.21345
 31
0.0
  0
LINE
  5
1DD
330
1E
100
AcDbEntity
  8
0
100
AcDbLine
 10
370.4499999999999
 20
507.21345
 30
0.0
 11
372.1499999999998
 21
503.0134499999999
 31
0.0
  0
LINE
  5
1DE
330
1E
100
AcDbEntity
  8
0
100
AcDbLine
 10
168.75
 20
510.81345
 30
0.0
 11
168.75
 21
506.31345
 31
0.0
  0
LINE
  5
1DF
330
1E
100
AcDbEntity
  8
0
100
AcDbLine
 10
168.75
 20
510.81345
 30
0.0
 11
168.75
 21
512.51345
 31
0.0
  0
LINE
  5
1E0
330
1E
100
AcDbEntity
  8
0
100
AcDbLine
 10
169.25
 20
510.4134499999998
 30
0.0
 11
169.25
 21
505.9134499999998
 31
0.0
  0
LINE
  5
1E1
330
1E
100
AcDbEntity
  8
0
100
AcDbLine
 10
169.25
 20
510.4134499999998
 30
0.0
 11
169.25
 21
512.01345
 31
0.0
  0
LINE
  5
1E2
330
1E
100
AcDbEntity
  8
0
100
AcDbLine
 10
169.25
 20
512.01345
 30
0.0
 11
169.25
 21
510.4134499999998
 31
0.0
  0
LINE
  5
1E3
330
1E
100
AcDbEntity
  8
0
100
AcDbLine
 10
168.75
 20
512.51345
 30
0.0
 11
168.75
 21
510.81345
 31
0.0
  0
LINE
  5
1E4
330
1E
100
AcDbEntity
  8
0
100
AcDbLine
 10
168.75
 20
512.51345
 30
0.0
 11
169.25
 21
512.01345
 31
0.0
  0
LINE
  5
1E5
330
1E
100
AcDbEntity
  8
0
100
AcDbLine
 10
205.25
 20
529.01345
 30
0.0
 11
342.75
 21
529.01345
 31
0.0
  0
LINE
  5
1E6
330
1E
100
AcDbEntity
  8
0
100
AcDbLine
 10
242.85
 20
510.91345
 30
0.0
 11
246.55
 21
513.71345
 31
0.0
  0
LINE
  5
1E7
330
1E
100
AcDbEntity
  8
0
100
AcDbLine
 10
242.5499999999999
 20
511.21345
 30
0.0
 11
246.3499999999999
 21
514.1134499999998
 31
0.0
  0
LINE
  5
1E8
330
1E
100
AcDbEntity
  8
0
100
AcDbLine
 10
267.6499999999999
 20
510.91345
 30
0.0
 11
270.4499999999999
 21
507.21345
 31
0.0
  0
LINE
  5
1E9
330
1E
100
AcDbEntity
  8
0
100
AcDbLine
 10
250.7499999999999
 20
515.41345
 30
0.0
 11
255.25
 21
516.01345
 31
0.0
  0
LINE
  5
1EA
330
1E
100
AcDbEntity
  8
0
100
AcDbLine
 10
246.55
 20
513.71345
 30
0.0
 11
250.7499999999999
 21
515.41345
 31
0.0
  0
LINE
  5
1EB
330
1E
100
AcDbEntity
  8
0
100
AcDbLine
 10
246.3499999999999
 20
514.1134499999998
 30
0.0
 11
250.6499999999999
 21
515.81345
 31
0.0
  0
LINE
  5
1EC
330
1E
100
AcDbEntity
  8
0
100
AcDbLine
 10
250.6499999999999
 20
515.81345
 30
0.0
 11
255.25
 21
516.51345
 31
0.0
  0
LINE
  5
1ED
330
1E
100
AcDbEntity
  8
0
100
AcDbLine
 10
259.75
 20
515.41345
 30
0.0
 11
263.9499999999999
 21
513.71345
 31
0.0
  0
LINE
  5
1EE
330
1E
100
AcDbEntity
  8
0
100
AcDbLine
 10
263.9499999999999
 20
513.71345
 30
0.0
 11
267.6499999999999
 21
510.91345
 31
0.0
  0
LINE
  5
1EF
330
1E
100
AcDbEntity
  8
0
100
AcDbLine
 10
255.25
 20
516.01345
 30
0.0
 11
259.75
 21
515.41345
 31
0.0
  0
LINE
  5
1F0
330
1E
100
AcDbEntity
  8
0
100
AcDbLine
 10
255.25
 20
516.51345
 30
0.0
 11
259.85
 21
515.81345
 31
0.0
  0
LINE
  5
1F1
330
1E
100
AcDbEntity
  8
0
100
AcDbLine
 10
259.85
 20
515.81345
 30
0.0
 11
264.1499999999999
 21
514.1134499999998
 31
0.0
  0
LINE
  5
1F2
330
1E
100
AcDbEntity
  8
0
100
AcDbLine
 10
349.55
 20
520.51345
 30
0.0
 11
352.2499999999998
 21
520.51345
 31
0.0
  0
LINE
  5
1F3
330
1E
100
AcDbEntity
  8
0
100
AcDbLine
 10
347.1499999999998
 20
520.51345
 30
0.0
 11
349.55
 21
520.51345
 31
0.0
  0
LINE
  5
1F4
330
1E
100
AcDbEntity
  8
0
100
AcDbLine
 10
349.55
 20
521.0014499999998
 30
0.0
 11
352.2499999999998
 21
521.0314499999998
 31
0.0
  0
LINE
  5
1F5
330
1E
100
AcDbEntity
  8
0
100
AcDbLine
 10
347.1499999999998
 20
521.01345
 30
0.0
 11
349.207142857145
 21
521.01345
 31
0.0
  0
LINE
  5
1F6
330
1E
100
AcDbEntity
  8
0
100
AcDbLine
 10
347.1499999999998
 20
521.01345
 30
0.0
 11
347.1499999999998
 21
476.0134499999998
 31
0.0
  0
LINE
  5
1F7
330
1E
100
AcDbEntity
  8
0
100
AcDbLine
 10
355.25
 20
520.51345
 30
0.0
 11
358.25
 21
520.51345
 31
0.0
  0
LINE
  5
1F8
330
1E
100
AcDbEntity
  8
0
100
AcDbLine
 10
352.2499999999998
 20
520.51345
 30
0.0
 11
355.25
 21
520.51345
 31
0.0
  0
LINE
  5
1F9
330
1E
100
AcDbEntity
  8
0
100
AcDbLine
 10
358.25
 20
520.51345
 30
0.0
 11
360.95
 21
520.51345
 31
0.0
  0
LINE
  5
1FA
330
1E
100
AcDbEntity
  8
0
100
AcDbLine
 10
360.95
 20
520.51345
 30
0.0
 11
363.35
 21
520.51345
 31
0.0
  0
LINE
  5
1FB
330
1E
100
AcDbEntity
  8
0
100
AcDbLine
 10
360.95
 20
521.0014499999998
 30
0.0
 11
363.35
 21
521.08545
 31
0.0
  0
LINE
  5
1FC
330
1E
100
AcDbEntity
  8
0
100
AcDbLine
 10
361.2928571428548
 20
521.01345
 30
0.0
 11
363.35
 21
521.01345
 31
0.0
  0
LINE
  5
1FD
330
1E
100
AcDbEntity
  8
0
100
AcDbLine
 10
358.25
 20
521.01345
 30
0.0
 11
359.870000000005
 21
521.01345
 31
0.0
  0
LINE
  5
1FE
330
1E
100
AcDbEntity
  8
0
100
AcDbLine
 10
355.25
 20
521.01345
 30
0.0
 11
358.25
 21
521.01345
 31
0.0
  0
LINE
  5
1FF
330
1E
100
AcDbEntity
  8
0
100
AcDbLine
 10
364.7499999999998
 20
521.01345
 30
0.0
 11
366.9499999999998
 21
521.01345
 31
0.0
  0
LINE
  5
200
330
1E
100
AcDbEntity
  8
0
100
AcDbLine
 10
364.7499999999998
 20
521.01345
 30
0.0
 11
364.7499999999998
 21
476.0134499999998
 31
0.0
  0
LINE
  5
201
330
1E
100
AcDbEntity
  8
0
100
AcDbLine
 10
366.9499999999998
 20
521.01345
 30
0.0
 11
368.25
 21
521.01345
 31
0.0
  0
LINE
  5
202
330
1E
100
AcDbEntity
  8
0
100
AcDbLine
 10
363.35
 20
521.01345
 30
0.0
 11
363.35
 21
476.0134499999998
 31
0.0
  0
LINE
  5
203
330
1E
100
AcDbEntity
  8
0
100
AcDbLine
 10
363.35
 20
521.01345
 30
0.0
 11
364.7499999999998
 21
521.01345
 31
0.0
  0
LINE
  5
204
330
1E
100
AcDbEntity
  8
0
100
AcDbLine
 10
350.6299999999948
 20
521.01345
 30
0.0
 11
352.2499999999998
 21
521.01345
 31
0.0
  0
LINE
  5
205
330
1E
100
AcDbEntity
  8
0
100
AcDbLine
 10
352.2499999999998
 20
521.01345
 30
0.0
 11
355.25
 21
521.01345
 31
0.0
  0
LINE
  5
206
330
1E
100
AcDbEntity
  8
0
100
AcDbLine
 10
345.75
 20
521.01345
 30
0.0
 11
347.1499999999998
 21
521.01345
 31
0.0
  0
LINE
  5
207
330
1E
100
AcDbEntity
  8
0
100
AcDbLine
 10
345.75
 20
521.01345
 30
0.0
 11
345.75
 21
476.0134499999998
 31
0.0
  0
LINE
  5
208
330
1E
100
AcDbEntity
  8
0
100
AcDbLine
 10
343.55
 20
521.01345
 30
0.0
 11
345.75
 21
521.01345
 31
0.0
  0
LINE
  5
209
330
1E
100
AcDbEntity
  8
0
100
AcDbLine
 10
342.2499999999998
 20
521.01345
 30
0.0
 11
343.55
 21
521.01345
 31
0.0
  0
LINE
  5
20A
330
1E
100
AcDbEntity
  8
0
100
AcDbLine
 10
344.15
 20
521.07745
 30
0.0
 11
345.25
 21
521.1084499999998
 31
0.0
  0
LINE
  5
20B
330
1E
100
AcDbEntity
  8
0
100
AcDbLine
 10
344.15
 20
521.07745
 30
0.0
 11
347.2818352059919
 21
521.08083576779
 31
0.0
  0
LINE
  5
20C
330
1E
100
AcDbEntity
  8
0
100
AcDbLine
 10
343.75
 20
521.0894500000001
 30
0.0
 11
344.15
 21
521.05145
 31
0.0
  0
LINE
  5
20D
330
1E
100
AcDbEntity
  8
0
100
AcDbLine
 10
343.75
 20
521.0894500000001
 30
0.0
 11
344.15
 21
521.07745
 31
0.0
  0
LINE
  5
20E
330
1E
100
AcDbEntity
  8
0
100
AcDbLine
 10
344.15
 20
521.05145
 30
0.0
 11
345.25
 21
521.0204499999998
 31
0.0
  0
LINE
  5
20F
330
1E
100
AcDbEntity
  8
0
100
AcDbLine
 10
345.25
 20
521.0204499999998
 30
0.0
 11
347.1499999999998
 21
521.04445
 31
0.0
  0
LINE
  5
210
330
1E
100
AcDbEntity
  8
0
100
AcDbLine
 10
345.25
 20
521.0204499999998
 30
0.0
 11
348.388424821004
 21
521.0421051312648
 31
0.0
  0
LINE
  5
211
330
1E
100
AcDbEntity
  8
0
100
AcDbLine
 10
344.5758064516148
 20
521.0894500000001
 30
0.0
 11
346.819565217386
 21
521.0894500000001
 31
0.0
  0
LINE
  5
212
330
1E
100
AcDbEntity
  8
0
100
AcDbLine
 10
347.1499999999998
 20
521.08545
 30
0.0
 11
349.55
 21
521.0014499999998
 31
0.0
  0
LINE
  5
213
330
1E
100
AcDbEntity
  8
0
100
AcDbLine
 10
345.25
 20
521.1084499999998
 30
0.0
 11
347.1499999999998
 21
521.08545
 31
0.0
  0
LINE
  5
214
330
1E
100
AcDbEntity
  8
0
100
AcDbLine
 10
347.1499999999998
 20
521.04445
 30
0.0
 11
348.4279220779229
 21
521.0407227272731
 31
0.0
  0
LINE
  5
215
330
1E
100
AcDbEntity
  8
0
100
AcDbLine
 10
347.1499999999998
 20
521.04445
 30
0.0
 11
348.1609589041108
 21
521.050066438356
 31
0.0
  0
LINE
  5
216
330
1E
100
AcDbEntity
  8
0
100
AcDbLine
 10
358.25
 20
521.0314499999998
 30
0.0
 11
360.95
 21
521.0014499999998
 31
0.0
  0
LINE
  5
217
330
1E
100
AcDbEntity
  8
0
100
AcDbLine
 10
365.2499999999998
 20
521.0204499999998
 30
0.0
 11
366.35
 21
521.05145
 31
0.0
  0
LINE
  5
218
330
1E
100
AcDbEntity
  8
0
100
AcDbLine
 10
355.25
 20
521.04445
 30
0.0
 11
358.25
 21
521.0314499999998
 31
0.0
  0
LINE
  5
219
330
1E
100
AcDbEntity
  8
0
100
AcDbLine
 10
355.25
 20
522.01145
 30
0.0
 11
358.4499999999998
 21
522.04145
 31
0.0
  0
LINE
  5
21A
330
1E
100
AcDbEntity
  8
0
100
AcDbLine
 10
358.4499999999998
 20
522.04145
 30
0.0
 11
361.45
 21
522.05245
 31
0.0
  0
LINE
  5
21B
330
1E
100
AcDbEntity
  8
0
100
AcDbLine
 10
362.1115751789959
 20
521.0421051312648
 30
0.0
 11
365.2499999999998
 21
521.0204499999998
 31
0.0
  0
LINE
  5
21C
330
1E
100
AcDbEntity
  8
0
100
AcDbLine
 10
363.218164794008
 20
521.08083576779
 30
0.0
 11
366.35
 21
521.07745
 31
0.0
  0
LINE
  5
21D
330
1E
100
AcDbEntity
  8
0
100
AcDbLine
 10
362.339041095889
 20
521.050066438356
 30
0.0
 11
363.35
 21
521.04445
 31
0.0
  0
LINE
  5
21E
330
1E
100
AcDbEntity
  8
0
100
AcDbLine
 10
363.35
 20
521.08545
 30
0.0
 11
365.2499999999998
 21
521.1084499999998
 31
0.0
  0
LINE
  5
21F
330
1E
100
AcDbEntity
  8
0
100
AcDbLine
 10
363.680434782614
 20
521.0894500000001
 30
0.0
 11
365.924193548385
 21
521.0894500000001
 31
0.0
  0
LINE
  5
220
330
1E
100
AcDbEntity
  8
0
100
AcDbLine
 10
366.35
 20
521.07745
 30
0.0
 11
366.7499999999998
 21
521.0894500000001
 31
0.0
  0
LINE
  5
221
330
1E
100
AcDbEntity
  8
0
100
AcDbLine
 10
366.35
 20
521.05145
 30
0.0
 11
366.7499999999998
 21
521.0894500000001
 31
0.0
  0
LINE
  5
222
330
1E
100
AcDbEntity
  8
0
100
AcDbLine
 10
365.2499999999998
 20
521.1084499999998
 30
0.0
 11
366.35
 21
521.07745
 31
0.0
  0
LINE
  5
223
330
1E
100
AcDbEntity
  8
0
100
AcDbLine
 10
366.7499999999998
 20
521.0894500000001
 30
0.0
 11
367.75
 21
522.1164499999998
 31
0.0
  0
LINE
  5
224
330
1E
100
AcDbEntity
  8
0
100
AcDbLine
 10
363.35
 20
521.04445
 30
0.0
 11
365.2499999999998
 21
521.0204499999998
 31
0.0
  0
LINE
  5
225
330
1E
100
AcDbEntity
  8
0
100
AcDbLine
 10
362.072077922077
 20
521.0407227272731
 30
0.0
 11
363.35
 21
521.04445
 31
0.0
  0
LINE
  5
226
330
1E
100
AcDbEntity
  8
0
100
AcDbLine
 10
361.45
 20
522.05245
 30
0.0
 11
364.05
 21
522.0884499999998
 31
0.0
  0
LINE
  5
227
330
1E
100
AcDbEntity
  8
0
100
AcDbLine
 10
352.2499999999998
 20
521.0314499999998
 30
0.0
 11
355.25
 21
521.04445
 31
0.0
  0
LINE
  5
228
330
1E
100
AcDbEntity
  8
0
100
AcDbLine
 10
352.05
 20
522.04145
 30
0.0
 11
355.25
 21
522.01145
 31
0.0
  0
LINE
  5
229
330
1E
100
AcDbEntity
  8
0
100
AcDbLine
 10
366.05
 20
522.06345
 30
0.0
 11
367.35
 21
522.0684499999999
 31
0.0
  0
LINE
  5
22A
330
1E
100
AcDbEntity
  8
0
100
AcDbLine
 10
367.35
 20
522.0684499999999
 30
0.0
 11
367.75
 21
522.1164499999998
 31
0.0
  0
LINE
  5
22B
330
1E
100
AcDbEntity
  8
0
100
AcDbLine
 10
349.05
 20
522.05245
 30
0.0
 11
352.05
 21
522.04145
 31
0.0
  0
LINE
  5
22C
330
1E
100
AcDbEntity
  8
0
100
AcDbLine
 10
344.45
 20
522.06345
 30
0.0
 11
346.45
 21
522.0884499999998
 31
0.0
  0
LINE
  5
22D
330
1E
100
AcDbEntity
  8
0
100
AcDbLine
 10
364.05
 20
522.0884499999998
 30
0.0
 11
366.05
 21
522.06345
 31
0.0
  0
LINE
  5
22E
330
1E
100
AcDbEntity
  8
0
100
AcDbLine
 10
367.75
 20
522.1164499999998
 30
0.0
 11
367.75
 21
606.1794499999998
 31
0.0
  0
LINE
  5
22F
330
1E
100
AcDbEntity
  8
0
100
AcDbLine
 10
346.45
 20
522.0884499999998
 30
0.0
 11
349.05
 21
522.05245
 31
0.0
  0
LINE
  5
230
330
1E
100
AcDbEntity
  8
0
100
AcDbLine
 10
343.1499999999998
 20
522.0684499999999
 30
0.0
 11
344.45
 21
522.06345
 31
0.0
  0
LINE
  5
231
330
1E
100
AcDbEntity
  8
0
100
AcDbLine
 10
342.75
 20
522.1164499999998
 30
0.0
 11
343.1499999999998
 21
522.0684499999999
 31
0.0
  0
LINE
  5
232
330
1E
100
AcDbEntity
  8
0
100
AcDbLine
 10
342.75
 20
522.1164499999998
 30
0.0
 11
342.75
 21
606.1794499999998
 31
0.0
  0
LINE
  5
233
330
1E
100
AcDbEntity
  8
0
100
AcDbLine
 10
342.75
 20
522.1164499999998
 30
0.0
 11
343.75
 21
521.0894500000001
 31
0.0
  0
LINE
  5
234
330
1E
100
AcDbEntity
  8
0
100
AcDbLine
 10
341.7499999999999
 20
521.01345
 30
0.0
 11
342.2499999999998
 21
521.01345
 31
0.0
  0
LINE
  5
235
330
1E
100
AcDbEntity
  8
0
100
AcDbLine
 10
341.7499999999999
 20
521.01345
 30
0.0
 11
341.7499999999999
 21
476.0134499999998
 31
0.0
  0
LINE
  5
236
330
1E
100
AcDbEntity
  8
0
100
AcDbLine
 10
264.1499999999999
 20
514.1134499999998
 30
0.0
 11
267.9499999999999
 21
511.21345
 31
0.0
  0
LINE
  5
237
330
1E
100
AcDbEntity
  8
0
100
AcDbLine
 10
267.9499999999999
 20
511.21345
 30
0.0
 11
270.85
 21
507.41345
 31
0.0
  0
LINE
  5
238
330
1E
100
AcDbEntity
  8
0
100
AcDbLine
 10
368.75
 20
521.01345
 30
0.0
 11
368.75
 21
476.0134499999998
 31
0.0
  0
LINE
  5
239
330
1E
100
AcDbEntity
  8
0
100
AcDbLine
 10
368.25
 20
521.01345
 30
0.0
 11
368.75
 21
521.01345
 31
0.0
  0
LINE
  5
23A
330
1E
100
AcDbEntity
  8
0
100
AcDbLine
 10
367.75
 20
529.01345
 30
0.0
 11
385.7499999999998
 21
529.01345
 31
0.0
  0
LINE
  5
23B
330
1E
100
AcDbEntity
  8
0
100
AcDbLine
 10
367.75
 20
529.51345
 30
0.0
 11
385.7499999999998
 21
529.51345
 31
0.0
  0
LINE
  5
23C
330
1E
100
AcDbEntity
  8
0
100
AcDbLine
 10
205.25
 20
529.51345
 30
0.0
 11
342.75
 21
529.51345
 31
0.0
  0
LINE
  5
23D
330
1E
100
AcDbEntity
  8
0
100
AcDbLine
 10
368.75
 20
510.165174137931
 30
0.0
 11
370.85
 21
507.41345
 31
0.0
  0
LINE
  5
23E
330
1E
100
AcDbEntity
  8
0
100
AcDbLine
 10
385.7499999999998
 20
529.01345
 30
0.0
 11
385.7499999999998
 21
468.01345
 31
0.0
  0
LINE
  5
23F
330
1E
100
AcDbEntity
  8
0
100
AcDbLine
 10
385.7499999999998
 20
529.01345
 30
0.0
 11
386.25
 21
529.01345
 31
0.0
  0
LINE
  5
240
330
1E
100
AcDbEntity
  8
0
100
AcDbLine
 10
385.7499999999998
 20
529.01345
 30
0.0
 11
385.7499999999998
 21
529.51345
 31
0.0
  0
LINE
  5
241
330
1E
100
AcDbEntity
  8
0
100
AcDbLine
 10
385.7499999999998
 20
529.51345
 30
0.0
 11
386.25
 21
529.01345
 31
0.0
  0
LINE
  5
242
330
1E
100
AcDbEntity
  8
0
100
AcDbLine
 10
385.7499999999998
 20
529.51345
 30
0.0
 11
385.7499999999998
 21
529.01345
 31
0.0
  0
LINE
  5
243
330
1E
100
AcDbEntity
  8
0
100
AcDbLine
 10
386.25
 20
529.01345
 30
0.0
 11
386.25
 21
468.01345
 31
0.0
  0
LINE
  5
244
330
1E
100
AcDbEntity
  8
0
100
AcDbLine
 10
370.85
 20
507.41345
 30
0.0
 11
372.55
 21
503.11345
 31
0.0
  0
LINE
  5
245
330
1E
100
AcDbEntity
  8
0
100
AcDbLine
 10
372.55
 20
503.11345
 30
0.0
 11
373.2499999999998
 21
498.51345
 31
0.0
  0
LINE
  5
246
330
1E
100
AcDbEntity
  8
0
100
AcDbLine
 10
166.25
 20
529.01345
 30
0.0
 11
205.25
 21
529.01345
 31
0.0
  0
LINE
  5
247
330
1E
100
AcDbEntity
  8
0
100
AcDbLine
 10
287.4499999999999
 20
680.18245
 30
0.0
 11
289.25
 21
672.11645
 31
0.0
  0
LINE
  5
248
330
1E
100
AcDbEntity
  8
0
100
AcDbLine
 10
290.15
 20
672.32845
 30
0.0
 11
293.05
 21
664.3524499999998
 31
0.0
  0
LINE
  5
249
330
1E
100
AcDbEntity
  8
0
100
AcDbLine
 10
288.45
 20
679.8504499999998
 30
0.0
 11
290.15
 21
672.32845
 31
0.0
  0
LINE
  5
24A
330
1E
100
AcDbEntity
  8
0
100
AcDbLine
 10
289.25
 20
672.11645
 30
0.0
 11
292.05
 21
664.4134499999998
 31
0.0
  0
LINE
  5
24B
330
1E
100
AcDbEntity
  8
0
100
AcDbLine
 10
291.35
 20
680.03245
 30
0.0
 11
293.05
 21
673.59745
 31
0.0
  0
LINE
  5
24C
330
1E
100
AcDbEntity
  8
0
100
AcDbLine
 10
307.55
 20
644.50445
 30
0.0
 11
314.25
 21
639.2484500000001
 31
0.0
  0
LINE
  5
24D
330
1E
100
AcDbEntity
  8
0
100
AcDbLine
 10
306.85
 20
644.29245
 30
0.0
 11
313.6499999999998
 21
638.94545
 31
0.0
  0
LINE
  5
24E
330
1E
100
AcDbEntity
  8
0
100
AcDbLine
 10
305.752
 20
652.715356526316
 30
0.0
 11
305.752
 21
652.13445
 31
0.0
  0
LINE
  5
24F
330
1E
100
AcDbEntity
  8
0
100
AcDbLine
 10
305.752
 20
653.9474499999998
 30
0.0
 11
305.752
 21
652.13445
 31
0.0
  0
LINE
  5
250
330
1E
100
AcDbEntity
  8
0
100
AcDbLine
 10
305.752
 20
653.9474499999998
 30
0.0
 11
307.752
 21
653.9474499999998
 31
0.0
  0
LINE
  5
251
330
1E
100
AcDbEntity
  8
0
100
AcDbLine
 10
305.752
 20
652.13445
 30
0.0
 11
305.752
 21
652.715356526316
 31
0.0
  0
LINE
  5
252
330
1E
100
AcDbEntity
  8
0
100
AcDbLine
 10
305.752
 20
652.13445
 30
0.0
 11
305.752
 21
653.9474499999998
 31
0.0
  0
LINE
  5
253
330
1E
100
AcDbEntity
  8
0
100
AcDbLine
 10
305.752
 20
652.13445
 30
0.0
 11
307.752
 21
652.13445
 31
0.0
  0
LINE
  5
254
330
1E
100
AcDbEntity
  8
0
100
AcDbLine
 10
304.1499999999998
 20
652.20845
 30
0.0
 11
309.75
 21
646.49845
 31
0.0
  0
LINE
  5
255
330
1E
100
AcDbEntity
  8
0
100
AcDbLine
 10
301.75
 20
650.57745
 30
0.0
 11
307.55
 21
644.50445
 31
0.0
  0
LINE
  5
256
330
1E
100
AcDbEntity
  8
0
100
AcDbLine
 10
300.95
 20
650.45545
 30
0.0
 11
306.85
 21
644.29245
 31
0.0
  0
LINE
  5
257
330
1E
100
AcDbEntity
  8
0
100
AcDbLine
 10
292.75
 20
687.1436551282051
 30
0.0
 11
292.75
 21
686.4064499999998
 31
0.0
  0
LINE
  5
258
330
1E
100
AcDbEntity
  8
0
100
AcDbLine
 10
292.75
 20
688.21945
 30
0.0
 11
292.75
 21
686.4064499999998
 31
0.0
  0
LINE
  5
259
330
1E
100
AcDbEntity
  8
0
100
AcDbLine
 10
292.75
 20
688.21945
 30
0.0
 11
294.75
 21
688.21945
 31
0.0
  0
LINE
  5
25A
330
1E
100
AcDbEntity
  8
0
100
AcDbLine
 10
292.75
 20
686.4064499999998
 30
0.0
 11
292.75
 21
687.1436551282051
 31
0.0
  0
LINE
  5
25B
330
1E
100
AcDbEntity
  8
0
100
AcDbLine
 10
292.75
 20
686.4064499999998
 30
0.0
 11
292.75
 21
688.21945
 31
0.0
  0
LINE
  5
25C
330
1E
100
AcDbEntity
  8
0
100
AcDbLine
 10
292.75
 20
686.4064499999998
 30
0.0
 11
294.75
 21
686.4064499999998
 31
0.0
  0
LINE
  5
25D
330
1E
100
AcDbEntity
  8
0
100
AcDbLine
 10
293.05
 20
673.59745
 30
0.0
 11
295.7499999999999
 21
665.44045
 31
0.0
  0
LINE
  5
25E
330
1E
100
AcDbEntity
  8
0
100
AcDbLine
 10
294.639
 20
674.2094499999998
 30
0.0
 11
294.639
 21
676.02245
 31
0.0
  0
LINE
  5
25F
330
1E
100
AcDbEntity
  8
0
100
AcDbLine
 10
294.639
 20
674.2094499999998
 30
0.0
 11
296.639
 21
674.2094499999998
 31
0.0
  0
LINE
  5
260
330
1E
100
AcDbEntity
  8
0
100
AcDbLine
 10
294.639
 20
676.02245
 30
0.0
 11
294.639
 21
674.2094499999998
 31
0.0
  0
LINE
  5
261
330
1E
100
AcDbEntity
  8
0
100
AcDbLine
 10
294.639
 20
676.02245
 30
0.0
 11
296.639
 21
676.02245
 31
0.0
  0
LINE
  5
262
330
1E
100
AcDbEntity
  8
0
100
AcDbLine
 10
294.75
 20
688.21945
 30
0.0
 11
294.75
 21
688.7457064102568
 31
0.0
  0
LINE
  5
263
330
1E
100
AcDbEntity
  8
0
100
AcDbLine
 10
294.75
 20
688.21945
 30
0.0
 11
294.75
 21
686.4064499999998
 31
0.0
  0
LINE
  5
264
330
1E
100
AcDbEntity
  8
0
100
AcDbLine
 10
294.75
 20
686.4064499999998
 30
0.0
 11
294.75
 21
688.21945
 31
0.0
  0
LINE
  5
265
330
1E
100
AcDbEntity
  8
0
100
AcDbLine
 10
294.75
 20
688.7457064102568
 30
0.0
 11
294.75
 21
688.21945
 31
0.0
  0
LINE
  5
266
330
1E
100
AcDbEntity
  8
0
100
AcDbLine
 10
296.639
 20
676.02245
 30
0.0
 11
296.639
 21
674.2094499999998
 31
0.0
  0
LINE
  5
267
330
1E
100
AcDbEntity
  8
0
100
AcDbLine
 10
296.639
 20
674.2094499999998
 30
0.0
 11
296.639
 21
676.02245
 31
0.0
  0
LINE
  5
268
330
1E
100
AcDbEntity
  8
0
100
AcDbLine
 10
299.195
 20
662.21445
 30
0.0
 11
299.195
 21
664.02745
 31
0.0
  0
LINE
  5
269
330
1E
100
AcDbEntity
  8
0
100
AcDbLine
 10
299.195
 20
662.21445
 30
0.0
 11
301.195
 21
662.21445
 31
0.0
  0
LINE
  5
26A
330
1E
100
AcDbEntity
  8
0
100
AcDbLine
 10
301.195
 20
664.02745
 30
0.0
 11
301.195
 21
662.21445
 31
0.0
  0
LINE
  5
26B
330
1E
100
AcDbEntity
  8
0
100
AcDbLine
 10
301.195
 20
662.21445
 30
0.0
 11
301.195
 21
664.02745
 31
0.0
  0
LINE
  5
26C
330
1E
100
AcDbEntity
  8
0
100
AcDbLine
 10
299.195
 20
664.02745
 30
0.0
 11
299.195
 21
662.21445
 31
0.0
  0
LINE
  5
26D
330
1E
100
AcDbEntity
  8
0
100
AcDbLine
 10
299.195
 20
664.02745
 30
0.0
 11
301.195
 21
664.02745
 31
0.0
  0
LINE
  5
26E
330
1E
100
AcDbEntity
  8
0
100
AcDbLine
 10
304.7499999999998
 20
686.19545
 30
0.0
 11
304.7499999999998
 21
688.00845
 31
0.0
  0
LINE
  5
26F
330
1E
100
AcDbEntity
  8
0
100
AcDbLine
 10
304.7499999999998
 20
686.19545
 30
0.0
 11
306.7499999999999
 21
686.19545
 31
0.0
  0
LINE
  5
270
330
1E
100
AcDbEntity
  8
0
100
AcDbLine
 10
306.861
 20
674.20045
 30
0.0
 11
306.861
 21
676.01345
 31
0.0
  0
LINE
  5
271
330
1E
100
AcDbEntity
  8
0
100
AcDbLine
 10
306.861
 20
674.20045
 30
0.0
 11
308.861
 21
674.20045
 31
0.0
  0
LINE
  5
272
330
1E
100
AcDbEntity
  8
0
100
AcDbLine
 10
306.861
 20
676.01345
 30
0.0
 11
306.861
 21
674.20045
 31
0.0
  0
LINE
  5
273
330
1E
100
AcDbEntity
  8
0
100
AcDbLine
 10
306.861
 20
676.01345
 30
0.0
 11
308.861
 21
676.01345
 31
0.0
  0
LINE
  5
274
330
1E
100
AcDbEntity
  8
0
100
AcDbLine
 10
306.7499999999999
 20
688.00845
 30
0.0
 11
306.7499999999999
 21
686.19545
 31
0.0
  0
LINE
  5
275
330
1E
100
AcDbEntity
  8
0
100
AcDbLine
 10
306.7499999999999
 20
686.19545
 30
0.0
 11
306.7499999999999
 21
688.00845
 31
0.0
  0
LINE
  5
276
330
1E
100
AcDbEntity
  8
0
100
AcDbLine
 10
304.7499999999998
 20
688.00845
 30
0.0
 11
304.7499999999998
 21
686.19545
 31
0.0
  0
LINE
  5
277
330
1E
100
AcDbEntity
  8
0
100
AcDbLine
 10
304.7499999999998
 20
688.00845
 30
0.0
 11
306.7499999999999
 21
688.00845
 31
0.0
  0
LINE
  5
278
330
1E
100
AcDbEntity
  8
0
100
AcDbLine
 10
299.35
 20
658.64345
 30
0.0
 11
304.1499999999998
 21
652.20845
 31
0.0
  0
LINE
  5
279
330
1E
100
AcDbEntity
  8
0
100
AcDbLine
 10
295.7499999999999
 20
665.44045
 30
0.0
 11
299.35
 21
658.64345
 31
0.0
  0
LINE
  5
27A
330
1E
100
AcDbEntity
  8
0
100
AcDbLine
 10
296.75
 20
657.2834499999999
 30
0.0
 11
301.75
 21
650.57745
 31
0.0
  0
LINE
  5
27B
330
1E
100
AcDbEntity
  8
0
100
AcDbLine
 10
293.05
 20
664.3524499999998
 30
0.0
 11
296.75
 21
657.2834499999999
 31
0.0
  0
LINE
  5
27C
330
1E
100
AcDbEntity
  8
0
100
AcDbLine
 10
295.9499999999998
 20
657.25345
 30
0.0
 11
300.95
 21
650.45545
 31
0.0
  0
LINE
  5
27D
330
1E
100
AcDbEntity
  8
0
100
AcDbLine
 10
292.05
 20
664.4134499999998
 30
0.0
 11
295.9499999999998
 21
657.25345
 31
0.0
  0
LINE
  5
27E
330
1E
100
AcDbEntity
  8
0
100
AcDbLine
 10
291.35
 20
695.4394499999998
 30
0.0
 11
293.05
 21
701.87445
 31
0.0
  0
LINE
  5
27F
330
1E
100
AcDbEntity
  8
0
100
AcDbLine
 10
290.75
 20
687.73545
 30
0.0
 11
291.35
 21
695.4394499999998
 31
0.0
  0
LINE
  5
280
330
1E
100
AcDbEntity
  8
0
100
AcDbLine
 10
290.75
 20
687.73545
 30
0.0
 11
291.35
 21
680.03245
 31
0.0
  0
LINE
  5
281
330
1E
100
AcDbEntity
  8
0
100
AcDbLine
 10
288.45
 20
695.62045
 30
0.0
 11
290.15
 21
703.14245
 31
0.0
  0
LINE
  5
282
330
1E
100
AcDbEntity
  8
0
100
AcDbLine
 10
287.7499999999999
 20
687.73545
 30
0.0
 11
288.45
 21
695.62045
 31
0.0
  0
LINE
  5
283
330
1E
100
AcDbEntity
  8
0
100
AcDbLine
 10
287.7499999999999
 20
687.73545
 30
0.0
 11
288.45
 21
679.8504499999998
 31
0.0
  0
LINE
  5
284
330
1E
100
AcDbEntity
  8
0
100
AcDbLine
 10
287.4499999999999
 20
696.13345
 30
0.0
 11
289.25
 21
704.1994499999998
 31
0.0
  0
LINE
  5
285
330
1E
100
AcDbEntity
  8
0
100
AcDbLine
 10
286.75
 20
688.15845
 30
0.0
 11
287.4499999999999
 21
696.13345
 31
0.0
  0
LINE
  5
286
330
1E
100
AcDbEntity
  8
0
100
AcDbLine
 10
286.75
 20
688.15845
 30
0.0
 11
287.4499999999999
 21
680.18245
 31
0.0
  0
LINE
  5
287
330
1E
100
AcDbEntity
  8
0
100
AcDbLine
 10
286.75
 20
688.15845
 30
0.0
 11
286.75
 21
697.0334499999998
 31
0.0
  0
LINE
  5
288
330
1E
100
AcDbEntity
  8
0
100
AcDbLine
 10
294.639
 20
700.41645
 30
0.0
 11
294.639
 21
698.6034499999998
 31
0.0
  0
LINE
  5
289
330
1E
100
AcDbEntity
  8
0
100
AcDbLine
 10
294.639
 20
700.41645
 30
0.0
 11
296.639
 21
700.41645
 31
0.0
  0
LINE
  5
28A
330
1E
100
AcDbEntity
  8
0
100
AcDbLine
 10
306.861
 20
700.00345
 30
0.0
 11
306.861
 21
698.19045
 31
0.0
  0
LINE
  5
28B
330
1E
100
AcDbEntity
  8
0
100
AcDbLine
 10
306.861
 20
700.00345
 30
0.0
 11
308.861
 21
700.00345
 31
0.0
  0
LINE
  5
28C
330
1E
100
AcDbEntity
  8
0
100
AcDbLine
 10
306.861
 20
698.19045
 30
0.0
 11
306.861
 21
700.00345
 31
0.0
  0
LINE
  5
28D
330
1E
100
AcDbEntity
  8
0
100
AcDbLine
 10
306.861
 20
698.19045
 30
0.0
 11
308.861
 21
698.19045
 31
0.0
  0
LINE
  5
28E
330
1E
100
AcDbEntity
  8
0
100
AcDbLine
 10
296.639
 20
698.6034499999998
 30
0.0
 11
296.639
 21
700.41645
 31
0.0
  0
LINE
  5
28F
330
1E
100
AcDbEntity
  8
0
100
AcDbLine
 10
296.639
 20
701.0982061748628
 30
0.0
 11
296.639
 21
700.41645
 31
0.0
  0
LINE
  5
290
330
1E
100
AcDbEntity
  8
0
100
AcDbLine
 10
296.639
 20
700.41645
 30
0.0
 11
296.639
 21
698.6034499999998
 31
0.0
  0
LINE
  5
291
330
1E
100
AcDbEntity
  8
0
100
AcDbLine
 10
296.639
 20
700.41645
 30
0.0
 11
296.639
 21
701.0982061748628
 31
0.0
  0
LINE
  5
292
330
1E
100
AcDbEntity
  8
0
100
AcDbLine
 10
294.639
 20
698.6034499999998
 30
0.0
 11
294.639
 21
700.41645
 31
0.0
  0
LINE
  5
293
330
1E
100
AcDbEntity
  8
0
100
AcDbLine
 10
294.639
 20
698.6034499999998
 30
0.0
 11
296.639
 21
698.6034499999998
 31
0.0
  0
LINE
  5
294
330
1E
100
AcDbEntity
  8
0
100
AcDbLine
 10
301.195
 20
710.5984499999998
 30
0.0
 11
301.195
 21
712.4114499999998
 31
0.0
  0
LINE
  5
295
330
1E
100
AcDbEntity
  8
0
100
AcDbLine
 10
299.195
 20
710.5984499999998
 30
0.0
 11
299.195
 21
712.4114499999998
 31
0.0
  0
LINE
  5
296
330
1E
100
AcDbEntity
  8
0
100
AcDbLine
 10
299.195
 20
710.5984499999998
 30
0.0
 11
301.195
 21
710.5984499999998
 31
0.0
  0
LINE
  5
297
330
1E
100
AcDbEntity
  8
0
100
AcDbLine
 10
295.7499999999999
 20
710.03045
 30
0.0
 11
299.35
 21
716.8284499999998
 31
0.0
  0
LINE
  5
298
330
1E
100
AcDbEntity
  8
0
100
AcDbLine
 10
293.05
 20
701.87445
 30
0.0
 11
295.7499999999999
 21
710.03045
 31
0.0
  0
LINE
  5
299
330
1E
100
AcDbEntity
  8
0
100
AcDbLine
 10
293.05
 20
711.11845
 30
0.0
 11
296.75
 21
718.18745
 31
0.0
  0
LINE
  5
29A
330
1E
100
AcDbEntity
  8
0
100
AcDbLine
 10
290.15
 20
703.14245
 30
0.0
 11
293.05
 21
711.11845
 31
0.0
  0
LINE
  5
29B
330
1E
100
AcDbEntity
  8
0
100
AcDbLine
 10
299.195
 20
712.4114499999998
 30
0.0
 11
299.195
 21
710.5984499999998
 31
0.0
  0
LINE
  5
29C
330
1E
100
AcDbEntity
  8
0
100
AcDbLine
 10
299.195
 20
712.4114499999998
 30
0.0
 11
301.195
 21
712.4114499999998
 31
0.0
  0
LINE
  5
29D
330
1E
100
AcDbEntity
  8
0
100
AcDbLine
 10
301.195
 20
712.4114499999998
 30
0.0
 11
301.195
 21
710.5984499999998
 31
0.0
  0
LINE
  5
29E
330
1E
100
AcDbEntity
  8
0
100
AcDbLine
 10
292.05
 20
711.90345
 30
0.0
 11
295.9499999999998
 21
719.0634499999998
 31
0.0
  0
LINE
  5
29F
330
1E
100
AcDbEntity
  8
0
100
AcDbLine
 10
289.25
 20
704.1994499999998
 30
0.0
 11
292.05
 21
711.90345
 31
0.0
  0
LINE
  5
2A0
330
1E
100
AcDbEntity
  8
0
100
AcDbLine
 10
305.752
 20
722.6842966315788
 30
0.0
 11
305.752
 21
722.4914499999998
 31
0.0
  0
LINE
  5
2A1
330
1E
100
AcDbEntity
  8
0
100
AcDbLine
 10
305.752
 20
722.4914499999998
 30
0.0
 11
305.752
 21
722.6842966315788
 31
0.0
  0
LINE
  5
2A2
330
1E
100
AcDbEntity
  8
0
100
AcDbLine
 10
305.752
 20
722.4914499999998
 30
0.0
 11
305.752
 21
720.67845
 31
0.0
  0
LINE
  5
2A3
330
1E
100
AcDbEntity
  8
0
100
AcDbLine
 10
305.752
 20
722.4914499999998
 30
0.0
 11
307.752
 21
722.4914499999998
 31
0.0
  0
LINE
  5
2A4
330
1E
100
AcDbEntity
  8
0
100
AcDbLine
 10
305.752
 20
720.67845
 30
0.0
 11
305.752
 21
722.4914499999998
 31
0.0
  0
LINE
  5
2A5
330
1E
100
AcDbEntity
  8
0
100
AcDbLine
 10
305.752
 20
720.67845
 30
0.0
 11
307.752
 21
720.67845
 31
0.0
  0
LINE
  5
2A6
330
1E
100
AcDbEntity
  8
0
100
AcDbLine
 10
304.1499999999998
 20
723.26245
 30
0.0
 11
309.75
 21
728.97245
 31
0.0
  0
LINE
  5
2A7
330
1E
100
AcDbEntity
  8
0
100
AcDbLine
 10
299.35
 20
716.8284499999998
 30
0.0
 11
304.1499999999998
 21
723.26245
 31
0.0
  0
LINE
  5
2A8
330
1E
100
AcDbEntity
  8
0
100
AcDbLine
 10
301.75
 20
724.89445
 30
0.0
 11
307.55
 21
730.96645
 31
0.0
  0
LINE
  5
2A9
330
1E
100
AcDbEntity
  8
0
100
AcDbLine
 10
296.75
 20
718.18745
 30
0.0
 11
301.75
 21
724.89445
 31
0.0
  0
LINE
  5
2AA
330
1E
100
AcDbEntity
  8
0
100
AcDbLine
 10
300.95
 20
725.86045
 30
0.0
 11
306.85
 21
732.02345
 31
0.0
  0
LINE
  5
2AB
330
1E
100
AcDbEntity
  8
0
100
AcDbLine
 10
295.9499999999998
 20
719.0634499999998
 30
0.0
 11
300.95
 21
725.86045
 31
0.0
  0
LINE
  5
2AC
330
1E
100
AcDbEntity
  8
0
100
AcDbLine
 10
295.9499999999998
 20
727.9384499999999
 30
0.0
 11
300.95
 21
734.73545
 31
0.0
  0
LINE
  5
2AD
330
1E
100
AcDbEntity
  8
0
100
AcDbLine
 10
292.05
 20
720.77845
 30
0.0
 11
295.9499999999998
 21
727.9384499999999
 31
0.0
  0
LINE
  5
2AE
330
1E
100
AcDbEntity
  8
0
100
AcDbLine
 10
289.25
 20
713.0744499999998
 30
0.0
 11
292.05
 21
720.77845
 31
0.0
  0
LINE
  5
2AF
330
1E
100
AcDbEntity
  8
0
100
AcDbLine
 10
287.4499999999999
 20
705.00845
 30
0.0
 11
289.25
 21
713.0744499999998
 31
0.0
  0
LINE
  5
2B0
330
1E
100
AcDbEntity
  8
0
100
AcDbLine
 10
286.75
 20
697.0334499999998
 30
0.0
 11
287.4499999999999
 21
705.00845
 31
0.0
  0
LINE
  5
2B1
330
1E
100
AcDbEntity
  8
0
100
AcDbLine
 10
286.75
 20
697.0334499999998
 30
0.0
 11
286.75
 21
688.15845
 31
0.0
  0
LINE
  5
2B2
330
1E
100
AcDbEntity
  8
0
100
AcDbLine
 10
307.752
 20
653.9474499999998
 30
0.0
 11
307.752
 21
654.5938804635759
 31
0.0
  0
LINE
  5
2B3
330
1E
100
AcDbEntity
  8
0
100
AcDbLine
 10
307.752
 20
653.9474499999998
 30
0.0
 11
307.752
 21
652.13445
 31
0.0
  0
LINE
  5
2B4
330
1E
100
AcDbEntity
  8
0
100
AcDbLine
 10
307.752
 20
652.13445
 30
0.0
 11
307.752
 21
653.9474499999998
 31
0.0
  0
LINE
  5
2B5
330
1E
100
AcDbEntity
  8
0
100
AcDbLine
 10
308.861
 20
676.01345
 30
0.0
 11
308.861
 21
676.2861839890708
 31
0.0
  0
LINE
  5
2B6
330
1E
100
AcDbEntity
  8
0
100
AcDbLine
 10
308.861
 20
676.01345
 30
0.0
 11
308.861
 21
674.20045
 31
0.0
  0
LINE
  5
2B7
330
1E
100
AcDbEntity
  8
0
100
AcDbLine
 10
308.861
 20
674.20045
 30
0.0
 11
308.861
 21
676.01345
 31
0.0
  0
LINE
  5
2B8
330
1E
100
AcDbEntity
  8
0
100
AcDbLine
 10
308.861
 20
676.2861839890708
 30
0.0
 11
308.861
 21
676.01345
 31
0.0
  0
LINE
  5
2B9
330
1E
100
AcDbEntity
  8
0
100
AcDbLine
 10
307.752
 20
654.5938804635759
 30
0.0
 11
307.752
 21
653.9474499999998
 31
0.0
  0
LINE
  5
2BA
330
1E
100
AcDbEntity
  8
0
100
AcDbLine
 10
307.752
 20
720.67845
 30
0.0
 11
307.752
 21
722.4914499999998
 31
0.0
  0
LINE
  5
2BB
330
1E
100
AcDbEntity
  8
0
100
AcDbLine
 10
307.752
 20
722.4914499999998
 30
0.0
 11
307.752
 21
720.67845
 31
0.0
  0
LINE
  5
2BC
330
1E
100
AcDbEntity
  8
0
100
AcDbLine
 10
308.861
 20
698.19045
 30
0.0
 11
308.861
 21
700.00345
 31
0.0
  0
LINE
  5
2BD
330
1E
100
AcDbEntity
  8
0
100
AcDbLine
 10
312.9739999999998
 20
662.2044499999998
 30
0.0
 11
312.9739999999998
 21
664.01745
 31
0.0
  0
LINE
  5
2BE
330
1E
100
AcDbEntity
  8
0
100
AcDbLine
 10
312.9739999999998
 20
662.2044499999998
 30
0.0
 11
314.9739999999998
 21
662.2044499999998
 31
0.0
  0
LINE
  5
2BF
330
1E
100
AcDbEntity
  8
0
100
AcDbLine
 10
312.9739999999998
 20
664.01745
 30
0.0
 11
312.9739999999998
 21
662.2044499999998
 31
0.0
  0
LINE
  5
2C0
330
1E
100
AcDbEntity
  8
0
100
AcDbLine
 10
312.9739999999998
 20
664.01745
 30
0.0
 11
314.9739999999998
 21
664.01745
 31
0.0
  0
LINE
  5
2C1
330
1E
100
AcDbEntity
  8
0
100
AcDbLine
 10
312.9739999999998
 20
711.9984500000001
 30
0.0
 11
312.9739999999998
 21
710.18645
 31
0.0
  0
LINE
  5
2C2
330
1E
100
AcDbEntity
  8
0
100
AcDbLine
 10
312.9739999999998
 20
711.9984500000001
 30
0.0
 11
314.9739999999998
 21
711.9984500000001
 31
0.0
  0
LINE
  5
2C3
330
1E
100
AcDbEntity
  8
0
100
AcDbLine
 10
312.9739999999998
 20
710.18645
 30
0.0
 11
312.9739999999998
 21
711.9984500000001
 31
0.0
  0
LINE
  5
2C4
330
1E
100
AcDbEntity
  8
0
100
AcDbLine
 10
312.9739999999998
 20
710.18645
 30
0.0
 11
314.9739999999998
 21
710.18645
 31
0.0
  0
LINE
  5
2C5
330
1E
100
AcDbEntity
  8
0
100
AcDbLine
 10
308.861
 20
700.00345
 30
0.0
 11
308.861
 21
698.19045
 31
0.0
  0
LINE
  5
2C6
330
1E
100
AcDbEntity
  8
0
100
AcDbLine
 10
309.75
 20
646.49845
 30
0.0
 11
316.05
 21
641.42345
 31
0.0
  0
LINE
  5
2C7
330
1E
100
AcDbEntity
  8
0
100
AcDbLine
 10
313.6499999999998
 20
638.94545
 30
0.0
 11
321.15
 21
634.4144499999998
 31
0.0
  0
LINE
  5
2C8
330
1E
100
AcDbEntity
  8
0
100
AcDbLine
 10
309.75
 20
728.97245
 30
0.0
 11
316.05
 21
734.04745
 31
0.0
  0
LINE
  5
2C9
330
1E
100
AcDbEntity
  8
0
100
AcDbLine
 10
307.55
 20
730.96645
 30
0.0
 11
314.25
 21
736.2234499999998
 31
0.0
  0
LINE
  5
2CA
330
1E
100
AcDbEntity
  8
0
100
AcDbLine
 10
300.95
 20
734.73545
 30
0.0
 11
306.85
 21
740.89845
 31
0.0
  0
LINE
  5
2CB
330
1E
100
AcDbEntity
  8
0
100
AcDbLine
 10
306.85
 20
732.02345
 30
0.0
 11
313.6499999999998
 21
737.37045
 31
0.0
  0
LINE
  5
2CC
330
1E
100
AcDbEntity
  8
0
100
AcDbLine
 10
313.6499999999998
 20
737.37045
 30
0.0
 11
321.15
 21
741.90245
 31
0.0
  0
LINE
  5
2CD
330
1E
100
AcDbEntity
  8
0
100
AcDbLine
 10
306.85
 20
740.89845
 30
0.0
 11
313.6499999999998
 21
746.2454499999998
 31
0.0
  0
LINE
  5
2CE
330
1E
100
AcDbEntity
  8
0
100
AcDbLine
 10
314.531
 20
643.76745
 30
0.0
 11
314.531
 21
645.58045
 31
0.0
  0
LINE
  5
2CF
330
1E
100
AcDbEntity
  8
0
100
AcDbLine
 10
314.531
 20
643.76745
 30
0.0
 11
316.531
 21
643.76745
 31
0.0
  0
LINE
  5
2D0
330
1E
100
AcDbEntity
  8
0
100
AcDbLine
 10
314.9739999999998
 20
664.01745
 30
0.0
 11
314.9739999999998
 21
662.2044499999998
 31
0.0
  0
LINE
  5
2D1
330
1E
100
AcDbEntity
  8
0
100
AcDbLine
 10
314.9739999999998
 20
662.2044499999998
 30
0.0
 11
314.9739999999998
 21
664.01745
 31
0.0
  0
LINE
  5
2D2
330
1E
100
AcDbEntity
  8
0
100
AcDbLine
 10
314.531
 20
645.58045
 30
0.0
 11
314.531
 21
643.76745
 31
0.0
  0
LINE
  5
2D3
330
1E
100
AcDbEntity
  8
0
100
AcDbLine
 10
314.531
 20
645.58045
 30
0.0
 11
316.531
 21
645.58045
 31
0.0
  0
LINE
  5
2D4
330
1E
100
AcDbEntity
  8
0
100
AcDbLine
 10
314.9739999999998
 20
710.18645
 30
0.0
 11
314.9739999999998
 21
711.9984500000001
 31
0.0
  0
LINE
  5
2D5
330
1E
100
AcDbEntity
  8
0
100
AcDbLine
 10
314.531
 20
730.8584499999998
 30
0.0
 11
314.531
 21
729.04545
 31
0.0
  0
LINE
  5
2D6
330
1E
100
AcDbEntity
  8
0
100
AcDbLine
 10
314.531
 20
730.8584499999998
 30
0.0
 11
316.531
 21
730.8584499999998
 31
0.0
  0
LINE
  5
2D7
330
1E
100
AcDbEntity
  8
0
100
AcDbLine
 10
314.531
 20
729.04545
 30
0.0
 11
314.531
 21
730.8584499999998
 31
0.0
  0
LINE
  5
2D8
330
1E
100
AcDbEntity
  8
0
100
AcDbLine
 10
314.531
 20
729.04545
 30
0.0
 11
316.531
 21
729.04545
 31
0.0
  0
LINE
  5
2D9
330
1E
100
AcDbEntity
  8
0
100
AcDbLine
 10
314.9739999999998
 20
711.9984500000001
 30
0.0
 11
314.9739999999998
 21
710.18645
 31
0.0
  0
LINE
  5
2DA
330
1E
100
AcDbEntity
  8
0
100
AcDbLine
 10
316.05
 20
641.42345
 30
0.0
 11
323.15
 21
637.07345
 31
0.0
  0
LINE
  5
2DB
330
1E
100
AcDbEntity
  8
0
100
AcDbLine
 10
314.25
 20
639.2484500000001
 30
0.0
 11
321.6499999999998
 21
634.7164499999998
 31
0.0
  0
LINE
  5
2DC
330
1E
100
AcDbEntity
  8
0
100
AcDbLine
 10
316.531
 20
645.58045
 30
0.0
 11
316.531
 21
643.76745
 31
0.0
  0
LINE
  5
2DD
330
1E
100
AcDbEntity
  8
0
100
AcDbLine
 10
316.531
 20
643.76745
 30
0.0
 11
316.531
 21
645.58045
 31
0.0
  0
LINE
  5
2DE
330
1E
100
AcDbEntity
  8
0
100
AcDbLine
 10
316.531
 20
729.04545
 30
0.0
 11
316.531
 21
730.8584499999998
 31
0.0
  0
LINE
  5
2DF
330
1E
100
AcDbEntity
  8
0
100
AcDbLine
 10
316.531
 20
730.8584499999998
 30
0.0
 11
316.531
 21
729.04545
 31
0.0
  0
LINE
  5
2E0
330
1E
100
AcDbEntity
  8
0
100
AcDbLine
 10
316.7499999999999
 20
685.98445
 30
0.0
 11
316.7499999999999
 21
687.79645
 31
0.0
  0
LINE
  5
2E1
330
1E
100
AcDbEntity
  8
0
100
AcDbLine
 10
316.7499999999999
 20
685.98445
 30
0.0
 11
318.75
 21
685.98445
 31
0.0
  0
LINE
  5
2E2
330
1E
100
AcDbEntity
  8
0
100
AcDbLine
 10
318.75
 20
687.79645
 30
0.0
 11
318.75
 21
685.98445
 31
0.0
  0
LINE
  5
2E3
330
1E
100
AcDbEntity
  8
0
100
AcDbLine
 10
320.3079999999999
 20
653.93945
 30
0.0
 11
320.3079999999999
 21
655.7514499999999
 31
0.0
  0
LINE
  5
2E4
330
1E
100
AcDbEntity
  8
0
100
AcDbLine
 10
320.3079999999999
 20
653.93945
 30
0.0
 11
322.3079999999999
 21
653.93945
 31
0.0
  0
LINE
  5
2E5
330
1E
100
AcDbEntity
  8
0
100
AcDbLine
 10
319.75
 20
674.8964499999998
 30
0.0
 11
319.75
 21
676.70845
 31
0.0
  0
LINE
  5
2E6
330
1E
100
AcDbEntity
  8
0
100
AcDbLine
 10
319.75
 20
674.8964499999998
 30
0.0
 11
321.75
 21
674.8964499999998
 31
0.0
  0
LINE
  5
2E7
330
1E
100
AcDbEntity
  8
0
100
AcDbLine
 10
319.75
 20
676.70845
 30
0.0
 11
319.75
 21
674.8964499999998
 31
0.0
  0
LINE
  5
2E8
330
1E
100
AcDbEntity
  8
0
100
AcDbLine
 10
319.75
 20
676.70845
 30
0.0
 11
321.75
 21
676.70845
 31
0.0
  0
LINE
  5
2E9
330
1E
100
AcDbEntity
  8
0
100
AcDbLine
 10
320.3079999999999
 20
655.7514499999999
 30
0.0
 11
320.3079999999999
 21
653.93945
 31
0.0
  0
LINE
  5
2EA
330
1E
100
AcDbEntity
  8
0
100
AcDbLine
 10
320.3079999999999
 20
655.7514499999999
 30
0.0
 11
322.3079999999999
 21
655.7514499999999
 31
0.0
  0
LINE
  5
2EB
330
1E
100
AcDbEntity
  8
0
100
AcDbLine
 10
318.75
 20
685.98445
 30
0.0
 11
318.75
 21
687.79645
 31
0.0
  0
LINE
  5
2EC
330
1E
100
AcDbEntity
  8
0
100
AcDbLine
 10
319.75
 20
698.8844499999999
 30
0.0
 11
319.75
 21
697.07145
 31
0.0
  0
LINE
  5
2ED
330
1E
100
AcDbEntity
  8
0
100
AcDbLine
 10
319.75
 20
698.8844499999999
 30
0.0
 11
321.75
 21
698.8844499999999
 31
0.0
  0
LINE
  5
2EE
330
1E
100
AcDbEntity
  8
0
100
AcDbLine
 10
320.3079999999999
 20
720.2644499999999
 30
0.0
 11
320.3079999999999
 21
718.45145
 31
0.0
  0
LINE
  5
2EF
330
1E
100
AcDbEntity
  8
0
100
AcDbLine
 10
320.3079999999999
 20
720.2644499999999
 30
0.0
 11
322.3079999999999
 21
720.2644499999999
 31
0.0
  0
LINE
  5
2F0
330
1E
100
AcDbEntity
  8
0
100
AcDbLine
 10
320.3079999999999
 20
719.0707794029849
 30
0.0
 11
320.3079999999999
 21
718.45145
 31
0.0
  0
LINE
  5
2F1
330
1E
100
AcDbEntity
  8
0
100
AcDbLine
 10
320.3079999999999
 20
718.45145
 30
0.0
 11
320.3079999999999
 21
720.2644499999999
 31
0.0
  0
LINE
  5
2F2
330
1E
100
AcDbEntity
  8
0
100
AcDbLine
 10
320.3079999999999
 20
718.45145
 30
0.0
 11
320.3079999999999
 21
719.0707794029849
 31
0.0
  0
LINE
  5
2F3
330
1E
100
AcDbEntity
  8
0
100
AcDbLine
 10
320.3079999999999
 20
718.45145
 30
0.0
 11
322.3079999999999
 21
718.45145
 31
0.0
  0
LINE
  5
2F4
330
1E
100
AcDbEntity
  8
0
100
AcDbLine
 10
319.75
 20
697.07145
 30
0.0
 11
319.75
 21
698.8844499999999
 31
0.0
  0
LINE
  5
2F5
330
1E
100
AcDbEntity
  8
0
100
AcDbLine
 10
319.75
 20
697.07145
 30
0.0
 11
321.75
 21
697.07145
 31
0.0
  0
LINE
  5
2F6
330
1E
100
AcDbEntity
  8
0
100
AcDbLine
 10
316.7499999999999
 20
687.79645
 30
0.0
 11
316.7499999999999
 21
685.98445
 31
0.0
  0
LINE
  5
2F7
330
1E
100
AcDbEntity
  8
0
100
AcDbLine
 10
316.7499999999999
 20
687.79645
 30
0.0
 11
318.75
 21
687.79645
 31
0.0
  0
LINE
  5
2F8
330
1E
100
AcDbEntity
  8
0
100
AcDbLine
 10
321.15
 20
634.4144499999998
 30
0.0
 11
329.05
 21
630.87945
 31
0.0
  0
LINE
  5
2F9
330
1E
100
AcDbEntity
  8
0
100
AcDbLine
 10
316.05
 20
734.04745
 30
0.0
 11
323.15
 21
738.39845
 31
0.0
  0
LINE
  5
2FA
330
1E
100
AcDbEntity
  8
0
100
AcDbLine
 10
314.25
 20
736.2234499999998
 30
0.0
 11
321.6499999999998
 21
740.75445
 31
0.0
  0
LINE
  5
2FB
330
1E
100
AcDbEntity
  8
0
100
AcDbLine
 10
321.75
 20
676.70845
 30
0.0
 11
321.75
 21
674.8964499999998
 31
0.0
  0
LINE
  5
2FC
330
1E
100
AcDbEntity
  8
0
100
AcDbLine
 10
321.75
 20
674.8964499999998
 30
0.0
 11
321.75
 21
676.70845
 31
0.0
  0
LINE
  5
2FD
330
1E
100
AcDbEntity
  8
0
100
AcDbLine
 10
322.3079999999999
 20
655.7514499999999
 30
0.0
 11
322.3079999999999
 21
653.93945
 31
0.0
  0
LINE
  5
2FE
330
1E
100
AcDbEntity
  8
0
100
AcDbLine
 10
322.3079999999999
 20
653.93945
 30
0.0
 11
322.3079999999999
 21
655.7514499999999
 31
0.0
  0
LINE
  5
2FF
330
1E
100
AcDbEntity
  8
0
100
AcDbLine
 10
321.75
 20
697.07145
 30
0.0
 11
321.75
 21
698.8844499999999
 31
0.0
  0
LINE
  5
300
330
1E
100
AcDbEntity
  8
0
100
AcDbLine
 10
322.3079999999999
 20
718.45145
 30
0.0
 11
322.3079999999999
 21
720.2644499999999
 31
0.0
  0
LINE
  5
301
330
1E
100
AcDbEntity
  8
0
100
AcDbLine
 10
322.3079999999999
 20
720.2644499999999
 30
0.0
 11
322.3079999999999
 21
718.45145
 31
0.0
  0
LINE
  5
302
330
1E
100
AcDbEntity
  8
0
100
AcDbLine
 10
321.75
 20
698.8844499999999
 30
0.0
 11
321.75
 21
697.07145
 31
0.0
  0
LINE
  5
303
330
1E
100
AcDbEntity
  8
0
100
AcDbLine
 10
323.134
 20
735.9154499999998
 30
0.0
 11
324.866
 21
736.82145
 31
0.0
  0
LINE
  5
304
330
1E
100
AcDbEntity
  8
0
100
AcDbLine
 10
323.134
 20
735.9154499999998
 30
0.0
 11
324.134
 21
734.3454499999998
 31
0.0
  0
LINE
  5
305
330
1E
100
AcDbEntity
  8
0
100
AcDbLine
 10
323.134
 20
638.71045
 30
0.0
 11
324.866
 21
637.8044499999998
 31
0.0
  0
LINE
  5
306
330
1E
100
AcDbEntity
  8
0
100
AcDbLine
 10
323.134
 20
638.71045
 30
0.0
 11
324.134
 21
640.28045
 31
0.0
  0
LINE
  5
307
330
1E
100
AcDbEntity
  8
0
100
AcDbLine
 10
323.15
 20
637.07345
 30
0.0
 11
330.6499999999998
 21
633.81045
 31
0.0
  0
LINE
  5
308
330
1E
100
AcDbEntity
  8
0
100
AcDbLine
 10
321.6499999999998
 20
634.7164499999998
 30
0.0
 11
329.4499999999998
 21
631.3634499999998
 31
0.0
  0
LINE
  5
309
330
1E
100
AcDbEntity
  8
0
100
AcDbLine
 10
324.134
 20
734.3454499999998
 30
0.0
 11
325.8659999999999
 21
735.2524499999998
 31
0.0
  0
LINE
  5
30A
330
1E
100
AcDbEntity
  8
0
100
AcDbLine
 10
326.974
 20
663.7074499999998
 30
0.0
 11
326.974
 21
665.51945
 31
0.0
  0
LINE
  5
30B
330
1E
100
AcDbEntity
  8
0
100
AcDbLine
 10
326.974
 20
663.7074499999998
 30
0.0
 11
328.974
 21
663.7074499999998
 31
0.0
  0
LINE
  5
30C
330
1E
100
AcDbEntity
  8
0
100
AcDbLine
 10
326.974
 20
665.51945
 30
0.0
 11
326.974
 21
663.7074499999998
 31
0.0
  0
LINE
  5
30D
330
1E
100
AcDbEntity
  8
0
100
AcDbLine
 10
326.974
 20
665.51945
 30
0.0
 11
328.974
 21
665.51945
 31
0.0
  0
LINE
  5
30E
330
1E
100
AcDbEntity
  8
0
100
AcDbLine
 10
324.866
 20
736.8785642857138
 30
0.0
 11
324.866
 21
736.82145
 31
0.0
  0
LINE
  5
30F
330
1E
100
AcDbEntity
  8
0
100
AcDbLine
 10
326.974
 20
710.0734499999998
 30
0.0
 11
326.974
 21
708.26145
 31
0.0
  0
LINE
  5
310
330
1E
100
AcDbEntity
  8
0
100
AcDbLine
 10
326.974
 20
710.0734499999998
 30
0.0
 11
328.974
 21
710.0734499999998
 31
0.0
  0
LINE
  5
311
330
1E
100
AcDbEntity
  8
0
100
AcDbLine
 10
326.974
 20
708.26145
 30
0.0
 11
326.974
 21
710.0734499999998
 31
0.0
  0
LINE
  5
312
330
1E
100
AcDbEntity
  8
0
100
AcDbLine
 10
326.974
 20
708.26145
 30
0.0
 11
328.974
 21
708.26145
 31
0.0
  0
LINE
  5
313
330
1E
100
AcDbEntity
  8
0
100
AcDbLine
 10
324.866
 20
736.82145
 30
0.0
 11
324.866
 21
736.8785642857138
 31
0.0
  0
LINE
  5
314
330
1E
100
AcDbEntity
  8
0
100
AcDbLine
 10
324.866
 20
736.82145
 30
0.0
 11
325.8659999999999
 21
735.2524499999998
 31
0.0
  0
LINE
  5
315
330
1E
100
AcDbEntity
  8
0
100
AcDbLine
 10
328.75
 20
685.77245
 30
0.0
 11
328.75
 21
687.58545
 31
0.0
  0
LINE
  5
316
330
1E
100
AcDbEntity
  8
0
100
AcDbLine
 10
328.75
 20
685.77245
 30
0.0
 11
330.75
 21
685.77245
 31
0.0
  0
LINE
  5
317
330
1E
100
AcDbEntity
  8
0
100
AcDbLine
 10
328.974
 20
665.51945
 30
0.0
 11
328.974
 21
663.7074499999998
 31
0.0
  0
LINE
  5
318
330
1E
100
AcDbEntity
  8
0
100
AcDbLine
 10
328.974
 20
663.7074499999998
 30
0.0
 11
328.974
 21
665.51945
 31
0.0
  0
LINE
  5
319
330
1E
100
AcDbEntity
  8
0
100
AcDbLine
 10
328.974
 20
708.26145
 30
0.0
 11
328.974
 21
710.0734499999998
 31
0.0
  0
LINE
  5
31A
330
1E
100
AcDbEntity
  8
0
100
AcDbLine
 10
328.974
 20
710.0734499999998
 30
0.0
 11
328.974
 21
708.26145
 31
0.0
  0
LINE
  5
31B
330
1E
100
AcDbEntity
  8
0
100
AcDbLine
 10
328.75
 20
687.58545
 30
0.0
 11
328.75
 21
685.77245
 31
0.0
  0
LINE
  5
31C
330
1E
100
AcDbEntity
  8
0
100
AcDbLine
 10
328.75
 20
687.58545
 30
0.0
 11
330.75
 21
687.58545
 31
0.0
  0
LINE
  5
31D
330
1E
100
AcDbEntity
  8
0
100
AcDbLine
 10
324.866
 20
637.8044499999998
 30
0.0
 11
325.8659999999999
 21
639.37345
 31
0.0
  0
LINE
  5
31E
330
1E
100
AcDbEntity
  8
0
100
AcDbLine
 10
324.134
 20
640.28045
 30
0.0
 11
325.8659999999999
 21
639.37345
 31
0.0
  0
LINE
  5
31F
330
1E
100
AcDbEntity
  8
0
100
AcDbLine
 10
329.05
 20
630.87945
 30
0.0
 11
337.55
 21
628.34145
 31
0.0
  0
LINE
  5
320
330
1E
100
AcDbEntity
  8
0
100
AcDbLine
 10
323.15
 20
738.39845
 30
0.0
 11
330.6499999999998
 21
741.66045
 31
0.0
  0
LINE
  5
321
330
1E
100
AcDbEntity
  8
0
100
AcDbLine
 10
321.6499999999998
 20
740.75445
 30
0.0
 11
329.4499999999998
 21
744.1084499999998
 31
0.0
  0
LINE
  5
322
330
1E
100
AcDbEntity
  8
0
100
AcDbLine
 10
321.15
 20
741.90245
 30
0.0
 11
329.05
 21
745.43645
 31
0.0
  0
LINE
  5
323
330
1E
100
AcDbEntity
  8
0
100
AcDbLine
 10
329.05
 20
745.43645
 30
0.0
 11
337.55
 21
747.97445
 31
0.0
  0
LINE
  5
324
330
1E
100
AcDbEntity
  8
0
100
AcDbLine
 10
313.6499999999998
 20
746.2454499999998
 30
0.0
 11
321.15
 21
750.77745
 31
0.0
  0
LINE
  5
325
330
1E
100
AcDbEntity
  8
0
100
AcDbLine
 10
321.15
 20
750.77745
 30
0.0
 11
329.05
 21
754.31145
 31
0.0
  0
LINE
  5
326
330
1E
100
AcDbEntity
  8
0
100
AcDbLine
 10
330.134
 20
724.71545
 30
0.0
 11
331.8659999999998
 21
725.6214499999998
 31
0.0
  0
LINE
  5
327
330
1E
100
AcDbEntity
  8
0
100
AcDbLine
 10
329.134
 20
726.2854499999998
 30
0.0
 11
330.8659999999998
 21
727.19145
 31
0.0
  0
LINE
  5
328
330
1E
100
AcDbEntity
  8
0
100
AcDbLine
 10
329.134
 20
726.2854499999998
 30
0.0
 11
330.134
 21
724.71545
 31
0.0
  0
LINE
  5
329
330
1E
100
AcDbEntity
  8
0
100
AcDbLine
 10
330.134
 20
649.4884499999998
 30
0.0
 11
331.8659999999998
 21
648.58145
 31
0.0
  0
LINE
  5
32A
330
1E
100
AcDbEntity
  8
0
100
AcDbLine
 10
329.134
 20
647.91845
 30
0.0
 11
330.8659999999998
 21
647.0124499999998
 31
0.0
  0
LINE
  5
32B
330
1E
100
AcDbEntity
  8
0
100
AcDbLine
 10
329.134
 20
647.91845
 30
0.0
 11
330.134
 21
649.4884499999998
 31
0.0
  0
LINE
  5
32C
330
1E
100
AcDbEntity
  8
0
100
AcDbLine
 10
330.6499999999998
 20
633.81045
 30
0.0
 11
339.6499999999998
 21
631.3634499999998
 31
0.0
  0
LINE
  5
32D
330
1E
100
AcDbEntity
  8
0
100
AcDbLine
 10
329.4499999999998
 20
631.3634499999998
 30
0.0
 11
338.25
 21
628.73545
 31
0.0
  0
LINE
  5
32E
330
1E
100
AcDbEntity
  8
0
100
AcDbLine
 10
330.8659999999998
 20
727.19145
 30
0.0
 11
331.8659999999998
 21
725.6214499999998
 31
0.0
  0
LINE
  5
32F
330
1E
100
AcDbEntity
  8
0
100
AcDbLine
 10
330.75
 20
687.58545
 30
0.0
 11
330.75
 21
685.77245
 31
0.0
  0
LINE
  5
330
330
1E
100
AcDbEntity
  8
0
100
AcDbLine
 10
330.75
 20
685.77245
 30
0.0
 11
330.75
 21
687.58545
 31
0.0
  0
LINE
  5
331
330
1E
100
AcDbEntity
  8
0
100
AcDbLine
 10
336.7329999999999
 20
635.6654499999998
 30
0.0
 11
338.4649999999998
 21
634.75845
 31
0.0
  0
LINE
  5
332
330
1E
100
AcDbEntity
  8
0
100
AcDbLine
 10
335.733
 20
634.09545
 30
0.0
 11
337.4649999999998
 21
633.1894499999998
 31
0.0
  0
LINE
  5
333
330
1E
100
AcDbEntity
  8
0
100
AcDbLine
 10
335.733
 20
634.09545
 30
0.0
 11
336.7329999999999
 21
635.6654499999998
 31
0.0
  0
LINE
  5
334
330
1E
100
AcDbEntity
  8
0
100
AcDbLine
 10
337.4649999999998
 20
633.1894499999998
 30
0.0
 11
338.4649999999998
 21
634.75845
 31
0.0
  0
LINE
  5
335
330
1E
100
AcDbEntity
  8
0
100
AcDbLine
 10
336.8659999999998
 20
656.21945
 30
0.0
 11
337.8659999999998
 21
657.78845
 31
0.0
  0
LINE
  5
336
330
1E
100
AcDbEntity
  8
0
100
AcDbLine
 10
333.084
 20
673.97945
 30
0.0
 11
333.084
 21
675.79145
 31
0.0
  0
LINE
  5
337
330
1E
100
AcDbEntity
  8
0
100
AcDbLine
 10
333.084
 20
673.97945
 30
0.0
 11
335.084
 21
673.97945
 31
0.0
  0
LINE
  5
338
330
1E
100
AcDbEntity
  8
0
100
AcDbLine
 10
335.084
 20
675.79145
 30
0.0
 11
335.084
 21
673.97945
 31
0.0
  0
LINE
  5
339
330
1E
100
AcDbEntity
  8
0
100
AcDbLine
 10
335.084
 20
673.97945
 30
0.0
 11
335.084
 21
675.79145
 31
0.0
  0
LINE
  5
33A
330
1E
100
AcDbEntity
  8
0
100
AcDbLine
 10
333.084
 20
675.79145
 30
0.0
 11
333.084
 21
673.97945
 31
0.0
  0
LINE
  5
33B
330
1E
100
AcDbEntity
  8
0
100
AcDbLine
 10
333.084
 20
675.79145
 30
0.0
 11
335.084
 21
675.79145
 31
0.0
  0
LINE
  5
33C
330
1E
100
AcDbEntity
  8
0
100
AcDbLine
 10
335.084
 20
697.56645
 30
0.0
 11
335.084
 21
699.3794499999998
 31
0.0
  0
LINE
  5
33D
330
1E
100
AcDbEntity
  8
0
100
AcDbLine
 10
333.084
 20
699.3794499999998
 30
0.0
 11
333.084
 21
697.56645
 31
0.0
  0
LINE
  5
33E
330
1E
100
AcDbEntity
  8
0
100
AcDbLine
 10
333.084
 20
699.3794499999998
 30
0.0
 11
335.084
 21
699.3794499999998
 31
0.0
  0
LINE
  5
33F
330
1E
100
AcDbEntity
  8
0
100
AcDbLine
 10
335.084
 20
699.3794499999998
 30
0.0
 11
335.084
 21
697.56645
 31
0.0
  0
LINE
  5
340
330
1E
100
AcDbEntity
  8
0
100
AcDbLine
 10
333.084
 20
697.56645
 30
0.0
 11
333.084
 21
699.3794499999998
 31
0.0
  0
LINE
  5
341
330
1E
100
AcDbEntity
  8
0
100
AcDbLine
 10
333.084
 20
697.56645
 30
0.0
 11
335.084
 21
697.56645
 31
0.0
  0
LINE
  5
342
330
1E
100
AcDbEntity
  8
0
100
AcDbLine
 10
336.134
 20
715.08545
 30
0.0
 11
337.8659999999998
 21
715.99145
 31
0.0
  0
LINE
  5
343
330
1E
100
AcDbEntity
  8
0
100
AcDbLine
 10
335.733
 20
740.5304499999998
 30
0.0
 11
337.4649999999998
 21
741.43645
 31
0.0
  0
LINE
  5
344
330
1E
100
AcDbEntity
  8
0
100
AcDbLine
 10
335.733
 20
740.5304499999998
 30
0.0
 11
336.7329999999999
 21
738.96045
 31
0.0
  0
LINE
  5
345
330
1E
100
AcDbEntity
  8
0
100
AcDbLine
 10
335.134
 20
716.65545
 30
0.0
 11
336.8659999999998
 21
717.56145
 31
0.0
  0
LINE
  5
346
330
1E
100
AcDbEntity
  8
0
100
AcDbLine
 10
335.134
 20
716.65545
 30
0.0
 11
336.134
 21
715.08545
 31
0.0
  0
LINE
  5
347
330
1E
100
AcDbEntity
  8
0
100
AcDbLine
 10
337.4649999999998
 20
741.43645
 30
0.0
 11
338.4649999999998
 21
739.8674499999998
 31
0.0
  0
LINE
  5
348
330
1E
100
AcDbEntity
  8
0
100
AcDbLine
 10
336.7329999999999
 20
738.96045
 30
0.0
 11
338.4649999999998
 21
739.8674499999998
 31
0.0
  0
LINE
  5
349
330
1E
100
AcDbEntity
  8
0
100
AcDbLine
 10
336.8659999999998
 20
717.56145
 30
0.0
 11
337.8659999999998
 21
715.99145
 31
0.0
  0
LINE
  5
34A
330
1E
100
AcDbEntity
  8
0
100
AcDbLine
 10
336.134
 20
658.69545
 30
0.0
 11
337.8659999999998
 21
657.78845
 31
0.0
  0
LINE
  5
34B
330
1E
100
AcDbEntity
  8
0
100
AcDbLine
 10
335.134
 20
657.12545
 30
0.0
 11
336.8659999999998
 21
656.21945
 31
0.0
  0
LINE
  5
34C
330
1E
100
AcDbEntity
  8
0
100
AcDbLine
 10
335.134
 20
657.12545
 30
0.0
 11
336.134
 21
658.69545
 31
0.0
  0
LINE
  5
34D
330
1E
100
AcDbEntity
  8
0
100
AcDbLine
 10
330.8659999999998
 20
647.0124499999998
 30
0.0
 11
331.8659999999998
 21
648.58145
 31
0.0
  0
LINE
  5
34E
330
1E
100
AcDbEntity
  8
0
100
AcDbLine
 10
337.55
 20
628.34145
 30
0.0
 11
346.45
 21
626.71045
 31
0.0
  0
LINE
  5
34F
330
1E
100
AcDbEntity
  8
0
100
AcDbLine
 10
330.6499999999998
 20
741.66045
 30
0.0
 11
339.6499999999998
 21
744.1084499999998
 31
0.0
  0
LINE
  5
350
330
1E
100
AcDbEntity
  8
0
100
AcDbLine
 10
329.4499999999998
 20
744.1084499999998
 30
0.0
 11
338.25
 21
746.73645
 31
0.0
  0
LINE
  5
351
330
1E
100
AcDbEntity
  8
0
100
AcDbLine
 10
339.6499999999998
 20
631.3634499999998
 30
0.0
 11
346.75
 21
629.8224499999999
 31
0.0
  0
LINE
  5
352
330
1E
100
AcDbEntity
  8
0
100
AcDbLine
 10
338.25
 20
628.73545
 30
0.0
 11
346.55
 21
627.19445
 31
0.0
  0
LINE
  5
353
330
1E
100
AcDbEntity
  8
0
100
AcDbLine
 10
343.1499999999998
 20
604.70045
 30
0.0
 11
344.45
 21
603.3054499999998
 31
0.0
  0
LINE
  5
354
330
1E
100
AcDbEntity
  8
0
100
AcDbLine
 10
342.75
 20
606.1794499999998
 30
0.0
 11
343.1499999999998
 21
607.70145
 31
0.0
  0
LINE
  5
355
330
1E
100
AcDbEntity
  8
0
100
AcDbLine
 10
342.75
 20
606.1794499999998
 30
0.0
 11
343.1499999999998
 21
604.70045
 31
0.0
  0
LINE
  5
356
330
1E
100
AcDbEntity
  8
0
100
AcDbLine
 10
342.75
 20
606.1794499999998
 30
0.0
 11
342.75
 21
522.1164499999998
 31
0.0
  0
LINE
  5
357
330
1E
100
AcDbEntity
  8
0
100
AcDbLine
 10
344.45
 20
603.3054499999998
 30
0.0
 11
346.45
 21
602.08045
 31
0.0
  0
LINE
  5
358
330
1E
100
AcDbEntity
  8
0
100
AcDbLine
 10
343.1499999999998
 20
607.70145
 30
0.0
 11
344.45
 21
609.09545
 31
0.0
  0
LINE
  5
359
330
1E
100
AcDbEntity
  8
0
100
AcDbLine
 10
344.45
 20
609.09545
 30
0.0
 11
346.2499999999998
 21
610.19885
 31
0.0
  0
LINE
  5
35A
330
1E
100
AcDbEntity
  8
0
100
AcDbLine
 10
346.45
 20
602.08045
 30
0.0
 11
349.05
 21
601.15045
 31
0.0
  0
LINE
  5
35B
330
1E
100
AcDbEntity
  8
0
100
AcDbLine
 10
346.2499999999998
 20
606.1794499999998
 30
0.0
 11
346.55
 21
605.12345
 31
0.0
  0
LINE
  5
35C
330
1E
100
AcDbEntity
  8
0
100
AcDbLine
 10
346.2499999999998
 20
606.1794499999998
 30
0.0
 11
346.2499999999998
 21
626.747101685393
 31
0.0
  0
LINE
  5
35D
330
1E
100
AcDbEntity
  8
0
100
AcDbLine
 10
342.652
 20
645.14745
 30
0.0
 11
344.384
 21
644.2414499999999
 31
0.0
  0
LINE
  5
35E
330
1E
100
AcDbEntity
  8
0
100
AcDbLine
 10
341.6519999999998
 20
643.5784499999998
 30
0.0
 11
343.384
 21
642.67145
 31
0.0
  0
LINE
  5
35F
330
1E
100
AcDbEntity
  8
0
100
AcDbLine
 10
341.6519999999998
 20
643.5784499999998
 30
0.0
 11
342.652
 21
645.14745
 31
0.0
  0
LINE
  5
360
330
1E
100
AcDbEntity
  8
0
100
AcDbLine
 10
343.384
 20
642.67145
 30
0.0
 11
344.384
 21
644.2414499999999
 31
0.0
  0
LINE
  5
361
330
1E
100
AcDbEntity
  8
0
100
AcDbLine
 10
342.8659999999998
 20
665.42645
 30
0.0
 11
343.866
 21
666.99545
 31
0.0
  0
LINE
  5
362
330
1E
100
AcDbEntity
  8
0
100
AcDbLine
 10
340.75
 20
686.4064499999998
 30
0.0
 11
340.75
 21
685.56145
 31
0.0
  0
LINE
  5
363
330
1E
100
AcDbEntity
  8
0
100
AcDbLine
 10
340.75
 20
688.21945
 30
0.0
 11
340.75
 21
687.37445
 31
0.0
  0
LINE
  5
364
330
1E
100
AcDbEntity
  8
0
100
AcDbLine
 10
342.134
 20
705.45645
 30
0.0
 11
343.866
 21
706.3624499999998
 31
0.0
  0
LINE
  5
365
330
1E
100
AcDbEntity
  8
0
100
AcDbLine
 10
341.6519999999998
 20
730.62545
 30
0.0
 11
343.384
 21
731.5314499999998
 31
0.0
  0
LINE
  5
366
330
1E
100
AcDbEntity
  8
0
100
AcDbLine
 10
341.6519999999998
 20
730.62545
 30
0.0
 11
342.652
 21
729.0554499999998
 31
0.0
  0
LINE
  5
367
330
1E
100
AcDbEntity
  8
0
100
AcDbLine
 10
341.134
 20
707.0254499999998
 30
0.0
 11
342.8659999999998
 21
707.93245
 31
0.0
  0
LINE
  5
368
330
1E
100
AcDbEntity
  8
0
100
AcDbLine
 10
341.134
 20
707.0254499999998
 30
0.0
 11
342.134
 21
705.45645
 31
0.0
  0
LINE
  5
369
330
1E
100
AcDbEntity
  8
0
100
AcDbLine
 10
340.75
 20
687.37445
 30
0.0
 11
340.75
 21
685.56145
 31
0.0
  0
LINE
  5
36A
330
1E
100
AcDbEntity
  8
0
100
AcDbLine
 10
340.75
 20
687.37445
 30
0.0
 11
340.75
 21
688.21945
 31
0.0
  0
LINE
  5
36B
330
1E
100
AcDbEntity
  8
0
100
AcDbLine
 10
340.75
 20
687.37445
 30
0.0
 11
342.75
 21
687.37445
 31
0.0
  0
LINE
  5
36C
330
1E
100
AcDbEntity
  8
0
100
AcDbLine
 10
340.75
 20
685.56145
 30
0.0
 11
340.75
 21
686.4064499999998
 31
0.0
  0
LINE
  5
36D
330
1E
100
AcDbEntity
  8
0
100
AcDbLine
 10
340.75
 20
685.56145
 30
0.0
 11
340.75
 21
687.37445
 31
0.0
  0
LINE
  5
36E
330
1E
100
AcDbEntity
  8
0
100
AcDbLine
 10
340.75
 20
685.56145
 30
0.0
 11
342.75
 21
685.56145
 31
0.0
  0
LINE
  5
36F
330
1E
100
AcDbEntity
  8
0
100
AcDbLine
 10
342.75
 20
687.37445
 30
0.0
 11
342.75
 21
688.21945
 31
0.0
  0
LINE
  5
370
330
1E
100
AcDbEntity
  8
0
100
AcDbLine
 10
342.75
 20
687.37445
 30
0.0
 11
342.75
 21
685.56145
 31
0.0
  0
LINE
  5
371
330
1E
100
AcDbEntity
  8
0
100
AcDbLine
 10
342.75
 20
685.56145
 30
0.0
 11
342.75
 21
687.37445
 31
0.0
  0
LINE
  5
372
330
1E
100
AcDbEntity
  8
0
100
AcDbLine
 10
342.652
 20
729.0554499999998
 30
0.0
 11
344.384
 21
729.96145
 31
0.0
  0
LINE
  5
373
330
1E
100
AcDbEntity
  8
0
100
AcDbLine
 10
343.384
 20
731.5314499999998
 30
0.0
 11
344.384
 21
729.96145
 31
0.0
  0
LINE
  5
374
330
1E
100
AcDbEntity
  8
0
100
AcDbLine
 10
342.8659999999998
 20
707.93245
 30
0.0
 11
343.866
 21
706.3624499999998
 31
0.0
  0
LINE
  5
375
330
1E
100
AcDbEntity
  8
0
100
AcDbLine
 10
342.75
 20
688.21945
 30
0.0
 11
342.75
 21
687.37445
 31
0.0
  0
LINE
  5
376
330
1E
100
AcDbEntity
  8
0
100
AcDbLine
 10
342.134
 20
667.90245
 30
0.0
 11
343.866
 21
666.99545
 31
0.0
  0
LINE
  5
377
330
1E
100
AcDbEntity
  8
0
100
AcDbLine
 10
341.134
 20
666.3324499999998
 30
0.0
 11
342.8659999999998
 21
665.42645
 31
0.0
  0
LINE
  5
378
330
1E
100
AcDbEntity
  8
0
100
AcDbLine
 10
341.134
 20
666.3324499999998
 30
0.0
 11
342.134
 21
667.90245
 31
0.0
  0
LINE
  5
379
330
1E
100
AcDbEntity
  8
0
100
AcDbLine
 10
346.2499999999998
 20
626.747101685393
 30
0.0
 11
346.2499999999998
 21
606.1794499999998
 31
0.0
  0
LINE
  5
37A
330
1E
100
AcDbEntity
  8
0
100
AcDbLine
 10
346.45
 20
626.71045
 30
0.0
 11
355.25
 21
626.07645
 31
0.0
  0
LINE
  5
37B
330
1E
100
AcDbEntity
  8
0
100
AcDbLine
 10
339.6499999999998
 20
744.1084499999998
 30
0.0
 11
346.75
 21
745.64845
 31
0.0
  0
LINE
  5
37C
330
1E
100
AcDbEntity
  8
0
100
AcDbLine
 10
338.25
 20
746.73645
 30
0.0
 11
346.55
 21
748.27745
 31
0.0
  0
LINE
  5
37D
330
1E
100
AcDbEntity
  8
0
100
AcDbLine
 10
337.55
 20
747.97445
 30
0.0
 11
346.45
 21
749.60545
 31
0.0
  0
LINE
  5
37E
330
1E
100
AcDbEntity
  8
0
100
AcDbLine
 10
346.45
 20
749.60545
 30
0.0
 11
355.25
 21
750.2404499999999
 31
0.0
  0
LINE
  5
37F
330
1E
100
AcDbEntity
  8
0
100
AcDbLine
 10
329.05
 20
754.31145
 30
0.0
 11
337.55
 21
756.84945
 31
0.0
  0
LINE
  5
380
330
1E
100
AcDbEntity
  8
0
100
AcDbLine
 10
337.55
 20
756.84945
 30
0.0
 11
346.45
 21
758.48045
 31
0.0
  0
LINE
  5
381
330
1E
100
AcDbEntity
  8
0
100
AcDbLine
 10
346.55
 20
605.12345
 30
0.0
 11
347.4499999999999
 21
604.1084499999998
 31
0.0
  0
LINE
  5
382
330
1E
100
AcDbEntity
  8
0
100
AcDbLine
 10
346.75
 20
629.8224499999999
 30
0.0
 11
355.25
 21
629.27845
 31
0.0
  0
LINE
  5
383
330
1E
100
AcDbEntity
  8
0
100
AcDbLine
 10
346.55
 20
627.19445
 30
0.0
 11
355.25
 21
626.5594499999998
 31
0.0
  0
LINE
  5
384
330
1E
100
AcDbEntity
  8
0
100
AcDbLine
 10
349.05
 20
601.15045
 30
0.0
 11
352.05
 21
600.55845
 31
0.0
  0
LINE
  5
385
330
1E
100
AcDbEntity
  8
0
100
AcDbLine
 10
355.25
 20
600.34745
 30
0.0
 11
358.4499999999998
 21
600.55845
 31
0.0
  0
LINE
  5
386
330
1E
100
AcDbEntity
  8
0
100
AcDbLine
 10
358.4499999999998
 20
600.55845
 30
0.0
 11
361.45
 21
601.15045
 31
0.0
  0
LINE
  5
387
330
1E
100
AcDbEntity
  8
0
100
AcDbLine
 10
361.45
 20
601.15045
 30
0.0
 11
364.05
 21
602.08045
 31
0.0
  0
LINE
  5
388
330
1E
100
AcDbEntity
  8
0
100
AcDbLine
 10
364.05
 20
602.08045
 30
0.0
 11
366.05
 21
603.3054499999998
 31
0.0
  0
LINE
  5
389
330
1E
100
AcDbEntity
  8
0
100
AcDbLine
 10
355.25
 20
601.9954499999998
 30
0.0
 11
357.55
 21
602.1644499999998
 31
0.0
  0
LINE
  5
38A
330
1E
100
AcDbEntity
  8
0
100
AcDbLine
 10
357.55
 20
602.1644499999998
 30
0.0
 11
359.75
 21
602.5454499999998
 31
0.0
  0
LINE
  5
38B
330
1E
100
AcDbEntity
  8
0
100
AcDbLine
 10
352.05
 20
600.55845
 30
0.0
 11
355.25
 21
600.34745
 31
0.0
  0
LINE
  5
38C
330
1E
100
AcDbEntity
  8
0
100
AcDbLine
 10
359.75
 20
602.5454499999998
 30
0.0
 11
361.6499999999998
 21
603.22145
 31
0.0
  0
LINE
  5
38D
330
1E
100
AcDbEntity
  8
0
100
AcDbLine
 10
361.6499999999998
 20
603.22145
 30
0.0
 11
363.05
 21
604.1084499999998
 31
0.0
  0
LINE
  5
38E
330
1E
100
AcDbEntity
  8
0
100
AcDbLine
 10
352.95
 20
602.1644499999998
 30
0.0
 11
355.25
 21
601.9954499999998
 31
0.0
  0
LINE
  5
38F
330
1E
100
AcDbEntity
  8
0
100
AcDbLine
 10
350.75
 20
602.5454499999998
 30
0.0
 11
352.95
 21
602.1644499999998
 31
0.0
  0
LINE
  5
390
330
1E
100
AcDbEntity
  8
0
100
AcDbLine
 10
363.05
 20
604.1084499999998
 30
0.0
 11
363.9499999999998
 21
605.12345
 31
0.0
  0
LINE
  5
391
330
1E
100
AcDbEntity
  8
0
100
AcDbLine
 10
364.25
 20
610.19885
 30
0.0
 11
366.05
 21
609.09545
 31
0.0
  0
LINE
  5
392
330
1E
100
AcDbEntity
  8
0
100
AcDbLine
 10
363.9499999999998
 20
605.12345
 30
0.0
 11
364.25
 21
606.1794499999998
 31
0.0
  0
LINE
  5
393
330
1E
100
AcDbEntity
  8
0
100
AcDbLine
 10
366.05
 20
603.3054499999998
 30
0.0
 11
367.35
 21
604.70045
 31
0.0
  0
LINE
  5
394
330
1E
100
AcDbEntity
  8
0
100
AcDbLine
 10
367.35
 20
604.70045
 30
0.0
 11
367.75
 21
606.1794499999998
 31
0.0
  0
LINE
  5
395
330
1E
100
AcDbEntity
  8
0
100
AcDbLine
 10
367.75
 20
606.1794499999998
 30
0.0
 11
367.75
 21
522.1164499999998
 31
0.0
  0
LINE
  5
396
330
1E
100
AcDbEntity
  8
0
100
AcDbLine
 10
367.35
 20
607.70145
 30
0.0
 11
367.75
 21
606.1794499999998
 31
0.0
  0
LINE
  5
397
330
1E
100
AcDbEntity
  8
0
100
AcDbLine
 10
366.05
 20
609.09545
 30
0.0
 11
367.35
 21
607.70145
 31
0.0
  0
LINE
  5
398
330
1E
100
AcDbEntity
  8
0
100
AcDbLine
 10
364.25
 20
606.1794499999998
 30
0.0
 11
364.25
 21
626.747101685393
 31
0.0
  0
LINE
  5
399
330
1E
100
AcDbEntity
  8
0
100
AcDbLine
 10
348.85
 20
603.22145
 30
0.0
 11
350.75
 21
602.5454499999998
 31
0.0
  0
LINE
  5
39A
330
1E
100
AcDbEntity
  8
0
100
AcDbLine
 10
347.4499999999999
 20
604.1084499999998
 30
0.0
 11
348.85
 21
603.22145
 31
0.0
  0
LINE
  5
39B
330
1E
100
AcDbEntity
  8
0
100
AcDbLine
 10
347.134
 20
676.3854499999998
 30
0.0
 11
347.134
 21
675.54045
 31
0.0
  0
LINE
  5
39C
330
1E
100
AcDbEntity
  8
0
100
AcDbLine
 10
347.229
 20
653.93645
 30
0.0
 11
348.961
 21
653.02945
 31
0.0
  0
LINE
  5
39D
330
1E
100
AcDbEntity
  8
0
100
AcDbLine
 10
347.229
 20
653.93645
 30
0.0
 11
348.229
 21
655.5054499999998
 31
0.0
  0
LINE
  5
39E
330
1E
100
AcDbEntity
  8
0
100
AcDbLine
 10
348.229
 20
655.5054499999998
 30
0.0
 11
349.961
 21
654.59945
 31
0.0
  0
LINE
  5
39F
330
1E
100
AcDbEntity
  8
0
100
AcDbLine
 10
348.961
 20
653.02945
 30
0.0
 11
349.961
 21
654.59945
 31
0.0
  0
LINE
  5
3A0
330
1E
100
AcDbEntity
  8
0
100
AcDbLine
 10
349.474
 20
631.6734499999999
 30
0.0
 11
351.2059999999998
 21
630.76745
 31
0.0
  0
LINE
  5
3A1
330
1E
100
AcDbEntity
  8
0
100
AcDbLine
 10
349.474
 20
631.6734499999999
 30
0.0
 11
350.4739999999998
 21
633.24345
 31
0.0
  0
LINE
  5
3A2
330
1E
100
AcDbEntity
  8
0
100
AcDbLine
 10
349.866
 20
676.2034499999998
 30
0.0
 11
349.866
 21
677.0494499999998
 31
0.0
  0
LINE
  5
3A3
330
1E
100
AcDbEntity
  8
0
100
AcDbLine
 10
348.8659999999998
 20
674.63445
 30
0.0
 11
349.866
 21
676.2034499999998
 31
0.0
  0
LINE
  5
3A4
330
1E
100
AcDbEntity
  8
0
100
AcDbLine
 10
349.866
 20
677.0494499999998
 30
0.0
 11
349.866
 21
676.2034499999998
 31
0.0
  0
LINE
  5
3A5
330
1E
100
AcDbEntity
  8
0
100
AcDbLine
 10
348.134
 20
677.1104499999998
 30
0.0
 11
348.134
 21
677.95545
 31
0.0
  0
LINE
  5
3A6
330
1E
100
AcDbEntity
  8
0
100
AcDbLine
 10
348.134
 20
677.1104499999998
 30
0.0
 11
349.866
 21
676.2034499999998
 31
0.0
  0
LINE
  5
3A7
330
1E
100
AcDbEntity
  8
0
100
AcDbLine
 10
348.134
 20
677.95545
 30
0.0
 11
348.134
 21
677.1104499999998
 31
0.0
  0
LINE
  5
3A8
330
1E
100
AcDbEntity
  8
0
100
AcDbLine
 10
347.134
 20
675.54045
 30
0.0
 11
348.8659999999998
 21
674.63445
 31
0.0
  0
LINE
  5
3A9
330
1E
100
AcDbEntity
  8
0
100
AcDbLine
 10
347.134
 20
675.54045
 30
0.0
 11
347.134
 21
676.3854499999998
 31
0.0
  0
LINE
  5
3AA
330
1E
100
AcDbEntity
  8
0
100
AcDbLine
 10
347.134
 20
675.54045
 30
0.0
 11
348.134
 21
677.1104499999998
 31
0.0
  0
LINE
  5
3AB
330
1E
100
AcDbEntity
  8
0
100
AcDbLine
 10
350.2499999999998
 20
686.89045
 30
0.0
 11
350.43
 21
688.0504499999998
 31
0.0
  0
LINE
  5
3AC
330
1E
100
AcDbEntity
  8
0
100
AcDbLine
 10
350.2499999999998
 20
686.89045
 30
0.0
 11
350.2499999999998
 21
686.4674499999998
 31
0.0
  0
LINE
  5
3AD
330
1E
100
AcDbEntity
  8
0
100
AcDbLine
 10
350.2499999999998
 20
686.89045
 30
0.0
 11
350.2828189655168
 21
686.67895
 31
0.0
  0
LINE
  5
3AE
330
1E
100
AcDbEntity
  8
0
100
AcDbLine
 10
350.4739999999998
 20
633.24345
 30
0.0
 11
352.2059999999998
 21
632.3374499999999
 31
0.0
  0
LINE
  5
3AF
330
1E
100
AcDbEntity
  8
0
100
AcDbLine
 10
350.43
 20
685.3074499999999
 30
0.0
 11
350.91
 21
684.22045
 31
0.0
  0
LINE
  5
3B0
330
1E
100
AcDbEntity
  8
0
100
AcDbLine
 10
350.91
 20
684.22045
 30
0.0
 11
351.7099999999998
 21
683.2594499999999
 31
0.0
  0
LINE
  5
3B1
330
1E
100
AcDbEntity
  8
0
100
AcDbLine
 10
350.2499999999998
 20
686.4674499999998
 30
0.0
 11
350.43
 21
687.62745
 31
0.0
  0
LINE
  5
3B2
330
1E
100
AcDbEntity
  8
0
100
AcDbLine
 10
350.2499999999998
 20
686.4674499999998
 30
0.0
 11
350.2499999999998
 21
686.89045
 31
0.0
  0
LINE
  5
3B3
330
1E
100
AcDbEntity
  8
0
100
AcDbLine
 10
350.2499999999998
 20
686.4674499999998
 30
0.0
 11
350.43
 21
685.3074499999999
 31
0.0
  0
LINE
  5
3B4
330
1E
100
AcDbEntity
  8
0
100
AcDbLine
 10
350.43
 20
688.0504499999998
 30
0.0
 11
350.91
 21
689.13845
 31
0.0
  0
LINE
  5
3B5
330
1E
100
AcDbEntity
  8
0
100
AcDbLine
 10
350.91
 20
689.13845
 30
0.0
 11
351.7099999999998
 21
690.0984499999998
 31
0.0
  0
LINE
  5
3B6
330
1E
100
AcDbEntity
  8
0
100
AcDbLine
 10
350.43
 20
687.62745
 30
0.0
 11
350.91
 21
688.71545
 31
0.0
  0
LINE
  5
3B7
330
1E
100
AcDbEntity
  8
0
100
AcDbLine
 10
351.2059999999998
 20
630.76745
 30
0.0
 11
352.2059999999998
 21
632.3374499999999
 31
0.0
  0
LINE
  5
3B8
330
1E
100
AcDbEntity
  8
0
100
AcDbLine
 10
351.7099999999998
 20
683.2594499999999
 30
0.0
 11
352.7699999999998
 21
682.5344499999999
 31
0.0
  0
LINE
  5
3B9
330
1E
100
AcDbEntity
  8
0
100
AcDbLine
 10
352.7699999999998
 20
682.5344499999999
 30
0.0
 11
353.97
 21
682.09945
 31
0.0
  0
LINE
  5
3BA
330
1E
100
AcDbEntity
  8
0
100
AcDbLine
 10
350.91
 20
688.71545
 30
0.0
 11
351.7099999999998
 21
689.67645
 31
0.0
  0
LINE
  5
3BB
330
1E
100
AcDbEntity
  8
0
100
AcDbLine
 10
351.7099999999998
 20
690.0984499999998
 30
0.0
 11
352.7699999999998
 21
690.8234499999998
 31
0.0
  0
LINE
  5
3BC
330
1E
100
AcDbEntity
  8
0
100
AcDbLine
 10
352.7699999999998
 20
690.8234499999998
 30
0.0
 11
353.97
 21
691.25845
 31
0.0
  0
LINE
  5
3BD
330
1E
100
AcDbEntity
  8
0
100
AcDbLine
 10
351.7099999999998
 20
689.67645
 30
0.0
 11
352.7699999999998
 21
690.4014499999998
 31
0.0
  0
LINE
  5
3BE
330
1E
100
AcDbEntity
  8
0
100
AcDbLine
 10
354.57
 20
663.83745
 30
0.0
 11
356.3019999999998
 21
662.93145
 31
0.0
  0
LINE
  5
3BF
330
1E
100
AcDbEntity
  8
0
100
AcDbLine
 10
354.57
 20
663.83745
 30
0.0
 11
355.5699999999998
 21
665.40745
 31
0.0
  0
LINE
  5
3C0
330
1E
100
AcDbEntity
  8
0
100
AcDbLine
 10
355.5699999999998
 20
665.40745
 30
0.0
 11
357.3019999999998
 21
664.5004499999998
 31
0.0
  0
LINE
  5
3C1
330
1E
100
AcDbEntity
  8
0
100
AcDbLine
 10
357.9019999999998
 20
641.47045
 30
0.0
 11
358.902
 21
643.0404499999998
 31
0.0
  0
LINE
  5
3C2
330
1E
100
AcDbEntity
  8
0
100
AcDbLine
 10
360.634
 20
677.0494499999998
 30
0.0
 11
360.634
 21
676.2034499999998
 31
0.0
  0
LINE
  5
3C3
330
1E
100
AcDbEntity
  8
0
100
AcDbLine
 10
360.634
 20
676.2034499999998
 30
0.0
 11
362.366
 21
677.1104499999998
 31
0.0
  0
LINE
  5
3C4
330
1E
100
AcDbEntity
  8
0
100
AcDbLine
 10
360.634
 20
676.2034499999998
 30
0.0
 11
361.634
 21
674.63445
 31
0.0
  0
LINE
  5
3C5
330
1E
100
AcDbEntity
  8
0
100
AcDbLine
 10
360.634
 20
676.2034499999998
 30
0.0
 11
360.634
 21
677.0494499999998
 31
0.0
  0
LINE
  5
3C6
330
1E
100
AcDbEntity
  8
0
100
AcDbLine
 10
356.3019999999998
 20
662.93145
 30
0.0
 11
357.3019999999998
 21
664.5004499999998
 31
0.0
  0
LINE
  5
3C7
330
1E
100
AcDbEntity
  8
0
100
AcDbLine
 10
362.366
 20
677.95545
 30
0.0
 11
362.366
 21
677.1104499999998
 31
0.0
  0
LINE
  5
3C8
330
1E
100
AcDbEntity
  8
0
100
AcDbLine
 10
362.366
 20
677.1104499999998
 30
0.0
 11
363.3659999999999
 21
675.54045
 31
0.0
  0
LINE
  5
3C9
330
1E
100
AcDbEntity
  8
0
100
AcDbLine
 10
362.366
 20
677.1104499999998
 30
0.0
 11
362.366
 21
677.95545
 31
0.0
  0
LINE
  5
3CA
330
1E
100
AcDbEntity
  8
0
100
AcDbLine
 10
361.634
 20
674.63445
 30
0.0
 11
363.3659999999999
 21
675.54045
 31
0.0
  0
LINE
  5
3CB
330
1E
100
AcDbEntity
  8
0
100
AcDbLine
 10
361.533
 20
654.0114499999998
 30
0.0
 11
363.2649999999998
 21
653.10545
 31
0.0
  0
LINE
  5
3CC
330
1E
100
AcDbEntity
  8
0
100
AcDbLine
 10
361.533
 20
654.0114499999998
 30
0.0
 11
362.533
 21
655.58145
 31
0.0
  0
LINE
  5
3CD
330
1E
100
AcDbEntity
  8
0
100
AcDbLine
 10
357.17
 20
643.94645
 30
0.0
 11
358.902
 21
643.0404499999998
 31
0.0
  0
LINE
  5
3CE
330
1E
100
AcDbEntity
  8
0
100
AcDbLine
 10
356.17
 20
642.3774499999998
 30
0.0
 11
357.9019999999998
 21
641.47045
 31
0.0
  0
LINE
  5
3CF
330
1E
100
AcDbEntity
  8
0
100
AcDbLine
 10
356.17
 20
642.3774499999998
 30
0.0
 11
357.17
 21
643.94645
 31
0.0
  0
LINE
  5
3D0
330
1E
100
AcDbEntity
  8
0
100
AcDbLine
 10
362.384
 20
632.434563411765
 30
0.0
 11
362.384
 21
631.7794499999998
 31
0.0
  0
LINE
  5
3D1
330
1E
100
AcDbEntity
  8
0
100
AcDbLine
 10
363.3659999999999
 20
675.54045
 30
0.0
 11
363.3659999999999
 21
676.3854499999998
 31
0.0
  0
LINE
  5
3D2
330
1E
100
AcDbEntity
  8
0
100
AcDbLine
 10
363.3659999999999
 20
676.3854499999998
 30
0.0
 11
363.3659999999999
 21
675.54045
 31
0.0
  0
LINE
  5
3D3
330
1E
100
AcDbEntity
  8
0
100
AcDbLine
 10
363.2649999999998
 20
653.10545
 30
0.0
 11
364.2649999999998
 21
654.6744499999999
 31
0.0
  0
LINE
  5
3D4
330
1E
100
AcDbEntity
  8
0
100
AcDbLine
 10
362.533
 20
655.58145
 30
0.0
 11
364.2649999999998
 21
654.6744499999999
 31
0.0
  0
LINE
  5
3D5
330
1E
100
AcDbEntity
  8
0
100
AcDbLine
 10
363.384
 20
633.34945
 30
0.0
 11
365.1159999999998
 21
632.4434499999998
 31
0.0
  0
LINE
  5
3D6
330
1E
100
AcDbEntity
  8
0
100
AcDbLine
 10
362.384
 20
631.7794499999998
 30
0.0
 11
364.1159999999998
 21
630.87345
 31
0.0
  0
LINE
  5
3D7
330
1E
100
AcDbEntity
  8
0
100
AcDbLine
 10
362.384
 20
631.7794499999998
 30
0.0
 11
362.384
 21
632.434563411765
 31
0.0
  0
LINE
  5
3D8
330
1E
100
AcDbEntity
  8
0
100
AcDbLine
 10
362.384
 20
631.7794499999998
 30
0.0
 11
363.384
 21
633.34945
 31
0.0
  0
LINE
  5
3D9
330
1E
100
AcDbEntity
  8
0
100
AcDbLine
 10
356.5299999999998
 20
682.09945
 30
0.0
 11
357.73
 21
682.5344499999999
 31
0.0
  0
LINE
  5
3DA
330
1E
100
AcDbEntity
  8
0
100
AcDbLine
 10
355.25
 20
681.93645
 30
0.0
 11
356.5299999999998
 21
682.09945
 31
0.0
  0
LINE
  5
3DB
330
1E
100
AcDbEntity
  8
0
100
AcDbLine
 10
357.73
 20
690.8234499999998
 30
0.0
 11
358.79
 21
690.0984499999998
 31
0.0
  0
LINE
  5
3DC
330
1E
100
AcDbEntity
  8
0
100
AcDbLine
 10
357.73
 20
690.4014499999998
 30
0.0
 11
358.79
 21
689.67645
 31
0.0
  0
LINE
  5
3DD
330
1E
100
AcDbEntity
  8
0
100
AcDbLine
 10
356.5299999999998
 20
690.83645
 30
0.0
 11
357.73
 21
690.4014499999998
 31
0.0
  0
LINE
  5
3DE
330
1E
100
AcDbEntity
  8
0
100
AcDbLine
 10
359.5899999999998
 20
689.13845
 30
0.0
 11
360.0699999999998
 21
688.0504499999998
 31
0.0
  0
LINE
  5
3DF
330
1E
100
AcDbEntity
  8
0
100
AcDbLine
 10
359.5899999999998
 20
688.71545
 30
0.0
 11
360.0699999999998
 21
687.62745
 31
0.0
  0
LINE
  5
3E0
330
1E
100
AcDbEntity
  8
0
100
AcDbLine
 10
358.79
 20
690.0984499999998
 30
0.0
 11
359.5899999999998
 21
689.13845
 31
0.0
  0
LINE
  5
3E1
330
1E
100
AcDbEntity
  8
0
100
AcDbLine
 10
358.79
 20
689.67645
 30
0.0
 11
359.5899999999998
 21
688.71545
 31
0.0
  0
LINE
  5
3E2
330
1E
100
AcDbEntity
  8
0
100
AcDbLine
 10
360.0699999999998
 20
688.0504499999998
 30
0.0
 11
360.25
 21
686.89045
 31
0.0
  0
LINE
  5
3E3
330
1E
100
AcDbEntity
  8
0
100
AcDbLine
 10
360.0699999999998
 20
687.62745
 30
0.0
 11
360.25
 21
686.4674499999998
 31
0.0
  0
LINE
  5
3E4
330
1E
100
AcDbEntity
  8
0
100
AcDbLine
 10
360.25
 20
686.89045
 30
0.0
 11
360.25
 21
686.4674499999998
 31
0.0
  0
LINE
  5
3E5
330
1E
100
AcDbEntity
  8
0
100
AcDbLine
 10
360.25
 20
686.4674499999998
 30
0.0
 11
360.25
 21
686.89045
 31
0.0
  0
LINE
  5
3E6
330
1E
100
AcDbEntity
  8
0
100
AcDbLine
 10
360.217181034483
 20
686.67895
 30
0.0
 11
360.25
 21
686.89045
 31
0.0
  0
LINE
  5
3E7
330
1E
100
AcDbEntity
  8
0
100
AcDbLine
 10
360.0699999999998
 20
685.3074499999999
 30
0.0
 11
360.25
 21
686.4674499999998
 31
0.0
  0
LINE
  5
3E8
330
1E
100
AcDbEntity
  8
0
100
AcDbLine
 10
359.5899999999998
 20
684.22045
 30
0.0
 11
360.0699999999998
 21
685.3074499999999
 31
0.0
  0
LINE
  5
3E9
330
1E
100
AcDbEntity
  8
0
100
AcDbLine
 10
358.79
 20
683.2594499999999
 30
0.0
 11
359.5899999999998
 21
684.22045
 31
0.0
  0
LINE
  5
3EA
330
1E
100
AcDbEntity
  8
0
100
AcDbLine
 10
357.73
 20
682.5344499999999
 30
0.0
 11
358.79
 21
683.2594499999999
 31
0.0
  0
LINE
  5
3EB
330
1E
100
AcDbEntity
  8
0
100
AcDbLine
 10
353.97
 20
682.09945
 30
0.0
 11
355.25
 21
681.93645
 31
0.0
  0
LINE
  5
3EC
330
1E
100
AcDbEntity
  8
0
100
AcDbLine
 10
352.7699999999998
 20
690.4014499999998
 30
0.0
 11
353.97
 21
690.83645
 31
0.0
  0
LINE
  5
3ED
330
1E
100
AcDbEntity
  8
0
100
AcDbLine
 10
347.134
 20
698.24045
 30
0.0
 11
347.134
 21
697.3954499999998
 31
0.0
  0
LINE
  5
3EE
330
1E
100
AcDbEntity
  8
0
100
AcDbLine
 10
349.866
 20
696.73145
 30
0.0
 11
349.866
 21
697.57645
 31
0.0
  0
LINE
  5
3EF
330
1E
100
AcDbEntity
  8
0
100
AcDbLine
 10
349.866
 20
697.57645
 30
0.0
 11
349.866
 21
696.73145
 31
0.0
  0
LINE
  5
3F0
330
1E
100
AcDbEntity
  8
0
100
AcDbLine
 10
348.134
 20
695.82545
 30
0.0
 11
349.866
 21
696.73145
 31
0.0
  0
LINE
  5
3F1
330
1E
100
AcDbEntity
  8
0
100
AcDbLine
 10
347.134
 20
697.3954499999998
 30
0.0
 11
348.8659999999998
 21
698.30145
 31
0.0
  0
LINE
  5
3F2
330
1E
100
AcDbEntity
  8
0
100
AcDbLine
 10
347.134
 20
697.3954499999998
 30
0.0
 11
348.134
 21
695.82545
 31
0.0
  0
LINE
  5
3F3
330
1E
100
AcDbEntity
  8
0
100
AcDbLine
 10
347.134
 20
697.3954499999998
 30
0.0
 11
347.134
 21
698.24045
 31
0.0
  0
LINE
  5
3F4
330
1E
100
AcDbEntity
  8
0
100
AcDbLine
 10
348.229
 20
718.27445
 30
0.0
 11
349.961
 21
719.18145
 31
0.0
  0
LINE
  5
3F5
330
1E
100
AcDbEntity
  8
0
100
AcDbLine
 10
347.229
 20
719.84445
 30
0.0
 11
348.961
 21
720.7504499999998
 31
0.0
  0
LINE
  5
3F6
330
1E
100
AcDbEntity
  8
0
100
AcDbLine
 10
347.229
 20
719.84445
 30
0.0
 11
348.229
 21
718.27445
 31
0.0
  0
LINE
  5
3F7
330
1E
100
AcDbEntity
  8
0
100
AcDbLine
 10
348.961
 20
720.7504499999998
 30
0.0
 11
349.961
 21
719.18145
 31
0.0
  0
LINE
  5
3F8
330
1E
100
AcDbEntity
  8
0
100
AcDbLine
 10
350.4739999999998
 20
741.3824499999998
 30
0.0
 11
352.2059999999998
 21
742.28845
 31
0.0
  0
LINE
  5
3F9
330
1E
100
AcDbEntity
  8
0
100
AcDbLine
 10
351.2059999999998
 20
743.8584499999998
 30
0.0
 11
352.2059999999998
 21
742.28845
 31
0.0
  0
LINE
  5
3FA
330
1E
100
AcDbEntity
  8
0
100
AcDbLine
 10
349.474
 20
742.95245
 30
0.0
 11
351.2059999999998
 21
743.8584499999998
 31
0.0
  0
LINE
  5
3FB
330
1E
100
AcDbEntity
  8
0
100
AcDbLine
 10
349.474
 20
742.95245
 30
0.0
 11
350.4739999999998
 21
741.3824499999998
 31
0.0
  0
LINE
  5
3FC
330
1E
100
AcDbEntity
  8
0
100
AcDbLine
 10
348.8659999999998
 20
699.1464499999998
 30
0.0
 11
348.8659999999998
 21
698.30145
 31
0.0
  0
LINE
  5
3FD
330
1E
100
AcDbEntity
  8
0
100
AcDbLine
 10
348.8659999999998
 20
698.30145
 30
0.0
 11
348.8659999999998
 21
699.1464499999998
 31
0.0
  0
LINE
  5
3FE
330
1E
100
AcDbEntity
  8
0
100
AcDbLine
 10
348.8659999999998
 20
698.30145
 30
0.0
 11
349.866
 21
696.73145
 31
0.0
  0
LINE
  5
3FF
330
1E
100
AcDbEntity
  8
0
100
AcDbLine
 10
354.57
 20
709.52045
 30
0.0
 11
356.3019999999998
 21
710.42745
 31
0.0
  0
LINE
  5
400
330
1E
100
AcDbEntity
  8
0
100
AcDbLine
 10
354.57
 20
709.52045
 30
0.0
 11
355.5699999999998
 21
707.95145
 31
0.0
  0
LINE
  5
401
330
1E
100
AcDbEntity
  8
0
100
AcDbLine
 10
356.3019999999998
 20
710.42745
 30
0.0
 11
357.3019999999998
 21
708.85745
 31
0.0
  0
LINE
  5
402
330
1E
100
AcDbEntity
  8
0
100
AcDbLine
 10
355.5699999999998
 20
707.95145
 30
0.0
 11
357.3019999999998
 21
708.85745
 31
0.0
  0
LINE
  5
403
330
1E
100
AcDbEntity
  8
0
100
AcDbLine
 10
357.17
 20
730.2564499999999
 30
0.0
 11
358.902
 21
731.16245
 31
0.0
  0
LINE
  5
404
330
1E
100
AcDbEntity
  8
0
100
AcDbLine
 10
357.9019999999998
 20
732.7324499999998
 30
0.0
 11
358.902
 21
731.16245
 31
0.0
  0
LINE
  5
405
330
1E
100
AcDbEntity
  8
0
100
AcDbLine
 10
356.17
 20
731.82645
 30
0.0
 11
357.9019999999998
 21
732.7324499999998
 31
0.0
  0
LINE
  5
406
330
1E
100
AcDbEntity
  8
0
100
AcDbLine
 10
356.17
 20
731.82645
 30
0.0
 11
357.17
 21
730.2564499999999
 31
0.0
  0
LINE
  5
407
330
1E
100
AcDbEntity
  8
0
100
AcDbLine
 10
361.533
 20
719.7694499999998
 30
0.0
 11
363.2649999999998
 21
720.6754499999998
 31
0.0
  0
LINE
  5
408
330
1E
100
AcDbEntity
  8
0
100
AcDbLine
 10
361.533
 20
719.7694499999998
 30
0.0
 11
362.533
 21
718.19945
 31
0.0
  0
LINE
  5
409
330
1E
100
AcDbEntity
  8
0
100
AcDbLine
 10
361.634
 20
699.1464499999998
 30
0.0
 11
361.634
 21
698.30145
 31
0.0
  0
LINE
  5
40A
330
1E
100
AcDbEntity
  8
0
100
AcDbLine
 10
360.634
 20
697.57645
 30
0.0
 11
360.634
 21
696.73145
 31
0.0
  0
LINE
  5
40B
330
1E
100
AcDbEntity
  8
0
100
AcDbLine
 10
360.634
 20
696.73145
 30
0.0
 11
362.366
 21
695.82545
 31
0.0
  0
LINE
  5
40C
330
1E
100
AcDbEntity
  8
0
100
AcDbLine
 10
360.634
 20
696.73145
 30
0.0
 11
361.634
 21
698.30145
 31
0.0
  0
LINE
  5
40D
330
1E
100
AcDbEntity
  8
0
100
AcDbLine
 10
360.634
 20
696.73145
 30
0.0
 11
360.634
 21
697.57645
 31
0.0
  0
LINE
  5
40E
330
1E
100
AcDbEntity
  8
0
100
AcDbLine
 10
363.3659999999999
 20
697.3954499999998
 30
0.0
 11
363.3659999999999
 21
698.24045
 31
0.0
  0
LINE
  5
40F
330
1E
100
AcDbEntity
  8
0
100
AcDbLine
 10
362.366
 20
695.82545
 30
0.0
 11
363.3659999999999
 21
697.3954499999998
 31
0.0
  0
LINE
  5
410
330
1E
100
AcDbEntity
  8
0
100
AcDbLine
 10
362.384
 20
742.9007008235299
 30
0.0
 11
362.384
 21
742.84645
 31
0.0
  0
LINE
  5
411
330
1E
100
AcDbEntity
  8
0
100
AcDbLine
 10
363.2649999999998
 20
720.6754499999998
 30
0.0
 11
364.2649999999998
 21
719.10645
 31
0.0
  0
LINE
  5
412
330
1E
100
AcDbEntity
  8
0
100
AcDbLine
 10
362.533
 20
718.19945
 30
0.0
 11
364.2649999999998
 21
719.10645
 31
0.0
  0
LINE
  5
413
330
1E
100
AcDbEntity
  8
0
100
AcDbLine
 10
363.384
 20
741.2764499999998
 30
0.0
 11
365.1159999999998
 21
742.18245
 31
0.0
  0
LINE
  5
414
330
1E
100
AcDbEntity
  8
0
100
AcDbLine
 10
362.384
 20
742.84645
 30
0.0
 11
364.1159999999998
 21
743.7524499999998
 31
0.0
  0
LINE
  5
415
330
1E
100
AcDbEntity
  8
0
100
AcDbLine
 10
362.384
 20
742.84645
 30
0.0
 11
363.384
 21
741.2764499999998
 31
0.0
  0
LINE
  5
416
330
1E
100
AcDbEntity
  8
0
100
AcDbLine
 10
362.384
 20
742.84645
 30
0.0
 11
362.384
 21
742.9007008235299
 31
0.0
  0
LINE
  5
417
330
1E
100
AcDbEntity
  8
0
100
AcDbLine
 10
363.3659999999999
 20
698.24045
 30
0.0
 11
363.3659999999999
 21
697.3954499999998
 31
0.0
  0
LINE
  5
418
330
1E
100
AcDbEntity
  8
0
100
AcDbLine
 10
361.634
 20
698.30145
 30
0.0
 11
361.634
 21
699.1464499999998
 31
0.0
  0
LINE
  5
419
330
1E
100
AcDbEntity
  8
0
100
AcDbLine
 10
361.634
 20
698.30145
 30
0.0
 11
363.3659999999999
 21
697.3954499999998
 31
0.0
  0
LINE
  5
41A
330
1E
100
AcDbEntity
  8
0
100
AcDbLine
 10
356.5299999999998
 20
691.25845
 30
0.0
 11
357.73
 21
690.8234499999998
 31
0.0
  0
LINE
  5
41B
330
1E
100
AcDbEntity
  8
0
100
AcDbLine
 10
355.25
 20
691.42145
 30
0.0
 11
356.5299999999998
 21
691.25845
 31
0.0
  0
LINE
  5
41C
330
1E
100
AcDbEntity
  8
0
100
AcDbLine
 10
355.25
 20
690.99945
 30
0.0
 11
356.5299999999998
 21
690.83645
 31
0.0
  0
LINE
  5
41D
330
1E
100
AcDbEntity
  8
0
100
AcDbLine
 10
353.97
 20
691.25845
 30
0.0
 11
355.25
 21
691.42145
 31
0.0
  0
LINE
  5
41E
330
1E
100
AcDbEntity
  8
0
100
AcDbLine
 10
353.97
 20
690.83645
 30
0.0
 11
355.25
 21
690.99945
 31
0.0
  0
LINE
  5
41F
330
1E
100
AcDbEntity
  8
0
100
AcDbLine
 10
363.75
 20
745.64845
 30
0.0
 11
370.85
 21
744.1084499999998
 31
0.0
  0
LINE
  5
420
330
1E
100
AcDbEntity
  8
0
100
AcDbLine
 10
355.25
 20
746.19245
 30
0.0
 11
363.75
 21
745.64845
 31
0.0
  0
LINE
  5
421
330
1E
100
AcDbEntity
  8
0
100
AcDbLine
 10
363.9499999999998
 20
748.27745
 30
0.0
 11
372.25
 21
746.73645
 31
0.0
  0
LINE
  5
422
330
1E
100
AcDbEntity
  8
0
100
AcDbLine
 10
363.75
 20
629.8224499999999
 30
0.0
 11
370.85
 21
631.3634499999998
 31
0.0
  0
LINE
  5
423
330
1E
100
AcDbEntity
  8
0
100
AcDbLine
 10
355.25
 20
629.27845
 30
0.0
 11
363.75
 21
629.8224499999999
 31
0.0
  0
LINE
  5
424
330
1E
100
AcDbEntity
  8
0
100
AcDbLine
 10
363.9499999999998
 20
627.19445
 30
0.0
 11
372.25
 21
628.73545
 31
0.0
  0
LINE
  5
425
330
1E
100
AcDbEntity
  8
0
100
AcDbLine
 10
355.25
 20
626.5594499999998
 30
0.0
 11
363.9499999999998
 21
627.19445
 31
0.0
  0
LINE
  5
426
330
1E
100
AcDbEntity
  8
0
100
AcDbLine
 10
364.25
 20
626.747101685393
 30
0.0
 11
364.25
 21
606.1794499999998
 31
0.0
  0
LINE
  5
427
330
1E
100
AcDbEntity
  8
0
100
AcDbLine
 10
364.1159999999998
 20
630.87345
 30
0.0
 11
365.1159999999998
 21
632.4434499999998
 31
0.0
  0
LINE
  5
428
330
1E
100
AcDbEntity
  8
0
100
AcDbLine
 10
366.634
 20
666.99545
 30
0.0
 11
368.3659999999998
 21
667.90245
 31
0.0
  0
LINE
  5
429
330
1E
100
AcDbEntity
  8
0
100
AcDbLine
 10
366.634
 20
666.99545
 30
0.0
 11
367.634
 21
665.42645
 31
0.0
  0
LINE
  5
42A
330
1E
100
AcDbEntity
  8
0
100
AcDbLine
 10
367.634
 20
665.42645
 30
0.0
 11
369.3659999999998
 21
666.3324499999998
 31
0.0
  0
LINE
  5
42B
330
1E
100
AcDbEntity
  8
0
100
AcDbLine
 10
364.1159999999998
 20
743.7524499999998
 30
0.0
 11
365.1159999999998
 21
742.18245
 31
0.0
  0
LINE
  5
42C
330
1E
100
AcDbEntity
  8
0
100
AcDbLine
 10
366.634
 20
706.3624499999998
 30
0.0
 11
368.3659999999998
 21
705.45645
 31
0.0
  0
LINE
  5
42D
330
1E
100
AcDbEntity
  8
0
100
AcDbLine
 10
366.634
 20
706.3624499999998
 30
0.0
 11
367.634
 21
707.93245
 31
0.0
  0
LINE
  5
42E
330
1E
100
AcDbEntity
  8
0
100
AcDbLine
 10
367.736
 20
730.5274176923068
 30
0.0
 11
367.736
 21
730.2024499999999
 31
0.0
  0
LINE
  5
42F
330
1E
100
AcDbEntity
  8
0
100
AcDbLine
 10
367.736
 20
730.2024499999999
 30
0.0
 11
369.4669999999998
 21
731.1084499999998
 31
0.0
  0
LINE
  5
430
330
1E
100
AcDbEntity
  8
0
100
AcDbLine
 10
367.736
 20
730.2024499999999
 30
0.0
 11
368.7359999999998
 21
728.6324499999998
 31
0.0
  0
LINE
  5
431
330
1E
100
AcDbEntity
  8
0
100
AcDbLine
 10
367.736
 20
730.2024499999999
 30
0.0
 11
367.736
 21
730.5274176923068
 31
0.0
  0
LINE
  5
432
330
1E
100
AcDbEntity
  8
0
100
AcDbLine
 10
367.634
 20
707.93245
 30
0.0
 11
369.3659999999998
 21
707.0254499999998
 31
0.0
  0
LINE
  5
433
330
1E
100
AcDbEntity
  8
0
100
AcDbLine
 10
367.736
 20
644.2689838461538
 30
0.0
 11
367.736
 21
644.00145
 31
0.0
  0
LINE
  5
434
330
1E
100
AcDbEntity
  8
0
100
AcDbLine
 10
369.4669999999998
 20
643.09545
 30
0.0
 11
370.467
 21
644.6644499999998
 31
0.0
  0
LINE
  5
435
330
1E
100
AcDbEntity
  8
0
100
AcDbLine
 10
368.7359999999998
 20
645.57145
 30
0.0
 11
368.7359999999998
 21
645.627475116279
 31
0.0
  0
LINE
  5
436
330
1E
100
AcDbEntity
  8
0
100
AcDbLine
 10
368.7359999999998
 20
645.57145
 30
0.0
 11
370.467
 21
644.6644499999998
 31
0.0
  0
LINE
  5
437
330
1E
100
AcDbEntity
  8
0
100
AcDbLine
 10
367.75
 20
686.4064499999998
 30
0.0
 11
367.75
 21
685.56145
 31
0.0
  0
LINE
  5
438
330
1E
100
AcDbEntity
  8
0
100
AcDbLine
 10
367.75
 20
685.56145
 30
0.0
 11
367.75
 21
687.37445
 31
0.0
  0
LINE
  5
439
330
1E
100
AcDbEntity
  8
0
100
AcDbLine
 10
367.75
 20
685.56145
 30
0.0
 11
369.75
 21
685.56145
 31
0.0
  0
LINE
  5
43A
330
1E
100
AcDbEntity
  8
0
100
AcDbLine
 10
367.75
 20
685.56145
 30
0.0
 11
367.75
 21
686.4064499999998
 31
0.0
  0
LINE
  5
43B
330
1E
100
AcDbEntity
  8
0
100
AcDbLine
 10
367.75
 20
688.21945
 30
0.0
 11
367.75
 21
687.37445
 31
0.0
  0
LINE
  5
43C
330
1E
100
AcDbEntity
  8
0
100
AcDbLine
 10
367.75
 20
687.37445
 30
0.0
 11
369.75
 21
687.37445
 31
0.0
  0
LINE
  5
43D
330
1E
100
AcDbEntity
  8
0
100
AcDbLine
 10
367.75
 20
687.37445
 30
0.0
 11
367.75
 21
688.21945
 31
0.0
  0
LINE
  5
43E
330
1E
100
AcDbEntity
  8
0
100
AcDbLine
 10
367.75
 20
687.37445
 30
0.0
 11
367.75
 21
685.56145
 31
0.0
  0
LINE
  5
43F
330
1E
100
AcDbEntity
  8
0
100
AcDbLine
 10
368.3659999999998
 20
667.90245
 30
0.0
 11
369.3659999999998
 21
666.3324499999998
 31
0.0
  0
LINE
  5
440
330
1E
100
AcDbEntity
  8
0
100
AcDbLine
 10
369.75
 20
685.56145
 30
0.0
 11
369.75
 21
687.37445
 31
0.0
  0
LINE
  5
441
330
1E
100
AcDbEntity
  8
0
100
AcDbLine
 10
369.4669999999998
 20
731.1084499999998
 30
0.0
 11
370.467
 21
729.5384499999999
 31
0.0
  0
LINE
  5
442
330
1E
100
AcDbEntity
  8
0
100
AcDbLine
 10
368.7359999999998
 20
728.6324499999998
 30
0.0
 11
370.467
 21
729.5384499999999
 31
0.0
  0
LINE
  5
443
330
1E
100
AcDbEntity
  8
0
100
AcDbLine
 10
369.75
 20
688.21945
 30
0.0
 11
369.75
 21
687.37445
 31
0.0
  0
LINE
  5
444
330
1E
100
AcDbEntity
  8
0
100
AcDbLine
 10
369.75
 20
687.37445
 30
0.0
 11
369.75
 21
685.56145
 31
0.0
  0
LINE
  5
445
330
1E
100
AcDbEntity
  8
0
100
AcDbLine
 10
369.75
 20
687.37445
 30
0.0
 11
369.75
 21
688.21945
 31
0.0
  0
LINE
  5
446
330
1E
100
AcDbEntity
  8
0
100
AcDbLine
 10
368.3659999999998
 20
705.45645
 30
0.0
 11
369.3659999999998
 21
707.0254499999998
 31
0.0
  0
LINE
  5
447
330
1E
100
AcDbEntity
  8
0
100
AcDbLine
 10
368.7359999999998
 20
645.627475116279
 30
0.0
 11
368.7359999999998
 21
645.57145
 31
0.0
  0
LINE
  5
448
330
1E
100
AcDbEntity
  8
0
100
AcDbLine
 10
367.736
 20
644.00145
 30
0.0
 11
369.4669999999998
 21
643.09545
 31
0.0
  0
LINE
  5
449
330
1E
100
AcDbEntity
  8
0
100
AcDbLine
 10
367.736
 20
644.00145
 30
0.0
 11
367.736
 21
644.2689838461538
 31
0.0
  0
LINE
  5
44A
330
1E
100
AcDbEntity
  8
0
100
AcDbLine
 10
367.736
 20
644.00145
 30
0.0
 11
368.7359999999998
 21
645.57145
 31
0.0
  0
LINE
  5
44B
330
1E
100
AcDbEntity
  8
0
100
AcDbLine
 10
370.85
 20
744.1084499999998
 30
0.0
 11
379.85
 21
741.66045
 31
0.0
  0
LINE
  5
44C
330
1E
100
AcDbEntity
  8
0
100
AcDbLine
 10
372.634
 20
657.78845
 30
0.0
 11
374.3659999999998
 21
658.69545
 31
0.0
  0
LINE
  5
44D
330
1E
100
AcDbEntity
  8
0
100
AcDbLine
 10
372.634
 20
657.78845
 30
0.0
 11
373.634
 21
656.21945
 31
0.0
  0
LINE
  5
44E
330
1E
100
AcDbEntity
  8
0
100
AcDbLine
 10
374.3659999999998
 20
658.69545
 30
0.0
 11
375.3659999999998
 21
657.12545
 31
0.0
  0
LINE
  5
44F
330
1E
100
AcDbEntity
  8
0
100
AcDbLine
 10
373.634
 20
656.21945
 30
0.0
 11
375.3659999999998
 21
657.12545
 31
0.0
  0
LINE
  5
450
330
1E
100
AcDbEntity
  8
0
100
AcDbLine
 10
372.634
 20
715.99145
 30
0.0
 11
374.3659999999998
 21
715.08545
 31
0.0
  0
LINE
  5
451
330
1E
100
AcDbEntity
  8
0
100
AcDbLine
 10
372.634
 20
715.99145
 30
0.0
 11
373.634
 21
717.56145
 31
0.0
  0
LINE
  5
452
330
1E
100
AcDbEntity
  8
0
100
AcDbLine
 10
374.3659999999998
 20
715.08545
 30
0.0
 11
375.3659999999998
 21
716.65545
 31
0.0
  0
LINE
  5
453
330
1E
100
AcDbEntity
  8
0
100
AcDbLine
 10
374.768
 20
740.13845
 30
0.0
 11
376.5
 21
741.04545
 31
0.0
  0
LINE
  5
454
330
1E
100
AcDbEntity
  8
0
100
AcDbLine
 10
374.768
 20
740.13845
 30
0.0
 11
375.768
 21
738.5694499999998
 31
0.0
  0
LINE
  5
455
330
1E
100
AcDbEntity
  8
0
100
AcDbLine
 10
373.634
 20
717.56145
 30
0.0
 11
375.3659999999998
 21
716.65545
 31
0.0
  0
LINE
  5
456
330
1E
100
AcDbEntity
  8
0
100
AcDbLine
 10
376.5
 20
633.58045
 30
0.0
 11
377.4999999999998
 21
635.1504499999998
 31
0.0
  0
LINE
  5
457
330
1E
100
AcDbEntity
  8
0
100
AcDbLine
 10
377.416
 20
673.97945
 30
0.0
 11
377.416
 21
675.79145
 31
0.0
  0
LINE
  5
458
330
1E
100
AcDbEntity
  8
0
100
AcDbLine
 10
375.416
 20
673.97945
 30
0.0
 11
375.416
 21
675.79145
 31
0.0
  0
LINE
  5
459
330
1E
100
AcDbEntity
  8
0
100
AcDbLine
 10
375.416
 20
673.97945
 30
0.0
 11
377.416
 21
673.97945
 31
0.0
  0
LINE
  5
45A
330
1E
100
AcDbEntity
  8
0
100
AcDbLine
 10
375.416
 20
675.79145
 30
0.0
 11
377.416
 21
675.79145
 31
0.0
  0
LINE
  5
45B
330
1E
100
AcDbEntity
  8
0
100
AcDbLine
 10
375.416
 20
675.79145
 30
0.0
 11
375.416
 21
673.97945
 31
0.0
  0
LINE
  5
45C
330
1E
100
AcDbEntity
  8
0
100
AcDbLine
 10
377.416
 20
675.79145
 30
0.0
 11
377.416
 21
673.97945
 31
0.0
  0
LINE
  5
45D
330
1E
100
AcDbEntity
  8
0
100
AcDbLine
 10
376.5
 20
741.04545
 30
0.0
 11
377.4999999999998
 21
739.47545
 31
0.0
  0
LINE
  5
45E
330
1E
100
AcDbEntity
  8
0
100
AcDbLine
 10
375.768
 20
738.5694499999998
 30
0.0
 11
377.4999999999998
 21
739.47545
 31
0.0
  0
LINE
  5
45F
330
1E
100
AcDbEntity
  8
0
100
AcDbLine
 10
377.416
 20
699.3794499999998
 30
0.0
 11
377.416
 21
697.56645
 31
0.0
  0
LINE
  5
460
330
1E
100
AcDbEntity
  8
0
100
AcDbLine
 10
375.416
 20
699.3794499999998
 30
0.0
 11
375.416
 21
697.56645
 31
0.0
  0
LINE
  5
461
330
1E
100
AcDbEntity
  8
0
100
AcDbLine
 10
375.416
 20
699.3794499999998
 30
0.0
 11
377.416
 21
699.3794499999998
 31
0.0
  0
LINE
  5
462
330
1E
100
AcDbEntity
  8
0
100
AcDbLine
 10
375.416
 20
697.56645
 30
0.0
 11
377.416
 21
697.56645
 31
0.0
  0
LINE
  5
463
330
1E
100
AcDbEntity
  8
0
100
AcDbLine
 10
375.416
 20
697.56645
 30
0.0
 11
375.416
 21
699.3794499999998
 31
0.0
  0
LINE
  5
464
330
1E
100
AcDbEntity
  8
0
100
AcDbLine
 10
378.634
 20
648.58145
 30
0.0
 11
380.3659999999998
 21
649.4884499999998
 31
0.0
  0
LINE
  5
465
330
1E
100
AcDbEntity
  8
0
100
AcDbLine
 10
378.634
 20
648.58145
 30
0.0
 11
379.634
 21
647.0124499999998
 31
0.0
  0
LINE
  5
466
330
1E
100
AcDbEntity
  8
0
100
AcDbLine
 10
379.634
 20
647.0124499999998
 30
0.0
 11
381.366
 21
647.91845
 31
0.0
  0
LINE
  5
467
330
1E
100
AcDbEntity
  8
0
100
AcDbLine
 10
379.7499999999998
 20
685.77245
 30
0.0
 11
379.7499999999998
 21
687.58545
 31
0.0
  0
LINE
  5
468
330
1E
100
AcDbEntity
  8
0
100
AcDbLine
 10
379.7499999999998
 20
685.77245
 30
0.0
 11
381.7499999999998
 21
685.77245
 31
0.0
  0
LINE
  5
469
330
1E
100
AcDbEntity
  8
0
100
AcDbLine
 10
379.7499999999998
 20
687.58545
 30
0.0
 11
381.7499999999998
 21
687.58545
 31
0.0
  0
LINE
  5
46A
330
1E
100
AcDbEntity
  8
0
100
AcDbLine
 10
379.7499999999998
 20
687.58545
 30
0.0
 11
379.7499999999998
 21
685.77245
 31
0.0
  0
LINE
  5
46B
330
1E
100
AcDbEntity
  8
0
100
AcDbLine
 10
378.634
 20
725.6214499999998
 30
0.0
 11
380.3659999999998
 21
724.71545
 31
0.0
  0
LINE
  5
46C
330
1E
100
AcDbEntity
  8
0
100
AcDbLine
 10
378.634
 20
725.6214499999998
 30
0.0
 11
379.634
 21
727.19145
 31
0.0
  0
LINE
  5
46D
330
1E
100
AcDbEntity
  8
0
100
AcDbLine
 10
379.634
 20
727.19145
 30
0.0
 11
381.366
 21
726.2854499999998
 31
0.0
  0
LINE
  5
46E
330
1E
100
AcDbEntity
  8
0
100
AcDbLine
 10
377.416
 20
697.56645
 30
0.0
 11
377.416
 21
699.3794499999998
 31
0.0
  0
LINE
  5
46F
330
1E
100
AcDbEntity
  8
0
100
AcDbLine
 10
375.768
 20
636.05645
 30
0.0
 11
377.4999999999998
 21
635.1504499999998
 31
0.0
  0
LINE
  5
470
330
1E
100
AcDbEntity
  8
0
100
AcDbLine
 10
374.768
 20
634.4874499999998
 30
0.0
 11
376.5
 21
633.58045
 31
0.0
  0
LINE
  5
471
330
1E
100
AcDbEntity
  8
0
100
AcDbLine
 10
374.768
 20
634.4874499999998
 30
0.0
 11
375.768
 21
636.05645
 31
0.0
  0
LINE
  5
472
330
1E
100
AcDbEntity
  8
0
100
AcDbLine
 10
379.85
 20
741.66045
 30
0.0
 11
387.35
 21
738.39845
 31
0.0
  0
LINE
  5
473
330
1E
100
AcDbEntity
  8
0
100
AcDbLine
 10
372.25
 20
746.73645
 30
0.0
 11
381.05
 21
744.1084499999998
 31
0.0
  0
LINE
  5
474
330
1E
100
AcDbEntity
  8
0
100
AcDbLine
 10
372.9499999999998
 20
747.97445
 30
0.0
 11
381.4499999999998
 21
745.43645
 31
0.0
  0
LINE
  5
475
330
1E
100
AcDbEntity
  8
0
100
AcDbLine
 10
380.3659999999998
 20
649.4884499999998
 30
0.0
 11
381.366
 21
647.91845
 31
0.0
  0
LINE
  5
476
330
1E
100
AcDbEntity
  8
0
100
AcDbLine
 10
380.3659999999998
 20
724.71545
 30
0.0
 11
381.366
 21
726.2854499999998
 31
0.0
  0
LINE
  5
477
330
1E
100
AcDbEntity
  8
0
100
AcDbLine
 10
381.05
 20
744.1084499999998
 30
0.0
 11
388.85
 21
740.75445
 31
0.0
  0
LINE
  5
478
330
1E
100
AcDbEntity
  8
0
100
AcDbLine
 10
379.85
 20
633.81045
 30
0.0
 11
387.35
 21
637.07345
 31
0.0
  0
LINE
  5
479
330
1E
100
AcDbEntity
  8
0
100
AcDbLine
 10
370.85
 20
631.3634499999998
 30
0.0
 11
379.85
 21
633.81045
 31
0.0
  0
LINE
  5
47A
330
1E
100
AcDbEntity
  8
0
100
AcDbLine
 10
381.4499999999998
 20
745.43645
 30
0.0
 11
389.35
 21
741.90245
 31
0.0
  0
LINE
  5
47B
330
1E
100
AcDbEntity
  8
0
100
AcDbLine
 10
381.05
 20
631.3634499999998
 30
0.0
 11
388.85
 21
634.7164499999998
 31
0.0
  0
LINE
  5
47C
330
1E
100
AcDbEntity
  8
0
100
AcDbLine
 10
372.25
 20
628.73545
 30
0.0
 11
381.05
 21
631.3634499999998
 31
0.0
  0
LINE
  5
47D
330
1E
100
AcDbEntity
  8
0
100
AcDbLine
 10
381.526
 20
663.7074499999998
 30
0.0
 11
381.526
 21
665.51945
 31
0.0
  0
LINE
  5
47E
330
1E
100
AcDbEntity
  8
0
100
AcDbLine
 10
381.526
 20
663.7074499999998
 30
0.0
 11
383.526
 21
663.7074499999998
 31
0.0
  0
LINE
  5
47F
330
1E
100
AcDbEntity
  8
0
100
AcDbLine
 10
381.526
 20
665.51945
 30
0.0
 11
383.526
 21
665.51945
 31
0.0
  0
LINE
  5
480
330
1E
100
AcDbEntity
  8
0
100
AcDbLine
 10
381.526
 20
665.51945
 30
0.0
 11
381.526
 21
663.7074499999998
 31
0.0
  0
LINE
  5
481
330
1E
100
AcDbEntity
  8
0
100
AcDbLine
 10
381.7499999999998
 20
685.77245
 30
0.0
 11
381.7499999999998
 21
687.58545
 31
0.0
  0
LINE
  5
482
330
1E
100
AcDbEntity
  8
0
100
AcDbLine
 10
383.526
 20
663.7074499999998
 30
0.0
 11
383.526
 21
665.51945
 31
0.0
  0
LINE
  5
483
330
1E
100
AcDbEntity
  8
0
100
AcDbLine
 10
383.526
 20
665.51945
 30
0.0
 11
383.526
 21
663.7074499999998
 31
0.0
  0
LINE
  5
484
330
1E
100
AcDbEntity
  8
0
100
AcDbLine
 10
381.7499999999998
 20
687.58545
 30
0.0
 11
381.7499999999998
 21
685.77245
 31
0.0
  0
LINE
  5
485
330
1E
100
AcDbEntity
  8
0
100
AcDbLine
 10
383.526
 20
710.0734499999998
 30
0.0
 11
383.526
 21
708.26145
 31
0.0
  0
LINE
  5
486
330
1E
100
AcDbEntity
  8
0
100
AcDbLine
 10
381.526
 20
710.0734499999998
 30
0.0
 11
381.526
 21
708.26145
 31
0.0
  0
LINE
  5
487
330
1E
100
AcDbEntity
  8
0
100
AcDbLine
 10
381.526
 20
710.0734499999998
 30
0.0
 11
383.526
 21
710.0734499999998
 31
0.0
  0
LINE
  5
488
330
1E
100
AcDbEntity
  8
0
100
AcDbLine
 10
381.526
 20
708.26145
 30
0.0
 11
383.526
 21
708.26145
 31
0.0
  0
LINE
  5
489
330
1E
100
AcDbEntity
  8
0
100
AcDbLine
 10
381.526
 20
708.26145
 30
0.0
 11
381.526
 21
710.0734499999998
 31
0.0
  0
LINE
  5
48A
330
1E
100
AcDbEntity
  8
0
100
AcDbLine
 10
384.634
 20
639.37345
 30
0.0
 11
386.3659999999999
 21
640.28045
 31
0.0
  0
LINE
  5
48B
330
1E
100
AcDbEntity
  8
0
100
AcDbLine
 10
384.634
 20
639.37345
 30
0.0
 11
385.634
 21
637.8044499999998
 31
0.0
  0
LINE
  5
48C
330
1E
100
AcDbEntity
  8
0
100
AcDbLine
 10
385.634
 20
637.8044499999998
 30
0.0
 11
387.366
 21
638.71045
 31
0.0
  0
LINE
  5
48D
330
1E
100
AcDbEntity
  8
0
100
AcDbLine
 10
383.526
 20
708.26145
 30
0.0
 11
383.526
 21
710.0734499999998
 31
0.0
  0
LINE
  5
48E
330
1E
100
AcDbEntity
  8
0
100
AcDbLine
 10
385.634
 20
736.8785642857138
 30
0.0
 11
385.634
 21
736.82145
 31
0.0
  0
LINE
  5
48F
330
1E
100
AcDbEntity
  8
0
100
AcDbLine
 10
384.634
 20
735.2524499999998
 30
0.0
 11
386.3659999999999
 21
734.3454499999998
 31
0.0
  0
LINE
  5
490
330
1E
100
AcDbEntity
  8
0
100
AcDbLine
 10
384.634
 20
735.2524499999998
 30
0.0
 11
385.634
 21
736.82145
 31
0.0
  0
LINE
  5
491
330
1E
100
AcDbEntity
  8
0
100
AcDbLine
 10
386.3659999999999
 20
640.28045
 30
0.0
 11
387.366
 21
638.71045
 31
0.0
  0
LINE
  5
492
330
1E
100
AcDbEntity
  8
0
100
AcDbLine
 10
388.1919999999998
 20
653.93945
 30
0.0
 11
388.1919999999998
 21
655.7514499999999
 31
0.0
  0
LINE
  5
493
330
1E
100
AcDbEntity
  8
0
100
AcDbLine
 10
388.1919999999998
 20
653.93945
 30
0.0
 11
390.1919999999998
 21
653.93945
 31
0.0
  0
LINE
  5
494
330
1E
100
AcDbEntity
  8
0
100
AcDbLine
 10
388.1919999999998
 20
655.7514499999999
 30
0.0
 11
390.1919999999998
 21
655.7514499999999
 31
0.0
  0
LINE
  5
495
330
1E
100
AcDbEntity
  8
0
100
AcDbLine
 10
388.1919999999998
 20
655.7514499999999
 30
0.0
 11
388.1919999999998
 21
653.93945
 31
0.0
  0
LINE
  5
496
330
1E
100
AcDbEntity
  8
0
100
AcDbLine
 10
388.1919999999998
 20
720.2644499999999
 30
0.0
 11
388.1919999999998
 21
718.45145
 31
0.0
  0
LINE
  5
497
330
1E
100
AcDbEntity
  8
0
100
AcDbLine
 10
388.1919999999998
 20
720.2644499999999
 30
0.0
 11
390.1919999999998
 21
720.2644499999999
 31
0.0
  0
LINE
  5
498
330
1E
100
AcDbEntity
  8
0
100
AcDbLine
 10
388.75
 20
674.8964499999998
 30
0.0
 11
388.75
 21
676.70845
 31
0.0
  0
LINE
  5
499
330
1E
100
AcDbEntity
  8
0
100
AcDbLine
 10
388.75
 20
674.8964499999998
 30
0.0
 11
390.75
 21
674.8964499999998
 31
0.0
  0
LINE
  5
49A
330
1E
100
AcDbEntity
  8
0
100
AcDbLine
 10
388.75
 20
676.70845
 30
0.0
 11
390.75
 21
676.70845
 31
0.0
  0
LINE
  5
49B
330
1E
100
AcDbEntity
  8
0
100
AcDbLine
 10
388.75
 20
676.70845
 30
0.0
 11
388.75
 21
674.8964499999998
 31
0.0
  0
LINE
  5
49C
330
1E
100
AcDbEntity
  8
0
100
AcDbLine
 10
388.75
 20
698.8844499999999
 30
0.0
 11
388.75
 21
697.07145
 31
0.0
  0
LINE
  5
49D
330
1E
100
AcDbEntity
  8
0
100
AcDbLine
 10
388.75
 20
698.8844499999999
 30
0.0
 11
390.75
 21
698.8844499999999
 31
0.0
  0
LINE
  5
49E
330
1E
100
AcDbEntity
  8
0
100
AcDbLine
 10
388.75
 20
697.07145
 30
0.0
 11
390.75
 21
697.07145
 31
0.0
  0
LINE
  5
49F
330
1E
100
AcDbEntity
  8
0
100
AcDbLine
 10
388.75
 20
697.07145
 30
0.0
 11
388.75
 21
698.8844499999999
 31
0.0
  0
LINE
  5
4A0
330
1E
100
AcDbEntity
  8
0
100
AcDbLine
 10
388.1919999999998
 20
718.45145
 30
0.0
 11
390.1919999999998
 21
718.45145
 31
0.0
  0
LINE
  5
4A1
330
1E
100
AcDbEntity
  8
0
100
AcDbLine
 10
388.1919999999998
 20
718.45145
 30
0.0
 11
388.1919999999998
 21
720.2644499999999
 31
0.0
  0
LINE
  5
4A2
330
1E
100
AcDbEntity
  8
0
100
AcDbLine
 10
386.3659999999999
 20
734.3454499999998
 30
0.0
 11
387.366
 21
735.9154499999998
 31
0.0
  0
LINE
  5
4A3
330
1E
100
AcDbEntity
  8
0
100
AcDbLine
 10
385.634
 20
736.82145
 30
0.0
 11
385.634
 21
736.8785642857138
 31
0.0
  0
LINE
  5
4A4
330
1E
100
AcDbEntity
  8
0
100
AcDbLine
 10
385.634
 20
736.82145
 30
0.0
 11
387.366
 21
735.9154499999998
 31
0.0
  0
LINE
  5
4A5
330
1E
100
AcDbEntity
  8
0
100
AcDbLine
 10
387.35
 20
738.39845
 30
0.0
 11
394.45
 21
734.04745
 31
0.0
  0
LINE
  5
4A6
330
1E
100
AcDbEntity
  8
0
100
AcDbLine
 10
390.1919999999998
 20
653.93945
 30
0.0
 11
390.1919999999998
 21
655.7514499999999
 31
0.0
  0
LINE
  5
4A7
330
1E
100
AcDbEntity
  8
0
100
AcDbLine
 10
390.1919999999998
 20
655.7514499999999
 30
0.0
 11
390.1919999999998
 21
653.93945
 31
0.0
  0
LINE
  5
4A8
330
1E
100
AcDbEntity
  8
0
100
AcDbLine
 10
390.1919999999998
 20
720.2644499999999
 30
0.0
 11
390.1919999999998
 21
718.45145
 31
0.0
  0
LINE
  5
4A9
330
1E
100
AcDbEntity
  8
0
100
AcDbLine
 10
390.75
 20
674.8964499999998
 30
0.0
 11
390.75
 21
676.70845
 31
0.0
  0
LINE
  5
4AA
330
1E
100
AcDbEntity
  8
0
100
AcDbLine
 10
390.75
 20
676.70845
 30
0.0
 11
390.75
 21
674.8964499999998
 31
0.0
  0
LINE
  5
4AB
330
1E
100
AcDbEntity
  8
0
100
AcDbLine
 10
391.75
 20
686.513024468085
 30
0.0
 11
391.75
 21
685.98445
 31
0.0
  0
LINE
  5
4AC
330
1E
100
AcDbEntity
  8
0
100
AcDbLine
 10
393.75
 20
685.98445
 30
0.0
 11
393.75
 21
687.79645
 31
0.0
  0
LINE
  5
4AD
330
1E
100
AcDbEntity
  8
0
100
AcDbLine
 10
391.75
 20
685.98445
 30
0.0
 11
391.75
 21
687.79645
 31
0.0
  0
LINE
  5
4AE
330
1E
100
AcDbEntity
  8
0
100
AcDbLine
 10
391.75
 20
685.98445
 30
0.0
 11
393.75
 21
685.98445
 31
0.0
  0
LINE
  5
4AF
330
1E
100
AcDbEntity
  8
0
100
AcDbLine
 10
391.75
 20
685.98445
 30
0.0
 11
391.75
 21
686.513024468085
 31
0.0
  0
LINE
  5
4B0
330
1E
100
AcDbEntity
  8
0
100
AcDbLine
 10
391.75
 20
687.79645
 30
0.0
 11
393.75
 21
687.79645
 31
0.0
  0
LINE
  5
4B1
330
1E
100
AcDbEntity
  8
0
100
AcDbLine
 10
391.75
 20
687.79645
 30
0.0
 11
391.75
 21
685.98445
 31
0.0
  0
LINE
  5
4B2
330
1E
100
AcDbEntity
  8
0
100
AcDbLine
 10
393.969
 20
643.76745
 30
0.0
 11
393.969
 21
645.58045
 31
0.0
  0
LINE
  5
4B3
330
1E
100
AcDbEntity
  8
0
100
AcDbLine
 10
393.969
 20
643.76745
 30
0.0
 11
395.969
 21
643.76745
 31
0.0
  0
LINE
  5
4B4
330
1E
100
AcDbEntity
  8
0
100
AcDbLine
 10
393.969
 20
645.58045
 30
0.0
 11
395.969
 21
645.58045
 31
0.0
  0
LINE
  5
4B5
330
1E
100
AcDbEntity
  8
0
100
AcDbLine
 10
393.969
 20
645.58045
 30
0.0
 11
393.969
 21
643.76745
 31
0.0
  0
LINE
  5
4B6
330
1E
100
AcDbEntity
  8
0
100
AcDbLine
 10
393.75
 20
687.79645
 30
0.0
 11
393.75
 21
685.98445
 31
0.0
  0
LINE
  5
4B7
330
1E
100
AcDbEntity
  8
0
100
AcDbLine
 10
390.75
 20
698.8844499999999
 30
0.0
 11
390.75
 21
697.07145
 31
0.0
  0
LINE
  5
4B8
330
1E
100
AcDbEntity
  8
0
100
AcDbLine
 10
390.75
 20
697.07145
 30
0.0
 11
390.75
 21
698.8844499999999
 31
0.0
  0
LINE
  5
4B9
330
1E
100
AcDbEntity
  8
0
100
AcDbLine
 10
390.1919999999998
 20
718.45145
 30
0.0
 11
390.1919999999998
 21
720.2644499999999
 31
0.0
  0
LINE
  5
4BA
330
1E
100
AcDbEntity
  8
0
100
AcDbLine
 10
393.969
 20
730.8584499999998
 30
0.0
 11
393.969
 21
729.04545
 31
0.0
  0
LINE
  5
4BB
330
1E
100
AcDbEntity
  8
0
100
AcDbLine
 10
393.969
 20
730.8584499999998
 30
0.0
 11
395.969
 21
730.8584499999998
 31
0.0
  0
LINE
  5
4BC
330
1E
100
AcDbEntity
  8
0
100
AcDbLine
 10
393.969
 20
729.04545
 30
0.0
 11
395.969
 21
729.04545
 31
0.0
  0
LINE
  5
4BD
330
1E
100
AcDbEntity
  8
0
100
AcDbLine
 10
393.969
 20
729.04545
 30
0.0
 11
393.969
 21
730.8584499999998
 31
0.0
  0
LINE
  5
4BE
330
1E
100
AcDbEntity
  8
0
100
AcDbLine
 10
394.45
 20
734.04745
 30
0.0
 11
400.75
 21
728.97245
 31
0.0
  0
LINE
  5
4BF
330
1E
100
AcDbEntity
  8
0
100
AcDbLine
 10
388.85
 20
740.75445
 30
0.0
 11
396.25
 21
736.2234499999998
 31
0.0
  0
LINE
  5
4C0
330
1E
100
AcDbEntity
  8
0
100
AcDbLine
 10
389.35
 20
741.90245
 30
0.0
 11
396.85
 21
737.37045
 31
0.0
  0
LINE
  5
4C1
330
1E
100
AcDbEntity
  8
0
100
AcDbLine
 10
395.527
 20
662.2044499999998
 30
0.0
 11
395.527
 21
664.01745
 31
0.0
  0
LINE
  5
4C2
330
1E
100
AcDbEntity
  8
0
100
AcDbLine
 10
395.527
 20
662.2044499999998
 30
0.0
 11
397.527
 21
662.2044499999998
 31
0.0
  0
LINE
  5
4C3
330
1E
100
AcDbEntity
  8
0
100
AcDbLine
 10
395.527
 20
664.01745
 30
0.0
 11
397.527
 21
664.01745
 31
0.0
  0
LINE
  5
4C4
330
1E
100
AcDbEntity
  8
0
100
AcDbLine
 10
395.527
 20
664.01745
 30
0.0
 11
395.527
 21
662.2044499999998
 31
0.0
  0
LINE
  5
4C5
330
1E
100
AcDbEntity
  8
0
100
AcDbLine
 10
395.527
 20
711.9984500000001
 30
0.0
 11
395.527
 21
710.18645
 31
0.0
  0
LINE
  5
4C6
330
1E
100
AcDbEntity
  8
0
100
AcDbLine
 10
395.527
 20
711.9984500000001
 30
0.0
 11
397.527
 21
711.9984500000001
 31
0.0
  0
LINE
  5
4C7
330
1E
100
AcDbEntity
  8
0
100
AcDbLine
 10
395.969
 20
643.76745
 30
0.0
 11
395.969
 21
645.58045
 31
0.0
  0
LINE
  5
4C8
330
1E
100
AcDbEntity
  8
0
100
AcDbLine
 10
395.969
 20
645.58045
 30
0.0
 11
395.969
 21
643.76745
 31
0.0
  0
LINE
  5
4C9
330
1E
100
AcDbEntity
  8
0
100
AcDbLine
 10
395.527
 20
710.18645
 30
0.0
 11
397.527
 21
710.18645
 31
0.0
  0
LINE
  5
4CA
330
1E
100
AcDbEntity
  8
0
100
AcDbLine
 10
395.527
 20
710.18645
 30
0.0
 11
395.527
 21
711.9984500000001
 31
0.0
  0
LINE
  5
4CB
330
1E
100
AcDbEntity
  8
0
100
AcDbLine
 10
395.969
 20
730.8584499999998
 30
0.0
 11
395.969
 21
729.04545
 31
0.0
  0
LINE
  5
4CC
330
1E
100
AcDbEntity
  8
0
100
AcDbLine
 10
395.969
 20
729.04545
 30
0.0
 11
395.969
 21
730.8584499999998
 31
0.0
  0
LINE
  5
4CD
330
1E
100
AcDbEntity
  8
0
100
AcDbLine
 10
396.25
 20
736.2234499999998
 30
0.0
 11
402.9499999999998
 21
730.96645
 31
0.0
  0
LINE
  5
4CE
330
1E
100
AcDbEntity
  8
0
100
AcDbLine
 10
394.45
 20
641.42345
 30
0.0
 11
400.75
 21
646.49845
 31
0.0
  0
LINE
  5
4CF
330
1E
100
AcDbEntity
  8
0
100
AcDbLine
 10
387.35
 20
637.07345
 30
0.0
 11
394.45
 21
641.42345
 31
0.0
  0
LINE
  5
4D0
330
1E
100
AcDbEntity
  8
0
100
AcDbLine
 10
396.85
 20
737.37045
 30
0.0
 11
403.65
 21
732.02345
 31
0.0
  0
LINE
  5
4D1
330
1E
100
AcDbEntity
  8
0
100
AcDbLine
 10
396.85
 20
746.2454499999998
 30
0.0
 11
403.65
 21
740.89845
 31
0.0
  0
LINE
  5
4D2
330
1E
100
AcDbEntity
  8
0
100
AcDbLine
 10
396.25
 20
639.2484500000001
 30
0.0
 11
402.9499999999998
 21
644.50445
 31
0.0
  0
LINE
  5
4D3
330
1E
100
AcDbEntity
  8
0
100
AcDbLine
 10
388.85
 20
634.7164499999998
 30
0.0
 11
396.25
 21
639.2484500000001
 31
0.0
  0
LINE
  5
4D4
330
1E
100
AcDbEntity
  8
0
100
AcDbLine
 10
400.75
 20
646.49845
 30
0.0
 11
406.35
 21
652.20845
 31
0.0
  0
LINE
  5
4D5
330
1E
100
AcDbEntity
  8
0
100
AcDbLine
 10
402.9499999999998
 20
644.50445
 30
0.0
 11
408.75
 21
650.57745
 31
0.0
  0
LINE
  5
4D6
330
1E
100
AcDbEntity
  8
0
100
AcDbLine
 10
403.65
 20
644.29245
 30
0.0
 11
409.55
 21
650.45545
 31
0.0
  0
LINE
  5
4D7
330
1E
100
AcDbEntity
  8
0
100
AcDbLine
 10
404.748
 20
652.13445
 30
0.0
 11
404.748
 21
653.9474499999998
 31
0.0
  0
LINE
  5
4D8
330
1E
100
AcDbEntity
  8
0
100
AcDbLine
 10
402.748
 20
652.13445
 30
0.0
 11
402.748
 21
653.9474499999998
 31
0.0
  0
LINE
  5
4D9
330
1E
100
AcDbEntity
  8
0
100
AcDbLine
 10
402.748
 20
652.13445
 30
0.0
 11
404.748
 21
652.13445
 31
0.0
  0
LINE
  5
4DA
330
1E
100
AcDbEntity
  8
0
100
AcDbLine
 10
397.527
 20
662.2044499999998
 30
0.0
 11
397.527
 21
664.01745
 31
0.0
  0
LINE
  5
4DB
330
1E
100
AcDbEntity
  8
0
100
AcDbLine
 10
402.748
 20
654.5938804635759
 30
0.0
 11
402.748
 21
653.9474499999998
 31
0.0
  0
LINE
  5
4DC
330
1E
100
AcDbEntity
  8
0
100
AcDbLine
 10
402.748
 20
653.9474499999998
 30
0.0
 11
404.748
 21
653.9474499999998
 31
0.0
  0
LINE
  5
4DD
330
1E
100
AcDbEntity
  8
0
100
AcDbLine
 10
402.748
 20
653.9474499999998
 30
0.0
 11
402.748
 21
654.5938804635759
 31
0.0
  0
LINE
  5
4DE
330
1E
100
AcDbEntity
  8
0
100
AcDbLine
 10
402.748
 20
653.9474499999998
 30
0.0
 11
402.748
 21
652.13445
 31
0.0
  0
LINE
  5
4DF
330
1E
100
AcDbEntity
  8
0
100
AcDbLine
 10
404.748
 20
653.9474499999998
 30
0.0
 11
404.748
 21
652.13445
 31
0.0
  0
LINE
  5
4E0
330
1E
100
AcDbEntity
  8
0
100
AcDbLine
 10
397.527
 20
664.01745
 30
0.0
 11
397.527
 21
662.2044499999998
 31
0.0
  0
LINE
  5
4E1
330
1E
100
AcDbEntity
  8
0
100
AcDbLine
 10
409.3049999999998
 20
662.21445
 30
0.0
 11
409.3049999999998
 21
664.02745
 31
0.0
  0
LINE
  5
4E2
330
1E
100
AcDbEntity
  8
0
100
AcDbLine
 10
409.3049999999998
 20
662.21445
 30
0.0
 11
411.305
 21
662.21445
 31
0.0
  0
LINE
  5
4E3
330
1E
100
AcDbEntity
  8
0
100
AcDbLine
 10
409.3049999999998
 20
664.02745
 30
0.0
 11
411.305
 21
664.02745
 31
0.0
  0
LINE
  5
4E4
330
1E
100
AcDbEntity
  8
0
100
AcDbLine
 10
409.3049999999998
 20
664.02745
 30
0.0
 11
409.3049999999998
 21
662.21445
 31
0.0
  0
LINE
  5
4E5
330
1E
100
AcDbEntity
  8
0
100
AcDbLine
 10
406.35
 20
652.20845
 30
0.0
 11
411.1499999999998
 21
658.64345
 31
0.0
  0
LINE
  5
4E6
330
1E
100
AcDbEntity
  8
0
100
AcDbLine
 10
411.305
 20
662.21445
 30
0.0
 11
411.305
 21
664.02745
 31
0.0
  0
LINE
  5
4E7
330
1E
100
AcDbEntity
  8
0
100
AcDbLine
 10
411.305
 20
664.02745
 30
0.0
 11
411.305
 21
662.21445
 31
0.0
  0
LINE
  5
4E8
330
1E
100
AcDbEntity
  8
0
100
AcDbLine
 10
411.1499999999998
 20
658.64345
 30
0.0
 11
414.7499999999998
 21
665.44045
 31
0.0
  0
LINE
  5
4E9
330
1E
100
AcDbEntity
  8
0
100
AcDbLine
 10
408.75
 20
650.57745
 30
0.0
 11
413.75
 21
657.2834499999999
 31
0.0
  0
LINE
  5
4EA
330
1E
100
AcDbEntity
  8
0
100
AcDbLine
 10
413.75
 20
657.2834499999999
 30
0.0
 11
417.45
 21
664.3524499999998
 31
0.0
  0
LINE
  5
4EB
330
1E
100
AcDbEntity
  8
0
100
AcDbLine
 10
409.55
 20
650.45545
 30
0.0
 11
414.55
 21
657.25345
 31
0.0
  0
LINE
  5
4EC
330
1E
100
AcDbEntity
  8
0
100
AcDbLine
 10
417.45
 20
664.3524499999998
 30
0.0
 11
420.35
 21
672.32845
 31
0.0
  0
LINE
  5
4ED
330
1E
100
AcDbEntity
  8
0
100
AcDbLine
 10
414.55
 20
657.25345
 30
0.0
 11
418.4499999999998
 21
664.4134499999998
 31
0.0
  0
LINE
  5
4EE
330
1E
100
AcDbEntity
  8
0
100
AcDbLine
 10
401.639
 20
674.20045
 30
0.0
 11
401.639
 21
676.01345
 31
0.0
  0
LINE
  5
4EF
330
1E
100
AcDbEntity
  8
0
100
AcDbLine
 10
401.639
 20
674.20045
 30
0.0
 11
403.6389999999998
 21
674.20045
 31
0.0
  0
LINE
  5
4F0
330
1E
100
AcDbEntity
  8
0
100
AcDbLine
 10
403.6389999999998
 20
674.20045
 30
0.0
 11
403.6389999999998
 21
676.01345
 31
0.0
  0
LINE
  5
4F1
330
1E
100
AcDbEntity
  8
0
100
AcDbLine
 10
401.639
 20
676.01345
 30
0.0
 11
403.6389999999998
 21
676.01345
 31
0.0
  0
LINE
  5
4F2
330
1E
100
AcDbEntity
  8
0
100
AcDbLine
 10
401.639
 20
676.01345
 30
0.0
 11
401.639
 21
676.2861839890708
 31
0.0
  0
LINE
  5
4F3
330
1E
100
AcDbEntity
  8
0
100
AcDbLine
 10
401.639
 20
676.01345
 30
0.0
 11
401.639
 21
674.20045
 31
0.0
  0
LINE
  5
4F4
330
1E
100
AcDbEntity
  8
0
100
AcDbLine
 10
403.6389999999998
 20
676.01345
 30
0.0
 11
403.6389999999998
 21
674.20045
 31
0.0
  0
LINE
  5
4F5
330
1E
100
AcDbEntity
  8
0
100
AcDbLine
 10
415.861
 20
674.2094499999998
 30
0.0
 11
415.861
 21
676.02245
 31
0.0
  0
LINE
  5
4F6
330
1E
100
AcDbEntity
  8
0
100
AcDbLine
 10
413.8609999999998
 20
674.2094499999998
 30
0.0
 11
413.8609999999998
 21
676.02245
 31
0.0
  0
LINE
  5
4F7
330
1E
100
AcDbEntity
  8
0
100
AcDbLine
 10
413.8609999999998
 20
674.2094499999998
 30
0.0
 11
415.861
 21
674.2094499999998
 31
0.0
  0
LINE
  5
4F8
330
1E
100
AcDbEntity
  8
0
100
AcDbLine
 10
401.639
 20
676.2861839890708
 30
0.0
 11
401.639
 21
676.01345
 31
0.0
  0
LINE
  5
4F9
330
1E
100
AcDbEntity
  8
0
100
AcDbLine
 10
413.8609999999998
 20
676.02245
 30
0.0
 11
415.861
 21
676.02245
 31
0.0
  0
LINE
  5
4FA
330
1E
100
AcDbEntity
  8
0
100
AcDbLine
 10
413.8609999999998
 20
676.02245
 30
0.0
 11
413.8609999999998
 21
674.2094499999998
 31
0.0
  0
LINE
  5
4FB
330
1E
100
AcDbEntity
  8
0
100
AcDbLine
 10
415.861
 20
676.02245
 30
0.0
 11
415.861
 21
674.2094499999998
 31
0.0
  0
LINE
  5
4FC
330
1E
100
AcDbEntity
  8
0
100
AcDbLine
 10
414.7499999999998
 20
665.44045
 30
0.0
 11
417.45
 21
673.59745
 31
0.0
  0
LINE
  5
4FD
330
1E
100
AcDbEntity
  8
0
100
AcDbLine
 10
417.45
 20
673.59745
 30
0.0
 11
419.1499999999998
 21
680.03245
 31
0.0
  0
LINE
  5
4FE
330
1E
100
AcDbEntity
  8
0
100
AcDbLine
 10
419.1499999999998
 20
680.03245
 30
0.0
 11
419.7499999999998
 21
687.73545
 31
0.0
  0
LINE
  5
4FF
330
1E
100
AcDbEntity
  8
0
100
AcDbLine
 10
420.35
 20
672.32845
 30
0.0
 11
422.05
 21
679.8504499999998
 31
0.0
  0
LINE
  5
500
330
1E
100
AcDbEntity
  8
0
100
AcDbLine
 10
418.4499999999998
 20
664.4134499999998
 30
0.0
 11
421.25
 21
672.11645
 31
0.0
  0
LINE
  5
501
330
1E
100
AcDbEntity
  8
0
100
AcDbLine
 10
422.05
 20
679.8504499999998
 30
0.0
 11
422.75
 21
687.73545
 31
0.0
  0
LINE
  5
502
330
1E
100
AcDbEntity
  8
0
100
AcDbLine
 10
421.25
 20
672.11645
 30
0.0
 11
423.05
 21
680.18245
 31
0.0
  0
LINE
  5
503
330
1E
100
AcDbEntity
  8
0
100
AcDbLine
 10
405.75
 20
686.19545
 30
0.0
 11
405.75
 21
688.00845
 31
0.0
  0
LINE
  5
504
330
1E
100
AcDbEntity
  8
0
100
AcDbLine
 10
403.7499999999998
 20
686.19545
 30
0.0
 11
403.7499999999998
 21
688.00845
 31
0.0
  0
LINE
  5
505
330
1E
100
AcDbEntity
  8
0
100
AcDbLine
 10
403.7499999999998
 20
686.19545
 30
0.0
 11
405.75
 21
686.19545
 31
0.0
  0
LINE
  5
506
330
1E
100
AcDbEntity
  8
0
100
AcDbLine
 10
403.7499999999998
 20
688.00845
 30
0.0
 11
405.75
 21
688.00845
 31
0.0
  0
LINE
  5
507
330
1E
100
AcDbEntity
  8
0
100
AcDbLine
 10
403.7499999999998
 20
688.00845
 30
0.0
 11
403.7499999999998
 21
686.19545
 31
0.0
  0
LINE
  5
508
330
1E
100
AcDbEntity
  8
0
100
AcDbLine
 10
405.75
 20
688.00845
 30
0.0
 11
405.75
 21
686.19545
 31
0.0
  0
LINE
  5
509
330
1E
100
AcDbEntity
  8
0
100
AcDbLine
 10
415.7499999999997
 20
686.55186025641
 30
0.0
 11
415.7499999999997
 21
686.4064499999998
 31
0.0
  0
LINE
  5
50A
330
1E
100
AcDbEntity
  8
0
100
AcDbLine
 10
415.7499999999997
 20
686.4064499999998
 30
0.0
 11
415.7499999999997
 21
688.21945
 31
0.0
  0
LINE
  5
50B
330
1E
100
AcDbEntity
  8
0
100
AcDbLine
 10
415.7499999999997
 20
686.4064499999998
 30
0.0
 11
417.75
 21
686.4064499999998
 31
0.0
  0
LINE
  5
50C
330
1E
100
AcDbEntity
  8
0
100
AcDbLine
 10
415.7499999999997
 20
686.4064499999998
 30
0.0
 11
415.7499999999997
 21
686.55186025641
 31
0.0
  0
LINE
  5
50D
330
1E
100
AcDbEntity
  8
0
100
AcDbLine
 10
417.75
 20
686.4064499999998
 30
0.0
 11
417.75
 21
688.21945
 31
0.0
  0
LINE
  5
50E
330
1E
100
AcDbEntity
  8
0
100
AcDbLine
 10
415.7499999999997
 20
688.21945
 30
0.0
 11
417.75
 21
688.21945
 31
0.0
  0
LINE
  5
50F
330
1E
100
AcDbEntity
  8
0
100
AcDbLine
 10
415.7499999999997
 20
688.21945
 30
0.0
 11
415.7499999999997
 21
688.7457064102568
 31
0.0
  0
LINE
  5
510
330
1E
100
AcDbEntity
  8
0
100
AcDbLine
 10
415.7499999999997
 20
688.21945
 30
0.0
 11
415.7499999999997
 21
686.4064499999998
 31
0.0
  0
LINE
  5
511
330
1E
100
AcDbEntity
  8
0
100
AcDbLine
 10
415.7499999999997
 20
688.7457064102568
 30
0.0
 11
415.7499999999997
 21
688.21945
 31
0.0
  0
LINE
  5
512
330
1E
100
AcDbEntity
  8
0
100
AcDbLine
 10
417.75
 20
688.21945
 30
0.0
 11
417.75
 21
686.4064499999998
 31
0.0
  0
LINE
  5
513
330
1E
100
AcDbEntity
  8
0
100
AcDbLine
 10
419.1499999999998
 20
695.4394499999998
 30
0.0
 11
419.7499999999998
 21
687.73545
 31
0.0
  0
LINE
  5
514
330
1E
100
AcDbEntity
  8
0
100
AcDbLine
 10
422.05
 20
695.62045
 30
0.0
 11
422.75
 21
687.73545
 31
0.0
  0
LINE
  5
515
330
1E
100
AcDbEntity
  8
0
100
AcDbLine
 10
401.639
 20
698.19045
 30
0.0
 11
403.6389999999998
 21
698.19045
 31
0.0
  0
LINE
  5
516
330
1E
100
AcDbEntity
  8
0
100
AcDbLine
 10
401.639
 20
698.19045
 30
0.0
 11
401.639
 21
698.4547812568311
 31
0.0
  0
LINE
  5
517
330
1E
100
AcDbEntity
  8
0
100
AcDbLine
 10
401.639
 20
698.19045
 30
0.0
 11
401.639
 21
700.00345
 31
0.0
  0
LINE
  5
518
330
1E
100
AcDbEntity
  8
0
100
AcDbLine
 10
401.639
 20
698.4547812568311
 30
0.0
 11
401.639
 21
698.19045
 31
0.0
  0
LINE
  5
519
330
1E
100
AcDbEntity
  8
0
100
AcDbLine
 10
403.6389999999998
 20
698.19045
 30
0.0
 11
403.6389999999998
 21
700.00345
 31
0.0
  0
LINE
  5
51A
330
1E
100
AcDbEntity
  8
0
100
AcDbLine
 10
413.8609999999998
 20
698.6034499999998
 30
0.0
 11
415.861
 21
698.6034499999998
 31
0.0
  0
LINE
  5
51B
330
1E
100
AcDbEntity
  8
0
100
AcDbLine
 10
413.8609999999998
 20
698.6034499999998
 30
0.0
 11
413.8609999999998
 21
700.41645
 31
0.0
  0
LINE
  5
51C
330
1E
100
AcDbEntity
  8
0
100
AcDbLine
 10
403.6389999999998
 20
700.00345
 30
0.0
 11
403.6389999999998
 21
698.19045
 31
0.0
  0
LINE
  5
51D
330
1E
100
AcDbEntity
  8
0
100
AcDbLine
 10
401.639
 20
700.00345
 30
0.0
 11
401.639
 21
698.19045
 31
0.0
  0
LINE
  5
51E
330
1E
100
AcDbEntity
  8
0
100
AcDbLine
 10
401.639
 20
700.00345
 30
0.0
 11
403.6389999999998
 21
700.00345
 31
0.0
  0
LINE
  5
51F
330
1E
100
AcDbEntity
  8
0
100
AcDbLine
 10
413.8609999999998
 20
701.0982061748628
 30
0.0
 11
413.8609999999998
 21
700.41645
 31
0.0
  0
LINE
  5
520
330
1E
100
AcDbEntity
  8
0
100
AcDbLine
 10
415.861
 20
700.41645
 30
0.0
 11
415.861
 21
698.6034499999998
 31
0.0
  0
LINE
  5
521
330
1E
100
AcDbEntity
  8
0
100
AcDbLine
 10
413.8609999999998
 20
700.41645
 30
0.0
 11
413.8609999999998
 21
698.6034499999998
 31
0.0
  0
LINE
  5
522
330
1E
100
AcDbEntity
  8
0
100
AcDbLine
 10
413.8609999999998
 20
700.41645
 30
0.0
 11
415.861
 21
700.41645
 31
0.0
  0
LINE
  5
523
330
1E
100
AcDbEntity
  8
0
100
AcDbLine
 10
413.8609999999998
 20
700.41645
 30
0.0
 11
413.8609999999998
 21
701.0982061748628
 31
0.0
  0
LINE
  5
524
330
1E
100
AcDbEntity
  8
0
100
AcDbLine
 10
415.861
 20
698.6034499999998
 30
0.0
 11
415.861
 21
700.41645
 31
0.0
  0
LINE
  5
525
330
1E
100
AcDbEntity
  8
0
100
AcDbLine
 10
417.45
 20
701.87445
 30
0.0
 11
419.1499999999998
 21
695.4394499999998
 31
0.0
  0
LINE
  5
526
330
1E
100
AcDbEntity
  8
0
100
AcDbLine
 10
420.35
 20
703.14245
 30
0.0
 11
422.05
 21
695.62045
 31
0.0
  0
LINE
  5
527
330
1E
100
AcDbEntity
  8
0
100
AcDbLine
 10
421.25
 20
704.1994499999998
 30
0.0
 11
423.05
 21
696.13345
 31
0.0
  0
LINE
  5
528
330
1E
100
AcDbEntity
  8
0
100
AcDbLine
 10
423.05
 20
696.13345
 30
0.0
 11
423.7499999999998
 21
688.15845
 31
0.0
  0
LINE
  5
529
330
1E
100
AcDbEntity
  8
0
100
AcDbLine
 10
423.7499999999998
 20
688.15845
 30
0.0
 11
423.7499999999998
 21
697.0334499999998
 31
0.0
  0
LINE
  5
52A
330
1E
100
AcDbEntity
  8
0
100
AcDbLine
 10
397.527
 20
710.18645
 30
0.0
 11
397.527
 21
711.9984500000001
 31
0.0
  0
LINE
  5
52B
330
1E
100
AcDbEntity
  8
0
100
AcDbLine
 10
397.527
 20
711.9984500000001
 30
0.0
 11
397.527
 21
710.18645
 31
0.0
  0
LINE
  5
52C
330
1E
100
AcDbEntity
  8
0
100
AcDbLine
 10
411.305
 20
712.4114499999998
 30
0.0
 11
411.305
 21
710.5984499999998
 31
0.0
  0
LINE
  5
52D
330
1E
100
AcDbEntity
  8
0
100
AcDbLine
 10
409.3049999999998
 20
712.4114499999998
 30
0.0
 11
409.3049999999998
 21
710.5984499999998
 31
0.0
  0
LINE
  5
52E
330
1E
100
AcDbEntity
  8
0
100
AcDbLine
 10
409.3049999999998
 20
712.4114499999998
 30
0.0
 11
411.305
 21
712.4114499999998
 31
0.0
  0
LINE
  5
52F
330
1E
100
AcDbEntity
  8
0
100
AcDbLine
 10
409.3049999999998
 20
710.5984499999998
 30
0.0
 11
411.305
 21
710.5984499999998
 31
0.0
  0
LINE
  5
530
330
1E
100
AcDbEntity
  8
0
100
AcDbLine
 10
409.3049999999998
 20
710.5984499999998
 30
0.0
 11
409.3049999999998
 21
712.4114499999998
 31
0.0
  0
LINE
  5
531
330
1E
100
AcDbEntity
  8
0
100
AcDbLine
 10
411.305
 20
710.5984499999998
 30
0.0
 11
411.305
 21
712.4114499999998
 31
0.0
  0
LINE
  5
532
330
1E
100
AcDbEntity
  8
0
100
AcDbLine
 10
411.1499999999998
 20
716.8284499999998
 30
0.0
 11
414.7499999999998
 21
710.03045
 31
0.0
  0
LINE
  5
533
330
1E
100
AcDbEntity
  8
0
100
AcDbLine
 10
414.7499999999998
 20
710.03045
 30
0.0
 11
417.45
 21
701.87445
 31
0.0
  0
LINE
  5
534
330
1E
100
AcDbEntity
  8
0
100
AcDbLine
 10
413.75
 20
718.18745
 30
0.0
 11
417.45
 21
711.11845
 31
0.0
  0
LINE
  5
535
330
1E
100
AcDbEntity
  8
0
100
AcDbLine
 10
417.45
 20
711.11845
 30
0.0
 11
420.35
 21
703.14245
 31
0.0
  0
LINE
  5
536
330
1E
100
AcDbEntity
  8
0
100
AcDbLine
 10
402.748
 20
720.67845
 30
0.0
 11
404.748
 21
720.67845
 31
0.0
  0
LINE
  5
537
330
1E
100
AcDbEntity
  8
0
100
AcDbLine
 10
402.748
 20
720.67845
 30
0.0
 11
402.748
 21
722.4914499999998
 31
0.0
  0
LINE
  5
538
330
1E
100
AcDbEntity
  8
0
100
AcDbLine
 10
404.748
 20
720.67845
 30
0.0
 11
404.748
 21
722.4914499999998
 31
0.0
  0
LINE
  5
539
330
1E
100
AcDbEntity
  8
0
100
AcDbLine
 10
414.55
 20
719.0634499999998
 30
0.0
 11
418.4499999999998
 21
711.90345
 31
0.0
  0
LINE
  5
53A
330
1E
100
AcDbEntity
  8
0
100
AcDbLine
 10
418.4499999999998
 20
711.90345
 30
0.0
 11
421.25
 21
704.1994499999998
 31
0.0
  0
LINE
  5
53B
330
1E
100
AcDbEntity
  8
0
100
AcDbLine
 10
404.748
 20
722.6842966315788
 30
0.0
 11
404.748
 21
722.4914499999998
 31
0.0
  0
LINE
  5
53C
330
1E
100
AcDbEntity
  8
0
100
AcDbLine
 10
402.748
 20
722.4914499999998
 30
0.0
 11
402.748
 21
720.67845
 31
0.0
  0
LINE
  5
53D
330
1E
100
AcDbEntity
  8
0
100
AcDbLine
 10
402.748
 20
722.4914499999998
 30
0.0
 11
404.748
 21
722.4914499999998
 31
0.0
  0
LINE
  5
53E
330
1E
100
AcDbEntity
  8
0
100
AcDbLine
 10
404.748
 20
722.4914499999998
 30
0.0
 11
404.748
 21
722.6842966315788
 31
0.0
  0
LINE
  5
53F
330
1E
100
AcDbEntity
  8
0
100
AcDbLine
 10
404.748
 20
722.4914499999998
 30
0.0
 11
404.748
 21
720.67845
 31
0.0
  0
LINE
  5
540
330
1E
100
AcDbEntity
  8
0
100
AcDbLine
 10
400.75
 20
728.97245
 30
0.0
 11
406.35
 21
723.26245
 31
0.0
  0
LINE
  5
541
330
1E
100
AcDbEntity
  8
0
100
AcDbLine
 10
406.35
 20
723.26245
 30
0.0
 11
411.1499999999998
 21
716.8284499999998
 31
0.0
  0
LINE
  5
542
330
1E
100
AcDbEntity
  8
0
100
AcDbLine
 10
402.9499999999998
 20
730.96645
 30
0.0
 11
408.75
 21
724.89445
 31
0.0
  0
LINE
  5
543
330
1E
100
AcDbEntity
  8
0
100
AcDbLine
 10
408.75
 20
724.89445
 30
0.0
 11
413.75
 21
718.18745
 31
0.0
  0
LINE
  5
544
330
1E
100
AcDbEntity
  8
0
100
AcDbLine
 10
403.65
 20
732.02345
 30
0.0
 11
409.55
 21
725.86045
 31
0.0
  0
LINE
  5
545
330
1E
100
AcDbEntity
  8
0
100
AcDbLine
 10
409.55
 20
725.86045
 30
0.0
 11
414.55
 21
719.0634499999998
 31
0.0
  0
LINE
  5
546
330
1E
100
AcDbEntity
  8
0
100
AcDbLine
 10
403.65
 20
740.89845
 30
0.0
 11
409.55
 21
734.73545
 31
0.0
  0
LINE
  5
547
330
1E
100
AcDbEntity
  8
0
100
AcDbLine
 10
409.55
 20
734.73545
 30
0.0
 11
414.55
 21
727.9384499999999
 31
0.0
  0
LINE
  5
548
330
1E
100
AcDbEntity
  8
0
100
AcDbLine
 10
414.55
 20
727.9384499999999
 30
0.0
 11
418.4499999999998
 21
720.77845
 31
0.0
  0
LINE
  5
549
330
1E
100
AcDbEntity
  8
0
100
AcDbLine
 10
418.4499999999998
 20
720.77845
 30
0.0
 11
421.25
 21
713.0744499999998
 31
0.0
  0
LINE
  5
54A
330
1E
100
AcDbEntity
  8
0
100
AcDbLine
 10
421.25
 20
713.0744499999998
 30
0.0
 11
423.05
 21
705.00845
 31
0.0
  0
LINE
  5
54B
330
1E
100
AcDbEntity
  8
0
100
AcDbLine
 10
423.05
 20
705.00845
 30
0.0
 11
423.7499999999998
 21
697.0334499999998
 31
0.0
  0
LINE
  5
54C
330
1E
100
AcDbEntity
  8
0
100
AcDbLine
 10
423.7499999999998
 20
697.0334499999998
 30
0.0
 11
423.7499999999998
 21
688.15845
 31
0.0
  0
LINE
  5
54D
330
1E
100
AcDbEntity
  8
0
100
AcDbLine
 10
423.05
 20
680.18245
 30
0.0
 11
423.7499999999998
 21
688.15845
 31
0.0
  0
LINE
  5
54E
330
1E
100
AcDbEntity
  8
0
100
AcDbLine
 10
396.85
 20
638.94545
 30
0.0
 11
403.65
 21
644.29245
 31
0.0
  0
LINE
  5
54F
330
1E
100
AcDbEntity
  8
0
100
AcDbLine
 10
389.35
 20
634.4144499999998
 30
0.0
 11
396.85
 21
638.94545
 31
0.0
  0
LINE
  5
550
330
1E
100
AcDbEntity
  8
0
100
AcDbLine
 10
381.4499999999998
 20
630.87945
 30
0.0
 11
389.35
 21
634.4144499999998
 31
0.0
  0
LINE
  5
551
330
1E
100
AcDbEntity
  8
0
100
AcDbLine
 10
372.9499999999998
 20
628.34145
 30
0.0
 11
381.4499999999998
 21
630.87945
 31
0.0
  0
LINE
  5
552
330
1E
100
AcDbEntity
  8
0
100
AcDbLine
 10
364.05
 20
626.71045
 30
0.0
 11
372.9499999999998
 21
628.34145
 31
0.0
  0
LINE
  5
553
330
1E
100
AcDbEntity
  8
0
100
AcDbLine
 10
355.25
 20
626.07645
 30
0.0
 11
364.05
 21
626.71045
 31
0.0
  0
LINE
  5
554
330
1E
100
AcDbEntity
  8
0
100
AcDbLine
 10
346.75
 20
745.64845
 30
0.0
 11
355.25
 21
746.19245
 31
0.0
  0
LINE
  5
555
330
1E
100
AcDbEntity
  8
0
100
AcDbLine
 10
355.25
 20
748.9114499999998
 30
0.0
 11
363.9499999999998
 21
748.27745
 31
0.0
  0
LINE
  5
556
330
1E
100
AcDbEntity
  8
0
100
AcDbLine
 10
355.25
 20
750.2404499999999
 30
0.0
 11
364.05
 21
749.60545
 31
0.0
  0
LINE
  5
557
330
1E
100
AcDbEntity
  8
0
100
AcDbLine
 10
364.05
 20
749.60545
 30
0.0
 11
372.9499999999998
 21
747.97445
 31
0.0
  0
LINE
  5
558
330
1E
100
AcDbEntity
  8
0
100
AcDbLine
 10
389.35
 20
750.77745
 30
0.0
 11
396.85
 21
746.2454499999998
 31
0.0
  0
LINE
  5
559
330
1E
100
AcDbEntity
  8
0
100
AcDbLine
 10
381.4499999999998
 20
754.31145
 30
0.0
 11
389.35
 21
750.77745
 31
0.0
  0
LINE
  5
55A
330
1E
100
AcDbEntity
  8
0
100
AcDbLine
 10
372.9499999999998
 20
756.84945
 30
0.0
 11
381.4499999999998
 21
754.31145
 31
0.0
  0
LINE
  5
55B
330
1E
100
AcDbEntity
  8
0
100
AcDbLine
 10
364.05
 20
758.48045
 30
0.0
 11
372.9499999999998
 21
756.84945
 31
0.0
  0
LINE
  5
55C
330
1E
100
AcDbEntity
  8
0
100
AcDbLine
 10
355.25
 20
759.11545
 30
0.0
 11
364.05
 21
758.48045
 31
0.0
  0
LINE
  5
55D
330
1E
100
AcDbEntity
  8
0
100
AcDbLine
 10
346.55
 20
748.27745
 30
0.0
 11
355.25
 21
748.9114499999998
 31
0.0
  0
LINE
  5
55E
330
1E
100
AcDbEntity
  8
0
100
AcDbLine
 10
346.45
 20
758.48045
 30
0.0
 11
355.25
 21
759.11545
 31
0.0
  0
LINE
  5
55F
330
1E
100
AcDbEntity
  8
0
100
AcDbLine
 10
165.9859999999999
 20
529.51345
 30
0.0
 11
205.25
 21
529.51345
 31
0.0
  0
LINE
  5
560
330
1E
100
AcDbEntity
  8
0
100
AcDbLine
 10
165.9859999999999
 20
529.51345
 30
0.0
 11
166.25
 21
529.05245
 31
0.0
  0
LINE
  5
561
330
1E
100
AcDbEntity
  8
0
100
AcDbLine
 10
72.54999999999999
 20
493.91345
 30
0.0
 11
73.25
 21
498.51345
 31
0.0
  0
LINE
  5
562
330
1E
100
AcDbEntity
  8
0
100
AcDbLine
 10
39.64999999999999
 20
489.61345
 30
0.0
 11
42.54999999999999
 21
485.81345
 31
0.0
  0
LINE
  5
563
330
1E
100
AcDbEntity
  8
0
100
AcDbLine
 10
37.8586956521739
 20
494.5134499999999
 30
0.0
 11
37.95
 21
493.91345
 31
0.0
  0
LINE
  5
568
330
1E
100
AcDbEntity
  8
0
100
AcDbLine
 10
343.169
 20
102.3214499999999
 30
0.0
 11
336.0939999999998
 21
81.67244999999999
 31
0.0
  0
LINE
  5
569
330
1E
100
AcDbEntity
  8
0
100
AcDbLine
 10
206.678503705223
 20
18.6325490736016
 30
0.0
 11
212.05776188137
 21
15.3075019296649
 31
0.0
  0
ENDSEC
  0
SECTION
  2
OBJECTS
  0
DICTIONARY
  5
C
330
0
100
AcDbDictionary
  3
ACAD_GROUP
350
D
  3
ACAD_LAYOUT
350
19
  3
ACAD_MLINESTYLE
350
16
  3
ACAD_PLOTSETTINGS
350
18
  3
ACAD_PLOTSTYLENAME
350
E
  3
ACDBHEADERROUNDTRIPXREC
350
573
  3
ACDBVARIABLEDICTIONARY
350
56A
  0
DICTIONARY
  5
595
330
1E
100
AcDbDictionary
280
     1
  3
ACAD_LAYOUTSELFREF
360
596
  0
DICTIONARY
  5
593
330
1A
100
AcDbDictionary
280
     1
  3
ACAD_LAYOUTSELFREF
360
594
  0
DICTIONARY
  5
D
102
{ACAD_REACTORS
330
C
102
}
330
C
100
AcDbDictionary
  0
DICTIONARY
  5
19
102
{ACAD_REACTORS
330
C
102
}
330
C
100
AcDbDictionary
  0
DICTIONARY
  5
16
102
{ACAD_REACTORS
330
C
102
}
330
C
100
AcDbDictionary
  3
STANDARD
350
17
  0
DICTIONARY
  5
18
102
{ACAD_REACTORS
330
C
102
}
330
C
100
AcDbDictionary
  0
ACDBDICTIONARYWDFLT
  5
E
102
{ACAD_REACTORS
330
C
102
}
330
C
100
AcDbDictionary
281
     1
  3
Normal
350
F
100
AcDbDictionaryWithDefault
340
F
  0
DICTIONARY
  5
573
102
{ACAD_REACTORS
330
C
102
}
330
C
100
AcDbDictionary
  3
CEPSNTYPE
350
57D
  3
FINGERPRINTGUID
350
57E
  3
HYPERLINKBASE
350
576
  3
INSUNITS
350
57C
  3
LAYOUTDICT
350
578
  3
LWETCUNION
350
57B
  3
PLOTSETDICT
350
579
  3
PLOTSTYLNAMDICT
350
57A
  3
PSVPSCALE
350
580
  3
PUCSBASE
350
583
  3
PUCSORGBACK
350
589
  3
PUCSORGBOTTOM
350
585
  3
PUCSORGFRONT
350
588
  3
PUCSORGLEFT
350
586
  3
PUCSORGRIGHT
350
587
  3
PUCSORGTOP
350
584
  3
PUCSORTHOREF
350
581
  3
PUCSORTHOVIEW
350
582
  3
STYLESHEET
350
577
  3
TSTACKALIGN
350
574
  3
TSTACKSIZE
350
575
  3
UCSBASE
350
58C
  3
UCSORGBACK
350
592
  3
UCSORGBOTTOM
350
58E
  3
UCSORGFRONT
350
591
  3
UCSORGLEFT
350
58F
  3
UCSORGRIGHT
350
590
  3
UCSORGTOP
350
58D
  3
UCSORTHOREF
350
58A
  3
UCSORTHOVIEW
350
58B
  3
VERSIONGUID
350
57F
  0
DICTIONARY
  5
56A
102
{ACAD_REACTORS
330
C
102
}
330
C
100
AcDbDictionary
  3
DIMASSOC
350
56B
  0
XRECORD
  5
596
102
{ACAD_REACTORS
330
595
102
}
330
595
100
AcDbXrecord
340
1E
  0
XRECORD
  5
594
102
{ACAD_REACTORS
330
593
102
}
330
593
100
AcDbXrecord
340
1A
  0
MLINESTYLE
  5
17
102
{ACAD_REACTORS
330
16
102
}
330
16
100
AcDbMlineStyle
  2
STANDARD
 70
     0
  3

 62
   256
 51
90.0
 52
90.0
 71
     2
 49
0.5
 62
   256
  6
BYLAYER
 49
-0.5
 62
   256
  6
BYLAYER
  0
ACDBPLACEHOLDER
  5
F
102
{ACAD_REACTORS
330
E
102
}
330
E
100
AcDbPlaceHolder
280
     0
  0
XRECORD
  5
57D
102
{ACAD_REACTORS
330
573
102
}
330
573
100
AcDbXrecord
 90
        0
  0
XRECORD
  5
57E
102
{ACAD_REACTORS
330
573
102
}
330
573
100
AcDbXrecord
  1
{98E1C1E5-098D-4901-85EF-B9E01BED4A7A}
  0
XRECORD
  5
576
102
{ACAD_REACTORS
330
573
102
}
330
573
100
AcDbXrecord
  1

  0
XRECORD
  5
57C
102
{ACAD_REACTORS
330
573
102
}
330
573
100
AcDbXrecord
 90
        0
  0
XRECORD
  5
578
102
{ACAD_REACTORS
330
573
102
}
330
573
100
AcDbXrecord
340
19
  0
XRECORD
  5
57B
102
{ACAD_REACTORS
330
573
102
}
330
573
100
AcDbXrecord
 90
    10781
  0
XRECORD
  5
579
102
{ACAD_REACTORS
330
573
102
}
330
573
100
AcDbXrecord
340
18
  0
XRECORD
  5
57A
102
{ACAD_REACTORS
330
573
102
}
330
573
100
AcDbXrecord
340
E
  0
XRECORD
  5
580
102
{ACAD_REACTORS
330
573
102
}
330
573
100
AcDbXrecord
 40
0.0
  0
XRECORD
  5
583
102
{ACAD_REACTORS
330
573
102
}
330
573
100
AcDbXrecord
340
0
  0
XRECORD
  5
589
102
{ACAD_REACTORS
330
573
102
}
330
573
100
AcDbXrecord
 10
0.0
 20
0.0
 30
0.0
  0
XRECORD
  5
585
102
{ACAD_REACTORS
330
573
102
}
330
573
100
AcDbXrecord
 10
0.0
 20
0.0
 30
0.0
  0
XRECORD
  5
588
102
{ACAD_REACTORS
330
573
102
}
330
573
100
AcDbXrecord
 10
0.0
 20
0.0
 30
0.0
  0
XRECORD
  5
586
102
{ACAD_REACTORS
330
573
102
}
330
573
100
AcDbXrecord
 10
0.0
 20
0.0
 30
0.0
  0
XRECORD
  5
587
102
{ACAD_REACTORS
330
573
102
}
330
573
100
AcDbXrecord
 10
0.0
 20
0.0
 30
0.0
  0
XRECORD
  5
584
102
{ACAD_REACTORS
330
573
102
}
330
573
100
AcDbXrecord
 10
0.0
 20
0.0
 30
0.0
  0
XRECORD
  5
581
102
{ACAD_REACTORS
330
573
102
}
330
573
100
AcDbXrecord
340
0
  0
XRECORD
  5
582
102
{ACAD_REACTORS
330
573
102
}
330
573
100
AcDbXrecord
 70
     0
  0
XRECORD
  5
577
102
{ACAD_REACTORS
330
573
102
}
330
573
100
AcDbXrecord
  1

  0
XRECORD
  5
574
102
{ACAD_REACTORS
330
573
102
}
330
573
100
AcDbXrecord
 90
        1
  0
XRECORD
  5
575
102
{ACAD_REACTORS
330
573
102
}
330
573
100
AcDbXrecord
 90
       70
  0
XRECORD
  5
58C
102
{ACAD_REACTORS
330
573
102
}
330
573
100
AcDbXrecord
340
0
  0
XRECORD
  5
592
102
{ACAD_REACTORS
330
573
102
}
330
573
100
AcDbXrecord
 10
0.0
 20
0.0
 30
0.0
  0
XRECORD
  5
58E
102
{ACAD_REACTORS
330
573
102
}
330
573
100
AcDbXrecord
 10
0.0
 20
0.0
 30
0.0
  0
XRECORD
  5
591
102
{ACAD_REACTORS
330
573
102
}
330
573
100
AcDbXrecord
 10
0.0
 20
0.0
 30
0.0
  0
XRECORD
  5
58F
102
{ACAD_REACTORS
330
573
102
}
330
573
100
AcDbXrecord
 10
0.0
 20
0.0
 30
0.0
  0
XRECORD
  5
590
102
{ACAD_REACTORS
330
573
102
}
330
573
100
AcDbXrecord
 10
0.0
 20
0.0
 30
0.0
  0
XRECORD
  5
58D
102
{ACAD_REACTORS
330
573
102
}
330
573
100
AcDbXrecord
 10
0.0
 20
0.0
 30
0.0
  0
XRECORD
  5
58A
102
{ACAD_REACTORS
330
573
102
}
330
573
100
AcDbXrecord
340
0
  0
XRECORD
  5
58B
102
{ACAD_REACTORS
330
573
102
}
330
573
100
AcDbXrecord
 70
     1
  0
XRECORD
  5
57F
102
{ACAD_REACTORS
330
573
102
}
330
573
100
AcDbXrecord
  1
{EBA1B61B-C7CC-4AC9-869E-03AE6A507744}
  0
DICTIONARYVAR
  5
56B
102
{ACAD_REACTORS
330
56A
102
}
330
56A
100
DictionaryVariables
280
     0
  1
1
  0
ENDSEC
  0
EOF
