  0
SECTION
  2
HEADER
  9
$ACADVER
  1
AC1014
  9
$ACADMAINTVER
 70
     9
  9
$DWGCODEPAGE
  3
ANSI_1252
  9
$INSBASE
 10
0.0
 20
0.0
 30
0.0
  9
$EXTMIN
 10
0.0000000000000013
 20
-0.115449999999991
 30
0.0
  9
$EXTMAX
 10
236.0
 20
759.11545
 30
0.0
  9
$LIMMIN
 10
0.0
 20
0.0
  9
$LIMMAX
 10
12.0
 20
9.0
  9
$ORTHOMODE
 70
     0
  9
$REGENMODE
 70
     1
  9
$FILLMODE
 70
     1
  9
$QTEXTMODE
 70
     0
  9
$MIRRTEXT
 70
     1
  9
$DRAGMODE
 70
     2
  9
$LTSCALE
 40
1.0
  9
$OSMODE
 70
    37
  9
$ATTMODE
 70
     1
  9
$TEXTSIZE
 40
0.2
  9
$TRACEWID
 40
0.05
  9
$TEXTSTYLE
  7
STANDARD
  9
$CLAYER
  8
0
  9
$CELTYPE
  6
CONTINUOUS
  9
$CECOLOR
 62
   256
  9
$CELTSCALE
 40
1.0
  9
$DELOBJ
 70
     1
  9
$DISPSILH
 70
     0
  9
$DIMSCALE
 40
1.0
  9
$DIMASZ
 40
0.18
  9
$DIMEXO
 40
0.0625
  9
$DIMDLI
 40
0.38
  9
$DIMRND
 40
0.0
  9
$DIMDLE
 40
0.0
  9
$DIMEXE
 40
0.18
  9
$DIMTP
 40
0.0
  9
$DIMTM
 40
0.0
  9
$DIMTXT
 40
0.18
  9
$DIMCEN
 40
0.09
  9
$DIMTSZ
 40
0.0
  9
$DIMTOL
 70
     0
  9
$DIMLIM
 70
     0
  9
$DIMTIH
 70
     1
  9
$DIMTOH
 70
     1
  9
$DIMSE1
 70
     0
  9
$DIMSE2
 70
     0
  9
$DIMTAD
 70
     0
  9
$DIMZIN
 70
     0
  9
$DIMBLK
  1

  9
$DIMASO
 70
     1
  9
$DIMSHO
 70
     1
  9
$DIMPOST
  1

  9
$DIMAPOST
  1

  9
$DIMALT
 70
     0
  9
$DIMALTD
 70
     2
  9
$DIMALTF
 40
25.4
  9
$DIMLFAC
 40
1.0
  9
$DIMTOFL
 70
     0
  9
$DIMTVP
 40
0.0
  9
$DIMTIX
 70
     0
  9
$DIMSOXD
 70
     0
  9
$DIMSAH
 70
     0
  9
$DIMBLK1
  1

  9
$DIMBLK2
  1

  9
$DIMSTYLE
  2
STANDARD
  9
$DIMCLRD
 70
     0
  9
$DIMCLRE
 70
     0
  9
$DIMCLRT
 70
     0
  9
$DIMTFAC
 40
1.0
  9
$DIMGAP
 40
0.09
  9
$DIMJUST
 70
     0
  9
$DIMSD1
 70
     0
  9
$DIMSD2
 70
     0
  9
$DIMTOLJ
 70
     1
  9
$DIMTZIN
 70
     0
  9
$DIMALTZ
 70
     0
  9
$DIMALTTZ
 70
     0
  9
$DIMFIT
 70
     3
  9
$DIMUPT
 70
     0
  9
$DIMUNIT
 70
     2
  9
$DIMDEC
 70
     4
  9
$DIMTDEC
 70
     4
  9
$DIMALTU
 70
     2
  9
$DIMALTTD
 70
     2
  9
$DIMTXSTY
  7
STANDARD
  9
$DIMAUNIT
 70
     0
  9
$LUNITS
 70
     2
  9
$LUPREC
 70
     4
  9
$SKETCHINC
 40
0.1
  9
$FILLETRAD
 40
0.0
  9
$AUNITS
 70
     0
  9
$AUPREC
 70
     0
  9
$MENU
  1
.
  9
$ELEVATION
 40
0.0
  9
$PELEVATION
 40
0.0
  9
$THICKNESS
 40
0.0
  9
$LIMCHECK
 70
     0
  9
$BLIPMODE
 70
     0
  9
$CHAMFERA
 40
0.0
  9
$CHAMFERB
 40
0.0
  9
$CHAMFERC
 40
0.0
  9
$CHAMFERD
 40
0.0
  9
$SKPOLY
 70
     0
  9
$TDCREATE
 40
2454687.557845405
  9
$TDUPDATE
 40
2454687.559294340
  9
$TDINDWG
 40
0.0014489352
  9
$TDUSRTIMER
 40
0.0014489352
  9
$USRTIMER
 70
     1
  9
$ANGBASE
 50
0.0
  9
$ANGDIR
 70
     0
  9
$PDMODE
 70
     0
  9
$PDSIZE
 40
0.0
  9
$PLINEWID
 40
0.0
  9
$COORDS
 70
     1
  9
$SPLFRAME
 70
     0
  9
$SPLINETYPE
 70
     6
  9
$SPLINESEGS
 70
     8
  9
$ATTDIA
 70
     0
  9
$ATTREQ
 70
     1
  9
$HANDLING
 70
 22529
  9
$HANDSEED
  5
3CC
  9
$SURFTAB1
 70
     6
  9
$SURFTAB2
 70
     6
  9
$SURFTYPE
 70
     6
  9
$SURFU
 70
     6
  9
$SURFV
 70
     6
  9
$UCSNAME
  2

  9
$UCSORG
 10
0.0
 20
0.0
 30
0.0
  9
$UCSXDIR
 10
1.0
 20
0.0
 30
0.0
  9
$UCSYDIR
 10
0.0
 20
1.0
 30
0.0
  9
$PUCSNAME
  2

  9
$PUCSORG
 10
0.0
 20
0.0
 30
0.0
  9
$PUCSXDIR
 10
1.0
 20
0.0
 30
0.0
  9
$PUCSYDIR
 10
0.0
 20
1.0
 30
0.0
  9
$USERI1
 70
     0
  9
$USERI2
 70
     0
  9
$USERI3
 70
     0
  9
$USERI4
 70
     0
  9
$USERI5
 70
     0
  9
$USERR1
 40
0.0
  9
$USERR2
 40
0.0
  9
$USERR3
 40
0.0
  9
$USERR4
 40
0.0
  9
$USERR5
 40
0.0
  9
$WORLDVIEW
 70
     1
  9
$SHADEDGE
 70
     3
  9
$SHADEDIF
 70
    70
  9
$TILEMODE
 70
     1
  9
$MAXACTVP
 70
    64
  9
$PINSBASE
 10
0.0
 20
0.0
 30
0.0
  9
$PLIMCHECK
 70
     0
  9
$PEXTMIN
 10
1.000000000000000E+20
 20
1.000000000000000E+20
 30
1.000000000000000E+20
  9
$PEXTMAX
 10
-1.000000000000000E+20
 20
-1.000000000000000E+20
 30
-1.000000000000000E+20
  9
$PLIMMIN
 10
0.0
 20
0.0
  9
$PLIMMAX
 10
12.0
 20
9.0
  9
$UNITMODE
 70
     0
  9
$VISRETAIN
 70
     1
  9
$PLINEGEN
 70
     0
  9
$PSLTSCALE
 70
     1
  9
$TREEDEPTH
 70
  3020
  9
$PICKSTYLE
 70
     1
  9
$CMLSTYLE
  2
STANDARD
  9
$CMLJUST
 70
     0
  9
$CMLSCALE
 40
1.0
  9
$PROXYGRAPHICS
 70
     1
  9
$MEASUREMENT
 70
     0
  0
ENDSEC
  0
SECTION
  2
CLASSES
  0
CLASS
  1
ACDBDICTIONARYWDFLT
  2
AcDbDictionaryWithDefault
  3
AutoCAD 2000
 90
        0
280
     0
281
     0
  0
CLASS
  1
ACDBPLACEHOLDER
  2
AcDbPlaceHolder
  3
AutoCAD 2000
 90
        0
280
     0
281
     0
  0
CLASS
  1
LAYOUT
  2
AcDbLayout
  3
AutoCAD 2000
 90
        0
280
     0
281
     0
  0
CLASS
  1
DICTIONARYVAR
  2
AcDbDictionaryVar
  3
AutoCAD 2000
 90
        0
280
     0
281
     0
  0
CLASS
  1
LONG_TRANSACTION
  2
AcDbLongTransaction
  3
AutoCAD 2000
 90
        0
280
     0
281
     0
  0
CLASS
  1
LWPOLYLINE
  2
AcDbPolyline
  3
AutoCAD 2000
 90
        0
280
     0
281
     1
  0
CLASS
  1
HATCH
  2
AcDbHatch
  3
AutoCAD 2000
 90
        0
280
     0
281
     1
  0
CLASS
  1
XRECORD
  2
AcDbXrecord
  3
AutoCAD 2000
 90
        0
280
     0
281
     0
  0
ENDSEC
  0
SECTION
  2
TABLES
  0
TABLE
  2
VPORT
  5
8
330
0
100
AcDbSymbolTable
 70
     2
  0
VPORT
  5
3A7
330
8
100
AcDbSymbolTableRecord
100
AcDbViewportTableRecord
  2
*ACTIVE
 70
     0
 10
0.0
 20
0.0
 11
1.0
 21
1.0
 12
118.0
 22
379.4999999999999
 13
0.0
 23
0.0
 14
1.0
 24
1.0
 15
0.0
 25
0.0
 16
0.0
 26
0.0
 36
1.0
 17
0.0
 27
0.0
 37
0.0
 40
765.0562010230179
 41
2.043533930857874
 42
50.0
 43
0.0
 44
0.0
 50
0.0
 51
0.0
 71
     0
 72
   100
 73
     1
 74
     3
 75
     0
 76
     0
 77
     0
 78
     0
  0
ENDTAB
  0
TABLE
  2
LTYPE
  5
5
330
0
100
AcDbSymbolTable
 70
     1
  0
LTYPE
  5
13
330
5
100
AcDbSymbolTableRecord
100
AcDbLinetypeTableRecord
  2
BYBLOCK
 70
     0
  3

 72
    65
 73
     0
 40
0.0
  0
LTYPE
  5
14
330
5
100
AcDbSymbolTableRecord
100
AcDbLinetypeTableRecord
  2
BYLAYER
 70
     0
  3

 72
    65
 73
     0
 40
0.0
  0
LTYPE
  5
15
330
5
100
AcDbSymbolTableRecord
100
AcDbLinetypeTableRecord
  2
CONTINUOUS
 70
     0
  3
Solid line
 72
    65
 73
     0
 40
0.0
  0
ENDTAB
  0
TABLE
  2
LAYER
  5
2
330
0
100
AcDbSymbolTable
 70
     1
  0
LAYER
  5
10
330
2
100
AcDbSymbolTableRecord
100
AcDbLayerTableRecord
  2
0
 70
     0
 62
     7
  6
CONTINUOUS
  0
ENDTAB
  0
TABLE
  2
STYLE
  5
3
330
0
100
AcDbSymbolTable
 70
     1
  0
STYLE
  5
11
330
3
100
AcDbSymbolTableRecord
100
AcDbTextStyleTableRecord
  2
STANDARD
 70
     0
 40
0.0
 41
1.0
 50
0.0
 71
     0
 42
0.2
  3
txt
  4

  0
ENDTAB
  0
TABLE
  2
VIEW
  5
6
330
0
100
AcDbSymbolTable
 70
     0
  0
ENDTAB
  0
TABLE
  2
UCS
  5
7
330
0
100
AcDbSymbolTable
 70
     0
  0
ENDTAB
  0
TABLE
  2
APPID
  5
9
330
0
100
AcDbSymbolTable
 70
     1
  0
APPID
  5
12
330
9
100
AcDbSymbolTableRecord
100
AcDbRegAppTableRecord
  2
ACAD
 70
     0
  0
ENDTAB
  0
TABLE
  2
DIMSTYLE
  5
A
330
0
100
AcDbSymbolTable
 70
     1
  0
DIMSTYLE
105
3A1
330
A
100
AcDbSymbolTableRecord
100
AcDbDimStyleTableRecord
  2
STANDARD
 70
     0
  3

  4

  5

  6

  7

 40
1.0
 41
0.18
 42
0.0625
 43
0.38
 44
0.18
 45
0.0
 46
0.0
 47
0.0
 48
0.0
140
0.18
141
0.09
142
0.0
143
25.4
144
1.0
145
0.0
146
1.0
147
0.09
 71
     0
 72
     0
 73
     1
 74
     1
 75
     0
 76
     0
 77
     0
 78
     0
170
     0
171
     2
172
     0
173
     0
174
     0
175
     0
176
     0
177
     0
178
     0
270
     2
271
     4
272
     4
273
     2
274
     2
340
11
275
     0
280
     0
281
     0
282
     0
283
     1
284
     0
285
     0
286
     0
287
     3
288
     0
  0
ENDTAB
  0
TABLE
  2
BLOCK_RECORD
  5
1
330
0
100
AcDbSymbolTable
 70
     0
  0
BLOCK_RECORD
  5
1E
102
{ACAD_XDICTIONARY
360
3CA
102
}
330
1
100
AcDbSymbolTableRecord
100
AcDbBlockTableRecord
  2
*MODEL_SPACE
  0
BLOCK_RECORD
  5
1A
102
{ACAD_XDICTIONARY
360
3C8
102
}
330
1
100
AcDbSymbolTableRecord
100
AcDbBlockTableRecord
  2
*PAPER_SPACE
  0
ENDTAB
  0
ENDSEC
  0
SECTION
  2
BLOCKS
  0
BLOCK
  5
1F
330
1E
100
AcDbEntity
  8
0
100
AcDbBlockBegin
  2
*MODEL_SPACE
 70
     0
 10
0.0
 20
0.0
 30
0.0
  3
*MODEL_SPACE
  1

  0
ENDBLK
  5
20
330
1E
100
AcDbEntity
  8
0
100
AcDbBlockEnd
  0
BLOCK
  5
1B
330
1A
100
AcDbEntity
 67
     1
  8
0
100
AcDbBlockBegin
  2
*PAPER_SPACE
 70
     0
 10
0.0
 20
0.0
 30
0.0
  3
*PAPER_SPACE
  1

  0
ENDBLK
  5
1C
330
1A
100
AcDbEntity
 67
     1
  8
0
100
AcDbBlockEnd
  0
ENDSEC
  0
SECTION
  2
ENTITIES
  0
LINE
  5
22
330
1E
100
AcDbEntity
  8
0
100
AcDbLine
 10
1.21667
 20
436.61345
 30
0.0
 11
14.0
 21
436.5134499999999
 31
0.0
  0
LINE
  5
23
330
1E
100
AcDbEntity
  8
0
100
AcDbLine
 10
10.7067
 20
436.61345
 30
0.0
 11
14.0
 21
436.61345
 31
0.0
  0
LINE
  5
24
330
1E
100
AcDbEntity
  8
0
100
AcDbLine
 10
7.629999999999999
 20
436.61345
 30
0.0
 11
10.7067
 21
436.61345
 31
0.0
  0
LINE
  5
25
330
1E
100
AcDbEntity
  8
0
100
AcDbLine
 10
4.986659999999999
 20
436.61345
 30
0.0
 11
7.629999999999999
 21
436.61345
 31
0.0
  0
LINE
  5
26
330
1E
100
AcDbEntity
  8
0
100
AcDbLine
 10
2.95
 20
436.61345
 30
0.0
 11
4.986659999999999
 21
436.61345
 31
0.0
  0
LINE
  5
27
330
1E
100
AcDbEntity
  8
0
100
AcDbLine
 10
1.69333
 20
436.61345
 30
0.0
 11
2.95
 21
436.61345
 31
0.0
  0
LINE
  5
28
330
1E
100
AcDbEntity
  8
0
100
AcDbLine
 10
1.21667
 20
436.61345
 30
0.0
 11
1.69333
 21
436.61345
 31
0.0
  0
LINE
  5
29
330
1E
100
AcDbEntity
  8
0
100
AcDbLine
 10
1.21667
 20
436.61345
 30
0.0
 11
14.0
 21
436.5134499999999
 31
0.0
  0
LINE
  5
2A
330
1E
100
AcDbEntity
  8
0
100
AcDbLine
 10
14.0
 20
436.61345
 30
0.0
 11
17.29339999999999
 21
436.61345
 31
0.0
  0
LINE
  5
2B
330
1E
100
AcDbEntity
  8
0
100
AcDbLine
 10
17.29339999999999
 20
436.61345
 30
0.0
 11
20.37
 21
436.61345
 31
0.0
  0
LINE
  5
2C
330
1E
100
AcDbEntity
  8
0
100
AcDbLine
 10
20.37
 20
436.61345
 30
0.0
 11
23.0134
 21
436.61345
 31
0.0
  0
LINE
  5
2D
330
1E
100
AcDbEntity
  8
0
100
AcDbLine
 10
14.0
 20
436.5134499999999
 30
0.0
 11
26.7834
 21
436.61345
 31
0.0
  0
LINE
  5
2E
330
1E
100
AcDbEntity
  8
0
100
AcDbLine
 10
23.0134
 20
436.61345
 30
0.0
 11
25.05
 21
436.61345
 31
0.0
  0
LINE
  5
2F
330
1E
100
AcDbEntity
  8
0
100
AcDbLine
 10
10.6633
 20
436.8634499999999
 30
0.0
 11
14.0
 21
436.8634499999999
 31
0.0
  0
LINE
  5
30
330
1E
100
AcDbEntity
  8
0
100
AcDbLine
 10
7.543339999999999
 20
436.8634499999999
 30
0.0
 11
10.6633
 21
436.8634499999999
 31
0.0
  0
LINE
  5
31
330
1E
100
AcDbEntity
  8
0
100
AcDbLine
 10
4.81334
 20
436.8634499999999
 30
0.0
 11
7.543339999999999
 21
436.8634499999999
 31
0.0
  0
LINE
  5
32
330
1E
100
AcDbEntity
  8
0
100
AcDbLine
 10
2.73334
 20
436.8634499999999
 30
0.0
 11
4.81334
 21
436.8634499999999
 31
0.0
  0
LINE
  5
33
330
1E
100
AcDbEntity
  8
0
100
AcDbLine
 10
1.47667
 20
436.8634499999999
 30
0.0
 11
2.73334
 21
436.8634499999999
 31
0.0
  0
LINE
  5
34
330
1E
100
AcDbEntity
  8
0
100
AcDbLine
 10
1.0
 20
436.8634499999999
 30
0.0
 11
1.47667
 21
436.8634499999999
 31
0.0
  0
LINE
  5
35
330
1E
100
AcDbEntity
  8
0
100
AcDbLine
 10
1.0
 20
436.8634499999999
 30
0.0
 11
1.0
 21
441.5134499999999
 31
0.0
  0
LINE
  5
36
330
1E
100
AcDbEntity
  8
0
100
AcDbLine
 10
1.0
 20
436.8634499999999
 30
0.0
 11
1.21667
 21
436.61345
 31
0.0
  0
LINE
  5
37
330
1E
100
AcDbEntity
  8
0
100
AcDbLine
 10
10.6633
 20
441.5134499999999
 30
0.0
 11
14.0
 21
441.5134499999999
 31
0.0
  0
LINE
  5
38
330
1E
100
AcDbEntity
  8
0
100
AcDbLine
 10
7.543339999999999
 20
441.5134499999999
 30
0.0
 11
10.6633
 21
441.5134499999999
 31
0.0
  0
LINE
  5
39
330
1E
100
AcDbEntity
  8
0
100
AcDbLine
 10
4.81334
 20
441.5134499999999
 30
0.0
 11
7.543339999999999
 21
441.5134499999999
 31
0.0
  0
LINE
  5
3A
330
1E
100
AcDbEntity
  8
0
100
AcDbLine
 10
2.73334
 20
441.5134499999999
 30
0.0
 11
4.81334
 21
441.5134499999999
 31
0.0
  0
LINE
  5
3B
330
1E
100
AcDbEntity
  8
0
100
AcDbLine
 10
1.47667
 20
441.5134499999999
 30
0.0
 11
2.73334
 21
441.5134499999999
 31
0.0
  0
LINE
  5
3C
330
1E
100
AcDbEntity
  8
0
100
AcDbLine
 10
1.0
 20
441.5134499999999
 30
0.0
 11
1.47667
 21
441.5134499999999
 31
0.0
  0
LINE
  5
3D
330
1E
100
AcDbEntity
  8
0
100
AcDbLine
 10
14.0
 20
436.8634499999999
 30
0.0
 11
17.3366
 21
436.8634499999999
 31
0.0
  0
LINE
  5
3E
330
1E
100
AcDbEntity
  8
0
100
AcDbLine
 10
17.3366
 20
436.8634499999999
 30
0.0
 11
20.4566
 21
436.8634499999999
 31
0.0
  0
LINE
  5
3F
330
1E
100
AcDbEntity
  8
0
100
AcDbLine
 10
20.4566
 20
436.8634499999999
 30
0.0
 11
23.18659999999999
 21
436.8634499999999
 31
0.0
  0
LINE
  5
40
330
1E
100
AcDbEntity
  8
0
100
AcDbLine
 10
14.0
 20
441.5134499999999
 30
0.0
 11
17.3366
 21
441.5134499999999
 31
0.0
  0
LINE
  5
41
330
1E
100
AcDbEntity
  8
0
100
AcDbLine
 10
17.3366
 20
441.5134499999999
 30
0.0
 11
20.4566
 21
441.5134499999999
 31
0.0
  0
LINE
  5
42
330
1E
100
AcDbEntity
  8
0
100
AcDbLine
 10
23.18659999999999
 20
436.8634499999999
 30
0.0
 11
25.2666
 21
436.8634499999999
 31
0.0
  0
LINE
  5
43
330
1E
100
AcDbEntity
  8
0
100
AcDbLine
 10
25.2666
 20
436.8634499999999
 30
0.0
 11
26.5234
 21
436.8634499999999
 31
0.0
  0
LINE
  5
44
330
1E
100
AcDbEntity
  8
0
100
AcDbLine
 10
20.4566
 20
441.5134499999999
 30
0.0
 11
23.18659999999999
 21
441.5134499999999
 31
0.0
  0
LINE
  5
45
330
1E
100
AcDbEntity
  8
0
100
AcDbLine
 10
23.18659999999999
 20
441.5134499999999
 30
0.0
 11
25.2666
 21
441.5134499999999
 31
0.0
  0
LINE
  5
46
330
1E
100
AcDbEntity
  8
0
100
AcDbLine
 10
25.2666
 20
441.5134499999999
 30
0.0
 11
26.5234
 21
441.5134499999999
 31
0.0
  0
LINE
  5
47
330
1E
100
AcDbEntity
  8
0
100
AcDbLine
 10
25.05
 20
436.61345
 30
0.0
 11
26.3066
 21
436.61345
 31
0.0
  0
LINE
  5
48
330
1E
100
AcDbEntity
  8
0
100
AcDbLine
 10
26.5234
 20
436.8634499999999
 30
0.0
 11
27.0
 21
436.8634499999999
 31
0.0
  0
LINE
  5
49
330
1E
100
AcDbEntity
  8
0
100
AcDbLine
 10
27.0
 20
436.8634499999999
 30
0.0
 11
27.0
 21
441.5134499999999
 31
0.0
  0
LINE
  5
4A
330
1E
100
AcDbEntity
  8
0
100
AcDbLine
 10
26.5234
 20
441.5134499999999
 30
0.0
 11
27.0
 21
441.5134499999999
 31
0.0
  0
LINE
  5
4B
330
1E
100
AcDbEntity
  8
0
100
AcDbLine
 10
26.7834
 20
436.61345
 30
0.0
 11
27.0
 21
436.8634499999999
 31
0.0
  0
LINE
  5
4C
330
1E
100
AcDbEntity
  8
0
100
AcDbLine
 10
26.3066
 20
436.61345
 30
0.0
 11
26.7834
 21
436.61345
 31
0.0
  0
LINE
  5
4D
330
1E
100
AcDbEntity
  8
0
100
AcDbLine
 10
0.500000000000002
 20
441.5134499999999
 30
0.0
 11
1.0
 21
441.5134499999999
 31
0.0
  0
LINE
  5
4E
330
1E
100
AcDbEntity
  8
0
100
AcDbLine
 10
0.500000000000002
 20
441.5134499999999
 30
0.0
 11
27.5
 21
441.5134499999999
 31
0.0
  0
LINE
  5
4F
330
1E
100
AcDbEntity
  8
0
100
AcDbLine
 10
27.0
 20
441.5134499999999
 30
0.0
 11
27.5
 21
441.5134499999999
 31
0.0
  0
LINE
  5
50
330
1E
100
AcDbEntity
  8
0
100
AcDbLine
 10
27.0
 20
441.5134499999999
 30
0.0
 11
27.0
 21
436.8634499999999
 31
0.0
  0
LINE
  5
51
330
1E
100
AcDbEntity
  8
0
100
AcDbLine
 10
0.500000000000002
 20
442.0134499999999
 30
0.0
 11
27.5
 21
442.0134499999999
 31
0.0
  0
LINE
  5
52
330
1E
100
AcDbEntity
  8
0
100
AcDbLine
 10
0.0000000000000013
 20
442.0134499999999
 30
0.0
 11
0.500000000000001
 21
441.5134499999999
 31
0.0
  0
LINE
  5
53
330
1E
100
AcDbEntity
  8
0
100
AcDbLine
 10
0.0000000000000013
 20
442.0134499999999
 30
0.0
 11
0.500000000000001
 21
442.0134499999999
 31
0.0
  0
LINE
  5
54
330
1E
100
AcDbEntity
  8
0
100
AcDbLine
 10
0.500000000000001
 20
442.0134499999999
 30
0.0
 11
27.5
 21
442.0134499999999
 31
0.0
  0
LINE
  5
55
330
1E
100
AcDbEntity
  8
0
100
AcDbLine
 10
0.500000000000001
 20
442.0134499999999
 30
0.0
 11
0.5000000000000031
 21
466.5134499999999
 31
0.0
  0
LINE
  5
56
330
1E
100
AcDbEntity
  8
0
100
AcDbLine
 10
27.5
 20
442.0134499999999
 30
0.0
 11
28.0
 21
442.0134499999999
 31
0.0
  0
LINE
  5
57
330
1E
100
AcDbEntity
  8
0
100
AcDbLine
 10
27.5
 20
442.0134499999999
 30
0.0
 11
27.5
 21
441.5134499999999
 31
0.0
  0
LINE
  5
58
330
1E
100
AcDbEntity
  8
0
100
AcDbLine
 10
27.5
 20
442.0134499999999
 30
0.0
 11
27.5
 21
466.5134499999999
 31
0.0
  0
LINE
  5
59
330
1E
100
AcDbEntity
  8
0
100
AcDbLine
 10
0.500000000000001
 20
441.5134499999999
 30
0.0
 11
1.0
 21
441.5134499999999
 31
0.0
  0
LINE
  5
5A
330
1E
100
AcDbEntity
  8
0
100
AcDbLine
 10
0.500000000000001
 20
441.5134499999999
 30
0.0
 11
0.500000000000001
 21
442.0134499999999
 31
0.0
  0
LINE
  5
5B
330
1E
100
AcDbEntity
  8
0
100
AcDbLine
 10
0.500000000000001
 20
441.5134499999999
 30
0.0
 11
27.5
 21
441.5134499999999
 31
0.0
  0
LINE
  5
5C
330
1E
100
AcDbEntity
  8
0
100
AcDbLine
 10
134.8229999999999
 20
0.7524500000000151
 30
0.0
 11
137.5329999999999
 21
-0.115449999999991
 31
0.0
  0
LINE
  5
5D
330
1E
100
AcDbEntity
  8
0
100
AcDbLine
 10
140.337
 20
0.212050000000016
 30
0.0
 11
144.423
 21
2.005250000000009
 31
0.0
  0
LINE
  5
5E
330
1E
100
AcDbEntity
  8
0
100
AcDbLine
 10
137.5329999999999
 20
-0.115449999999991
 30
0.0
 11
140.337
 21
0.212050000000016
 31
0.0
  0
LINE
  5
5F
330
1E
100
AcDbEntity
  8
0
100
AcDbLine
 10
140.337
 20
0.212050000000016
 30
0.0
 11
144.423
 21
2.005250000000009
 31
0.0
  0
LINE
  5
60
330
1E
100
AcDbEntity
  8
0
100
AcDbLine
 10
115.6989999999999
 20
122.5634499999999
 30
0.0
 11
116.691
 21
145.1764499999999
 31
0.0
  0
LINE
  5
61
330
1E
100
AcDbEntity
  8
0
100
AcDbLine
 10
115.1589999999999
 20
99.65045000000001
 30
0.0
 11
115.42
 21
76.83844999999999
 31
0.0
  0
LINE
  5
62
330
1E
100
AcDbEntity
  8
0
100
AcDbLine
 10
115.1589999999999
 20
99.65045000000001
 30
0.0
 11
115.6989999999999
 21
122.5634499999999
 31
0.0
  0
LINE
  5
63
330
1E
100
AcDbEntity
  8
0
100
AcDbLine
 10
115.42
 20
76.83844999999999
 30
0.0
 11
116.0849999999999
 21
56.41655
 31
0.0
  0
LINE
  5
64
330
1E
100
AcDbEntity
  8
0
100
AcDbLine
 10
117.9939999999999
 20
164.90145
 30
0.0
 11
119.230013690898
 21
444.51245
 31
0.0
  0
LINE
  5
65
330
1E
100
AcDbEntity
  8
0
100
AcDbLine
 10
117.9939999999999
 20
164.90145
 30
0.0
 11
119.230013690898
 21
444.51245
 31
0.0
  0
LINE
  5
66
330
1E
100
AcDbEntity
  8
0
100
AcDbLine
 10
116.691
 20
145.1764499999999
 30
0.0
 11
117.9939999999999
 21
164.90145
 31
0.0
  0
LINE
  5
67
330
1E
100
AcDbEntity
  8
0
100
AcDbLine
 10
116.0849999999999
 20
56.41655
 30
0.0
 11
117.87
 21
40.17854999999999
 31
0.0
  0
LINE
  5
68
330
1E
100
AcDbEntity
  8
0
100
AcDbLine
 10
117.87
 20
40.17854999999999
 30
0.0
 11
120.3899999999999
 21
23.44155
 31
0.0
  0
LINE
  5
69
330
1E
100
AcDbEntity
  8
0
100
AcDbLine
 10
120.3899999999999
 20
23.44155
 30
0.0
 11
123.462
 21
13.77855
 31
0.0
  0
LINE
  5
6A
330
1E
100
AcDbEntity
  8
0
100
AcDbLine
 10
123.462
 20
13.77855
 30
0.0
 11
124.6979999999999
 21
11.23115
 31
0.0
  0
LINE
  5
6B
330
1E
100
AcDbEntity
  8
0
100
AcDbLine
 10
124.6979999999999
 20
11.23115
 30
0.0
 11
128.59
 21
4.457050000000009
 31
0.0
  0
LINE
  5
6C
330
1E
100
AcDbEntity
  8
0
100
AcDbLine
 10
124.6979999999999
 20
11.23115
 30
0.0
 11
128.59
 21
4.457050000000009
 31
0.0
  0
LINE
  5
6D
330
1E
100
AcDbEntity
  8
0
100
AcDbLine
 10
130.127
 20
122.26945
 30
0.0
 11
131.0929999999999
 21
144.2854499999999
 31
0.0
  0
LINE
  5
6E
330
1E
100
AcDbEntity
  8
0
100
AcDbLine
 10
129.6129999999999
 20
100.45245
 30
0.0
 11
129.872
 21
78.63644999999999
 31
0.0
  0
LINE
  5
6F
330
1E
100
AcDbEntity
  8
0
100
AcDbLine
 10
129.6129999999999
 20
100.45245
 30
0.0
 11
130.127
 21
122.26945
 31
0.0
  0
LINE
  5
70
330
1E
100
AcDbEntity
  8
0
100
AcDbLine
 10
129.872
 20
78.63644999999999
 30
0.0
 11
130.4799999999999
 21
59.01155
 31
0.0
  0
LINE
  5
71
330
1E
100
AcDbEntity
  8
0
100
AcDbLine
 10
131.0929999999999
 20
144.2854499999999
 30
0.0
 11
132.3839999999999
 21
163.6114499999999
 31
0.0
  0
LINE
  5
72
330
1E
100
AcDbEntity
  8
0
100
AcDbLine
 10
130.4799999999999
 20
59.01155
 30
0.0
 11
132.1689999999999
 21
43.57054999999999
 31
0.0
  0
LINE
  5
73
330
1E
100
AcDbEntity
  8
0
100
AcDbLine
 10
132.1689999999999
 20
43.57054999999999
 30
0.0
 11
134.5779999999999
 21
27.43155
 31
0.0
  0
LINE
  5
74
330
1E
100
AcDbEntity
  8
0
100
AcDbLine
 10
134.5779999999999
 20
27.43155
 30
0.0
 11
137.1444838161719
 21
19.2442545203105
 31
0.0
  0
LINE
  5
75
330
1E
100
AcDbEntity
  8
0
100
AcDbLine
 10
132.3839999999999
 20
163.6114499999999
 30
0.0
 11
133.7092273911989
 21
444.51245
 31
0.0
  0
LINE
  5
76
330
1E
100
AcDbEntity
  8
0
100
AcDbLine
 10
132.3839999999999
 20
163.6114499999999
 30
0.0
 11
133.7092273911989
 21
444.51245
 31
0.0
  0
LINE
  5
77
330
1E
100
AcDbEntity
  8
0
100
AcDbLine
 10
128.59
 20
4.457050000000009
 30
0.0
 11
130.621
 21
2.545550000000019
 31
0.0
  0
LINE
  5
78
330
1E
100
AcDbEntity
  8
0
100
AcDbLine
 10
130.621
 20
2.545550000000019
 30
0.0
 11
134.8229999999999
 21
0.7524500000000151
 31
0.0
  0
LINE
  5
79
330
1E
100
AcDbEntity
  8
0
100
AcDbLine
 10
130.621
 20
2.545550000000019
 30
0.0
 11
134.8229999999999
 21
0.7524500000000151
 31
0.0
  0
LINE
  5
7A
330
1E
100
AcDbEntity
  8
0
100
AcDbLine
 10
153.277
 20
12.48855
 30
0.0
 11
157.859
 21
22.15255
 31
0.0
  0
LINE
  5
7B
330
1E
100
AcDbEntity
  8
0
100
AcDbLine
 10
151.6689999999999
 20
10.25495
 30
0.0
 11
153.277
 21
12.48855
 31
0.0
  0
LINE
  5
7C
330
1E
100
AcDbEntity
  8
0
100
AcDbLine
 10
146.7179999999999
 20
3.480850000000009
 30
0.0
 11
151.6689999999999
 21
10.25495
 31
0.0
  0
LINE
  5
7D
330
1E
100
AcDbEntity
  8
0
100
AcDbLine
 10
146.7179999999999
 20
3.480850000000009
 30
0.0
 11
151.6689999999999
 21
10.25495
 31
0.0
  0
LINE
  5
7E
330
1E
100
AcDbEntity
  8
0
100
AcDbLine
 10
144.423
 20
2.005250000000009
 30
0.0
 11
146.7179999999999
 21
3.480850000000009
 31
0.0
  0
LINE
  5
7F
330
1E
100
AcDbEntity
  8
0
100
AcDbLine
 10
136.2549999999999
 20
20.81455
 30
0.0
 11
138.3619578542119
 21
17.09492482614999
 31
0.0
  0
LINE
  5
80
330
1E
100
AcDbEntity
  8
0
100
AcDbLine
 10
137.778
 20
16.45055
 30
0.0
 11
137.8690868814179
 21
16.41384517851209
 31
0.0
  0
LINE
  5
81
330
1E
100
AcDbEntity
  8
0
100
AcDbLine
 10
137.778
 20
16.45055
 30
0.0
 11
137.84799045939
 21
16.3846928354558
 31
0.0
  0
LINE
  5
82
330
1E
100
AcDbEntity
  8
0
100
AcDbLine
 10
157.1989999999999
 20
79.92645
 30
0.0
 11
160.865
 21
101.74245
 31
0.0
  0
LINE
  5
83
330
1E
100
AcDbEntity
  8
0
100
AcDbLine
 10
153.525
 20
60.30155
 30
0.0
 11
157.1989999999999
 21
79.92645
 31
0.0
  0
LINE
  5
84
330
1E
100
AcDbEntity
  8
0
100
AcDbLine
 10
149.425
 20
44.86055
 30
0.0
 11
153.525
 21
60.30155
 31
0.0
  0
LINE
  5
85
330
1E
100
AcDbEntity
  8
0
100
AcDbLine
 10
144.496
 20
28.72155
 30
0.0
 11
149.425
 21
44.86055
 31
0.0
  0
LINE
  5
86
330
1E
100
AcDbEntity
  8
0
100
AcDbLine
 10
140.144
 20
19.45755
 30
0.0
 11
144.496
 21
28.72155
 31
0.0
  0
LINE
  5
87
330
1E
100
AcDbEntity
  8
0
100
AcDbLine
 10
137.226
 20
15.51454999999999
 30
0.0
 11
140.273111670228
 21
19.7323869744933
 31
0.0
  0
LINE
  5
88
330
1E
100
AcDbEntity
  8
0
100
AcDbLine
 10
135.975
 20
15.49655
 30
0.0
 11
137.7446893377269
 21
16.2419449451829
 31
0.0
  0
LINE
  5
89
330
1E
100
AcDbEntity
  8
0
100
AcDbLine
 10
134.8229999999999
 20
0.7524500000000151
 30
0.0
 11
137.5329999999999
 21
-0.115449999999991
 31
0.0
  0
LINE
  5
8A
330
1E
100
AcDbEntity
  8
0
100
AcDbLine
 10
27.5
 20
441.5134499999999
 30
0.0
 11
28.0
 21
442.0134499999999
 31
0.0
  0
LINE
  5
8B
330
1E
100
AcDbEntity
  8
0
100
AcDbLine
 10
27.5
 20
441.5134499999999
 30
0.0
 11
27.5
 21
442.0134499999999
 31
0.0
  0
LINE
  5
8C
330
1E
100
AcDbEntity
  8
0
100
AcDbLine
 10
116.0
 20
444.51245
 30
0.0
 11
116.4
 21
444.51245
 31
0.0
  0
LINE
  5
8D
330
1E
100
AcDbEntity
  8
0
100
AcDbLine
 10
116.4
 20
444.51245
 30
0.0
 11
117.3
 21
444.51245
 31
0.0
  0
LINE
  5
8E
330
1E
100
AcDbEntity
  8
0
100
AcDbLine
 10
117.3
 20
444.51245
 30
0.0
 11
118.9
 21
444.51245
 31
0.0
  0
LINE
  5
8F
330
1E
100
AcDbEntity
  8
0
100
AcDbLine
 10
133.0999999999999
 20
444.51245
 30
0.0
 11
134.6999999999999
 21
444.51245
 31
0.0
  0
LINE
  5
90
330
1E
100
AcDbEntity
  8
0
100
AcDbLine
 10
131.0
 20
444.51245
 30
0.0
 11
133.0999999999999
 21
444.51245
 31
0.0
  0
LINE
  5
91
330
1E
100
AcDbEntity
  8
0
100
AcDbLine
 10
128.6
 20
444.51245
 30
0.0
 11
131.0
 21
444.51245
 31
0.0
  0
LINE
  5
92
330
1E
100
AcDbEntity
  8
0
100
AcDbLine
 10
126.0
 20
444.51245
 30
0.0
 11
128.6
 21
444.51245
 31
0.0
  0
LINE
  5
93
330
1E
100
AcDbEntity
  8
0
100
AcDbLine
 10
136.0
 20
444.51245
 30
0.0
 11
137.5
 21
474.5134499999999
 31
0.0
  0
LINE
  5
94
330
1E
100
AcDbEntity
  8
0
100
AcDbLine
 10
135.5999999999999
 20
444.51245
 30
0.0
 11
136.0
 21
444.51245
 31
0.0
  0
LINE
  5
95
330
1E
100
AcDbEntity
  8
0
100
AcDbLine
 10
134.6999999999999
 20
444.51245
 30
0.0
 11
135.5999999999999
 21
444.51245
 31
0.0
  0
LINE
  5
96
330
1E
100
AcDbEntity
  8
0
100
AcDbLine
 10
133.7092273911989
 20
444.51245
 30
0.0
 11
134.6999999999999
 21
444.51245
 31
0.0
  0
LINE
  5
97
330
1E
100
AcDbEntity
  8
0
100
AcDbLine
 10
121.0
 20
444.51245
 30
0.0
 11
123.3999999999999
 21
444.51245
 31
0.0
  0
LINE
  5
98
330
1E
100
AcDbEntity
  8
0
100
AcDbLine
 10
123.3999999999999
 20
444.51245
 30
0.0
 11
126.0
 21
444.51245
 31
0.0
  0
LINE
  5
99
330
1E
100
AcDbEntity
  8
0
100
AcDbLine
 10
118.9
 20
444.51245
 30
0.0
 11
119.230013690898
 21
444.51245
 31
0.0
  0
LINE
  5
9A
330
1E
100
AcDbEntity
  8
0
100
AcDbLine
 10
118.9
 20
444.51245
 30
0.0
 11
121.0
 21
444.51245
 31
0.0
  0
LINE
  5
9B
330
1E
100
AcDbEntity
  8
0
100
AcDbLine
 10
28.0
 20
442.0134499999999
 30
0.0
 11
28.0
 21
466.5134499999999
 31
0.0
  0
LINE
  5
9C
330
1E
100
AcDbEntity
  8
0
100
AcDbLine
 10
0.0000000000000013
 20
442.0134499999999
 30
0.0
 11
0.0000000000000028
 21
466.5134499999999
 31
0.0
  0
LINE
  5
9D
330
1E
100
AcDbEntity
  8
0
100
AcDbLine
 10
0.0000000000000013
 20
442.0134499999999
 30
0.0
 11
0.500000000000001
 21
441.5134499999999
 31
0.0
  0
LINE
  5
9E
330
1E
100
AcDbEntity
  8
0
100
AcDbLine
 10
0.0000000000000013
 20
442.0134499999999
 30
0.0
 11
0.500000000000001
 21
442.0134499999999
 31
0.0
  0
LINE
  5
9F
330
1E
100
AcDbEntity
  8
0
100
AcDbLine
 10
0.5000000000000031
 20
466.5134499999999
 30
0.0
 11
2.2
 21
478.31345
 31
0.0
  0
LINE
  5
A0
330
1E
100
AcDbEntity
  8
0
100
AcDbLine
 10
0.0000000000000029
 20
466.5134499999999
 30
0.0
 11
1.7
 21
478.41345
 31
0.0
  0
LINE
  5
A1
330
1E
100
AcDbEntity
  8
0
100
AcDbLine
 10
0.0000000000000028
 20
466.5134499999999
 30
0.0
 11
1.7
 21
478.41345
 31
0.0
  0
LINE
  5
A2
330
1E
100
AcDbEntity
  8
0
100
AcDbLine
 10
2.2
 20
478.31345
 30
0.0
 11
6.599999999999999
 21
489.21345
 31
0.0
  0
LINE
  5
A3
330
1E
100
AcDbEntity
  8
0
100
AcDbLine
 10
6.599999999999999
 20
489.21345
 30
0.0
 11
13.9
 21
498.61345
 31
0.0
  0
LINE
  5
A4
330
1E
100
AcDbEntity
  8
0
100
AcDbLine
 10
6.2
 20
489.4134499999999
 30
0.0
 11
13.6
 21
499.0134499999999
 31
0.0
  0
LINE
  5
A5
330
1E
100
AcDbEntity
  8
0
100
AcDbLine
 10
1.7
 20
478.41345
 30
0.0
 11
6.2
 21
489.4134499999999
 31
0.0
  0
LINE
  5
A6
330
1E
100
AcDbEntity
  8
0
100
AcDbLine
 10
6.2
 20
489.4134499999999
 30
0.0
 11
13.6
 21
499.0134499999999
 31
0.0
  0
LINE
  5
A7
330
1E
100
AcDbEntity
  8
0
100
AcDbLine
 10
27.5
 20
466.5134499999999
 30
0.0
 11
28.1
 21
471.3134499999999
 31
0.0
  0
LINE
  5
A8
330
1E
100
AcDbEntity
  8
0
100
AcDbLine
 10
27.5
 20
466.5134499999999
 30
0.0
 11
27.5
 21
442.0134499999999
 31
0.0
  0
LINE
  5
A9
330
1E
100
AcDbEntity
  8
0
100
AcDbLine
 10
28.6
 20
471.21345
 30
0.0
 11
30.4
 21
475.5134499999999
 31
0.0
  0
LINE
  5
AA
330
1E
100
AcDbEntity
  8
0
100
AcDbLine
 10
28.1
 20
471.3134499999999
 30
0.0
 11
30.0
 21
475.71345
 31
0.0
  0
LINE
  5
AB
330
1E
100
AcDbEntity
  8
0
100
AcDbLine
 10
30.0
 20
475.71345
 30
0.0
 11
32.9
 21
479.6134499999999
 31
0.0
  0
LINE
  5
AC
330
1E
100
AcDbEntity
  8
0
100
AcDbLine
 10
28.0
 20
466.5134499999999
 30
0.0
 11
28.6
 21
471.21345
 31
0.0
  0
LINE
  5
AD
330
1E
100
AcDbEntity
  8
0
100
AcDbLine
 10
30.4
 20
475.5134499999999
 30
0.0
 11
33.39999999999999
 21
479.3134499999999
 31
0.0
  0
LINE
  5
AE
330
1E
100
AcDbEntity
  8
0
100
AcDbLine
 10
13.9
 20
498.61345
 30
0.0
 11
23.39999999999999
 21
505.9134499999999
 31
0.0
  0
LINE
  5
AF
330
1E
100
AcDbEntity
  8
0
100
AcDbLine
 10
32.9
 20
479.6134499999999
 30
0.0
 11
36.79999999999999
 21
482.61345
 31
0.0
  0
LINE
  5
B0
330
1E
100
AcDbEntity
  8
0
100
AcDbLine
 10
23.39999999999999
 20
505.9134499999999
 30
0.0
 11
34.29999999999999
 21
510.4134499999999
 31
0.0
  0
LINE
  5
B1
330
1E
100
AcDbEntity
  8
0
100
AcDbLine
 10
33.39999999999999
 20
479.3134499999999
 30
0.0
 11
37.0
 21
482.11345
 31
0.0
  0
LINE
  5
B2
330
1E
100
AcDbEntity
  8
0
100
AcDbLine
 10
13.6
 20
499.0134499999999
 30
0.0
 11
23.1
 21
506.31345
 31
0.0
  0
LINE
  5
B3
330
1E
100
AcDbEntity
  8
0
100
AcDbLine
 10
23.1
 20
506.31345
 30
0.0
 11
34.2
 21
510.81345
 31
0.0
  0
LINE
  5
B4
330
1E
100
AcDbEntity
  8
0
100
AcDbLine
 10
113.5
 20
475.11345
 30
0.0
 11
113.7999999999999
 21
474.5134499999999
 31
0.0
  0
LINE
  5
B5
330
1E
100
AcDbEntity
  8
0
100
AcDbLine
 10
113.5
 20
475.11345
 30
0.0
 11
113.5
 21
484.5134499999999
 31
0.0
  0
LINE
  5
B6
330
1E
100
AcDbEntity
  8
0
100
AcDbLine
 10
113.7999999999999
 20
474.5134499999999
 30
0.0
 11
114.25
 21
474.5134499999999
 31
0.0
  0
LINE
  5
B7
330
1E
100
AcDbEntity
  8
0
100
AcDbLine
 10
114.9
 20
474.5134499999999
 30
0.0
 11
116.0
 21
474.5134499999999
 31
0.0
  0
LINE
  5
B8
330
1E
100
AcDbEntity
  8
0
100
AcDbLine
 10
114.5
 20
474.5134499999999
 30
0.0
 11
116.0
 21
444.51245
 31
0.0
  0
LINE
  5
B9
330
1E
100
AcDbEntity
  8
0
100
AcDbLine
 10
114.5
 20
474.5134499999999
 30
0.0
 11
114.9
 21
474.5134499999999
 31
0.0
  0
LINE
  5
BA
330
1E
100
AcDbEntity
  8
0
100
AcDbLine
 10
116.0
 20
474.5134499999999
 30
0.0
 11
117.9
 21
474.5134499999999
 31
0.0
  0
LINE
  5
BB
330
1E
100
AcDbEntity
  8
0
100
AcDbLine
 10
117.9
 20
474.5134499999999
 30
0.0
 11
120.3
 21
474.5134499999999
 31
0.0
  0
LINE
  5
BC
330
1E
100
AcDbEntity
  8
0
100
AcDbLine
 10
115.45
 20
474.5134499999999
 30
0.0
 11
117.4
 21
474.5134499999999
 31
0.0
  0
LINE
  5
BD
330
1E
100
AcDbEntity
  8
0
100
AcDbLine
 10
117.4
 20
474.5134499999999
 30
0.0
 11
119.95
 21
474.5134499999999
 31
0.0
  0
LINE
  5
BE
330
1E
100
AcDbEntity
  8
0
100
AcDbLine
 10
129.0
 20
474.5134499999999
 30
0.0
 11
131.6999999999999
 21
474.5134499999999
 31
0.0
  0
LINE
  5
BF
330
1E
100
AcDbEntity
  8
0
100
AcDbLine
 10
120.3
 20
474.5134499999999
 30
0.0
 11
123.0
 21
474.5134499999999
 31
0.0
  0
LINE
  5
C0
330
1E
100
AcDbEntity
  8
0
100
AcDbLine
 10
123.0
 20
474.5134499999999
 30
0.0
 11
126.0
 21
474.5134499999999
 31
0.0
  0
LINE
  5
C1
330
1E
100
AcDbEntity
  8
0
100
AcDbLine
 10
134.0999999999999
 20
474.5134499999999
 30
0.0
 11
136.0
 21
474.5134499999999
 31
0.0
  0
LINE
  5
C2
330
1E
100
AcDbEntity
  8
0
100
AcDbLine
 10
131.6999999999999
 20
474.5134499999999
 30
0.0
 11
134.0999999999999
 21
474.5134499999999
 31
0.0
  0
LINE
  5
C3
330
1E
100
AcDbEntity
  8
0
100
AcDbLine
 10
137.0999999999999
 20
474.5134499999999
 30
0.0
 11
137.5
 21
474.5134499999999
 31
0.0
  0
LINE
  5
C4
330
1E
100
AcDbEntity
  8
0
100
AcDbLine
 10
136.0
 20
474.5134499999999
 30
0.0
 11
137.0999999999999
 21
474.5134499999999
 31
0.0
  0
LINE
  5
C5
330
1E
100
AcDbEntity
  8
0
100
AcDbLine
 10
137.5
 20
474.5134499999999
 30
0.0
 11
137.7499999999999
 21
474.5134499999999
 31
0.0
  0
LINE
  5
C6
330
1E
100
AcDbEntity
  8
0
100
AcDbLine
 10
138.1999999999999
 20
474.5134499999999
 30
0.0
 11
138.5
 21
475.11345
 31
0.0
  0
LINE
  5
C7
330
1E
100
AcDbEntity
  8
0
100
AcDbLine
 10
137.7499999999999
 20
474.5134499999999
 30
0.0
 11
138.1999999999999
 21
474.5134499999999
 31
0.0
  0
LINE
  5
C8
330
1E
100
AcDbEntity
  8
0
100
AcDbLine
 10
136.55
 20
474.5134499999999
 30
0.0
 11
137.7499999999999
 21
474.5134499999999
 31
0.0
  0
LINE
  5
C9
330
1E
100
AcDbEntity
  8
0
100
AcDbLine
 10
134.5999999999999
 20
474.5134499999999
 30
0.0
 11
136.55
 21
474.5134499999999
 31
0.0
  0
LINE
  5
CA
330
1E
100
AcDbEntity
  8
0
100
AcDbLine
 10
132.05
 20
474.5134499999999
 30
0.0
 11
134.5999999999999
 21
474.5134499999999
 31
0.0
  0
LINE
  5
CB
330
1E
100
AcDbEntity
  8
0
100
AcDbLine
 10
129.15
 20
474.5134499999999
 30
0.0
 11
132.05
 21
474.5134499999999
 31
0.0
  0
LINE
  5
CC
330
1E
100
AcDbEntity
  8
0
100
AcDbLine
 10
126.0
 20
474.5134499999999
 30
0.0
 11
129.15
 21
474.5134499999999
 31
0.0
  0
LINE
  5
CD
330
1E
100
AcDbEntity
  8
0
100
AcDbLine
 10
126.0
 20
474.5134499999999
 30
0.0
 11
129.0
 21
474.5134499999999
 31
0.0
  0
LINE
  5
CE
330
1E
100
AcDbEntity
  8
0
100
AcDbLine
 10
119.95
 20
474.5134499999999
 30
0.0
 11
122.8499999999999
 21
474.5134499999999
 31
0.0
  0
LINE
  5
CF
330
1E
100
AcDbEntity
  8
0
100
AcDbLine
 10
138.5
 20
475.11345
 30
0.0
 11
138.5
 21
484.5134499999999
 31
0.0
  0
LINE
  5
D0
330
1E
100
AcDbEntity
  8
0
100
AcDbLine
 10
122.8499999999999
 20
474.5134499999999
 30
0.0
 11
126.0
 21
474.5134499999999
 31
0.0
  0
LINE
  5
D1
330
1E
100
AcDbEntity
  8
0
100
AcDbLine
 10
114.25
 20
474.5134499999999
 30
0.0
 11
114.5
 21
474.5134499999999
 31
0.0
  0
LINE
  5
D2
330
1E
100
AcDbEntity
  8
0
100
AcDbLine
 10
114.25
 20
474.5134499999999
 30
0.0
 11
115.45
 21
474.5134499999999
 31
0.0
  0
LINE
  5
D3
330
1E
100
AcDbEntity
  8
0
100
AcDbLine
 10
41.29999999999999
 20
483.91345
 30
0.0
 11
46.0
 21
484.5134499999999
 31
0.0
  0
LINE
  5
D4
330
1E
100
AcDbEntity
  8
0
100
AcDbLine
 10
36.79999999999999
 20
482.61345
 30
0.0
 11
41.2
 21
484.41345
 31
0.0
  0
LINE
  5
D5
330
1E
100
AcDbEntity
  8
0
100
AcDbLine
 10
41.2
 20
484.41345
 30
0.0
 11
46.0
 21
485.01345
 31
0.0
  0
LINE
  5
D6
330
1E
100
AcDbEntity
  8
0
100
AcDbLine
 10
113.9499999999999
 20
484.5134499999999
 30
0.0
 11
115.15
 21
484.5134499999999
 31
0.0
  0
LINE
  5
D7
330
1E
100
AcDbEntity
  8
0
100
AcDbLine
 10
115.15
 20
484.5134499999999
 30
0.0
 11
117.1499999999999
 21
484.5134499999999
 31
0.0
  0
LINE
  5
D8
330
1E
100
AcDbEntity
  8
0
100
AcDbLine
 10
117.1499999999999
 20
484.5134499999999
 30
0.0
 11
119.7999999999999
 21
484.5134499999999
 31
0.0
  0
LINE
  5
D9
330
1E
100
AcDbEntity
  8
0
100
AcDbLine
 10
119.7999999999999
 20
484.5134499999999
 30
0.0
 11
122.7999999999999
 21
484.5134499999999
 31
0.0
  0
LINE
  5
DA
330
1E
100
AcDbEntity
  8
0
100
AcDbLine
 10
138.05
 20
484.5134499999999
 30
0.0
 11
138.5
 21
484.5134499999999
 31
0.0
  0
LINE
  5
DB
330
1E
100
AcDbEntity
  8
0
100
AcDbLine
 10
136.85
 20
484.5134499999999
 30
0.0
 11
138.05
 21
484.5134499999999
 31
0.0
  0
LINE
  5
DC
330
1E
100
AcDbEntity
  8
0
100
AcDbLine
 10
134.85
 20
484.5134499999999
 30
0.0
 11
136.85
 21
484.5134499999999
 31
0.0
  0
LINE
  5
DD
330
1E
100
AcDbEntity
  8
0
100
AcDbLine
 10
132.1999999999999
 20
484.5134499999999
 30
0.0
 11
134.85
 21
484.5134499999999
 31
0.0
  0
LINE
  5
DE
330
1E
100
AcDbEntity
  8
0
100
AcDbLine
 10
129.1999999999999
 20
484.5134499999999
 30
0.0
 11
132.1999999999999
 21
484.5134499999999
 31
0.0
  0
LINE
  5
DF
330
1E
100
AcDbEntity
  8
0
100
AcDbLine
 10
126.0
 20
484.5134499999999
 30
0.0
 11
129.1999999999999
 21
484.5134499999999
 31
0.0
  0
LINE
  5
E0
330
1E
100
AcDbEntity
  8
0
100
AcDbLine
 10
122.7999999999999
 20
484.5134499999999
 30
0.0
 11
126.0
 21
484.5134499999999
 31
0.0
  0
LINE
  5
E1
330
1E
100
AcDbEntity
  8
0
100
AcDbLine
 10
113.5
 20
484.5134499999999
 30
0.0
 11
113.5
 21
475.11345
 31
0.0
  0
LINE
  5
E2
330
1E
100
AcDbEntity
  8
0
100
AcDbLine
 10
113.5
 20
484.5134499999999
 30
0.0
 11
113.9499999999999
 21
484.5134499999999
 31
0.0
  0
LINE
  5
E3
330
1E
100
AcDbEntity
  8
0
100
AcDbLine
 10
46.0
 20
484.5134499999999
 30
0.0
 11
113.5
 21
484.5134499999999
 31
0.0
  0
LINE
  5
E4
330
1E
100
AcDbEntity
  8
0
100
AcDbLine
 10
46.0
 20
484.5134499999999
 30
0.0
 11
157.0
 21
484.5134499999999
 31
0.0
  0
LINE
  5
E5
330
1E
100
AcDbEntity
  8
0
100
AcDbLine
 10
37.0
 20
482.11345
 30
0.0
 11
41.29999999999999
 21
483.91345
 31
0.0
  0
LINE
  5
E6
330
1E
100
AcDbEntity
  8
0
100
AcDbLine
 10
138.5
 20
484.5134499999999
 30
0.0
 11
157.0
 21
484.5134499999999
 31
0.0
  0
LINE
  5
E7
330
1E
100
AcDbEntity
  8
0
100
AcDbLine
 10
138.5
 20
484.5134499999999
 30
0.0
 11
138.5
 21
475.11345
 31
0.0
  0
LINE
  5
E8
330
1E
100
AcDbEntity
  8
0
100
AcDbLine
 10
46.0
 20
485.01345
 30
0.0
 11
157.0
 21
485.01345
 31
0.0
  0
LINE
  5
E9
330
1E
100
AcDbEntity
  8
0
100
AcDbLine
 10
46.0
 20
485.01345
 30
0.0
 11
157.0
 21
485.01345
 31
0.0
  0
LINE
  5
EA
330
1E
100
AcDbEntity
  8
0
100
AcDbLine
 10
34.29999999999999
 20
510.4134499999999
 30
0.0
 11
46.0
 21
512.01345
 31
0.0
  0
LINE
  5
EB
330
1E
100
AcDbEntity
  8
0
100
AcDbLine
 10
157.0
 20
502.01345
 30
0.0
 11
157.0
 21
498.51345
 31
0.0
  0
LINE
  5
EC
330
1E
100
AcDbEntity
  8
0
100
AcDbLine
 10
157.0
 20
502.01345
 30
0.0
 11
157.5
 21
502.51345
 31
0.0
  0
LINE
  5
ED
330
1E
100
AcDbEntity
  8
0
100
AcDbLine
 10
157.0
 20
502.01345
 30
0.0
 11
157.0
 21
502.2134499999999
 31
0.0
  0
LINE
  5
EE
330
1E
100
AcDbEntity
  8
0
100
AcDbLine
 10
157.0
 20
498.51345
 30
0.0
 11
157.0
 21
495.0134499999999
 31
0.0
  0
LINE
  5
EF
330
1E
100
AcDbEntity
  8
0
100
AcDbLine
 10
157.0
 20
498.51345
 30
0.0
 11
157.0
 21
502.01345
 31
0.0
  0
LINE
  5
F0
330
1E
100
AcDbEntity
  8
0
100
AcDbLine
 10
157.0
 20
495.0134499999999
 30
0.0
 11
157.0
 21
498.51345
 31
0.0
  0
LINE
  5
F1
330
1E
100
AcDbEntity
  8
0
100
AcDbLine
 10
157.0
 20
495.0134499999999
 30
0.0
 11
157.5
 21
494.5134499999999
 31
0.0
  0
LINE
  5
F2
330
1E
100
AcDbEntity
  8
0
100
AcDbLine
 10
157.0
 20
495.0134499999999
 30
0.0
 11
157.0
 21
494.81345
 31
0.0
  0
LINE
  5
F3
330
1E
100
AcDbEntity
  8
0
100
AcDbLine
 10
157.0
 20
502.2134499999999
 30
0.0
 11
157.0
 21
502.31345
 31
0.0
  0
LINE
  5
F4
330
1E
100
AcDbEntity
  8
0
100
AcDbLine
 10
157.0
 20
502.2134499999999
 30
0.0
 11
157.0
 21
502.01345
 31
0.0
  0
LINE
  5
F5
330
1E
100
AcDbEntity
  8
0
100
AcDbLine
 10
132.0
 20
512.51345
 30
0.0
 11
132.0
 21
517.51345
 31
0.0
  0
LINE
  5
F6
330
1E
100
AcDbEntity
  8
0
100
AcDbLine
 10
120.0
 20
512.51345
 30
0.0
 11
120.0
 21
517.51345
 31
0.0
  0
LINE
  5
F7
330
1E
100
AcDbEntity
  8
0
100
AcDbLine
 10
157.0
 20
502.31345
 30
0.0
 11
157.0
 21
533.01345
 31
0.0
  0
LINE
  5
F8
330
1E
100
AcDbEntity
  8
0
100
AcDbLine
 10
157.0
 20
502.31345
 30
0.0
 11
157.5
 21
502.91345
 31
0.0
  0
LINE
  5
F9
330
1E
100
AcDbEntity
  8
0
100
AcDbLine
 10
157.0
 20
502.31345
 30
0.0
 11
157.0
 21
502.2134499999999
 31
0.0
  0
LINE
  5
FA
330
1E
100
AcDbEntity
  8
0
100
AcDbLine
 10
157.0
 20
494.81345
 30
0.0
 11
157.0
 21
494.71345
 31
0.0
  0
LINE
  5
FB
330
1E
100
AcDbEntity
  8
0
100
AcDbLine
 10
157.0
 20
494.81345
 30
0.0
 11
157.0
 21
495.0134499999999
 31
0.0
  0
LINE
  5
FC
330
1E
100
AcDbEntity
  8
0
100
AcDbLine
 10
157.0
 20
494.71345
 30
0.0
 11
157.0
 21
464.01345
 31
0.0
  0
LINE
  5
FD
330
1E
100
AcDbEntity
  8
0
100
AcDbLine
 10
157.0
 20
494.71345
 30
0.0
 11
157.5
 21
494.11345
 31
0.0
  0
LINE
  5
FE
330
1E
100
AcDbEntity
  8
0
100
AcDbLine
 10
157.0
 20
494.71345
 30
0.0
 11
157.0
 21
494.81345
 31
0.0
  0
LINE
  5
FF
330
1E
100
AcDbEntity
  8
0
100
AcDbLine
 10
46.0
 20
512.01345
 30
0.0
 11
157.0
 21
512.01345
 31
0.0
  0
LINE
  5
100
330
1E
100
AcDbEntity
  8
0
100
AcDbLine
 10
46.0
 20
484.5134499999999
 30
0.0
 11
113.5
 21
484.5134499999999
 31
0.0
  0
LINE
  5
101
330
1E
100
AcDbEntity
  8
0
100
AcDbLine
 10
46.0
 20
484.5134499999999
 30
0.0
 11
157.0
 21
484.5134499999999
 31
0.0
  0
LINE
  5
102
330
1E
100
AcDbEntity
  8
0
100
AcDbLine
 10
34.2
 20
510.81345
 30
0.0
 11
46.0
 21
512.51345
 31
0.0
  0
LINE
  5
103
330
1E
100
AcDbEntity
  8
0
100
AcDbLine
 10
115.2639999999999
 20
517.51345
 30
0.0
 11
115.66
 21
517.51345
 31
0.0
  0
LINE
  5
104
330
1E
100
AcDbEntity
  8
0
100
AcDbLine
 10
115.66
 20
517.51345
 30
0.0
 11
116.716
 21
517.51345
 31
0.0
  0
LINE
  5
105
330
1E
100
AcDbEntity
  8
0
100
AcDbLine
 10
116.716
 20
517.51345
 30
0.0
 11
118.432
 21
517.51345
 31
0.0
  0
LINE
  5
106
330
1E
100
AcDbEntity
  8
0
100
AcDbLine
 10
118.432
 20
517.51345
 30
0.0
 11
120.676
 21
517.51345
 31
0.0
  0
LINE
  5
107
330
1E
100
AcDbEntity
  8
0
100
AcDbLine
 10
118.432
 20
517.51345
 30
0.0
 11
120.0
 21
517.51345
 31
0.0
  0
LINE
  5
108
330
1E
100
AcDbEntity
  8
0
100
AcDbLine
 10
120.0
 20
517.51345
 30
0.0
 11
120.216
 21
517.51345
 31
0.0
  0
LINE
  5
109
330
1E
100
AcDbEntity
  8
0
100
AcDbLine
 10
120.0
 20
517.51345
 30
0.0
 11
120.0
 21
512.51345
 31
0.0
  0
LINE
  5
10A
330
1E
100
AcDbEntity
  8
0
100
AcDbLine
 10
120.676
 20
517.51345
 30
0.0
 11
123.228
 21
517.51345
 31
0.0
  0
LINE
  5
10B
330
1E
100
AcDbEntity
  8
0
100
AcDbLine
 10
120.216
 20
517.51345
 30
0.0
 11
120.792
 21
517.51345
 31
0.0
  0
LINE
  5
10C
330
1E
100
AcDbEntity
  8
0
100
AcDbLine
 10
120.792
 20
517.51345
 30
0.0
 11
121.752
 21
517.51345
 31
0.0
  0
LINE
  5
10D
330
1E
100
AcDbEntity
  8
0
100
AcDbLine
 10
123.228
 20
517.51345
 30
0.0
 11
126.0
 21
517.51345
 31
0.0
  0
LINE
  5
10E
330
1E
100
AcDbEntity
  8
0
100
AcDbLine
 10
121.752
 20
517.51345
 30
0.0
 11
123.024
 21
517.51345
 31
0.0
  0
LINE
  5
10F
330
1E
100
AcDbEntity
  8
0
100
AcDbLine
 10
115.0
 20
517.97545
 30
0.0
 11
115.2639999999999
 21
517.51345
 31
0.0
  0
LINE
  5
110
330
1E
100
AcDbEntity
  8
0
100
AcDbLine
 10
115.0
 20
517.97545
 30
0.0
 11
115.0
 21
529.05245
 31
0.0
  0
LINE
  5
111
330
1E
100
AcDbEntity
  8
0
100
AcDbLine
 10
115.2639999999999
 20
529.51345
 30
0.0
 11
115.66
 21
529.51345
 31
0.0
  0
LINE
  5
112
330
1E
100
AcDbEntity
  8
0
100
AcDbLine
 10
115.0
 20
529.05245
 30
0.0
 11
115.2639999999999
 21
529.51345
 31
0.0
  0
LINE
  5
113
330
1E
100
AcDbEntity
  8
0
100
AcDbLine
 10
115.0
 20
529.05245
 30
0.0
 11
115.0
 21
517.97545
 31
0.0
  0
LINE
  5
114
330
1E
100
AcDbEntity
  8
0
100
AcDbLine
 10
115.66
 20
529.51345
 30
0.0
 11
116.716
 21
529.51345
 31
0.0
  0
LINE
  5
115
330
1E
100
AcDbEntity
  8
0
100
AcDbLine
 10
116.716
 20
529.51345
 30
0.0
 11
118.432
 21
529.51345
 31
0.0
  0
LINE
  5
116
330
1E
100
AcDbEntity
  8
0
100
AcDbLine
 10
118.432
 20
529.51345
 30
0.0
 11
120.676
 21
529.51345
 31
0.0
  0
LINE
  5
117
330
1E
100
AcDbEntity
  8
0
100
AcDbLine
 10
120.676
 20
529.51345
 30
0.0
 11
123.228
 21
529.51345
 31
0.0
  0
LINE
  5
118
330
1E
100
AcDbEntity
  8
0
100
AcDbLine
 10
123.228
 20
529.51345
 30
0.0
 11
126.0
 21
529.51345
 31
0.0
  0
LINE
  5
119
330
1E
100
AcDbEntity
  8
0
100
AcDbLine
 10
123.024
 20
517.51345
 30
0.0
 11
124.4639999999999
 21
517.51345
 31
0.0
  0
LINE
  5
11A
330
1E
100
AcDbEntity
  8
0
100
AcDbLine
 10
128.772
 20
517.51345
 30
0.0
 11
131.3239999999999
 21
517.51345
 31
0.0
  0
LINE
  5
11B
330
1E
100
AcDbEntity
  8
0
100
AcDbLine
 10
131.3239999999999
 20
517.51345
 30
0.0
 11
133.5679999999999
 21
517.51345
 31
0.0
  0
LINE
  5
11C
330
1E
100
AcDbEntity
  8
0
100
AcDbLine
 10
131.7839999999999
 20
517.51345
 30
0.0
 11
132.0
 21
517.51345
 31
0.0
  0
LINE
  5
11D
330
1E
100
AcDbEntity
  8
0
100
AcDbLine
 10
136.34
 20
517.51345
 30
0.0
 11
136.7359999999999
 21
517.51345
 31
0.0
  0
LINE
  5
11E
330
1E
100
AcDbEntity
  8
0
100
AcDbLine
 10
136.7359999999999
 20
517.51345
 30
0.0
 11
137.0
 21
517.97545
 31
0.0
  0
LINE
  5
11F
330
1E
100
AcDbEntity
  8
0
100
AcDbLine
 10
135.284
 20
517.51345
 30
0.0
 11
136.34
 21
517.51345
 31
0.0
  0
LINE
  5
120
330
1E
100
AcDbEntity
  8
0
100
AcDbLine
 10
133.5679999999999
 20
517.51345
 30
0.0
 11
135.284
 21
517.51345
 31
0.0
  0
LINE
  5
121
330
1E
100
AcDbEntity
  8
0
100
AcDbLine
 10
132.0
 20
517.51345
 30
0.0
 11
132.0
 21
512.51345
 31
0.0
  0
LINE
  5
122
330
1E
100
AcDbEntity
  8
0
100
AcDbLine
 10
132.0
 20
517.51345
 30
0.0
 11
133.5679999999999
 21
517.51345
 31
0.0
  0
LINE
  5
123
330
1E
100
AcDbEntity
  8
0
100
AcDbLine
 10
131.2079999999999
 20
517.51345
 30
0.0
 11
131.7839999999999
 21
517.51345
 31
0.0
  0
LINE
  5
124
330
1E
100
AcDbEntity
  8
0
100
AcDbLine
 10
130.2479999999999
 20
517.51345
 30
0.0
 11
131.2079999999999
 21
517.51345
 31
0.0
  0
LINE
  5
125
330
1E
100
AcDbEntity
  8
0
100
AcDbLine
 10
128.976
 20
517.51345
 30
0.0
 11
130.2479999999999
 21
517.51345
 31
0.0
  0
LINE
  5
126
330
1E
100
AcDbEntity
  8
0
100
AcDbLine
 10
127.536
 20
517.51345
 30
0.0
 11
128.976
 21
517.51345
 31
0.0
  0
LINE
  5
127
330
1E
100
AcDbEntity
  8
0
100
AcDbLine
 10
137.0
 20
529.05245
 30
0.0
 11
137.0
 21
517.97545
 31
0.0
  0
LINE
  5
128
330
1E
100
AcDbEntity
  8
0
100
AcDbLine
 10
137.0
 20
517.97545
 30
0.0
 11
137.0
 21
529.05245
 31
0.0
  0
LINE
  5
129
330
1E
100
AcDbEntity
  8
0
100
AcDbLine
 10
136.7359999999999
 20
529.51345
 30
0.0
 11
137.0
 21
529.05245
 31
0.0
  0
LINE
  5
12A
330
1E
100
AcDbEntity
  8
0
100
AcDbLine
 10
136.34
 20
529.51345
 30
0.0
 11
136.7359999999999
 21
529.51345
 31
0.0
  0
LINE
  5
12B
330
1E
100
AcDbEntity
  8
0
100
AcDbLine
 10
135.284
 20
529.51345
 30
0.0
 11
136.34
 21
529.51345
 31
0.0
  0
LINE
  5
12C
330
1E
100
AcDbEntity
  8
0
100
AcDbLine
 10
133.5679999999999
 20
529.51345
 30
0.0
 11
135.284
 21
529.51345
 31
0.0
  0
LINE
  5
12D
330
1E
100
AcDbEntity
  8
0
100
AcDbLine
 10
131.3239999999999
 20
529.51345
 30
0.0
 11
133.5679999999999
 21
529.51345
 31
0.0
  0
LINE
  5
12E
330
1E
100
AcDbEntity
  8
0
100
AcDbLine
 10
128.772
 20
529.51345
 30
0.0
 11
131.3239999999999
 21
529.51345
 31
0.0
  0
LINE
  5
12F
330
1E
100
AcDbEntity
  8
0
100
AcDbLine
 10
126.0
 20
529.51345
 30
0.0
 11
128.772
 21
529.51345
 31
0.0
  0
LINE
  5
130
330
1E
100
AcDbEntity
  8
0
100
AcDbLine
 10
126.0
 20
517.51345
 30
0.0
 11
127.536
 21
517.51345
 31
0.0
  0
LINE
  5
131
330
1E
100
AcDbEntity
  8
0
100
AcDbLine
 10
126.0
 20
517.51345
 30
0.0
 11
128.772
 21
517.51345
 31
0.0
  0
LINE
  5
132
330
1E
100
AcDbEntity
  8
0
100
AcDbLine
 10
124.4639999999999
 20
517.51345
 30
0.0
 11
126.0
 21
517.51345
 31
0.0
  0
LINE
  5
133
330
1E
100
AcDbEntity
  8
0
100
AcDbLine
 10
46.0
 20
512.51345
 30
0.0
 11
157.0
 21
512.51345
 31
0.0
  0
LINE
  5
134
330
1E
100
AcDbEntity
  8
0
100
AcDbLine
 10
157.0
 20
512.51345
 30
0.0
 11
157.0
 21
533.01345
 31
0.0
  0
LINE
  5
135
330
1E
100
AcDbEntity
  8
0
100
AcDbLine
 10
107.5949999999999
 20
748.27745
 30
0.0
 11
108.3129999999999
 21
746.73645
 31
0.0
  0
LINE
  5
136
330
1E
100
AcDbEntity
  8
0
100
AcDbLine
 10
107.2989999999999
 20
748.9114499999999
 30
0.0
 11
107.7829999999999
 21
750.2404499999999
 31
0.0
  0
LINE
  5
137
330
1E
100
AcDbEntity
  8
0
100
AcDbLine
 10
107.2989999999999
 20
748.9114499999999
 30
0.0
 11
107.5949999999999
 21
748.27745
 31
0.0
  0
LINE
  5
138
330
1E
100
AcDbEntity
  8
0
100
AcDbLine
 10
108.82
 20
745.64845
 30
0.0
 11
109.539
 21
744.1084499999999
 31
0.0
  0
LINE
  5
139
330
1E
100
AcDbEntity
  8
0
100
AcDbLine
 10
108.636759223297
 20
746.0424538835049
 30
0.0
 11
108.82
 21
745.64845
 31
0.0
  0
LINE
  5
13A
330
1E
100
AcDbEntity
  8
0
100
AcDbLine
 10
117.6949999999999
 20
726.2854499999999
 30
0.0
 11
117.8218763721419
 21
726.3446169616229
 31
0.0
  0
LINE
  5
13B
330
1E
100
AcDbEntity
  8
0
100
AcDbLine
 10
117.6949999999999
 20
726.2854499999999
 30
0.0
 11
118.427
 21
724.71545
 31
0.0
  0
LINE
  5
13C
330
1E
100
AcDbEntity
  8
0
100
AcDbLine
 10
118.0039999999999
 20
725.6214499999999
 30
0.0
 11
118.427
 21
724.71545
 31
0.0
  0
LINE
  5
13D
330
1E
100
AcDbEntity
  8
0
100
AcDbLine
 10
118.427
 20
724.71545
 30
0.0
 11
118.553885546629
 21
724.774621240012
 31
0.0
  0
LINE
  5
13E
330
1E
100
AcDbEntity
  8
0
100
AcDbLine
 10
116.5999999999999
 20
728.6324499999999
 30
0.0
 11
116.727495381707
 21
728.691872833725
 31
0.0
  0
LINE
  5
13F
330
1E
100
AcDbEntity
  8
0
100
AcDbLine
 10
117.2719999999999
 20
727.19145
 30
0.0
 11
117.3993718609079
 21
727.250815263358
 31
0.0
  0
LINE
  5
140
330
1E
100
AcDbEntity
  8
0
100
AcDbLine
 10
117.2719999999999
 20
727.19145
 30
0.0
 11
117.6949999999999
 21
726.2854499999999
 31
0.0
  0
LINE
  5
141
330
1E
100
AcDbEntity
  8
0
100
AcDbLine
 10
117.2719999999999
 20
727.19145
 30
0.0
 11
118.0039999999999
 21
725.6214499999999
 31
0.0
  0
LINE
  5
142
330
1E
100
AcDbEntity
  8
0
100
AcDbLine
 10
118.4979999999999
 20
724.89445
 30
0.0
 11
121.626
 21
718.18745
 31
0.0
  0
LINE
  5
143
330
1E
100
AcDbEntity
  8
0
100
AcDbLine
 10
116.72696861606
 20
728.691627319675
 30
0.0
 11
117.399006451436
 21
727.2506449539239
 31
0.0
  0
LINE
  5
144
330
1E
100
AcDbEntity
  8
0
100
AcDbLine
 10
118.5537836337219
 20
724.7745737144009
 30
0.0
 11
119.259
 21
723.26245
 31
0.0
  0
LINE
  5
145
330
1E
100
AcDbEntity
  8
0
100
AcDbLine
 10
116.177
 20
729.5384499999999
 30
0.0
 11
116.5999999999999
 21
728.6324499999999
 31
0.0
  0
LINE
  5
146
330
1E
100
AcDbEntity
  8
0
100
AcDbLine
 10
116.177
 20
729.5384499999999
 30
0.0
 11
116.3049783710309
 21
729.5980979445789
 31
0.0
  0
LINE
  5
147
330
1E
100
AcDbEntity
  8
0
100
AcDbLine
 10
115.446
 20
731.1084499999999
 30
0.0
 11
115.5731494489979
 21
731.167744307066
 31
0.0
  0
LINE
  5
148
330
1E
100
AcDbEntity
  8
0
100
AcDbLine
 10
115.446
 20
731.1084499999999
 30
0.0
 11
116.177
 21
729.5384499999999
 31
0.0
  0
LINE
  5
149
330
1E
100
AcDbEntity
  8
0
100
AcDbLine
 10
115.42
 20
731.16245
 30
0.0
 11
115.7321480263149
 21
730.4938776315809
 31
0.0
  0
LINE
  5
14A
330
1E
100
AcDbEntity
  8
0
100
AcDbLine
 10
115.42
 20
731.16245
 30
0.0
 11
115.547811292218
 21
731.222090569893
 31
0.0
  0
LINE
  5
14B
330
1E
100
AcDbEntity
  8
0
100
AcDbLine
 10
114.6879999999999
 20
732.7324499999999
 30
0.0
 11
114.8158467314699
 21
732.792036590233
 31
0.0
  0
LINE
  5
14C
330
1E
100
AcDbEntity
  8
0
100
AcDbLine
 10
114.6879999999999
 20
732.7324499999999
 30
0.0
 11
115.42
 21
731.16245
 31
0.0
  0
LINE
  5
14D
330
1E
100
AcDbEntity
  8
0
100
AcDbLine
 10
115.4513333333419
 20
731.095338888869
 30
0.0
 11
115.98
 21
729.96145
 31
0.0
  0
LINE
  5
14E
330
1E
100
AcDbEntity
  8
0
100
AcDbLine
 10
115.667
 20
730.96645
 30
0.0
 11
118.4979999999999
 21
724.89445
 31
0.0
  0
LINE
  5
14F
330
1E
100
AcDbEntity
  8
0
100
AcDbLine
 10
116.596
 20
728.97245
 30
0.0
 11
119.259
 21
723.26245
 31
0.0
  0
LINE
  5
150
330
1E
100
AcDbEntity
  8
0
100
AcDbLine
 10
116.277
 20
732.02345
 30
0.0
 11
119.151
 21
725.86045
 31
0.0
  0
LINE
  5
151
330
1E
100
AcDbEntity
  8
0
100
AcDbLine
 10
116.727495381707
 20
728.691872833725
 30
0.0
 11
117.3993718609079
 21
727.250815263358
 31
0.0
  0
LINE
  5
152
330
1E
100
AcDbEntity
  8
0
100
AcDbLine
 10
123.9859999999999
 20
710.42745
 30
0.0
 11
124.751415706178
 21
710.784193668903
 31
0.0
  0
LINE
  5
153
330
1E
100
AcDbEntity
  8
0
100
AcDbLine
 10
123.9859999999999
 20
710.42745
 30
0.0
 11
124.7179999999999
 21
708.85745
 31
0.0
  0
LINE
  5
154
330
1E
100
AcDbEntity
  8
0
100
AcDbLine
 10
122.3649999999999
 20
715.08545
 30
0.0
 11
122.805783558684
 21
715.290889661935
 31
0.0
  0
LINE
  5
155
330
1E
100
AcDbEntity
  8
0
100
AcDbLine
 10
122.3649999999999
 20
715.08545
 30
0.0
 11
122.9460677726619
 21
715.3562730931599
 31
0.0
  0
LINE
  5
156
330
1E
100
AcDbEntity
  8
0
100
AcDbLine
 10
121.6329999999999
 20
716.65545
 30
0.0
 11
122.3649999999999
 21
715.08545
 31
0.0
  0
LINE
  5
157
330
1E
100
AcDbEntity
  8
0
100
AcDbLine
 10
121.6329999999999
 20
716.65545
 30
0.0
 11
122.214043136378
 21
716.926261610722
 31
0.0
  0
LINE
  5
158
330
1E
100
AcDbEntity
  8
0
100
AcDbLine
 10
121.211
 20
717.56145
 30
0.0
 11
121.6329999999999
 21
716.65545
 31
0.0
  0
LINE
  5
159
330
1E
100
AcDbEntity
  8
0
100
AcDbLine
 10
121.211
 20
717.56145
 30
0.0
 11
121.791630565517
 21
717.8322186687981
 31
0.0
  0
LINE
  5
15A
330
1E
100
AcDbEntity
  8
0
100
AcDbLine
 10
122.805783558684
 20
715.290889661935
 30
0.0
 11
124.7205787110629
 21
710.769821213926
 31
0.0
  0
LINE
  5
15B
330
1E
100
AcDbEntity
  8
0
100
AcDbLine
 10
124.7179999999999
 20
708.85745
 30
0.0
 11
125.141
 21
707.95145
 31
0.0
  0
LINE
  5
15C
330
1E
100
AcDbEntity
  8
0
100
AcDbLine
 10
124.7179999999999
 20
708.85745
 30
0.0
 11
125.171131022648
 21
709.0686445472349
 31
0.0
  0
LINE
  5
15D
330
1E
100
AcDbEntity
  8
0
100
AcDbLine
 10
124.702
 20
710.0734499999999
 30
0.0
 11
125.1558753486739
 21
710.285241806386
 31
0.0
  0
LINE
  5
15E
330
1E
100
AcDbEntity
  8
0
100
AcDbLine
 10
124.702
 20
710.0734499999999
 30
0.0
 11
125.5479999999999
 21
708.26145
 31
0.0
  0
LINE
  5
15F
330
1E
100
AcDbEntity
  8
0
100
AcDbLine
 10
124.356
 20
711.9984500000001
 30
0.0
 11
124.483869460713
 21
712.058117713052
 31
0.0
  0
LINE
  5
160
330
1E
100
AcDbEntity
  8
0
100
AcDbLine
 10
124.356
 20
711.9984500000001
 30
0.0
 11
125.202
 21
710.18645
 31
0.0
  0
LINE
  5
161
330
1E
100
AcDbEntity
  8
0
100
AcDbLine
 10
123.98981262352
 20
713.1177317246169
 30
0.0
 11
125.429
 21
710.03045
 31
0.0
  0
LINE
  5
162
330
1E
100
AcDbEntity
  8
0
100
AcDbLine
 10
120.913
 20
718.19945
 30
0.0
 11
121.4940921224419
 21
718.470284442065
 31
0.0
  0
LINE
  5
163
330
1E
100
AcDbEntity
  8
0
100
AcDbLine
 10
121.347
 20
718.45145
 30
0.0
 11
121.4750163906329
 21
718.5111862749451
 31
0.0
  0
LINE
  5
164
330
1E
100
AcDbEntity
  8
0
100
AcDbLine
 10
121.4649718547549
 20
718.4567121165299
 30
0.0
 11
121.739715331026
 21
717.808008749844
 31
0.0
  0
LINE
  5
165
330
1E
100
AcDbEntity
  8
0
100
AcDbLine
 10
121.626
 20
718.18745
 30
0.0
 11
124.922
 21
711.11845
 31
0.0
  0
LINE
  5
166
330
1E
100
AcDbEntity
  8
0
100
AcDbLine
 10
125.141
 20
707.95145
 30
0.0
 11
125.8143757757749
 21
708.265469056584
 31
0.0
  0
LINE
  5
167
330
1E
100
AcDbEntity
  8
0
100
AcDbLine
 10
125.5719999999999
 20
707.0254499999999
 30
0.0
 11
126.376302290452
 21
707.400317862897
 31
0.0
  0
LINE
  5
168
330
1E
100
AcDbEntity
  8
0
100
AcDbLine
 10
125.5719999999999
 20
707.0254499999999
 30
0.0
 11
126.3039999999999
 21
705.45645
 31
0.0
  0
LINE
  5
169
330
1E
100
AcDbEntity
  8
0
100
AcDbLine
 10
125.5479999999999
 20
708.26145
 30
0.0
 11
126.1280238830579
 21
708.5319357512049
 31
0.0
  0
LINE
  5
16A
330
1E
100
AcDbEntity
  8
0
100
AcDbLine
 10
125.5479999999999
 20
708.26145
 30
0.0
 11
126.094560937115
 21
708.5163307902109
 31
0.0
  0
LINE
  5
16B
330
1E
100
AcDbEntity
  8
0
100
AcDbLine
 10
125.1489999999999
 20
707.93245
 30
0.0
 11
125.794802956165
 21
708.233444758941
 31
0.0
  0
LINE
  5
16C
330
1E
100
AcDbEntity
  8
0
100
AcDbLine
 10
125.1489999999999
 20
707.93245
 30
0.0
 11
125.8809999999999
 21
706.3624499999999
 31
0.0
  0
LINE
  5
16D
330
1E
100
AcDbEntity
  8
0
100
AcDbLine
 10
125.1489999999999
 20
707.93245
 30
0.0
 11
125.5719999999999
 21
707.0254499999999
 31
0.0
  0
LINE
  5
16E
330
1E
100
AcDbEntity
  8
0
100
AcDbLine
 10
125.1489999999999
 20
707.93245
 30
0.0
 11
125.911278477895
 21
708.287731474805
 31
0.0
  0
LINE
  5
16F
330
1E
100
AcDbEntity
  8
0
100
AcDbLine
 10
125.202
 20
710.18645
 30
0.0
 11
125.328960831465
 21
710.245656348007
 31
0.0
  0
LINE
  5
170
330
1E
100
AcDbEntity
  8
0
100
AcDbLine
 10
125.429
 20
710.03045
 30
0.0
 11
126.51585714305
 21
707.700164285301
 31
0.0
  0
LINE
  5
171
330
1E
100
AcDbEntity
  8
0
100
AcDbLine
 10
124.922
 20
711.11845
 30
0.0
 11
128.6409999999999
 21
703.14245
 31
0.0
  0
LINE
  5
172
330
1E
100
AcDbEntity
  8
0
100
AcDbLine
 10
119.7589999999999
 20
720.6754499999999
 30
0.0
 11
120.339293748951
 21
720.946381849676
 31
0.0
  0
LINE
  5
173
330
1E
100
AcDbEntity
  8
0
100
AcDbLine
 10
119.7589999999999
 20
720.6754499999999
 30
0.0
 11
120.181
 21
719.7694499999999
 31
0.0
  0
LINE
  5
174
330
1E
100
AcDbEntity
  8
0
100
AcDbLine
 10
119.7589999999999
 20
720.6754499999999
 30
0.0
 11
120.4909999999999
 21
719.10645
 31
0.0
  0
LINE
  5
175
330
1E
100
AcDbEntity
  8
0
100
AcDbLine
 10
120.4909999999999
 20
719.10645
 30
0.0
 11
120.913
 21
718.19945
 31
0.0
  0
LINE
  5
176
330
1E
100
AcDbEntity
  8
0
100
AcDbLine
 10
120.4909999999999
 20
719.10645
 30
0.0
 11
120.9433918362279
 21
719.3174163916189
 31
0.0
  0
LINE
  5
177
330
1E
100
AcDbEntity
  8
0
100
AcDbLine
 10
120.181
 20
719.7694499999999
 30
0.0
 11
120.913
 21
718.19945
 31
0.0
  0
LINE
  5
178
330
1E
100
AcDbEntity
  8
0
100
AcDbLine
 10
120.1459999999999
 20
719.84445
 30
0.0
 11
120.8779999999999
 21
718.27445
 31
0.0
  0
LINE
  5
179
330
1E
100
AcDbEntity
  8
0
100
AcDbLine
 10
119.7239999999999
 20
720.7504499999999
 30
0.0
 11
120.304311502407
 21
721.0213901385409
 31
0.0
  0
LINE
  5
17A
330
1E
100
AcDbEntity
  8
0
100
AcDbLine
 10
119.7239999999999
 20
720.7504499999999
 30
0.0
 11
120.1459999999999
 21
719.84445
 31
0.0
  0
LINE
  5
17B
330
1E
100
AcDbEntity
  8
0
100
AcDbLine
 10
119.7239999999999
 20
720.7504499999999
 30
0.0
 11
119.7648938547309
 21
720.662796368753
 31
0.0
  0
LINE
  5
17C
330
1E
100
AcDbEntity
  8
0
100
AcDbLine
 10
120.502
 20
720.2644499999999
 30
0.0
 11
120.6295965282869
 21
720.3239199759531
 31
0.0
  0
LINE
  5
17D
330
1E
100
AcDbEntity
  8
0
100
AcDbLine
 10
120.502
 20
720.2644499999999
 30
0.0
 11
121.347
 21
718.45145
 31
0.0
  0
LINE
  5
17E
330
1E
100
AcDbEntity
  8
0
100
AcDbLine
 10
122.3209999999999
 20
719.0634499999999
 30
0.0
 11
125.6589999999999
 21
711.90345
 31
0.0
  0
LINE
  5
17F
330
1E
100
AcDbEntity
  8
0
100
AcDbLine
 10
126.3039999999999
 20
705.45645
 30
0.0
 11
127.037026204601
 21
705.7980976243179
 31
0.0
  0
LINE
  5
180
330
1E
100
AcDbEntity
  8
0
100
AcDbLine
 10
125.8809999999999
 20
706.3624499999999
 30
0.0
 11
126.3039999999999
 21
705.45645
 31
0.0
  0
LINE
  5
181
330
1E
100
AcDbEntity
  8
0
100
AcDbLine
 10
126.860987936502
 20
705.7160500035
 30
0.0
 11
128.117
 21
702.75045
 31
0.0
  0
LINE
  5
182
330
1E
100
AcDbEntity
  8
0
100
AcDbLine
 10
125.6589999999999
 20
711.90345
 30
0.0
 11
129.252
 21
704.1994499999999
 31
0.0
  0
LINE
  5
183
330
1E
100
AcDbEntity
  8
0
100
AcDbLine
 10
119.151
 20
725.86045
 30
0.0
 11
122.3209999999999
 21
719.0634499999999
 31
0.0
  0
LINE
  5
184
330
1E
100
AcDbEntity
  8
0
100
AcDbLine
 10
119.259
 20
723.26245
 30
0.0
 11
120.304297008422
 21
721.021383371482
 31
0.0
  0
LINE
  5
185
330
1E
100
AcDbEntity
  8
0
100
AcDbLine
 10
119.259
 20
723.26245
 30
0.0
 11
120.469148027859
 21
720.667950696019
 31
0.0
  0
LINE
  5
186
330
1E
100
AcDbEntity
  8
0
100
AcDbLine
 10
118.553885546629
 20
724.774621240012
 30
0.0
 11
120.304311502407
 21
721.0213901385409
 31
0.0
  0
LINE
  5
187
330
1E
100
AcDbEntity
  8
0
100
AcDbLine
 10
113.216
 20
736.2234499999999
 30
0.0
 11
115.667
 21
730.96645
 31
0.0
  0
LINE
  5
188
330
1E
100
AcDbEntity
  8
0
100
AcDbLine
 10
113.7839999999999
 20
737.37045
 30
0.0
 11
116.277
 21
732.02345
 31
0.0
  0
LINE
  5
189
330
1E
100
AcDbEntity
  8
0
100
AcDbLine
 10
114.23
 20
734.04745
 30
0.0
 11
114.8153831259939
 21
732.7918205137699
 31
0.0
  0
LINE
  5
18A
330
1E
100
AcDbEntity
  8
0
100
AcDbLine
 10
114.23
 20
734.04745
 30
0.0
 11
116.596
 21
728.97245
 31
0.0
  0
LINE
  5
18B
330
1E
100
AcDbEntity
  8
0
100
AcDbLine
 10
112.201
 20
738.39845
 30
0.0
 11
114.23
 21
734.04745
 31
0.0
  0
LINE
  5
18C
330
1E
100
AcDbEntity
  8
0
100
AcDbLine
 10
111.102
 20
740.75445
 30
0.0
 11
113.216
 21
736.2234499999999
 31
0.0
  0
LINE
  5
18D
330
1E
100
AcDbEntity
  8
0
100
AcDbLine
 10
111.671
 20
741.90245
 30
0.0
 11
113.7839999999999
 21
737.37045
 31
0.0
  0
LINE
  5
18E
330
1E
100
AcDbEntity
  8
0
100
AcDbLine
 10
110.0219999999999
 20
745.43645
 30
0.0
 11
111.671
 21
741.90245
 31
0.0
  0
LINE
  5
18F
330
1E
100
AcDbEntity
  8
0
100
AcDbLine
 10
111.8349068057749
 20
739.1835887242359
 30
0.0
 11
112.201
 21
738.39845
 31
0.0
  0
LINE
  5
190
330
1E
100
AcDbEntity
  8
0
100
AcDbLine
 10
109.539
 20
744.1084499999999
 30
0.0
 11
111.102
 21
740.75445
 31
0.0
  0
LINE
  5
191
330
1E
100
AcDbEntity
  8
0
100
AcDbLine
 10
108.8389999999999
 20
747.97445
 30
0.0
 11
110.0219999999999
 21
745.43645
 31
0.0
  0
LINE
  5
192
330
1E
100
AcDbEntity
  8
0
100
AcDbLine
 10
108.0779999999999
 20
749.60545
 30
0.0
 11
108.8389999999999
 21
747.97445
 31
0.0
  0
LINE
  5
193
330
1E
100
AcDbEntity
  8
0
100
AcDbLine
 10
127.872
 20
756.84945
 30
0.0
 11
129.055
 21
754.31145
 31
0.0
  0
LINE
  5
194
330
1E
100
AcDbEntity
  8
0
100
AcDbLine
 10
127.1109999999999
 20
758.48045
 30
0.0
 11
127.872
 21
756.84945
 31
0.0
  0
LINE
  5
195
330
1E
100
AcDbEntity
  8
0
100
AcDbLine
 10
108.3129999999999
 20
746.73645
 30
0.0
 11
109.539
 21
744.1084499999999
 31
0.0
  0
LINE
  5
196
330
1E
100
AcDbEntity
  8
0
100
AcDbLine
 10
107.7829999999999
 20
750.2404499999999
 30
0.0
 11
126.815
 21
759.11545
 31
0.0
  0
LINE
  5
197
330
1E
100
AcDbEntity
  8
0
100
AcDbLine
 10
107.7829999999999
 20
750.2404499999999
 30
0.0
 11
108.0779999999999
 21
749.60545
 31
0.0
  0
LINE
  5
198
330
1E
100
AcDbEntity
  8
0
100
AcDbLine
 10
126.815
 20
759.11545
 30
0.0
 11
128.144
 21
758.63145
 31
0.0
  0
LINE
  5
199
330
1E
100
AcDbEntity
  8
0
100
AcDbLine
 10
126.815
 20
759.11545
 30
0.0
 11
127.1109999999999
 21
758.48045
 31
0.0
  0
LINE
  5
19A
330
1E
100
AcDbEntity
  8
0
100
AcDbLine
 10
154.6599999999999
 20
647.0124499999999
 30
0.0
 11
154.787698830273
 21
647.0719676566909
 31
0.0
  0
LINE
  5
19B
330
1E
100
AcDbEntity
  8
0
100
AcDbLine
 10
153.9279999999999
 20
648.58145
 30
0.0
 11
154.6599999999999
 21
647.0124499999999
 31
0.0
  0
LINE
  5
19C
330
1E
100
AcDbEntity
  8
0
100
AcDbLine
 10
154.238
 20
647.91845
 30
0.0
 11
154.6599999999999
 21
647.0124499999999
 31
0.0
  0
LINE
  5
19D
330
1E
100
AcDbEntity
  8
0
100
AcDbLine
 10
154.238
 20
647.91845
 30
0.0
 11
154.365282389697
 21
647.9778063020379
 31
0.0
  0
LINE
  5
19E
330
1E
100
AcDbEntity
  8
0
100
AcDbLine
 10
153.506
 20
649.4884499999999
 30
0.0
 11
153.6331736479159
 21
649.547755591881
 31
0.0
  0
LINE
  5
19F
330
1E
100
AcDbEntity
  8
0
100
AcDbLine
 10
153.506
 20
649.4884499999999
 30
0.0
 11
154.238
 21
647.91845
 31
0.0
  0
LINE
  5
1A0
330
1E
100
AcDbEntity
  8
0
100
AcDbLine
 10
153.506
 20
649.4884499999999
 30
0.0
 11
153.9279999999999
 21
648.58145
 31
0.0
  0
LINE
  5
1A1
330
1E
100
AcDbEntity
  8
0
100
AcDbLine
 10
154.3129999999999
 20
650.45545
 30
0.0
 11
157.187
 21
644.29245
 31
0.0
  0
LINE
  5
1A2
330
1E
100
AcDbEntity
  8
0
100
AcDbLine
 10
154.7875567187849
 20
647.0719014216069
 30
0.0
 11
155.055
 21
646.49845
 31
0.0
  0
LINE
  5
1A3
330
1E
100
AcDbEntity
  8
0
100
AcDbLine
 10
151.2669999999999
 20
653.10545
 30
0.0
 11
151.847939848961
 21
653.376213470696
 31
0.0
  0
LINE
  5
1A4
330
1E
100
AcDbEntity
  8
0
100
AcDbLine
 10
151.302
 20
653.02945
 30
0.0
 11
151.883177445888
 21
653.300644770668
 31
0.0
  0
LINE
  5
1A5
330
1E
100
AcDbEntity
  8
0
100
AcDbLine
 10
152.3919999999999
 20
652.20845
 30
0.0
 11
153.632933090308
 21
649.5476434113189
 31
0.0
  0
LINE
  5
1A6
330
1E
100
AcDbEntity
  8
0
100
AcDbLine
 10
152.3919999999999
 20
652.20845
 30
0.0
 11
155.055
 21
646.49845
 31
0.0
  0
LINE
  5
1A7
330
1E
100
AcDbEntity
  8
0
100
AcDbLine
 10
151.8828824607149
 20
653.300507121768
 30
0.0
 11
152.3919999999999
 21
652.20845
 31
0.0
  0
LINE
  5
1A8
330
1E
100
AcDbEntity
  8
0
100
AcDbLine
 10
153.153
 20
650.57745
 30
0.0
 11
153.6331736479159
 21
649.547755591881
 31
0.0
  0
LINE
  5
1A9
330
1E
100
AcDbEntity
  8
0
100
AcDbLine
 10
153.153
 20
650.57745
 30
0.0
 11
155.985
 21
644.50445
 31
0.0
  0
LINE
  5
1AA
330
1E
100
AcDbEntity
  8
0
100
AcDbLine
 10
155.952
 20
644.2414499999999
 30
0.0
 11
156.684
 21
642.67145
 31
0.0
  0
LINE
  5
1AB
330
1E
100
AcDbEntity
  8
0
100
AcDbLine
 10
155.7549999999999
 20
644.6644499999999
 30
0.0
 11
155.8826053100309
 21
644.7240273136239
 31
0.0
  0
LINE
  5
1AC
330
1E
100
AcDbEntity
  8
0
100
AcDbLine
 10
155.7549999999999
 20
644.6644499999999
 30
0.0
 11
156.4869999999999
 21
643.09545
 31
0.0
  0
LINE
  5
1AD
330
1E
100
AcDbEntity
  8
0
100
AcDbLine
 10
155.332
 20
645.57145
 30
0.0
 11
156.064
 21
644.00145
 31
0.0
  0
LINE
  5
1AE
330
1E
100
AcDbEntity
  8
0
100
AcDbLine
 10
155.332
 20
645.57145
 30
0.0
 11
155.459679352215
 21
645.63095857839
 31
0.0
  0
LINE
  5
1AF
330
1E
100
AcDbEntity
  8
0
100
AcDbLine
 10
155.332
 20
645.57145
 30
0.0
 11
155.7549999999999
 21
644.6644499999999
 31
0.0
  0
LINE
  5
1B0
330
1E
100
AcDbEntity
  8
0
100
AcDbLine
 10
155.848441717833
 20
644.463781288254
 30
0.0
 11
155.952
 21
644.2414499999999
 31
0.0
  0
LINE
  5
1B1
330
1E
100
AcDbEntity
  8
0
100
AcDbLine
 10
156.064
 20
644.00145
 30
0.0
 11
156.4869999999999
 21
643.09545
 31
0.0
  0
LINE
  5
1B2
330
1E
100
AcDbEntity
  8
0
100
AcDbLine
 10
156.4869999999999
 20
643.09545
 30
0.0
 11
156.614355598683
 21
643.1548404419909
 31
0.0
  0
LINE
  5
1B3
330
1E
100
AcDbEntity
  8
0
100
AcDbLine
 10
156.512
 20
643.0404499999999
 30
0.0
 11
156.6399003150199
 21
643.1000615643641
 31
0.0
  0
LINE
  5
1B4
330
1E
100
AcDbEntity
  8
0
100
AcDbLine
 10
156.512
 20
643.0404499999999
 30
0.0
 11
157.244
 21
641.47045
 31
0.0
  0
LINE
  5
1B5
330
1E
100
AcDbEntity
  8
0
100
AcDbLine
 10
156.225543046349
 20
643.6554500000189
 30
0.0
 11
156.512
 21
643.0404499999999
 31
0.0
  0
LINE
  5
1B6
330
1E
100
AcDbEntity
  8
0
100
AcDbLine
 10
155.985
 20
644.50445
 30
0.0
 11
158.436
 21
639.2484500000001
 31
0.0
  0
LINE
  5
1B7
330
1E
100
AcDbEntity
  8
0
100
AcDbLine
 10
155.055
 20
646.49845
 30
0.0
 11
155.459474907111
 21
645.630863290959
 31
0.0
  0
LINE
  5
1B8
330
1E
100
AcDbEntity
  8
0
100
AcDbLine
 10
155.055
 20
646.49845
 30
0.0
 11
157.4209999999999
 21
641.42345
 31
0.0
  0
LINE
  5
1B9
330
1E
100
AcDbEntity
  8
0
100
AcDbLine
 10
154.787698830273
 20
647.0719676566909
 30
0.0
 11
155.459679352215
 21
645.63095857839
 31
0.0
  0
LINE
  5
1BA
330
1E
100
AcDbEntity
  8
0
100
AcDbLine
 10
136.1029999999999
 20
683.2594499999999
 30
0.0
 11
136.441
 21
682.5344499999999
 31
0.0
  0
LINE
  5
1BB
330
1E
100
AcDbEntity
  8
0
100
AcDbLine
 10
136.441
 20
682.5344499999999
 30
0.0
 11
136.644
 21
682.09945
 31
0.0
  0
LINE
  5
1BC
330
1E
100
AcDbEntity
  8
0
100
AcDbLine
 10
135.655
 20
684.22045
 30
0.0
 11
136.1029999999999
 21
683.2594499999999
 31
0.0
  0
LINE
  5
1BD
330
1E
100
AcDbEntity
  8
0
100
AcDbLine
 10
135.0289999999999
 20
685.56145
 30
0.0
 11
135.4819488902009
 21
685.7725596592501
 31
0.0
  0
LINE
  5
1BE
330
1E
100
AcDbEntity
  8
0
100
AcDbLine
 10
134.1839999999999
 20
687.37445
 30
0.0
 11
135.0289999999999
 21
685.56145
 31
0.0
  0
LINE
  5
1BF
330
1E
100
AcDbEntity
  8
0
100
AcDbLine
 10
134.1839999999999
 20
687.37445
 30
0.0
 11
135.090252466284
 21
687.7968346299009
 31
0.0
  0
LINE
  5
1C0
330
1E
100
AcDbEntity
  8
0
100
AcDbLine
 10
134.637
 20
687.58545
 30
0.0
 11
135.4819999999999
 21
685.77245
 31
0.0
  0
LINE
  5
1C1
330
1E
100
AcDbEntity
  8
0
100
AcDbLine
 10
134.637
 20
687.58545
 30
0.0
 11
135.244028812005
 21
687.8683729708459
 31
0.0
  0
LINE
  5
1C2
330
1E
100
AcDbEntity
  8
0
100
AcDbLine
 10
134.0659999999999
 20
687.62745
 30
0.0
 11
134.193344391679
 21
687.354401027083
 31
0.0
  0
LINE
  5
1C3
330
1E
100
AcDbEntity
  8
0
100
AcDbLine
 10
135.0294432961949
 20
685.561656610747
 30
0.0
 11
135.148
 21
685.3074499999999
 31
0.0
  0
LINE
  5
1C4
330
1E
100
AcDbEntity
  8
0
100
AcDbLine
 10
135.723999999987
 20
685.885374434632
 30
0.0
 11
135.93558096837
 21
685.9839877376019
 31
0.0
  0
LINE
  5
1C5
330
1E
100
AcDbEntity
  8
0
100
AcDbLine
 10
135.936
 20
685.98445
 30
0.0
 11
136.388904284152
 21
686.1956553642979
 31
0.0
  0
LINE
  5
1C6
330
1E
100
AcDbEntity
  8
0
100
AcDbLine
 10
135.4819999999999
 20
685.77245
 30
0.0
 11
136.089210276208
 21
686.055792467552
 31
0.0
  0
LINE
  5
1C7
330
1E
100
AcDbEntity
  8
0
100
AcDbLine
 10
136.389
 20
686.19545
 30
0.0
 11
136.5162792218389
 21
686.254804824754
 31
0.0
  0
LINE
  5
1C8
330
1E
100
AcDbEntity
  8
0
100
AcDbLine
 10
135.148
 20
685.3074499999999
 30
0.0
 11
135.655
 21
684.22045
 31
0.0
  0
LINE
  5
1C9
330
1E
100
AcDbEntity
  8
0
100
AcDbLine
 10
136.485
 20
684.8054499999999
 30
0.0
 11
137.4149999999999
 21
682.81245
 31
0.0
  0
LINE
  5
1CA
330
1E
100
AcDbEntity
  8
0
100
AcDbLine
 10
136.5609999999999
 20
684.64245
 30
0.0
 11
137.0089999999999
 21
683.68245
 31
0.0
  0
LINE
  5
1CB
330
1E
100
AcDbEntity
  8
0
100
AcDbLine
 10
136.644
 20
682.09945
 30
0.0
 11
136.7199999999999
 21
681.93645
 31
0.0
  0
LINE
  5
1CC
330
1E
100
AcDbEntity
  8
0
100
AcDbLine
 10
136.7199999999999
 20
681.93645
 30
0.0
 11
137.626
 21
682.3584499999999
 31
0.0
  0
LINE
  5
1CD
330
1E
100
AcDbEntity
  8
0
100
AcDbLine
 10
136.516468682503
 20
684.7380122750229
 30
0.0
 11
137.4149999999999
 21
682.81245
 31
0.0
  0
LINE
  5
1CE
330
1E
100
AcDbEntity
  8
0
100
AcDbLine
 10
136.516468682503
 20
684.7380122750229
 30
0.0
 11
136.5609999999999
 21
684.64245
 31
0.0
  0
LINE
  5
1CF
330
1E
100
AcDbEntity
  8
0
100
AcDbLine
 10
131.836
 20
694.77545
 30
0.0
 11
132.681
 21
692.96245
 31
0.0
  0
LINE
  5
1D0
330
1E
100
AcDbEntity
  8
0
100
AcDbLine
 10
132.773
 20
690.4014499999999
 30
0.0
 11
133.111
 21
689.67645
 31
0.0
  0
LINE
  5
1D1
330
1E
100
AcDbEntity
  8
0
100
AcDbLine
 10
132.5699999999999
 20
690.83645
 30
0.0
 11
132.773
 21
690.4014499999999
 31
0.0
  0
LINE
  5
1D2
330
1E
100
AcDbEntity
  8
0
100
AcDbLine
 10
132.494
 20
690.99945
 30
0.0
 11
132.5699999999999
 21
690.83645
 31
0.0
  0
LINE
  5
1D3
330
1E
100
AcDbEntity
  8
0
100
AcDbLine
 10
132.494
 20
690.99945
 30
0.0
 11
133.3997709274659
 21
691.4213433017559
 31
0.0
  0
LINE
  5
1D4
330
1E
100
AcDbEntity
  8
0
100
AcDbLine
 10
132.681
 20
692.96245
 30
0.0
 11
133.3997709274659
 21
691.4213433017559
 31
0.0
  0
LINE
  5
1D5
330
1E
100
AcDbEntity
  8
0
100
AcDbLine
 10
132.681
 20
692.96245
 30
0.0
 11
133.6109999999999
 21
690.96845
 31
0.0
  0
LINE
  5
1D6
330
1E
100
AcDbEntity
  8
0
100
AcDbLine
 10
132.233
 20
695.4394499999999
 30
0.0
 11
135.826
 21
687.73545
 31
0.0
  0
LINE
  5
1D7
330
1E
100
AcDbEntity
  8
0
100
AcDbLine
 10
130.2429999999999
 20
695.82545
 30
0.0
 11
131.1493738229579
 21
696.2478911916161
 31
0.0
  0
LINE
  5
1D8
330
1E
100
AcDbEntity
  8
0
100
AcDbLine
 10
131.0329999999999
 20
696.4974499999999
 30
0.0
 11
131.836
 21
694.77545
 31
0.0
  0
LINE
  5
1D9
330
1E
100
AcDbEntity
  8
0
100
AcDbLine
 10
131.1493738229579
 20
696.2478911916161
 30
0.0
 11
131.836
 21
694.77545
 31
0.0
  0
LINE
  5
1DA
330
1E
100
AcDbEntity
  8
0
100
AcDbLine
 10
132.149
 20
695.62045
 30
0.0
 11
135.826
 21
687.73545
 31
0.0
  0
LINE
  5
1DB
330
1E
100
AcDbEntity
  8
0
100
AcDbLine
 10
135.0899999999999
 20
687.79645
 30
0.0
 11
135.936
 21
685.98445
 31
0.0
  0
LINE
  5
1DC
330
1E
100
AcDbEntity
  8
0
100
AcDbLine
 10
135.0899999999999
 20
687.79645
 30
0.0
 11
135.5441533293979
 21
688.008121022251
 31
0.0
  0
LINE
  5
1DD
330
1E
100
AcDbEntity
  8
0
100
AcDbLine
 10
135.5439999999999
 20
688.00845
 30
0.0
 11
136.389
 21
686.19545
 31
0.0
  0
LINE
  5
1DE
330
1E
100
AcDbEntity
  8
0
100
AcDbLine
 10
135.5439999999999
 20
688.00845
 30
0.0
 11
135.67106094925
 21
688.067703036488
 31
0.0
  0
LINE
  5
1DF
330
1E
100
AcDbEntity
  8
0
100
AcDbLine
 10
133.559
 20
688.71545
 30
0.0
 11
134.0659999999999
 21
687.62745
 31
0.0
  0
LINE
  5
1E0
330
1E
100
AcDbEntity
  8
0
100
AcDbLine
 10
133.111
 20
689.67645
 30
0.0
 11
133.559
 21
688.71545
 31
0.0
  0
LINE
  5
1E1
330
1E
100
AcDbEntity
  8
0
100
AcDbLine
 10
133.6109999999999
 20
690.96845
 30
0.0
 11
134.5409999999999
 21
688.97445
 31
0.0
  0
LINE
  5
1E2
330
1E
100
AcDbEntity
  8
0
100
AcDbLine
 10
133.013
 20
696.13345
 30
0.0
 11
136.732
 21
688.15845
 31
0.0
  0
LINE
  5
1E3
330
1E
100
AcDbEntity
  8
0
100
AcDbLine
 10
135.826
 20
687.73545
 30
0.0
 11
139.502
 21
679.8504499999999
 31
0.0
  0
LINE
  5
1E4
330
1E
100
AcDbEntity
  8
0
100
AcDbLine
 10
140.982
 20
673.97945
 30
0.0
 11
141.7790791294559
 21
674.350951304132
 31
0.0
  0
LINE
  5
1E5
330
1E
100
AcDbEntity
  8
0
100
AcDbLine
 10
140.982
 20
673.97945
 30
0.0
 11
141.6886214909999
 21
674.308790959677
 31
0.0
  0
LINE
  5
1E6
330
1E
100
AcDbEntity
  8
0
100
AcDbLine
 10
140.982
 20
673.97945
 30
0.0
 11
141.434639267454
 21
674.1904153507991
 31
0.0
  0
LINE
  5
1E7
330
1E
100
AcDbEntity
  8
0
100
AcDbLine
 10
141.982
 20
674.20045
 30
0.0
 11
142.109294927262
 21
674.2597794062529
 31
0.0
  0
LINE
  5
1E8
330
1E
100
AcDbEntity
  8
0
100
AcDbLine
 10
140.125
 20
674.63445
 30
0.0
 11
140.5780302576519
 21
674.8457141102189
 31
0.0
  0
LINE
  5
1E9
330
1E
100
AcDbEntity
  8
0
100
AcDbLine
 10
141.434639267454
 20
674.1904153507991
 30
0.0
 11
141.937
 21
673.11445
 31
0.0
  0
LINE
  5
1EA
330
1E
100
AcDbEntity
  8
0
100
AcDbLine
 10
142.9089999999999
 20
671.0304499999999
 30
0.0
 11
144.373194040425
 21
668.162289384194
 31
0.0
  0
LINE
  5
1EB
330
1E
100
AcDbEntity
  8
0
100
AcDbLine
 10
142.6549999999999
 20
671.5734499999999
 30
0.0
 11
142.8239999999999
 21
671.21145
 31
0.0
  0
LINE
  5
1EC
330
1E
100
AcDbEntity
  8
0
100
AcDbLine
 10
142.8239999999999
 20
671.21145
 30
0.0
 11
142.9089999999999
 21
671.0304499999999
 31
0.0
  0
LINE
  5
1ED
330
1E
100
AcDbEntity
  8
0
100
AcDbLine
 10
142.4179999999999
 20
673.59745
 30
0.0
 11
144.296723086332
 21
669.5688631926369
 31
0.0
  0
LINE
  5
1EE
330
1E
100
AcDbEntity
  8
0
100
AcDbLine
 10
138.9699999999999
 20
677.1104499999999
 30
0.0
 11
139.7019999999999
 21
675.54045
 31
0.0
  0
LINE
  5
1EF
330
1E
100
AcDbEntity
  8
0
100
AcDbLine
 10
138.9699999999999
 20
677.1104499999999
 30
0.0
 11
139.8766261770429
 21
677.533008808384
 31
0.0
  0
LINE
  5
1F0
330
1E
100
AcDbEntity
  8
0
100
AcDbLine
 10
141.1059999999999
 20
674.8964499999999
 30
0.0
 11
141.5591682087
 21
675.107661878848
 31
0.0
  0
LINE
  5
1F1
330
1E
100
AcDbEntity
  8
0
100
AcDbLine
 10
140.137
 20
675.79145
 30
0.0
 11
140.982
 21
673.97945
 31
0.0
  0
LINE
  5
1F2
330
1E
100
AcDbEntity
  8
0
100
AcDbLine
 10
140.137
 20
675.79145
 30
0.0
 11
140.5900955325869
 21
676.002744550241
 31
0.0
  0
LINE
  5
1F3
330
1E
100
AcDbEntity
  8
0
100
AcDbLine
 10
140.2609999999999
 20
676.70845
 30
0.0
 11
141.1059999999999
 21
674.8964499999999
 31
0.0
  0
LINE
  5
1F4
330
1E
100
AcDbEntity
  8
0
100
AcDbLine
 10
140.2609999999999
 20
676.70845
 30
0.0
 11
140.84102512985
 21
676.9792564347969
 31
0.0
  0
LINE
  5
1F5
330
1E
100
AcDbEntity
  8
0
100
AcDbLine
 10
141.1369999999999
 20
676.01345
 30
0.0
 11
141.982
 21
674.20045
 31
0.0
  0
LINE
  5
1F6
330
1E
100
AcDbEntity
  8
0
100
AcDbLine
 10
141.1369999999999
 20
676.01345
 30
0.0
 11
141.263867494826
 21
676.0725801892599
 31
0.0
  0
LINE
  5
1F7
330
1E
100
AcDbEntity
  8
0
100
AcDbLine
 10
139.7019999999999
 20
675.54045
 30
0.0
 11
140.125
 21
674.63445
 31
0.0
  0
LINE
  5
1F8
330
1E
100
AcDbEntity
  8
0
100
AcDbLine
 10
139.7019999999999
 20
675.54045
 30
0.0
 11
140.155485624932
 21
675.7518098196729
 31
0.0
  0
LINE
  5
1F9
330
1E
100
AcDbEntity
  8
0
100
AcDbLine
 10
141.902210526501
 20
674.7038184206559
 30
0.0
 11
142.4179999999999
 21
673.59745
 31
0.0
  0
LINE
  5
1FA
330
1E
100
AcDbEntity
  8
0
100
AcDbLine
 10
143.816
 20
667.90245
 30
0.0
 11
144.548
 21
666.3324499999999
 31
0.0
  0
LINE
  5
1FB
330
1E
100
AcDbEntity
  8
0
100
AcDbLine
 10
143.816
 20
667.90245
 30
0.0
 11
144.548111193351
 21
668.2438594693049
 31
0.0
  0
LINE
  5
1FC
330
1E
100
AcDbEntity
  8
0
100
AcDbLine
 10
143.816
 20
667.90245
 30
0.0
 11
144.2379999999999
 21
666.99545
 31
0.0
  0
LINE
  5
1FD
330
1E
100
AcDbEntity
  8
0
100
AcDbLine
 10
143.0099999999999
 20
672.32845
 30
0.0
 11
146.729
 21
664.3524499999999
 31
0.0
  0
LINE
  5
1FE
330
1E
100
AcDbEntity
  8
0
100
AcDbLine
 10
139.502
 20
679.8504499999999
 30
0.0
 11
143.0099999999999
 21
672.32845
 31
0.0
  0
LINE
  5
1FF
330
1E
100
AcDbEntity
  8
0
100
AcDbLine
 10
149.083
 20
657.78845
 30
0.0
 11
149.815
 21
656.21945
 31
0.0
  0
LINE
  5
200
330
1E
100
AcDbEntity
  8
0
100
AcDbLine
 10
148.6609999999999
 20
658.69545
 30
0.0
 11
149.3929999999999
 21
657.12545
 31
0.0
  0
LINE
  5
201
330
1E
100
AcDbEntity
  8
0
100
AcDbLine
 10
148.6609999999999
 20
658.69545
 30
0.0
 11
149.2412377501549
 21
658.966035485034
 31
0.0
  0
LINE
  5
202
330
1E
100
AcDbEntity
  8
0
100
AcDbLine
 10
148.6609999999999
 20
658.69545
 30
0.0
 11
149.083
 21
657.78845
 31
0.0
  0
LINE
  5
203
330
1E
100
AcDbEntity
  8
0
100
AcDbLine
 10
149.815
 20
656.21945
 30
0.0
 11
150.395895014849
 21
656.4901925744879
 31
0.0
  0
LINE
  5
204
330
1E
100
AcDbEntity
  8
0
100
AcDbLine
 10
149.3929999999999
 20
657.12545
 30
0.0
 11
149.815
 21
656.21945
 31
0.0
  0
LINE
  5
205
330
1E
100
AcDbEntity
  8
0
100
AcDbLine
 10
149.3929999999999
 20
657.12545
 30
0.0
 11
149.973444802765
 21
657.396132041024
 31
0.0
  0
LINE
  5
206
330
1E
100
AcDbEntity
  8
0
100
AcDbLine
 10
147.576
 20
662.2044499999999
 30
0.0
 11
147.7031852444249
 21
662.2637282854599
 31
0.0
  0
LINE
  5
207
330
1E
100
AcDbEntity
  8
0
100
AcDbLine
 10
146.1339999999999
 20
662.93145
 30
0.0
 11
146.898798496375
 21
663.28810272044
 31
0.0
  0
LINE
  5
208
330
1E
100
AcDbEntity
  8
0
100
AcDbLine
 10
146.1339999999999
 20
662.93145
 30
0.0
 11
146.898798496375
 21
663.28810272044
 31
0.0
  0
LINE
  5
209
330
1E
100
AcDbEntity
  8
0
100
AcDbLine
 10
146.3239999999999
 20
663.7074499999999
 30
0.0
 11
146.777020728994
 21
663.918709666667
 31
0.0
  0
LINE
  5
20A
330
1E
100
AcDbEntity
  8
0
100
AcDbLine
 10
146.7309999999999
 20
664.01745
 30
0.0
 11
147.576
 21
662.2044499999999
 31
0.0
  0
LINE
  5
20B
330
1E
100
AcDbEntity
  8
0
100
AcDbLine
 10
146.7309999999999
 20
664.01745
 30
0.0
 11
146.857689821791
 21
664.076529966564
 31
0.0
  0
LINE
  5
20C
330
1E
100
AcDbEntity
  8
0
100
AcDbLine
 10
145.711
 20
663.83745
 30
0.0
 11
146.1339999999999
 21
662.93145
 31
0.0
  0
LINE
  5
20D
330
1E
100
AcDbEntity
  8
0
100
AcDbLine
 10
146.8686421511559
 20
663.2740397448819
 30
0.0
 11
149.1012107704809
 21
658.900735927735
 31
0.0
  0
LINE
  5
20E
330
1E
100
AcDbEntity
  8
0
100
AcDbLine
 10
150.113
 20
655.58145
 30
0.0
 11
150.693425990262
 21
655.852123268086
 31
0.0
  0
LINE
  5
20F
330
1E
100
AcDbEntity
  8
0
100
AcDbLine
 10
150.113
 20
655.58145
 30
0.0
 11
150.5349999999999
 21
654.6744499999999
 31
0.0
  0
LINE
  5
210
330
1E
100
AcDbEntity
  8
0
100
AcDbLine
 10
150.1479999999999
 20
655.5054499999999
 30
0.0
 11
150.474999999964
 21
654.8034073460489
 31
0.0
  0
LINE
  5
211
330
1E
100
AcDbEntity
  8
0
100
AcDbLine
 10
150.585
 20
655.7514499999999
 30
0.0
 11
151.43
 21
653.93945
 31
0.0
  0
LINE
  5
212
330
1E
100
AcDbEntity
  8
0
100
AcDbLine
 10
150.585
 20
655.7514499999999
 30
0.0
 11
150.712631448242
 21
655.810936251387
 31
0.0
  0
LINE
  5
213
330
1E
100
AcDbEntity
  8
0
100
AcDbLine
 10
150.5349999999999
 20
654.6744499999999
 30
0.0
 11
150.9885484631849
 21
654.8860892718449
 31
0.0
  0
LINE
  5
214
330
1E
100
AcDbEntity
  8
0
100
AcDbLine
 10
150.5349999999999
 20
654.6744499999999
 30
0.0
 11
151.2669999999999
 21
653.10545
 31
0.0
  0
LINE
  5
215
330
1E
100
AcDbEntity
  8
0
100
AcDbLine
 10
150.5850000000769
 20
654.5672778686879
 30
0.0
 11
151.302
 21
653.02945
 31
0.0
  0
LINE
  5
216
330
1E
100
AcDbEntity
  8
0
100
AcDbLine
 10
150.34411230771
 20
656.4660577771729
 30
0.0
 11
150.6644286729929
 21
655.8386007884539
 31
0.0
  0
LINE
  5
217
330
1E
100
AcDbEntity
  8
0
100
AcDbLine
 10
150.1806925794869
 20
656.951704417001
 30
0.0
 11
152.3919999999999
 21
652.20845
 31
0.0
  0
LINE
  5
218
330
1E
100
AcDbEntity
  8
0
100
AcDbLine
 10
150.026
 20
657.2834499999999
 30
0.0
 11
153.153
 21
650.57745
 31
0.0
  0
LINE
  5
219
330
1E
100
AcDbEntity
  8
0
100
AcDbLine
 10
146.729
 20
664.3524499999999
 30
0.0
 11
150.026
 21
657.2834499999999
 31
0.0
  0
LINE
  5
21A
330
1E
100
AcDbEntity
  8
0
100
AcDbLine
 10
151.43
 20
653.93945
 30
0.0
 11
151.5575768143239
 21
653.998910787702
 31
0.0
  0
LINE
  5
21B
330
1E
100
AcDbEntity
  8
0
100
AcDbLine
 10
151.143
 20
657.25345
 30
0.0
 11
154.3129999999999
 21
650.45545
 31
0.0
  0
LINE
  5
21C
330
1E
100
AcDbEntity
  8
0
100
AcDbLine
 10
145.402
 20
664.5004499999999
 30
0.0
 11
145.855009515236
 21
664.7119544425439
 31
0.0
  0
LINE
  5
21D
330
1E
100
AcDbEntity
  8
0
100
AcDbLine
 10
145.402
 20
664.5004499999999
 30
0.0
 11
146.1339999999999
 21
662.93145
 31
0.0
  0
LINE
  5
21E
330
1E
100
AcDbEntity
  8
0
100
AcDbLine
 10
144.9789999999999
 20
665.40745
 30
0.0
 11
145.711
 21
663.83745
 31
0.0
  0
LINE
  5
21F
330
1E
100
AcDbEntity
  8
0
100
AcDbLine
 10
144.9789999999999
 20
665.40745
 30
0.0
 11
145.65247942112
 21
665.721344159319
 31
0.0
  0
LINE
  5
220
330
1E
100
AcDbEntity
  8
0
100
AcDbLine
 10
144.9789999999999
 20
665.40745
 30
0.0
 11
145.402
 21
664.5004499999999
 31
0.0
  0
LINE
  5
221
330
1E
100
AcDbEntity
  8
0
100
AcDbLine
 10
144.2379999999999
 20
666.99545
 30
0.0
 11
144.9699999999999
 21
665.42645
 31
0.0
  0
LINE
  5
222
330
1E
100
AcDbEntity
  8
0
100
AcDbLine
 10
144.548
 20
666.3324499999999
 30
0.0
 11
144.9699999999999
 21
665.42645
 31
0.0
  0
LINE
  5
223
330
1E
100
AcDbEntity
  8
0
100
AcDbLine
 10
144.548
 20
666.3324499999999
 30
0.0
 11
145.351279023941
 21
666.7070475580739
 31
0.0
  0
LINE
  5
224
330
1E
100
AcDbEntity
  8
0
100
AcDbLine
 10
145.4779999999999
 20
665.51945
 30
0.0
 11
146.3239999999999
 21
663.7074499999999
 31
0.0
  0
LINE
  5
225
330
1E
100
AcDbEntity
  8
0
100
AcDbLine
 10
145.4779999999999
 20
665.51945
 30
0.0
 11
146.058667679957
 21
665.7900866186229
 31
0.0
  0
LINE
  5
226
330
1E
100
AcDbEntity
  8
0
100
AcDbLine
 10
145.4779999999999
 20
665.51945
 30
0.0
 11
146.0254411090489
 21
665.7746004341681
 31
0.0
  0
LINE
  5
227
330
1E
100
AcDbEntity
  8
0
100
AcDbLine
 10
144.9699999999999
 20
665.42645
 30
0.0
 11
145.620782255658
 21
665.729765502499
 31
0.0
  0
LINE
  5
228
330
1E
100
AcDbEntity
  8
0
100
AcDbLine
 10
144.9699999999999
 20
665.42645
 30
0.0
 11
145.762315822816
 21
665.7957312301599
 31
0.0
  0
LINE
  5
229
330
1E
100
AcDbEntity
  8
0
100
AcDbLine
 10
147.805
 20
664.4134499999999
 30
0.0
 11
151.143
 21
657.25345
 31
0.0
  0
LINE
  5
22A
330
1E
100
AcDbEntity
  8
0
100
AcDbLine
 10
144.212
 20
672.11645
 30
0.0
 11
147.805
 21
664.4134499999999
 31
0.0
  0
LINE
  5
22B
330
1E
100
AcDbEntity
  8
0
100
AcDbLine
 10
137.0089999999999
 20
683.68245
 30
0.0
 11
137.347
 21
682.9574499999999
 31
0.0
  0
LINE
  5
22C
330
1E
100
AcDbEntity
  8
0
100
AcDbLine
 10
137.347
 20
682.9574499999999
 30
0.0
 11
137.55
 21
682.52245
 31
0.0
  0
LINE
  5
22D
330
1E
100
AcDbEntity
  8
0
100
AcDbLine
 10
137.55
 20
682.52245
 30
0.0
 11
137.626
 21
682.3584499999999
 31
0.0
  0
LINE
  5
22E
330
1E
100
AcDbEntity
  8
0
100
AcDbLine
 10
140.4509999999999
 20
680.18245
 30
0.0
 11
144.212
 21
672.11645
 31
0.0
  0
LINE
  5
22F
330
1E
100
AcDbEntity
  8
0
100
AcDbLine
 10
136.732
 20
688.15845
 30
0.0
 11
140.4509999999999
 21
680.18245
 31
0.0
  0
LINE
  5
230
330
1E
100
AcDbEntity
  8
0
100
AcDbLine
 10
128.371
 20
702.20745
 30
0.0
 11
128.709
 21
701.4824499999999
 31
0.0
  0
LINE
  5
231
330
1E
100
AcDbEntity
  8
0
100
AcDbLine
 10
129.5109999999999
 20
697.3954499999999
 30
0.0
 11
129.964242070096
 21
697.6066963040429
 31
0.0
  0
LINE
  5
232
330
1E
100
AcDbEntity
  8
0
100
AcDbLine
 10
129.5109999999999
 20
697.3954499999999
 30
0.0
 11
130.2429999999999
 21
695.82545
 31
0.0
  0
LINE
  5
233
330
1E
100
AcDbEntity
  8
0
100
AcDbLine
 10
130.7649999999999
 20
697.07145
 30
0.0
 11
131.345890512669
 21
697.3425108790499
 31
0.0
  0
LINE
  5
234
330
1E
100
AcDbEntity
  8
0
100
AcDbLine
 10
130.7649999999999
 20
697.07145
 30
0.0
 11
131.238367622914
 21
697.292337484272
 31
0.0
  0
LINE
  5
235
330
1E
100
AcDbEntity
  8
0
100
AcDbLine
 10
129.983
 20
697.56645
 30
0.0
 11
130.435906748423
 21
697.777540017881
 31
0.0
  0
LINE
  5
236
330
1E
100
AcDbEntity
  8
0
100
AcDbLine
 10
130.765437138937
 20
697.0716539820959
 30
0.0
 11
131.0329999999999
 21
696.4974499999999
 31
0.0
  0
LINE
  5
237
330
1E
100
AcDbEntity
  8
0
100
AcDbLine
 10
130.7949999999999
 20
698.19045
 30
0.0
 11
130.92268675853
 21
698.249962030313
 31
0.0
  0
LINE
  5
238
330
1E
100
AcDbEntity
  8
0
100
AcDbLine
 10
129.9199999999999
 20
698.8844499999999
 30
0.0
 11
130.373112472801
 21
699.0956359015529
 31
0.0
  0
LINE
  5
239
330
1E
100
AcDbEntity
  8
0
100
AcDbLine
 10
129.9199999999999
 20
698.8844499999999
 30
0.0
 11
130.7649999999999
 21
697.07145
 31
0.0
  0
LINE
  5
23A
330
1E
100
AcDbEntity
  8
0
100
AcDbLine
 10
129.9499999999999
 20
700.00345
 30
0.0
 11
130.077259326093
 21
700.06276281332
 31
0.0
  0
LINE
  5
23B
330
1E
100
AcDbEntity
  8
0
100
AcDbLine
 10
129.9499999999999
 20
700.00345
 30
0.0
 11
130.7949999999999
 21
698.19045
 31
0.0
  0
LINE
  5
23C
330
1E
100
AcDbEntity
  8
0
100
AcDbLine
 10
129.1379999999999
 20
699.3794499999999
 30
0.0
 11
129.591213665599
 21
699.590799639863
 31
0.0
  0
LINE
  5
23D
330
1E
100
AcDbEntity
  8
0
100
AcDbLine
 10
129.1379999999999
 20
699.3794499999999
 30
0.0
 11
129.541978138274
 21
698.5126898050999
 31
0.0
  0
LINE
  5
23E
330
1E
100
AcDbEntity
  8
0
100
AcDbLine
 10
129.1379999999999
 20
699.3794499999999
 30
0.0
 11
129.934735046667
 21
699.7509958688929
 31
0.0
  0
LINE
  5
23F
330
1E
100
AcDbEntity
  8
0
100
AcDbLine
 10
129.1379999999999
 20
699.3794499999999
 30
0.0
 11
129.983
 21
697.56645
 31
0.0
  0
LINE
  5
240
330
1E
100
AcDbEntity
  8
0
100
AcDbLine
 10
129.1379999999999
 20
699.3794499999999
 30
0.0
 11
129.844164384634
 21
699.7087595502299
 31
0.0
  0
LINE
  5
241
330
1E
100
AcDbEntity
  8
0
100
AcDbLine
 10
129.089
 20
698.30145
 30
0.0
 11
129.5109999999999
 21
697.3954499999999
 31
0.0
  0
LINE
  5
242
330
1E
100
AcDbEntity
  8
0
100
AcDbLine
 10
129.089
 20
698.30145
 30
0.0
 11
129.541978138274
 21
698.5126898050999
 31
0.0
  0
LINE
  5
243
330
1E
100
AcDbEntity
  8
0
100
AcDbLine
 10
128.709
 20
701.4824499999999
 30
0.0
 11
129.089
 21
700.66645
 31
0.0
  0
LINE
  5
244
330
1E
100
AcDbEntity
  8
0
100
AcDbLine
 10
131.0675864659669
 20
697.939262030502
 30
0.0
 11
132.233
 21
695.4394499999999
 31
0.0
  0
LINE
  5
245
330
1E
100
AcDbEntity
  8
0
100
AcDbLine
 10
128.6409999999999
 20
703.14245
 30
0.0
 11
132.149
 21
695.62045
 31
0.0
  0
LINE
  5
246
330
1E
100
AcDbEntity
  8
0
100
AcDbLine
 10
129.252
 20
704.1994499999999
 30
0.0
 11
133.013
 21
696.13345
 31
0.0
  0
LINE
  5
247
330
1E
100
AcDbEntity
  8
0
100
AcDbLine
 10
152.0449999999999
 20
705.00845
 30
0.0
 11
155.764
 21
697.0334499999999
 31
0.0
  0
LINE
  5
248
330
1E
100
AcDbEntity
  8
0
100
AcDbLine
 10
144.692
 20
720.77845
 30
0.0
 11
148.2839999999999
 21
713.0744499999999
 31
0.0
  0
LINE
  5
249
330
1E
100
AcDbEntity
  8
0
100
AcDbLine
 10
138.1829999999999
 20
734.73545
 30
0.0
 11
141.3529999999999
 21
727.9384499999999
 31
0.0
  0
LINE
  5
24A
330
1E
100
AcDbEntity
  8
0
100
AcDbLine
 10
129.055
 20
754.31145
 30
0.0
 11
130.703
 21
750.77745
 31
0.0
  0
LINE
  5
24B
330
1E
100
AcDbEntity
  8
0
100
AcDbLine
 10
130.703
 20
750.77745
 30
0.0
 11
132.816
 21
746.2454499999999
 31
0.0
  0
LINE
  5
24C
330
1E
100
AcDbEntity
  8
0
100
AcDbLine
 10
132.816
 20
746.2454499999999
 30
0.0
 11
135.3099999999999
 21
740.89845
 31
0.0
  0
LINE
  5
24D
330
1E
100
AcDbEntity
  8
0
100
AcDbLine
 10
134.061
 20
745.94345
 30
0.0
 11
136.512
 21
740.68645
 31
0.0
  0
LINE
  5
24E
330
1E
100
AcDbEntity
  8
0
100
AcDbLine
 10
131.9479999999999
 20
750.4744500000001
 30
0.0
 11
134.061
 21
745.94345
 31
0.0
  0
LINE
  5
24F
330
1E
100
AcDbEntity
  8
0
100
AcDbLine
 10
130.3839999999999
 20
753.8284499999999
 30
0.0
 11
131.9479999999999
 21
750.4744500000001
 31
0.0
  0
LINE
  5
250
330
1E
100
AcDbEntity
  8
0
100
AcDbLine
 10
129.1579999999999
 20
756.45645
 30
0.0
 11
130.3839999999999
 21
753.8284499999999
 31
0.0
  0
LINE
  5
251
330
1E
100
AcDbEntity
  8
0
100
AcDbLine
 10
128.4399999999999
 20
757.9974499999999
 30
0.0
 11
129.1579999999999
 21
756.45645
 31
0.0
  0
LINE
  5
252
330
1E
100
AcDbEntity
  8
0
100
AcDbLine
 10
135.3099999999999
 20
740.89845
 30
0.0
 11
138.1829999999999
 21
734.73545
 31
0.0
  0
LINE
  5
253
330
1E
100
AcDbEntity
  8
0
100
AcDbLine
 10
136.512
 20
740.68645
 30
0.0
 11
139.3429999999999
 21
734.61445
 31
0.0
  0
LINE
  5
254
330
1E
100
AcDbEntity
  8
0
100
AcDbLine
 10
141.3529999999999
 20
727.9384499999999
 30
0.0
 11
144.692
 21
720.77845
 31
0.0
  0
LINE
  5
255
330
1E
100
AcDbEntity
  8
0
100
AcDbLine
 10
139.3429999999999
 20
734.61445
 30
0.0
 11
142.471
 21
727.90745
 31
0.0
  0
LINE
  5
256
330
1E
100
AcDbEntity
  8
0
100
AcDbLine
 10
142.471
 20
727.90745
 30
0.0
 11
145.767
 21
720.83845
 31
0.0
  0
LINE
  5
257
330
1E
100
AcDbEntity
  8
0
100
AcDbLine
 10
148.2839999999999
 20
713.0744499999999
 30
0.0
 11
152.0449999999999
 21
705.00845
 31
0.0
  0
LINE
  5
258
330
1E
100
AcDbEntity
  8
0
100
AcDbLine
 10
145.767
 20
720.83845
 30
0.0
 11
149.4859999999999
 21
712.8634499999999
 31
0.0
  0
LINE
  5
259
330
1E
100
AcDbEntity
  8
0
100
AcDbLine
 10
149.4859999999999
 20
712.8634499999999
 30
0.0
 11
152.994
 21
705.34045
 31
0.0
  0
LINE
  5
25A
330
1E
100
AcDbEntity
  8
0
100
AcDbLine
 10
152.994
 20
705.34045
 30
0.0
 11
156.671
 21
697.45545
 31
0.0
  0
LINE
  5
25B
330
1E
100
AcDbEntity
  8
0
100
AcDbLine
 10
155.764
 20
697.0334499999999
 30
0.0
 11
159.4829999999999
 21
689.05745
 31
0.0
  0
LINE
  5
25C
330
1E
100
AcDbEntity
  8
0
100
AcDbLine
 10
156.671
 20
697.45545
 30
0.0
 11
160.347
 21
689.57045
 31
0.0
  0
LINE
  5
25D
330
1E
100
AcDbEntity
  8
0
100
AcDbLine
 10
151.883177445888
 20
653.300644770668
 30
0.0
 11
153.153
 21
650.57745
 31
0.0
  0
LINE
  5
25E
330
1E
100
AcDbEntity
  8
0
100
AcDbLine
 10
128.144
 20
758.63145
 30
0.0
 11
158.483
 21
698.30145
 31
0.0
  0
LINE
  5
25F
330
1E
100
AcDbEntity
  8
0
100
AcDbLine
 10
128.144
 20
758.63145
 30
0.0
 11
128.4399999999999
 21
757.9974499999999
 31
0.0
  0
LINE
  5
260
330
1E
100
AcDbEntity
  8
0
100
AcDbLine
 10
157.0
 20
533.01345
 30
0.0
 11
157.0
 21
512.51345
 31
0.0
  0
LINE
  5
261
330
1E
100
AcDbEntity
  8
0
100
AcDbLine
 10
157.0
 20
533.01345
 30
0.0
 11
157.0
 21
502.31345
 31
0.0
  0
LINE
  5
262
330
1E
100
AcDbEntity
  8
0
100
AcDbLine
 10
157.0
 20
533.01345
 30
0.0
 11
157.5
 21
533.51345
 31
0.0
  0
LINE
  5
263
330
1E
100
AcDbEntity
  8
0
100
AcDbLine
 10
157.5
 20
494.5134499999999
 30
0.0
 11
164.799956668111
 21
494.5134499999999
 31
0.0
  0
LINE
  5
264
330
1E
100
AcDbEntity
  8
0
100
AcDbLine
 10
157.5
 20
494.5134499999999
 30
0.0
 11
157.5
 21
494.31345
 31
0.0
  0
LINE
  5
265
330
1E
100
AcDbEntity
  8
0
100
AcDbLine
 10
157.5
 20
494.5134499999999
 30
0.0
 11
157.5
 21
498.51345
 31
0.0
  0
LINE
  5
266
330
1E
100
AcDbEntity
  8
0
100
AcDbLine
 10
157.5
 20
498.51345
 30
0.0
 11
157.5
 21
502.51345
 31
0.0
  0
LINE
  5
267
330
1E
100
AcDbEntity
  8
0
100
AcDbLine
 10
157.5
 20
498.51345
 30
0.0
 11
157.5
 21
494.5134499999999
 31
0.0
  0
LINE
  5
268
330
1E
100
AcDbEntity
  8
0
100
AcDbLine
 10
157.5
 20
502.51345
 30
0.0
 11
157.5
 21
498.51345
 31
0.0
  0
LINE
  5
269
330
1E
100
AcDbEntity
  8
0
100
AcDbLine
 10
157.5
 20
502.51345
 30
0.0
 11
164.399970001
 21
502.51345
 31
0.0
  0
LINE
  5
26A
330
1E
100
AcDbEntity
  8
0
100
AcDbLine
 10
157.5
 20
502.51345
 30
0.0
 11
157.5
 21
502.71345
 31
0.0
  0
LINE
  5
26B
330
1E
100
AcDbEntity
  8
0
100
AcDbLine
 10
157.5
 20
502.71345
 30
0.0
 11
157.5
 21
502.91345
 31
0.0
  0
LINE
  5
26C
330
1E
100
AcDbEntity
  8
0
100
AcDbLine
 10
157.5
 20
502.71345
 30
0.0
 11
157.5
 21
502.51345
 31
0.0
  0
LINE
  5
26D
330
1E
100
AcDbEntity
  8
0
100
AcDbLine
 10
157.5
 20
502.91345
 30
0.0
 11
164.379970667644
 21
502.91345
 31
0.0
  0
LINE
  5
26E
330
1E
100
AcDbEntity
  8
0
100
AcDbLine
 10
157.5
 20
502.91345
 30
0.0
 11
157.5
 21
502.71345
 31
0.0
  0
LINE
  5
26F
330
1E
100
AcDbEntity
  8
0
100
AcDbLine
 10
157.5
 20
502.91345
 30
0.0
 11
157.5
 21
533.51345
 31
0.0
  0
LINE
  5
270
330
1E
100
AcDbEntity
  8
0
100
AcDbLine
 10
157.5
 20
494.31345
 30
0.0
 11
157.5
 21
494.11345
 31
0.0
  0
LINE
  5
271
330
1E
100
AcDbEntity
  8
0
100
AcDbLine
 10
157.5
 20
494.31345
 30
0.0
 11
157.5
 21
494.5134499999999
 31
0.0
  0
LINE
  5
272
330
1E
100
AcDbEntity
  8
0
100
AcDbLine
 10
157.5
 20
494.11345
 30
0.0
 11
157.5
 21
463.5134499999999
 31
0.0
  0
LINE
  5
273
330
1E
100
AcDbEntity
  8
0
100
AcDbLine
 10
157.5
 20
494.11345
 30
0.0
 11
164.819956001467
 21
494.11345
 31
0.0
  0
LINE
  5
274
330
1E
100
AcDbEntity
  8
0
100
AcDbLine
 10
157.5
 20
494.11345
 30
0.0
 11
157.5
 21
494.31345
 31
0.0
  0
LINE
  5
275
330
1E
100
AcDbEntity
  8
0
100
AcDbLine
 10
157.244
 20
641.47045
 30
0.0
 11
157.371979239096
 21
641.5301689389269
 31
0.0
  0
LINE
  5
276
330
1E
100
AcDbEntity
  8
0
100
AcDbLine
 10
157.187
 20
644.29245
 30
0.0
 11
159.6799999999999
 21
638.94545
 31
0.0
  0
LINE
  5
277
330
1E
100
AcDbEntity
  8
0
100
AcDbLine
 10
157.371377746938
 20
641.529888264704
 30
0.0
 11
157.4209999999999
 21
641.42345
 31
0.0
  0
LINE
  5
278
330
1E
100
AcDbEntity
  8
0
100
AcDbLine
 10
157.4209999999999
 20
641.42345
 30
0.0
 11
159.45
 21
637.07345
 31
0.0
  0
LINE
  5
279
330
1E
100
AcDbEntity
  8
0
100
AcDbLine
 10
157.5
 20
533.51345
 30
0.0
 11
162.568825367647
 21
533.51345
 31
0.0
  0
LINE
  5
27A
330
1E
100
AcDbEntity
  8
0
100
AcDbLine
 10
157.5
 20
533.51345
 30
0.0
 11
157.5
 21
502.91345
 31
0.0
  0
LINE
  5
27B
330
1E
100
AcDbEntity
  8
0
100
AcDbLine
 10
157.0
 20
484.5134499999999
 30
0.0
 11
157.0
 21
464.01345
 31
0.0
  0
LINE
  5
27C
330
1E
100
AcDbEntity
  8
0
100
AcDbLine
 10
157.0
 20
464.01345
 30
0.0
 11
157.5
 21
463.5134499999999
 31
0.0
  0
LINE
  5
27D
330
1E
100
AcDbEntity
  8
0
100
AcDbLine
 10
157.0
 20
464.01345
 30
0.0
 11
157.0
 21
484.5134499999999
 31
0.0
  0
LINE
  5
27E
330
1E
100
AcDbEntity
  8
0
100
AcDbLine
 10
157.0
 20
464.01345
 30
0.0
 11
157.0
 21
494.71345
 31
0.0
  0
LINE
  5
27F
330
1E
100
AcDbEntity
  8
0
100
AcDbLine
 10
157.859
 20
22.15255
 30
0.0
 11
162.9929999999999
 21
38.88855
 31
0.0
  0
LINE
  5
280
330
1E
100
AcDbEntity
  8
0
100
AcDbLine
 10
178.0309999999999
 20
121.27345
 30
0.0
 11
180.5709999999999
 21
143.88745
 31
0.0
  0
LINE
  5
281
330
1E
100
AcDbEntity
  8
0
100
AcDbLine
 10
174.9929999999999
 20
98.36045
 30
0.0
 11
178.0309999999999
 21
121.27345
 31
0.0
  0
LINE
  5
282
330
1E
100
AcDbEntity
  8
0
100
AcDbLine
 10
171.169
 20
75.54845
 30
0.0
 11
174.9929999999999
 21
98.36045
 31
0.0
  0
LINE
  5
283
330
1E
100
AcDbEntity
  8
0
100
AcDbLine
 10
167.314
 20
55.12655
 30
0.0
 11
171.169
 21
75.54845
 31
0.0
  0
LINE
  5
284
330
1E
100
AcDbEntity
  8
0
100
AcDbLine
 10
162.9929999999999
 20
38.88855
 30
0.0
 11
167.314
 21
55.12655
 31
0.0
  0
LINE
  5
285
330
1E
100
AcDbEntity
  8
0
100
AcDbLine
 10
167.959
 20
164.90145
 30
0.0
 11
168.9782789685349
 21
476.0134499999999
 31
0.0
  0
LINE
  5
286
330
1E
100
AcDbEntity
  8
0
100
AcDbLine
 10
182.349
 20
163.6114499999999
 30
0.0
 11
183.4381539540379
 21
476.0134499999999
 31
0.0
  0
LINE
  5
287
330
1E
100
AcDbEntity
  8
0
100
AcDbLine
 10
167.959
 20
164.90145
 30
0.0
 11
168.9782789685349
 21
476.0134499999999
 31
0.0
  0
LINE
  5
288
330
1E
100
AcDbEntity
  8
0
100
AcDbLine
 10
180.5709999999999
 20
143.88745
 30
0.0
 11
182.349
 21
163.6114499999999
 31
0.0
  0
LINE
  5
289
330
1E
100
AcDbEntity
  8
0
100
AcDbLine
 10
166.232
 20
145.5754499999999
 30
0.0
 11
167.959
 21
164.90145
 31
0.0
  0
LINE
  5
28A
330
1E
100
AcDbEntity
  8
0
100
AcDbLine
 10
163.7589999999999
 20
123.5594499999999
 30
0.0
 11
166.232
 21
145.5754499999999
 31
0.0
  0
LINE
  5
28B
330
1E
100
AcDbEntity
  8
0
100
AcDbLine
 10
160.865
 20
101.74245
 30
0.0
 11
163.7589999999999
 21
123.5594499999999
 31
0.0
  0
LINE
  5
28C
330
1E
100
AcDbEntity
  8
0
100
AcDbLine
 10
165.5
 20
476.0134499999999
 30
0.0
 11
166.9
 21
476.0134499999999
 31
0.0
  0
LINE
  5
28D
330
1E
100
AcDbEntity
  8
0
100
AcDbLine
 10
165.5
 20
476.0134499999999
 30
0.0
 11
168.3
 21
476.0134499999999
 31
0.0
  0
LINE
  5
28E
330
1E
100
AcDbEntity
  8
0
100
AcDbLine
 10
165.5
 20
476.0134499999999
 30
0.0
 11
165.5
 21
490.51245
 31
0.0
  0
LINE
  5
28F
330
1E
100
AcDbEntity
  8
0
100
AcDbLine
 10
165.5
 20
476.0134499999999
 30
0.0
 11
165.5
 21
521.01345
 31
0.0
  0
LINE
  5
290
330
1E
100
AcDbEntity
  8
0
100
AcDbLine
 10
166.9
 20
476.0134499999999
 30
0.0
 11
168.9782789685349
 21
476.0134499999999
 31
0.0
  0
LINE
  5
291
330
1E
100
AcDbEntity
  8
0
100
AcDbLine
 10
166.9
 20
476.0134499999999
 30
0.0
 11
169.3
 21
476.0134499999999
 31
0.0
  0
LINE
  5
292
330
1E
100
AcDbEntity
  8
0
100
AcDbLine
 10
169.3
 20
476.0134499999999
 30
0.0
 11
172.0
 21
476.0134499999999
 31
0.0
  0
LINE
  5
293
330
1E
100
AcDbEntity
  8
0
100
AcDbLine
 10
178.0
 20
476.0134499999999
 30
0.0
 11
180.7
 21
476.0134499999999
 31
0.0
  0
LINE
  5
294
330
1E
100
AcDbEntity
  8
0
100
AcDbLine
 10
183.0999999999999
 20
476.0134499999999
 30
0.0
 11
185.0
 21
476.0134499999999
 31
0.0
  0
LINE
  5
295
330
1E
100
AcDbEntity
  8
0
100
AcDbLine
 10
180.7
 20
476.0134499999999
 30
0.0
 11
183.0999999999999
 21
476.0134499999999
 31
0.0
  0
LINE
  5
296
330
1E
100
AcDbEntity
  8
0
100
AcDbLine
 10
181.6999999999999
 20
476.0134499999999
 30
0.0
 11
184.4999999999999
 21
476.0134499999999
 31
0.0
  0
LINE
  5
297
330
1E
100
AcDbEntity
  8
0
100
AcDbLine
 10
178.5
 20
476.0134499999999
 30
0.0
 11
181.6999999999999
 21
476.0134499999999
 31
0.0
  0
LINE
  5
298
330
1E
100
AcDbEntity
  8
0
100
AcDbLine
 10
175.0
 20
476.0134499999999
 30
0.0
 11
178.5
 21
476.0134499999999
 31
0.0
  0
LINE
  5
299
330
1E
100
AcDbEntity
  8
0
100
AcDbLine
 10
175.0
 20
476.0134499999999
 30
0.0
 11
178.0
 21
476.0134499999999
 31
0.0
  0
LINE
  5
29A
330
1E
100
AcDbEntity
  8
0
100
AcDbLine
 10
172.0
 20
476.0134499999999
 30
0.0
 11
175.0
 21
476.0134499999999
 31
0.0
  0
LINE
  5
29B
330
1E
100
AcDbEntity
  8
0
100
AcDbLine
 10
171.5
 20
476.0134499999999
 30
0.0
 11
175.0
 21
476.0134499999999
 31
0.0
  0
LINE
  5
29C
330
1E
100
AcDbEntity
  8
0
100
AcDbLine
 10
184.4999999999999
 20
476.0134499999999
 30
0.0
 11
186.6999999999999
 21
476.0134499999999
 31
0.0
  0
LINE
  5
29D
330
1E
100
AcDbEntity
  8
0
100
AcDbLine
 10
183.4381539540379
 20
476.0134499999999
 30
0.0
 11
185.0
 21
476.0134499999999
 31
0.0
  0
LINE
  5
29E
330
1E
100
AcDbEntity
  8
0
100
AcDbLine
 10
183.4381539540379
 20
476.0134499999999
 30
0.0
 11
184.4999999999999
 21
476.0134499999999
 31
0.0
  0
LINE
  5
29F
330
1E
100
AcDbEntity
  8
0
100
AcDbLine
 10
185.0
 20
476.0134499999999
 30
0.0
 11
186.0999999999999
 21
476.0134499999999
 31
0.0
  0
LINE
  5
2A0
330
1E
100
AcDbEntity
  8
0
100
AcDbLine
 10
188.4999999999999
 20
476.0134499999999
 30
0.0
 11
188.4999999999999
 21
487.5134499999999
 31
0.0
  0
LINE
  5
2A1
330
1E
100
AcDbEntity
  8
0
100
AcDbLine
 10
186.6999999999999
 20
476.0134499999999
 30
0.0
 11
188.0
 21
476.0134499999999
 31
0.0
  0
LINE
  5
2A2
330
1E
100
AcDbEntity
  8
0
100
AcDbLine
 10
186.0999999999999
 20
476.0134499999999
 30
0.0
 11
186.5
 21
476.0134499999999
 31
0.0
  0
LINE
  5
2A3
330
1E
100
AcDbEntity
  8
0
100
AcDbLine
 10
188.0
 20
476.0134499999999
 30
0.0
 11
188.4999999999999
 21
476.0134499999999
 31
0.0
  0
LINE
  5
2A4
330
1E
100
AcDbEntity
  8
0
100
AcDbLine
 10
168.3
 20
476.0134499999999
 30
0.0
 11
168.9782789685349
 21
476.0134499999999
 31
0.0
  0
LINE
  5
2A5
330
1E
100
AcDbEntity
  8
0
100
AcDbLine
 10
168.3
 20
476.0134499999999
 30
0.0
 11
171.5
 21
476.0134499999999
 31
0.0
  0
LINE
  5
2A6
330
1E
100
AcDbEntity
  8
0
100
AcDbLine
 10
226.0
 20
480.51345
 30
0.0
 11
226.0
 21
468.01345
 31
0.0
  0
LINE
  5
2A7
330
1E
100
AcDbEntity
  8
0
100
AcDbLine
 10
226.0
 20
480.51345
 30
0.0
 11
226.0
 21
481.2134499999999
 31
0.0
  0
LINE
  5
2A8
330
1E
100
AcDbEntity
  8
0
100
AcDbLine
 10
226.5
 20
468.01345
 30
0.0
 11
226.5
 21
467.5134499999999
 31
0.0
  0
LINE
  5
2A9
330
1E
100
AcDbEntity
  8
0
100
AcDbLine
 10
226.5
 20
468.01345
 30
0.0
 11
236.0
 21
468.01345
 31
0.0
  0
LINE
  5
2AA
330
1E
100
AcDbEntity
  8
0
100
AcDbLine
 10
226.5
 20
468.01345
 30
0.0
 11
226.5
 21
529.01345
 31
0.0
  0
LINE
  5
2AB
330
1E
100
AcDbEntity
  8
0
100
AcDbLine
 10
236.0
 20
468.01345
 30
0.0
 11
236.0
 21
467.5134499999999
 31
0.0
  0
LINE
  5
2AC
330
1E
100
AcDbEntity
  8
0
100
AcDbLine
 10
236.0
 20
468.01345
 30
0.0
 11
236.0
 21
529.01345
 31
0.0
  0
LINE
  5
2AD
330
1E
100
AcDbEntity
  8
0
100
AcDbLine
 10
226.0
 20
468.01345
 30
0.0
 11
226.5
 21
467.5134499999999
 31
0.0
  0
LINE
  5
2AE
330
1E
100
AcDbEntity
  8
0
100
AcDbLine
 10
226.0
 20
468.01345
 30
0.0
 11
226.0
 21
480.51345
 31
0.0
  0
LINE
  5
2AF
330
1E
100
AcDbEntity
  8
0
100
AcDbLine
 10
226.0
 20
468.01345
 30
0.0
 11
226.0
 21
529.01345
 31
0.0
  0
LINE
  5
2B0
330
1E
100
AcDbEntity
  8
0
100
AcDbLine
 10
226.0
 20
468.01345
 30
0.0
 11
226.5
 21
468.01345
 31
0.0
  0
LINE
  5
2B1
330
1E
100
AcDbEntity
  8
0
100
AcDbLine
 10
226.5
 20
467.5134499999999
 30
0.0
 11
236.0
 21
467.5134499999999
 31
0.0
  0
LINE
  5
2B2
330
1E
100
AcDbEntity
  8
0
100
AcDbLine
 10
226.5
 20
467.5134499999999
 30
0.0
 11
226.5
 21
468.01345
 31
0.0
  0
LINE
  5
2B3
330
1E
100
AcDbEntity
  8
0
100
AcDbLine
 10
236.0
 20
467.5134499999999
 30
0.0
 11
236.0
 21
468.01345
 31
0.0
  0
LINE
  5
2B4
330
1E
100
AcDbEntity
  8
0
100
AcDbLine
 10
208.0
 20
481.01345
 30
0.0
 11
208.0
 21
481.61345
 31
0.0
  0
LINE
  5
2B5
330
1E
100
AcDbEntity
  8
0
100
AcDbLine
 10
208.0
 20
481.01345
 30
0.0
 11
208.4999999999999
 21
480.51345
 31
0.0
  0
LINE
  5
2B6
330
1E
100
AcDbEntity
  8
0
100
AcDbLine
 10
188.4999999999999
 20
485.01345
 30
0.0
 11
208.0
 21
485.01345
 31
0.0
  0
LINE
  5
2B7
330
1E
100
AcDbEntity
  8
0
100
AcDbLine
 10
188.4999999999999
 20
484.5134499999999
 30
0.0
 11
208.0
 21
484.5134499999999
 31
0.0
  0
LINE
  5
2B8
330
1E
100
AcDbEntity
  8
0
100
AcDbLine
 10
165.0
 20
490.51245
 30
0.0
 11
165.4
 21
490.51245
 31
0.0
  0
LINE
  5
2B9
330
1E
100
AcDbEntity
  8
0
100
AcDbLine
 10
165.4
 20
490.51245
 30
0.0
 11
165.5
 21
490.51245
 31
0.0
  0
LINE
  5
2BA
330
1E
100
AcDbEntity
  8
0
100
AcDbLine
 10
208.0
 20
487.9094499999999
 30
0.0
 11
208.0
 21
487.5134499999999
 31
0.0
  0
LINE
  5
2BB
330
1E
100
AcDbEntity
  8
0
100
AcDbLine
 10
208.0
 20
488.9654499999999
 30
0.0
 11
208.0
 21
487.9094499999999
 31
0.0
  0
LINE
  5
2BC
330
1E
100
AcDbEntity
  8
0
100
AcDbLine
 10
188.4999999999999
 20
487.5134499999999
 30
0.0
 11
188.4999999999999
 21
476.0134499999999
 31
0.0
  0
LINE
  5
2BD
330
1E
100
AcDbEntity
  8
0
100
AcDbLine
 10
188.4999999999999
 20
487.5134499999999
 30
0.0
 11
208.0
 21
487.5134499999999
 31
0.0
  0
LINE
  5
2BE
330
1E
100
AcDbEntity
  8
0
100
AcDbLine
 10
208.0
 20
490.72545
 30
0.0
 11
208.0
 21
488.9654499999999
 31
0.0
  0
LINE
  5
2BF
330
1E
100
AcDbEntity
  8
0
100
AcDbLine
 10
208.0
 20
493.05745
 30
0.0
 11
208.0
 21
490.72545
 31
0.0
  0
LINE
  5
2C0
330
1E
100
AcDbEntity
  8
0
100
AcDbLine
 10
165.5
 20
490.51245
 30
0.0
 11
165.5
 21
476.0134499999999
 31
0.0
  0
LINE
  5
2C1
330
1E
100
AcDbEntity
  8
0
100
AcDbLine
 10
208.0
 20
487.5134499999999
 30
0.0
 11
208.0
 21
486.11345
 31
0.0
  0
LINE
  5
2C2
330
1E
100
AcDbEntity
  8
0
100
AcDbLine
 10
208.0
 20
486.11345
 30
0.0
 11
208.0
 21
483.3134499999999
 31
0.0
  0
LINE
  5
2C3
330
1E
100
AcDbEntity
  8
0
100
AcDbLine
 10
208.0
 20
486.11345
 30
0.0
 11
208.0
 21
489.81345
 31
0.0
  0
LINE
  5
2C4
330
1E
100
AcDbEntity
  8
0
100
AcDbLine
 10
208.0
 20
486.11345
 30
0.0
 11
208.0
 21
487.5134499999999
 31
0.0
  0
LINE
  5
2C5
330
1E
100
AcDbEntity
  8
0
100
AcDbLine
 10
208.0
 20
489.81345
 30
0.0
 11
208.0
 21
486.11345
 31
0.0
  0
LINE
  5
2C6
330
1E
100
AcDbEntity
  8
0
100
AcDbLine
 10
208.0
 20
489.81345
 30
0.0
 11
208.0
 21
494.01345
 31
0.0
  0
LINE
  5
2C7
330
1E
100
AcDbEntity
  8
0
100
AcDbLine
 10
208.0
 20
501.3294499999999
 30
0.0
 11
208.0
 21
498.51345
 31
0.0
  0
LINE
  5
2C8
330
1E
100
AcDbEntity
  8
0
100
AcDbLine
 10
208.0
 20
495.69745
 30
0.0
 11
208.0
 21
493.05745
 31
0.0
  0
LINE
  5
2C9
330
1E
100
AcDbEntity
  8
0
100
AcDbLine
 10
208.0
 20
494.01345
 30
0.0
 11
208.0
 21
489.81345
 31
0.0
  0
LINE
  5
2CA
330
1E
100
AcDbEntity
  8
0
100
AcDbLine
 10
208.0
 20
494.01345
 30
0.0
 11
208.0
 21
498.51345
 31
0.0
  0
LINE
  5
2CB
330
1E
100
AcDbEntity
  8
0
100
AcDbLine
 10
208.0
 20
498.51345
 30
0.0
 11
208.0
 21
503.0134499999999
 31
0.0
  0
LINE
  5
2CC
330
1E
100
AcDbEntity
  8
0
100
AcDbLine
 10
208.0
 20
498.51345
 30
0.0
 11
208.0
 21
494.01345
 31
0.0
  0
LINE
  5
2CD
330
1E
100
AcDbEntity
  8
0
100
AcDbLine
 10
208.0
 20
498.51345
 30
0.0
 11
208.0
 21
495.69745
 31
0.0
  0
LINE
  5
2CE
330
1E
100
AcDbEntity
  8
0
100
AcDbLine
 10
208.0
 20
509.11745
 30
0.0
 11
208.0
 21
508.06145
 31
0.0
  0
LINE
  5
2CF
330
1E
100
AcDbEntity
  8
0
100
AcDbLine
 10
208.0
 20
508.06145
 30
0.0
 11
208.0
 21
506.30145
 31
0.0
  0
LINE
  5
2D0
330
1E
100
AcDbEntity
  8
0
100
AcDbLine
 10
208.0
 20
506.30145
 30
0.0
 11
208.0
 21
503.96945
 31
0.0
  0
LINE
  5
2D1
330
1E
100
AcDbEntity
  8
0
100
AcDbLine
 10
208.0
 20
503.96945
 30
0.0
 11
208.0
 21
501.3294499999999
 31
0.0
  0
LINE
  5
2D2
330
1E
100
AcDbEntity
  8
0
100
AcDbLine
 10
188.4999999999999
 20
509.5134499999999
 30
0.0
 11
208.0
 21
509.5134499999999
 31
0.0
  0
LINE
  5
2D3
330
1E
100
AcDbEntity
  8
0
100
AcDbLine
 10
188.4999999999999
 20
509.50355
 30
0.0
 11
188.4999999999999
 21
521.01345
 31
0.0
  0
LINE
  5
2D4
330
1E
100
AcDbEntity
  8
0
100
AcDbLine
 10
208.0
 20
509.5134499999999
 30
0.0
 11
208.0
 21
510.91345
 31
0.0
  0
LINE
  5
2D5
330
1E
100
AcDbEntity
  8
0
100
AcDbLine
 10
208.0
 20
509.5134499999999
 30
0.0
 11
208.0
 21
509.11745
 31
0.0
  0
LINE
  5
2D6
330
1E
100
AcDbEntity
  8
0
100
AcDbLine
 10
188.4999999999999
 20
512.01345
 30
0.0
 11
208.0
 21
512.01345
 31
0.0
  0
LINE
  5
2D7
330
1E
100
AcDbEntity
  8
0
100
AcDbLine
 10
188.4999999999999
 20
512.51345
 30
0.0
 11
208.0
 21
512.51345
 31
0.0
  0
LINE
  5
2D8
330
1E
100
AcDbEntity
  8
0
100
AcDbLine
 10
208.0
 20
510.91345
 30
0.0
 11
208.0
 21
507.21345
 31
0.0
  0
LINE
  5
2D9
330
1E
100
AcDbEntity
  8
0
100
AcDbLine
 10
208.0
 20
510.91345
 30
0.0
 11
208.0
 21
513.71345
 31
0.0
  0
LINE
  5
2DA
330
1E
100
AcDbEntity
  8
0
100
AcDbLine
 10
208.0
 20
510.91345
 30
0.0
 11
208.0
 21
509.5134499999999
 31
0.0
  0
LINE
  5
2DB
330
1E
100
AcDbEntity
  8
0
100
AcDbLine
 10
208.0
 20
507.21345
 30
0.0
 11
208.0
 21
503.0134499999999
 31
0.0
  0
LINE
  5
2DC
330
1E
100
AcDbEntity
  8
0
100
AcDbLine
 10
208.0
 20
507.21345
 30
0.0
 11
208.0
 21
510.91345
 31
0.0
  0
LINE
  5
2DD
330
1E
100
AcDbEntity
  8
0
100
AcDbLine
 10
208.0
 20
503.0134499999999
 30
0.0
 11
208.0
 21
498.51345
 31
0.0
  0
LINE
  5
2DE
330
1E
100
AcDbEntity
  8
0
100
AcDbLine
 10
208.0
 20
503.0134499999999
 30
0.0
 11
208.0
 21
507.21345
 31
0.0
  0
LINE
  5
2DF
330
1E
100
AcDbEntity
  8
0
100
AcDbLine
 10
208.0
 20
512.51345
 30
0.0
 11
208.0
 21
513.71345
 31
0.0
  0
LINE
  5
2E0
330
1E
100
AcDbEntity
  8
0
100
AcDbLine
 10
163.9
 20
520.51345
 30
0.0
 11
165.0
 21
520.51345
 31
0.0
  0
LINE
  5
2E1
330
1E
100
AcDbEntity
  8
0
100
AcDbLine
 10
165.0
 20
520.51345
 30
0.0
 11
165.5
 21
520.51345
 31
0.0
  0
LINE
  5
2E2
330
1E
100
AcDbEntity
  8
0
100
AcDbLine
 10
163.4999999999999
 20
520.51345
 30
0.0
 11
165.0
 21
490.51245
 31
0.0
  0
LINE
  5
2E3
330
1E
100
AcDbEntity
  8
0
100
AcDbLine
 10
163.4999999999999
 20
520.51345
 30
0.0
 11
163.9
 21
520.51345
 31
0.0
  0
LINE
  5
2E4
330
1E
100
AcDbEntity
  8
0
100
AcDbLine
 10
165.137
 20
521.0014499999999
 30
0.0
 11
166.9729999999999
 21
521.08545
 31
0.0
  0
LINE
  5
2E5
330
1E
100
AcDbEntity
  8
0
100
AcDbLine
 10
165.137
 20
521.0014499999999
 30
0.0
 11
165.5
 21
521.0046802558401
 31
0.0
  0
LINE
  5
2E6
330
1E
100
AcDbEntity
  8
0
100
AcDbLine
 10
165.5
 20
521.01345
 30
0.0
 11
168.3
 21
521.01345
 31
0.0
  0
LINE
  5
2E7
330
1E
100
AcDbEntity
  8
0
100
AcDbLine
 10
165.5
 20
521.01345
 30
0.0
 11
165.5
 21
476.0134499999999
 31
0.0
  0
LINE
  5
2E8
330
1E
100
AcDbEntity
  8
0
100
AcDbLine
 10
165.5
 20
520.51345
 30
0.0
 11
165.5
 21
521.0046802558401
 31
0.0
  0
LINE
  5
2E9
330
1E
100
AcDbEntity
  8
0
100
AcDbLine
 10
166.485499999992
 20
521.01345
 30
0.0
 11
175.0259999999999
 21
521.0894500000001
 31
0.0
  0
LINE
  5
2EA
330
1E
100
AcDbEntity
  8
0
100
AcDbLine
 10
168.3
 20
521.01345
 30
0.0
 11
171.5
 21
521.01345
 31
0.0
  0
LINE
  5
2EB
330
1E
100
AcDbEntity
  8
0
100
AcDbLine
 10
171.5
 20
521.01345
 30
0.0
 11
175.0
 21
521.01345
 31
0.0
  0
LINE
  5
2EC
330
1E
100
AcDbEntity
  8
0
100
AcDbLine
 10
165.5
 20
521.0046802558401
 30
0.0
 11
165.5
 21
520.51345
 31
0.0
  0
LINE
  5
2ED
330
1E
100
AcDbEntity
  8
0
100
AcDbLine
 10
163.572
 20
521.04445
 30
0.0
 11
164.019
 21
521.0314499999999
 31
0.0
  0
LINE
  5
2EE
330
1E
100
AcDbEntity
  8
0
100
AcDbLine
 10
164.019
 20
521.0314499999999
 30
0.0
 11
165.137
 21
521.0014499999999
 31
0.0
  0
LINE
  5
2EF
330
1E
100
AcDbEntity
  8
0
100
AcDbLine
 10
166.3121584871669
 20
521.0552154209819
 30
0.0
 11
172.1132273605329
 21
521.0780064196979
 31
0.0
  0
LINE
  5
2F0
330
1E
100
AcDbEntity
  8
0
100
AcDbLine
 10
172.5
 20
521.01345
 30
0.0
 11
172.5
 21
521.066971690768
 31
0.0
  0
LINE
  5
2F1
330
1E
100
AcDbEntity
  8
0
100
AcDbLine
 10
173.0
 20
521.01345
 30
0.0
 11
173.0
 21
521.0714210789769
 31
0.0
  0
LINE
  5
2F2
330
1E
100
AcDbEntity
  8
0
100
AcDbLine
 10
158.436
 20
639.2484500000001
 30
0.0
 11
160.549
 21
634.7164499999999
 31
0.0
  0
LINE
  5
2F3
330
1E
100
AcDbEntity
  8
0
100
AcDbLine
 10
163.107
 20
522.04145
 30
0.0
 11
164.3159999999999
 21
522.05245
 31
0.0
  0
LINE
  5
2F4
330
1E
100
AcDbEntity
  8
0
100
AcDbLine
 10
164.3159999999999
 20
522.05245
 30
0.0
 11
166.2849999999999
 21
522.0884499999999
 31
0.0
  0
LINE
  5
2F5
330
1E
100
AcDbEntity
  8
0
100
AcDbLine
 10
162.5699999999999
 20
522.01145
 30
0.0
 11
163.572
 21
521.04445
 31
0.0
  0
LINE
  5
2F6
330
1E
100
AcDbEntity
  8
0
100
AcDbLine
 10
162.5699999999999
 20
522.01145
 30
0.0
 11
163.107
 21
522.04145
 31
0.0
  0
LINE
  5
2F7
330
1E
100
AcDbEntity
  8
0
100
AcDbLine
 10
163.016
 20
600.55845
 30
0.0
 11
164.284
 21
601.15045
 31
0.0
  0
LINE
  5
2F8
330
1E
100
AcDbEntity
  8
0
100
AcDbLine
 10
164.284
 20
601.15045
 30
0.0
 11
166.2779999999999
 21
602.08045
 31
0.0
  0
LINE
  5
2F9
330
1E
100
AcDbEntity
  8
0
100
AcDbLine
 10
162.562
 20
600.34745
 30
0.0
 11
163.016
 21
600.55845
 31
0.0
  0
LINE
  5
2FA
330
1E
100
AcDbEntity
  8
0
100
AcDbLine
 10
162.562
 20
600.34745
 30
0.0
 11
162.5699999999999
 21
522.01145
 31
0.0
  0
LINE
  5
2FB
330
1E
100
AcDbEntity
  8
0
100
AcDbLine
 10
166.9729999999999
 20
521.08545
 30
0.0
 11
169.39
 21
521.1084499999999
 31
0.0
  0
LINE
  5
2FC
330
1E
100
AcDbEntity
  8
0
100
AcDbLine
 10
169.39
 20
521.1084499999999
 30
0.0
 11
172.1629999999999
 21
521.07745
 31
0.0
  0
LINE
  5
2FD
330
1E
100
AcDbEntity
  8
0
100
AcDbLine
 10
166.2849999999999
 20
522.0884499999999
 30
0.0
 11
168.834
 21
522.06345
 31
0.0
  0
LINE
  5
2FE
330
1E
100
AcDbEntity
  8
0
100
AcDbLine
 10
168.834
 20
522.06345
 30
0.0
 11
171.9209999999999
 21
522.0684499999999
 31
0.0
  0
LINE
  5
2FF
330
1E
100
AcDbEntity
  8
0
100
AcDbLine
 10
172.1629999999999
 20
521.07745
 30
0.0
 11
175.0259999999999
 21
521.0894500000001
 31
0.0
  0
LINE
  5
300
330
1E
100
AcDbEntity
  8
0
100
AcDbLine
 10
171.9209999999999
 20
522.0684499999999
 30
0.0
 11
175.099
 21
522.1164499999999
 31
0.0
  0
LINE
  5
301
330
1E
100
AcDbEntity
  8
0
100
AcDbLine
 10
166.2779999999999
 20
602.08045
 30
0.0
 11
168.907
 21
603.3054499999999
 31
0.0
  0
LINE
  5
302
330
1E
100
AcDbEntity
  8
0
100
AcDbLine
 10
166.097000801381
 20
601.996032118999
 30
0.0
 11
166.130465417364
 21
626.3045530396389
 31
0.0
  0
LINE
  5
303
330
1E
100
AcDbEntity
  8
0
100
AcDbLine
 10
167.275
 20
602.5454499999999
 30
0.0
 11
168.7249999999999
 21
603.22145
 31
0.0
  0
LINE
  5
304
330
1E
100
AcDbEntity
  8
0
100
AcDbLine
 10
168.907
 20
603.3054499999999
 30
0.0
 11
171.897
 21
604.70045
 31
0.0
  0
LINE
  5
305
330
1E
100
AcDbEntity
  8
0
100
AcDbLine
 10
171.897
 20
604.70045
 30
0.0
 11
175.0699999999999
 21
606.1794499999999
 31
0.0
  0
LINE
  5
306
330
1E
100
AcDbEntity
  8
0
100
AcDbLine
 10
168.7249999999999
 20
603.22145
 30
0.0
 11
170.040929114009
 21
603.834490506369
 31
0.0
  0
LINE
  5
307
330
1E
100
AcDbEntity
  8
0
100
AcDbLine
 10
166.9862400733029
 20
602.410459163102
 30
0.0
 11
167.275
 21
602.5454499999999
 31
0.0
  0
LINE
  5
308
330
1E
100
AcDbEntity
  8
0
100
AcDbLine
 10
172.804
 20
605.12345
 30
0.0
 11
175.0699999999999
 21
606.1794499999999
 31
0.0
  0
LINE
  5
309
330
1E
100
AcDbEntity
  8
0
100
AcDbLine
 10
172.3851538461329
 20
604.927988461529
 30
0.0
 11
172.804
 21
605.12345
 31
0.0
  0
LINE
  5
30A
330
1E
100
AcDbEntity
  8
0
100
AcDbLine
 10
164.057
 20
627.19445
 30
0.0
 11
164.352
 21
626.5594499999999
 31
0.0
  0
LINE
  5
30B
330
1E
100
AcDbEntity
  8
0
100
AcDbLine
 10
159.4829999999999
 20
689.05745
 30
0.0
 11
163.245
 21
680.9914499999999
 31
0.0
  0
LINE
  5
30C
330
1E
100
AcDbEntity
  8
0
100
AcDbLine
 10
160.347
 20
689.57045
 30
0.0
 11
163.8549999999999
 21
682.04845
 31
0.0
  0
LINE
  5
30D
330
1E
100
AcDbEntity
  8
0
100
AcDbLine
 10
160.549
 20
634.7164499999999
 30
0.0
 11
162.1119999999999
 21
631.3634499999999
 31
0.0
  0
LINE
  5
30E
330
1E
100
AcDbEntity
  8
0
100
AcDbLine
 10
159.6799999999999
 20
638.94545
 30
0.0
 11
161.793
 21
634.4144499999999
 31
0.0
  0
LINE
  5
30F
330
1E
100
AcDbEntity
  8
0
100
AcDbLine
 10
161.793
 20
634.4144499999999
 30
0.0
 11
163.441
 21
630.87945
 31
0.0
  0
LINE
  5
310
330
1E
100
AcDbEntity
  8
0
100
AcDbLine
 10
159.45
 20
637.07345
 30
0.0
 11
160.9709999999999
 21
633.81045
 31
0.0
  0
LINE
  5
311
330
1E
100
AcDbEntity
  8
0
100
AcDbLine
 10
160.9709999999999
 20
633.81045
 30
0.0
 11
162.1119999999999
 21
631.3634499999999
 31
0.0
  0
LINE
  5
312
330
1E
100
AcDbEntity
  8
0
100
AcDbLine
 10
163.245
 20
680.9914499999999
 30
0.0
 11
166.837
 21
673.2884499999999
 31
0.0
  0
LINE
  5
313
330
1E
100
AcDbEntity
  8
0
100
AcDbLine
 10
163.8549999999999
 20
682.04845
 30
0.0
 11
167.574
 21
674.07345
 31
0.0
  0
LINE
  5
314
330
1E
100
AcDbEntity
  8
0
100
AcDbLine
 10
163.441
 20
630.87945
 30
0.0
 11
164.625
 21
628.34145
 31
0.0
  0
LINE
  5
315
330
1E
100
AcDbEntity
  8
0
100
AcDbLine
 10
162.1119999999999
 20
631.3634499999999
 30
0.0
 11
163.338
 21
628.73545
 31
0.0
  0
LINE
  5
316
330
1E
100
AcDbEntity
  8
0
100
AcDbLine
 10
163.338
 20
628.73545
 30
0.0
 11
164.057
 21
627.19445
 31
0.0
  0
LINE
  5
317
330
1E
100
AcDbEntity
  8
0
100
AcDbLine
 10
170.1759999999999
 20
666.12845
 30
0.0
 11
173.3449999999999
 21
659.33045
 31
0.0
  0
LINE
  5
318
330
1E
100
AcDbEntity
  8
0
100
AcDbLine
 10
166.837
 20
673.2884499999999
 30
0.0
 11
170.1759999999999
 21
666.12845
 31
0.0
  0
LINE
  5
319
330
1E
100
AcDbEntity
  8
0
100
AcDbLine
 10
170.8709999999999
 20
667.00345
 30
0.0
 11
173.9979999999999
 21
660.29745
 31
0.0
  0
LINE
  5
31A
330
1E
100
AcDbEntity
  8
0
100
AcDbLine
 10
167.574
 20
674.07345
 30
0.0
 11
170.8709999999999
 21
667.00345
 31
0.0
  0
LINE
  5
31B
330
1E
100
AcDbEntity
  8
0
100
AcDbLine
 10
164.625
 20
628.34145
 30
0.0
 11
165.385
 21
626.71045
 31
0.0
  0
LINE
  5
31C
330
1E
100
AcDbEntity
  8
0
100
AcDbLine
 10
165.385
 20
626.71045
 30
0.0
 11
165.6809999999999
 21
626.07645
 31
0.0
  0
LINE
  5
31D
330
1E
100
AcDbEntity
  8
0
100
AcDbLine
 10
164.352
 20
626.5594499999999
 30
0.0
 11
165.6809999999999
 21
626.07645
 31
0.0
  0
LINE
  5
31E
330
1E
100
AcDbEntity
  8
0
100
AcDbLine
 10
165.6809999999999
 20
626.07645
 30
0.0
 11
166.1740004285749
 21
626.306333823023
 31
0.0
  0
LINE
  5
31F
330
1E
100
AcDbEntity
  8
0
100
AcDbLine
 10
158.483
 20
698.30145
 30
0.0
 11
185.197
 21
636.28045
 31
0.0
  0
LINE
  5
320
330
1E
100
AcDbEntity
  8
0
100
AcDbLine
 10
172.5
 20
521.066971690768
 30
0.0
 11
172.5
 21
521.01345
 31
0.0
  0
LINE
  5
321
330
1E
100
AcDbEntity
  8
0
100
AcDbLine
 10
184.4999999999999
 20
521.01345
 30
0.0
 11
186.6999999999999
 21
521.01345
 31
0.0
  0
LINE
  5
322
330
1E
100
AcDbEntity
  8
0
100
AcDbLine
 10
186.6999999999999
 20
521.01345
 30
0.0
 11
188.0
 21
521.01345
 31
0.0
  0
LINE
  5
323
330
1E
100
AcDbEntity
  8
0
100
AcDbLine
 10
188.4999999999999
 20
521.01345
 30
0.0
 11
188.4999999999999
 21
509.50355
 31
0.0
  0
LINE
  5
324
330
1E
100
AcDbEntity
  8
0
100
AcDbLine
 10
188.0
 20
521.01345
 30
0.0
 11
188.4999999999999
 21
521.01345
 31
0.0
  0
LINE
  5
325
330
1E
100
AcDbEntity
  8
0
100
AcDbLine
 10
181.6999999999999
 20
521.01345
 30
0.0
 11
184.4999999999999
 21
521.01345
 31
0.0
  0
LINE
  5
326
330
1E
100
AcDbEntity
  8
0
100
AcDbLine
 10
178.5
 20
521.01345
 30
0.0
 11
181.6999999999999
 21
521.01345
 31
0.0
  0
LINE
  5
327
330
1E
100
AcDbEntity
  8
0
100
AcDbLine
 10
178.0229999999999
 20
521.05145
 30
0.0
 11
180.7959999999999
 21
521.0204499999999
 31
0.0
  0
LINE
  5
328
330
1E
100
AcDbEntity
  8
0
100
AcDbLine
 10
175.099
 20
522.1164499999999
 30
0.0
 11
178.319
 21
522.07245
 31
0.0
  0
LINE
  5
329
330
1E
100
AcDbEntity
  8
0
100
AcDbLine
 10
178.319
 20
522.07245
 30
0.0
 11
181.315
 21
522.03545
 31
0.0
  0
LINE
  5
32A
330
1E
100
AcDbEntity
  8
0
100
AcDbLine
 10
175.0699999999999
 20
606.1794499999999
 30
0.0
 11
178.3319999999999
 21
607.70145
 31
0.0
  0
LINE
  5
32B
330
1E
100
AcDbEntity
  8
0
100
AcDbLine
 10
178.3319999999999
 20
607.70145
 30
0.0
 11
181.3229999999999
 21
609.09545
 31
0.0
  0
LINE
  5
32C
330
1E
100
AcDbEntity
  8
0
100
AcDbLine
 10
175.0259999999999
 20
521.0894500000001
 30
0.0
 11
178.0229999999999
 21
521.05145
 31
0.0
  0
LINE
  5
32D
330
1E
100
AcDbEntity
  8
0
100
AcDbLine
 10
180.7959999999999
 20
521.0204499999999
 30
0.0
 11
183.212
 21
521.04445
 31
0.0
  0
LINE
  5
32E
330
1E
100
AcDbEntity
  8
0
100
AcDbLine
 10
183.212
 20
521.04445
 30
0.0
 11
185.0909999999999
 21
521.03745
 31
0.0
  0
LINE
  5
32F
330
1E
100
AcDbEntity
  8
0
100
AcDbLine
 10
181.315
 20
522.03545
 30
0.0
 11
183.9559999999999
 21
522.05345
 31
0.0
  0
LINE
  5
330
330
1E
100
AcDbEntity
  8
0
100
AcDbLine
 10
183.9559999999999
 20
522.05345
 30
0.0
 11
185.925
 21
522.0884499999999
 31
0.0
  0
LINE
  5
331
330
1E
100
AcDbEntity
  8
0
100
AcDbLine
 10
180.373181788456
 20
608.652773107024
 30
0.0
 11
181.3229999999999
 21
609.09545
 31
0.0
  0
LINE
  5
332
330
1E
100
AcDbEntity
  8
0
100
AcDbLine
 10
180.373181788456
 20
608.652773107024
 30
0.0
 11
181.414
 21
609.13845
 31
0.0
  0
LINE
  5
333
330
1E
100
AcDbEntity
  8
0
100
AcDbLine
 10
181.414
 20
609.13845
 30
0.0
 11
182.864
 21
609.81445
 31
0.0
  0
LINE
  5
334
330
1E
100
AcDbEntity
  8
0
100
AcDbLine
 10
183.9509999999999
 20
610.3214499999999
 30
0.0
 11
185.945
 21
611.2514499999999
 31
0.0
  0
LINE
  5
335
330
1E
100
AcDbEntity
  8
0
100
AcDbLine
 10
182.864
 20
609.81445
 30
0.0
 11
183.002503448162
 21
609.878962643625
 31
0.0
  0
LINE
  5
336
330
1E
100
AcDbEntity
  8
0
100
AcDbLine
 10
181.3229999999999
 20
609.09545
 30
0.0
 11
183.002503448162
 21
609.878962643625
 31
0.0
  0
LINE
  5
337
330
1E
100
AcDbEntity
  8
0
100
AcDbLine
 10
181.3229999999999
 20
609.09545
 30
0.0
 11
183.9509999999999
 21
610.3214499999999
 31
0.0
  0
LINE
  5
338
330
1E
100
AcDbEntity
  8
0
100
AcDbLine
 10
184.1330012186519
 20
610.4063352223399
 30
0.0
 11
184.166440048628
 21
634.696125323469
 31
0.0
  0
LINE
  5
339
330
1E
100
AcDbEntity
  8
0
100
AcDbLine
 10
182.474
 20
639.75445
 30
0.0
 11
183.657
 21
637.21645
 31
0.0
  0
LINE
  5
33A
330
1E
100
AcDbEntity
  8
0
100
AcDbLine
 10
183.657
 20
637.21645
 30
0.0
 11
184.418
 21
635.58545
 31
0.0
  0
LINE
  5
33B
330
1E
100
AcDbEntity
  8
0
100
AcDbLine
 10
178.7129999999999
 20
647.82045
 30
0.0
 11
180.8259999999999
 21
643.2894499999999
 31
0.0
  0
LINE
  5
33C
330
1E
100
AcDbEntity
  8
0
100
AcDbLine
 10
180.8259999999999
 20
643.2894499999999
 30
0.0
 11
182.474
 21
639.75445
 31
0.0
  0
LINE
  5
33D
330
1E
100
AcDbEntity
  8
0
100
AcDbLine
 10
173.3449999999999
 20
659.33045
 30
0.0
 11
176.219
 21
653.16745
 31
0.0
  0
LINE
  5
33E
330
1E
100
AcDbEntity
  8
0
100
AcDbLine
 10
173.9979999999999
 20
660.29745
 30
0.0
 11
176.83
 21
654.22445
 31
0.0
  0
LINE
  5
33F
330
1E
100
AcDbEntity
  8
0
100
AcDbLine
 10
176.219
 20
653.16745
 30
0.0
 11
178.7129999999999
 21
647.82045
 31
0.0
  0
LINE
  5
340
330
1E
100
AcDbEntity
  8
0
100
AcDbLine
 10
176.83
 20
654.22445
 30
0.0
 11
179.2809999999999
 21
648.96845
 31
0.0
  0
LINE
  5
341
330
1E
100
AcDbEntity
  8
0
100
AcDbLine
 10
179.2809999999999
 20
648.96845
 30
0.0
 11
181.394
 21
644.43645
 31
0.0
  0
LINE
  5
342
330
1E
100
AcDbEntity
  8
0
100
AcDbLine
 10
181.394
 20
644.43645
 30
0.0
 11
182.9579999999999
 21
641.0834499999999
 31
0.0
  0
LINE
  5
343
330
1E
100
AcDbEntity
  8
0
100
AcDbLine
 10
182.9579999999999
 20
641.0834499999999
 30
0.0
 11
184.1829999999999
 21
638.45545
 31
0.0
  0
LINE
  5
344
330
1E
100
AcDbEntity
  8
0
100
AcDbLine
 10
184.418
 20
635.58545
 30
0.0
 11
184.714
 21
634.95145
 31
0.0
  0
LINE
  5
345
330
1E
100
AcDbEntity
  8
0
100
AcDbLine
 10
184.1829999999999
 20
638.45545
 30
0.0
 11
184.902
 21
636.9144499999999
 31
0.0
  0
LINE
  5
346
330
1E
100
AcDbEntity
  8
0
100
AcDbLine
 10
184.166440048628
 20
634.696125323469
 30
0.0
 11
184.714
 21
634.95145
 31
0.0
  0
LINE
  5
347
330
1E
100
AcDbEntity
  8
0
100
AcDbLine
 10
185.0909999999999
 20
521.03745
 30
0.0
 11
186.166
 21
521.0974499999999
 31
0.0
  0
LINE
  5
348
330
1E
100
AcDbEntity
  8
0
100
AcDbLine
 10
185.925
 20
522.0884499999999
 30
0.0
 11
187.133
 21
522.10045
 31
0.0
  0
LINE
  5
349
330
1E
100
AcDbEntity
  8
0
100
AcDbLine
 10
185.945
 20
611.2514499999999
 30
0.0
 11
187.1229999999999
 21
611.8004499999999
 31
0.0
  0
LINE
  5
34A
330
1E
100
AcDbEntity
  8
0
100
AcDbLine
 10
185.9550693618469
 20
521.0856771271729
 30
0.0
 11
186.613
 21
521.08545
 31
0.0
  0
LINE
  5
34B
330
1E
100
AcDbEntity
  8
0
100
AcDbLine
 10
187.133
 20
522.10045
 30
0.0
 11
187.58
 21
522.0884499999999
 31
0.0
  0
LINE
  5
34C
330
1E
100
AcDbEntity
  8
0
100
AcDbLine
 10
187.1229999999999
 20
611.8004499999999
 30
0.0
 11
187.5769999999999
 21
612.0114499999999
 31
0.0
  0
LINE
  5
34D
330
1E
100
AcDbEntity
  8
0
100
AcDbLine
 10
186.166
 20
521.0974499999999
 30
0.0
 11
186.613
 21
521.08545
 31
0.0
  0
LINE
  5
34E
330
1E
100
AcDbEntity
  8
0
100
AcDbLine
 10
186.613
 20
521.08545
 30
0.0
 11
187.58
 21
522.0884499999999
 31
0.0
  0
LINE
  5
34F
330
1E
100
AcDbEntity
  8
0
100
AcDbLine
 10
187.5769999999999
 20
612.0114499999999
 30
0.0
 11
187.58
 21
522.0884499999999
 31
0.0
  0
LINE
  5
350
330
1E
100
AcDbEntity
  8
0
100
AcDbLine
 10
184.902
 20
636.9144499999999
 30
0.0
 11
185.197
 21
636.28045
 31
0.0
  0
LINE
  5
351
330
1E
100
AcDbEntity
  8
0
100
AcDbLine
 10
184.714
 20
634.95145
 30
0.0
 11
185.197
 21
636.28045
 31
0.0
  0
LINE
  5
352
330
1E
100
AcDbEntity
  8
0
100
AcDbLine
 10
175.0
 20
521.01345
 30
0.0
 11
178.5
 21
521.01345
 31
0.0
  0
LINE
  5
353
330
1E
100
AcDbEntity
  8
0
100
AcDbLine
 10
173.0
 20
521.0714210789769
 30
0.0
 11
173.0
 21
521.01345
 31
0.0
  0
LINE
  5
354
330
1E
100
AcDbEntity
  8
0
100
AcDbLine
 10
208.0
 20
516.01345
 30
0.0
 11
208.0
 21
515.41345
 31
0.0
  0
LINE
  5
355
330
1E
100
AcDbEntity
  8
0
100
AcDbLine
 10
208.0
 20
516.01345
 30
0.0
 11
208.4999999999999
 21
516.51345
 31
0.0
  0
LINE
  5
356
330
1E
100
AcDbEntity
  8
0
100
AcDbLine
 10
208.0
 20
515.41345
 30
0.0
 11
208.0
 21
513.71345
 31
0.0
  0
LINE
  5
357
330
1E
100
AcDbEntity
  8
0
100
AcDbLine
 10
208.0
 20
515.41345
 30
0.0
 11
208.0
 21
516.01345
 31
0.0
  0
LINE
  5
358
330
1E
100
AcDbEntity
  8
0
100
AcDbLine
 10
208.0
 20
513.71345
 30
0.0
 11
208.0
 21
512.51345
 31
0.0
  0
LINE
  5
359
330
1E
100
AcDbEntity
  8
0
100
AcDbLine
 10
208.0
 20
513.71345
 30
0.0
 11
208.0
 21
515.41345
 31
0.0
  0
LINE
  5
35A
330
1E
100
AcDbEntity
  8
0
100
AcDbLine
 10
208.0
 20
513.71345
 30
0.0
 11
208.0
 21
510.91345
 31
0.0
  0
LINE
  5
35B
330
1E
100
AcDbEntity
  8
0
100
AcDbLine
 10
208.0
 20
484.5134499999999
 30
0.0
 11
208.0
 21
483.3134499999999
 31
0.0
  0
LINE
  5
35C
330
1E
100
AcDbEntity
  8
0
100
AcDbLine
 10
208.0
 20
481.61345
 30
0.0
 11
208.0
 21
483.3134499999999
 31
0.0
  0
LINE
  5
35D
330
1E
100
AcDbEntity
  8
0
100
AcDbLine
 10
208.0
 20
481.61345
 30
0.0
 11
208.0
 21
481.01345
 31
0.0
  0
LINE
  5
35E
330
1E
100
AcDbEntity
  8
0
100
AcDbLine
 10
208.4999999999999
 20
481.2134499999999
 30
0.0
 11
208.4999999999999
 21
480.51345
 31
0.0
  0
LINE
  5
35F
330
1E
100
AcDbEntity
  8
0
100
AcDbLine
 10
208.4999999999999
 20
481.2134499999999
 30
0.0
 11
208.4999999999999
 21
482.91345
 31
0.0
  0
LINE
  5
360
330
1E
100
AcDbEntity
  8
0
100
AcDbLine
 10
208.4999999999999
 20
482.91345
 30
0.0
 11
208.4999999999999
 21
481.2134499999999
 31
0.0
  0
LINE
  5
361
330
1E
100
AcDbEntity
  8
0
100
AcDbLine
 10
208.4999999999999
 20
482.91345
 30
0.0
 11
208.4999999999999
 21
485.81345
 31
0.0
  0
LINE
  5
362
330
1E
100
AcDbEntity
  8
0
100
AcDbLine
 10
208.4999999999999
 20
485.81345
 30
0.0
 11
208.4999999999999
 21
482.91345
 31
0.0
  0
LINE
  5
363
330
1E
100
AcDbEntity
  8
0
100
AcDbLine
 10
208.4999999999999
 20
485.81345
 30
0.0
 11
208.4999999999999
 21
489.61345
 31
0.0
  0
LINE
  5
364
330
1E
100
AcDbEntity
  8
0
100
AcDbLine
 10
208.4999999999999
 20
489.61345
 30
0.0
 11
208.4999999999999
 21
485.81345
 31
0.0
  0
LINE
  5
365
330
1E
100
AcDbEntity
  8
0
100
AcDbLine
 10
208.4999999999999
 20
489.61345
 30
0.0
 11
208.4999999999999
 21
493.91345
 31
0.0
  0
LINE
  5
366
330
1E
100
AcDbEntity
  8
0
100
AcDbLine
 10
208.4999999999999
 20
493.91345
 30
0.0
 11
208.4999999999999
 21
489.61345
 31
0.0
  0
LINE
  5
367
330
1E
100
AcDbEntity
  8
0
100
AcDbLine
 10
208.4999999999999
 20
493.91345
 30
0.0
 11
208.4999999999999
 21
498.51345
 31
0.0
  0
LINE
  5
368
330
1E
100
AcDbEntity
  8
0
100
AcDbLine
 10
208.4999999999999
 20
498.51345
 30
0.0
 11
208.4999999999999
 21
503.11345
 31
0.0
  0
LINE
  5
369
330
1E
100
AcDbEntity
  8
0
100
AcDbLine
 10
208.4999999999999
 20
498.51345
 30
0.0
 11
208.4999999999999
 21
493.91345
 31
0.0
  0
LINE
  5
36A
330
1E
100
AcDbEntity
  8
0
100
AcDbLine
 10
208.4999999999999
 20
516.51345
 30
0.0
 11
208.4999999999999
 21
515.81345
 31
0.0
  0
LINE
  5
36B
330
1E
100
AcDbEntity
  8
0
100
AcDbLine
 10
208.4999999999999
 20
516.51345
 30
0.0
 11
226.0
 21
516.51345
 31
0.0
  0
LINE
  5
36C
330
1E
100
AcDbEntity
  8
0
100
AcDbLine
 10
208.4999999999999
 20
515.81345
 30
0.0
 11
208.4999999999999
 21
514.1134499999999
 31
0.0
  0
LINE
  5
36D
330
1E
100
AcDbEntity
  8
0
100
AcDbLine
 10
208.4999999999999
 20
515.81345
 30
0.0
 11
208.4999999999999
 21
516.51345
 31
0.0
  0
LINE
  5
36E
330
1E
100
AcDbEntity
  8
0
100
AcDbLine
 10
208.4999999999999
 20
514.1134499999999
 30
0.0
 11
208.4999999999999
 21
511.21345
 31
0.0
  0
LINE
  5
36F
330
1E
100
AcDbEntity
  8
0
100
AcDbLine
 10
208.4999999999999
 20
514.1134499999999
 30
0.0
 11
208.4999999999999
 21
515.81345
 31
0.0
  0
LINE
  5
370
330
1E
100
AcDbEntity
  8
0
100
AcDbLine
 10
208.4999999999999
 20
511.21345
 30
0.0
 11
208.4999999999999
 21
507.41345
 31
0.0
  0
LINE
  5
371
330
1E
100
AcDbEntity
  8
0
100
AcDbLine
 10
208.4999999999999
 20
511.21345
 30
0.0
 11
208.4999999999999
 21
514.1134499999999
 31
0.0
  0
LINE
  5
372
330
1E
100
AcDbEntity
  8
0
100
AcDbLine
 10
208.4999999999999
 20
507.41345
 30
0.0
 11
208.4999999999999
 21
503.11345
 31
0.0
  0
LINE
  5
373
330
1E
100
AcDbEntity
  8
0
100
AcDbLine
 10
208.4999999999999
 20
507.41345
 30
0.0
 11
208.4999999999999
 21
511.21345
 31
0.0
  0
LINE
  5
374
330
1E
100
AcDbEntity
  8
0
100
AcDbLine
 10
226.0
 20
481.2134499999999
 30
0.0
 11
226.0
 21
480.51345
 31
0.0
  0
LINE
  5
375
330
1E
100
AcDbEntity
  8
0
100
AcDbLine
 10
226.0
 20
481.2134499999999
 30
0.0
 11
226.0
 21
482.91345
 31
0.0
  0
LINE
  5
376
330
1E
100
AcDbEntity
  8
0
100
AcDbLine
 10
226.0
 20
482.91345
 30
0.0
 11
226.0
 21
481.2134499999999
 31
0.0
  0
LINE
  5
377
330
1E
100
AcDbEntity
  8
0
100
AcDbLine
 10
226.0
 20
482.91345
 30
0.0
 11
226.0
 21
485.81345
 31
0.0
  0
LINE
  5
378
330
1E
100
AcDbEntity
  8
0
100
AcDbLine
 10
226.0
 20
485.81345
 30
0.0
 11
226.0
 21
482.91345
 31
0.0
  0
LINE
  5
379
330
1E
100
AcDbEntity
  8
0
100
AcDbLine
 10
226.0
 20
485.81345
 30
0.0
 11
226.0
 21
489.61345
 31
0.0
  0
LINE
  5
37A
330
1E
100
AcDbEntity
  8
0
100
AcDbLine
 10
226.0
 20
489.61345
 30
0.0
 11
226.0
 21
485.81345
 31
0.0
  0
LINE
  5
37B
330
1E
100
AcDbEntity
  8
0
100
AcDbLine
 10
226.0
 20
489.61345
 30
0.0
 11
226.0
 21
493.91345
 31
0.0
  0
LINE
  5
37C
330
1E
100
AcDbEntity
  8
0
100
AcDbLine
 10
226.0
 20
493.91345
 30
0.0
 11
226.0
 21
489.61345
 31
0.0
  0
LINE
  5
37D
330
1E
100
AcDbEntity
  8
0
100
AcDbLine
 10
226.0
 20
493.91345
 30
0.0
 11
226.0
 21
498.51345
 31
0.0
  0
LINE
  5
37E
330
1E
100
AcDbEntity
  8
0
100
AcDbLine
 10
226.0
 20
515.81345
 30
0.0
 11
226.0
 21
516.51345
 31
0.0
  0
LINE
  5
37F
330
1E
100
AcDbEntity
  8
0
100
AcDbLine
 10
226.0
 20
515.81345
 30
0.0
 11
226.0
 21
514.1134499999999
 31
0.0
  0
LINE
  5
380
330
1E
100
AcDbEntity
  8
0
100
AcDbLine
 10
226.0
 20
514.1134499999999
 30
0.0
 11
226.0
 21
515.81345
 31
0.0
  0
LINE
  5
381
330
1E
100
AcDbEntity
  8
0
100
AcDbLine
 10
226.0
 20
514.1134499999999
 30
0.0
 11
226.0
 21
511.21345
 31
0.0
  0
LINE
  5
382
330
1E
100
AcDbEntity
  8
0
100
AcDbLine
 10
226.0
 20
511.21345
 30
0.0
 11
226.0
 21
514.1134499999999
 31
0.0
  0
LINE
  5
383
330
1E
100
AcDbEntity
  8
0
100
AcDbLine
 10
226.0
 20
511.21345
 30
0.0
 11
226.0
 21
507.41345
 31
0.0
  0
LINE
  5
384
330
1E
100
AcDbEntity
  8
0
100
AcDbLine
 10
226.0
 20
507.41345
 30
0.0
 11
226.0
 21
511.21345
 31
0.0
  0
LINE
  5
385
330
1E
100
AcDbEntity
  8
0
100
AcDbLine
 10
226.0
 20
507.41345
 30
0.0
 11
226.0
 21
503.11345
 31
0.0
  0
LINE
  5
386
330
1E
100
AcDbEntity
  8
0
100
AcDbLine
 10
226.0
 20
503.11345
 30
0.0
 11
226.0
 21
507.41345
 31
0.0
  0
LINE
  5
387
330
1E
100
AcDbEntity
  8
0
100
AcDbLine
 10
226.0
 20
503.11345
 30
0.0
 11
226.0
 21
498.51345
 31
0.0
  0
LINE
  5
388
330
1E
100
AcDbEntity
  8
0
100
AcDbLine
 10
226.0
 20
498.51345
 30
0.0
 11
226.0
 21
503.11345
 31
0.0
  0
LINE
  5
389
330
1E
100
AcDbEntity
  8
0
100
AcDbLine
 10
226.0
 20
498.51345
 30
0.0
 11
226.0
 21
493.91345
 31
0.0
  0
LINE
  5
38A
330
1E
100
AcDbEntity
  8
0
100
AcDbLine
 10
208.4999999999999
 20
503.11345
 30
0.0
 11
208.4999999999999
 21
498.51345
 31
0.0
  0
LINE
  5
38B
330
1E
100
AcDbEntity
  8
0
100
AcDbLine
 10
208.4999999999999
 20
503.11345
 30
0.0
 11
208.4999999999999
 21
507.41345
 31
0.0
  0
LINE
  5
38C
330
1E
100
AcDbEntity
  8
0
100
AcDbLine
 10
226.0
 20
529.01345
 30
0.0
 11
226.0
 21
516.51345
 31
0.0
  0
LINE
  5
38D
330
1E
100
AcDbEntity
  8
0
100
AcDbLine
 10
226.0
 20
529.01345
 30
0.0
 11
226.0
 21
468.01345
 31
0.0
  0
LINE
  5
38E
330
1E
100
AcDbEntity
  8
0
100
AcDbLine
 10
226.0
 20
529.01345
 30
0.0
 11
226.5
 21
529.01345
 31
0.0
  0
LINE
  5
38F
330
1E
100
AcDbEntity
  8
0
100
AcDbLine
 10
226.0
 20
529.01345
 30
0.0
 11
226.5
 21
529.51345
 31
0.0
  0
LINE
  5
390
330
1E
100
AcDbEntity
  8
0
100
AcDbLine
 10
226.5
 20
529.01345
 30
0.0
 11
226.5
 21
468.01345
 31
0.0
  0
LINE
  5
391
330
1E
100
AcDbEntity
  8
0
100
AcDbLine
 10
226.5
 20
529.01345
 30
0.0
 11
236.0
 21
529.01345
 31
0.0
  0
LINE
  5
392
330
1E
100
AcDbEntity
  8
0
100
AcDbLine
 10
226.5
 20
529.01345
 30
0.0
 11
226.5
 21
529.51345
 31
0.0
  0
LINE
  5
393
330
1E
100
AcDbEntity
  8
0
100
AcDbLine
 10
236.0
 20
529.51345
 30
0.0
 11
236.0
 21
529.01345
 31
0.0
  0
LINE
  5
394
330
1E
100
AcDbEntity
  8
0
100
AcDbLine
 10
236.0
 20
529.01345
 30
0.0
 11
236.0
 21
468.01345
 31
0.0
  0
LINE
  5
395
330
1E
100
AcDbEntity
  8
0
100
AcDbLine
 10
236.0
 20
529.01345
 30
0.0
 11
236.0
 21
529.51345
 31
0.0
  0
LINE
  5
396
330
1E
100
AcDbEntity
  8
0
100
AcDbLine
 10
226.0
 20
516.51345
 30
0.0
 11
226.0
 21
529.01345
 31
0.0
  0
LINE
  5
397
330
1E
100
AcDbEntity
  8
0
100
AcDbLine
 10
226.0
 20
516.51345
 30
0.0
 11
226.0
 21
515.81345
 31
0.0
  0
LINE
  5
398
330
1E
100
AcDbEntity
  8
0
100
AcDbLine
 10
226.5
 20
529.51345
 30
0.0
 11
226.5
 21
529.01345
 31
0.0
  0
LINE
  5
399
330
1E
100
AcDbEntity
  8
0
100
AcDbLine
 10
226.5
 20
529.51345
 30
0.0
 11
236.0
 21
529.51345
 31
0.0
  0
LINE
  5
39A
330
1E
100
AcDbEntity
  8
0
100
AcDbLine
 10
208.0
 20
483.3134499999999
 30
0.0
 11
208.0
 21
484.5134499999999
 31
0.0
  0
LINE
  5
39B
330
1E
100
AcDbEntity
  8
0
100
AcDbLine
 10
208.0
 20
483.3134499999999
 30
0.0
 11
208.0
 21
481.61345
 31
0.0
  0
LINE
  5
39C
330
1E
100
AcDbEntity
  8
0
100
AcDbLine
 10
208.0
 20
483.3134499999999
 30
0.0
 11
208.0
 21
486.11345
 31
0.0
  0
LINE
  5
39D
330
1E
100
AcDbEntity
  8
0
100
AcDbLine
 10
208.4999999999999
 20
480.51345
 30
0.0
 11
226.0
 21
480.51345
 31
0.0
  0
LINE
  5
39E
330
1E
100
AcDbEntity
  8
0
100
AcDbLine
 10
208.4999999999999
 20
480.51345
 30
0.0
 11
208.4999999999999
 21
481.2134499999999
 31
0.0
  0
LINE
  5
39F
330
1E
100
AcDbEntity
  8
0
100
AcDbLine
 10
157.5
 20
463.5134499999999
 30
0.0
 11
168.937325912701
 21
463.5134499999999
 31
0.0
  0
LINE
  5
3A0
330
1E
100
AcDbEntity
  8
0
100
AcDbLine
 10
157.5
 20
463.5134499999999
 30
0.0
 11
157.5
 21
494.11345
 31
0.0
  0
ENDSEC
  0
SECTION
  2
OBJECTS
  0
DICTIONARY
  5
C
330
0
100
AcDbDictionary
  3
ACAD_GROUP
350
D
  3
ACAD_LAYOUT
350
19
  3
ACAD_MLINESTYLE
350
16
  3
ACAD_PLOTSETTINGS
350
18
  3
ACAD_PLOTSTYLENAME
350
E
  3
ACDBHEADERROUNDTRIPXREC
350
3A8
  3
ACDBVARIABLEDICTIONARY
350
3A5
  0
DICTIONARY
  5
3CA
330
1E
100
AcDbDictionary
280
     1
  3
ACAD_LAYOUTSELFREF
360
3CB
  0
DICTIONARY
  5
3C8
330
1A
100
AcDbDictionary
280
     1
  3
ACAD_LAYOUTSELFREF
360
3C9
  0
DICTIONARY
  5
D
102
{ACAD_REACTORS
330
C
102
}
330
C
100
AcDbDictionary
  0
DICTIONARY
  5
19
102
{ACAD_REACTORS
330
C
102
}
330
C
100
AcDbDictionary
  0
DICTIONARY
  5
16
102
{ACAD_REACTORS
330
C
102
}
330
C
100
AcDbDictionary
  3
STANDARD
350
17
  0
DICTIONARY
  5
18
102
{ACAD_REACTORS
330
C
102
}
330
C
100
AcDbDictionary
  0
ACDBDICTIONARYWDFLT
  5
E
102
{ACAD_REACTORS
330
C
102
}
330
C
100
AcDbDictionary
281
     1
  3
Normal
350
F
100
AcDbDictionaryWithDefault
340
F
  0
DICTIONARY
  5
3A8
102
{ACAD_REACTORS
330
C
102
}
330
C
100
AcDbDictionary
  3
CEPSNTYPE
350
3B2
  3
FINGERPRINTGUID
350
3B3
  3
HYPERLINKBASE
350
3AB
  3
INSUNITS
350
3B1
  3
LAYOUTDICT
350
3AD
  3
LWETCUNION
350
3B0
  3
PLOTSETDICT
350
3AE
  3
PLOTSTYLNAMDICT
350
3AF
  3
PSVPSCALE
350
3B5
  3
PUCSBASE
350
3B8
  3
PUCSORGBACK
350
3BE
  3
PUCSORGBOTTOM
350
3BA
  3
PUCSORGFRONT
350
3BD
  3
PUCSORGLEFT
350
3BB
  3
PUCSORGRIGHT
350
3BC
  3
PUCSORGTOP
350
3B9
  3
PUCSORTHOREF
350
3B6
  3
PUCSORTHOVIEW
350
3B7
  3
STYLESHEET
350
3AC
  3
TSTACKALIGN
350
3A9
  3
TSTACKSIZE
350
3AA
  3
UCSBASE
350
3C1
  3
UCSORGBACK
350
3C7
  3
UCSORGBOTTOM
350
3C3
  3
UCSORGFRONT
350
3C6
  3
UCSORGLEFT
350
3C4
  3
UCSORGRIGHT
350
3C5
  3
UCSORGTOP
350
3C2
  3
UCSORTHOREF
350
3BF
  3
UCSORTHOVIEW
350
3C0
  3
VERSIONGUID
350
3B4
  0
DICTIONARY
  5
3A5
102
{ACAD_REACTORS
330
C
102
}
330
C
100
AcDbDictionary
  3
DIMASSOC
350
3A6
  0
XRECORD
  5
3CB
102
{ACAD_REACTORS
330
3CA
102
}
330
3CA
100
AcDbXrecord
340
1E
  0
XRECORD
  5
3C9
102
{ACAD_REACTORS
330
3C8
102
}
330
3C8
100
AcDbXrecord
340
1A
  0
MLINESTYLE
  5
17
102
{ACAD_REACTORS
330
16
102
}
330
16
100
AcDbMlineStyle
  2
STANDARD
 70
     0
  3

 62
   256
 51
90.0
 52
90.0
 71
     2
 49
0.5
 62
   256
  6
BYLAYER
 49
-0.5
 62
   256
  6
BYLAYER
  0
ACDBPLACEHOLDER
  5
F
102
{ACAD_REACTORS
330
E
102
}
330
E
100
AcDbPlaceHolder
280
     0
  0
XRECORD
  5
3B2
102
{ACAD_REACTORS
330
3A8
102
}
330
3A8
100
AcDbXrecord
 90
        0
  0
XRECORD
  5
3B3
102
{ACAD_REACTORS
330
3A8
102
}
330
3A8
100
AcDbXrecord
  1
{EFEC3849-4A77-4A0E-8547-BFD989339045}
  0
XRECORD
  5
3AB
102
{ACAD_REACTORS
330
3A8
102
}
330
3A8
100
AcDbXrecord
  1

  0
XRECORD
  5
3B1
102
{ACAD_REACTORS
330
3A8
102
}
330
3A8
100
AcDbXrecord
 90
        0
  0
XRECORD
  5
3AD
102
{ACAD_REACTORS
330
3A8
102
}
330
3A8
100
AcDbXrecord
340
19
  0
XRECORD
  5
3B0
102
{ACAD_REACTORS
330
3A8
102
}
330
3A8
100
AcDbXrecord
 90
    10781
  0
XRECORD
  5
3AE
102
{ACAD_REACTORS
330
3A8
102
}
330
3A8
100
AcDbXrecord
340
18
  0
XRECORD
  5
3AF
102
{ACAD_REACTORS
330
3A8
102
}
330
3A8
100
AcDbXrecord
340
E
  0
XRECORD
  5
3B5
102
{ACAD_REACTORS
330
3A8
102
}
330
3A8
100
AcDbXrecord
 40
0.0
  0
XRECORD
  5
3B8
102
{ACAD_REACTORS
330
3A8
102
}
330
3A8
100
AcDbXrecord
340
0
  0
XRECORD
  5
3BE
102
{ACAD_REACTORS
330
3A8
102
}
330
3A8
100
AcDbXrecord
 10
0.0
 20
0.0
 30
0.0
  0
XRECORD
  5
3BA
102
{ACAD_REACTORS
330
3A8
102
}
330
3A8
100
AcDbXrecord
 10
0.0
 20
0.0
 30
0.0
  0
XRECORD
  5
3BD
102
{ACAD_REACTORS
330
3A8
102
}
330
3A8
100
AcDbXrecord
 10
0.0
 20
0.0
 30
0.0
  0
XRECORD
  5
3BB
102
{ACAD_REACTORS
330
3A8
102
}
330
3A8
100
AcDbXrecord
 10
0.0
 20
0.0
 30
0.0
  0
XRECORD
  5
3BC
102
{ACAD_REACTORS
330
3A8
102
}
330
3A8
100
AcDbXrecord
 10
0.0
 20
0.0
 30
0.0
  0
XRECORD
  5
3B9
102
{ACAD_REACTORS
330
3A8
102
}
330
3A8
100
AcDbXrecord
 10
0.0
 20
0.0
 30
0.0
  0
XRECORD
  5
3B6
102
{ACAD_REACTORS
330
3A8
102
}
330
3A8
100
AcDbXrecord
340
0
  0
XRECORD
  5
3B7
102
{ACAD_REACTORS
330
3A8
102
}
330
3A8
100
AcDbXrecord
 70
     0
  0
XRECORD
  5
3AC
102
{ACAD_REACTORS
330
3A8
102
}
330
3A8
100
AcDbXrecord
  1

  0
XRECORD
  5
3A9
102
{ACAD_REACTORS
330
3A8
102
}
330
3A8
100
AcDbXrecord
 90
        1
  0
XRECORD
  5
3AA
102
{ACAD_REACTORS
330
3A8
102
}
330
3A8
100
AcDbXrecord
 90
       70
  0
XRECORD
  5
3C1
102
{ACAD_REACTORS
330
3A8
102
}
330
3A8
100
AcDbXrecord
340
0
  0
XRECORD
  5
3C7
102
{ACAD_REACTORS
330
3A8
102
}
330
3A8
100
AcDbXrecord
 10
0.0
 20
0.0
 30
0.0
  0
XRECORD
  5
3C3
102
{ACAD_REACTORS
330
3A8
102
}
330
3A8
100
AcDbXrecord
 10
0.0
 20
0.0
 30
0.0
  0
XRECORD
  5
3C6
102
{ACAD_REACTORS
330
3A8
102
}
330
3A8
100
AcDbXrecord
 10
0.0
 20
0.0
 30
0.0
  0
XRECORD
  5
3C4
102
{ACAD_REACTORS
330
3A8
102
}
330
3A8
100
AcDbXrecord
 10
0.0
 20
0.0
 30
0.0
  0
XRECORD
  5
3C5
102
{ACAD_REACTORS
330
3A8
102
}
330
3A8
100
AcDbXrecord
 10
0.0
 20
0.0
 30
0.0
  0
XRECORD
  5
3C2
102
{ACAD_REACTORS
330
3A8
102
}
330
3A8
100
AcDbXrecord
 10
0.0
 20
0.0
 30
0.0
  0
XRECORD
  5
3BF
102
{ACAD_REACTORS
330
3A8
102
}
330
3A8
100
AcDbXrecord
340
0
  0
XRECORD
  5
3C0
102
{ACAD_REACTORS
330
3A8
102
}
330
3A8
100
AcDbXrecord
 70
     1
  0
XRECORD
  5
3B4
102
{ACAD_REACTORS
330
3A8
102
}
330
3A8
100
AcDbXrecord
  1
{106AD69B-9E8E-43AD-B27A-D1197508DA2C}
  0
DICTIONARYVAR
  5
3A6
102
{ACAD_REACTORS
330
3A5
102
}
330
3A5
100
DictionaryVariables
280
     0
  1
1
  0
ENDSEC
  0
EOF
