  0
SECTION
  2
HEADER
  9
$ACADVER
  1
AC1014
  9
$ACADMAINTVER
 70
     9
  9
$DWGCODEPAGE
  3
ANSI_1252
  9
$INSBASE
 10
0.0
 20
0.0
 30
0.0
  9
$EXTMIN
 10
0.0000000000000032
 20
0.172100000000006
 30
0.0
  9
$EXTMAX
 10
298.0
 20
143.8279
 30
0.0
  9
$LIMMIN
 10
0.0
 20
0.0
  9
$LIMMAX
 10
12.0
 20
9.0
  9
$ORTHOMODE
 70
     0
  9
$REGENMODE
 70
     1
  9
$FILLMODE
 70
     1
  9
$QTEXTMODE
 70
     0
  9
$MIRRTEXT
 70
     1
  9
$DRAGMODE
 70
     2
  9
$LTSCALE
 40
1.0
  9
$OSMODE
 70
    37
  9
$ATTMODE
 70
     1
  9
$TEXTSIZE
 40
0.2
  9
$TRACEWID
 40
0.05
  9
$TEXTSTYLE
  7
STANDARD
  9
$CLAYER
  8
0
  9
$CELTYPE
  6
CONTINUOUS
  9
$CECOLOR
 62
   256
  9
$CELTSCALE
 40
1.0
  9
$DELOBJ
 70
     1
  9
$DISPSILH
 70
     0
  9
$DIMSCALE
 40
1.0
  9
$DIMASZ
 40
0.18
  9
$DIMEXO
 40
0.0625
  9
$DIMDLI
 40
0.38
  9
$DIMRND
 40
0.0
  9
$DIMDLE
 40
0.0
  9
$DIMEXE
 40
0.18
  9
$DIMTP
 40
0.0
  9
$DIMTM
 40
0.0
  9
$DIMTXT
 40
0.18
  9
$DIMCEN
 40
0.09
  9
$DIMTSZ
 40
0.0
  9
$DIMTOL
 70
     0
  9
$DIMLIM
 70
     0
  9
$DIMTIH
 70
     1
  9
$DIMTOH
 70
     1
  9
$DIMSE1
 70
     0
  9
$DIMSE2
 70
     0
  9
$DIMTAD
 70
     0
  9
$DIMZIN
 70
     0
  9
$DIMBLK
  1

  9
$DIMASO
 70
     1
  9
$DIMSHO
 70
     1
  9
$DIMPOST
  1

  9
$DIMAPOST
  1

  9
$DIMALT
 70
     0
  9
$DIMALTD
 70
     2
  9
$DIMALTF
 40
25.4
  9
$DIMLFAC
 40
1.0
  9
$DIMTOFL
 70
     0
  9
$DIMTVP
 40
0.0
  9
$DIMTIX
 70
     0
  9
$DIMSOXD
 70
     0
  9
$DIMSAH
 70
     0
  9
$DIMBLK1
  1

  9
$DIMBLK2
  1

  9
$DIMSTYLE
  2
STANDARD
  9
$DIMCLRD
 70
     0
  9
$DIMCLRE
 70
     0
  9
$DIMCLRT
 70
     0
  9
$DIMTFAC
 40
1.0
  9
$DIMGAP
 40
0.09
  9
$DIMJUST
 70
     0
  9
$DIMSD1
 70
     0
  9
$DIMSD2
 70
     0
  9
$DIMTOLJ
 70
     1
  9
$DIMTZIN
 70
     0
  9
$DIMALTZ
 70
     0
  9
$DIMALTTZ
 70
     0
  9
$DIMFIT
 70
     3
  9
$DIMUPT
 70
     0
  9
$DIMUNIT
 70
     2
  9
$DIMDEC
 70
     4
  9
$DIMTDEC
 70
     4
  9
$DIMALTU
 70
     2
  9
$DIMALTTD
 70
     2
  9
$DIMTXSTY
  7
STANDARD
  9
$DIMAUNIT
 70
     0
  9
$LUNITS
 70
     2
  9
$LUPREC
 70
     4
  9
$SKETCHINC
 40
0.1
  9
$FILLETRAD
 40
0.0
  9
$AUNITS
 70
     0
  9
$AUPREC
 70
     0
  9
$MENU
  1
.
  9
$ELEVATION
 40
0.0
  9
$PELEVATION
 40
0.0
  9
$THICKNESS
 40
0.0
  9
$LIMCHECK
 70
     0
  9
$BLIPMODE
 70
     0
  9
$CHAMFERA
 40
0.0
  9
$CHAMFERB
 40
0.0
  9
$CHAMFERC
 40
0.0
  9
$CHAMFERD
 40
0.0
  9
$SKPOLY
 70
     0
  9
$TDCREATE
 40
2454687.557777592
  9
$TDUPDATE
 40
2454687.561232453
  9
$TDINDWG
 40
0.0034550463
  9
$TDUSRTIMER
 40
0.0034550463
  9
$USRTIMER
 70
     1
  9
$ANGBASE
 50
0.0
  9
$ANGDIR
 70
     0
  9
$PDMODE
 70
     0
  9
$PDSIZE
 40
0.0
  9
$PLINEWID
 40
0.0
  9
$COORDS
 70
     1
  9
$SPLFRAME
 70
     0
  9
$SPLINETYPE
 70
     6
  9
$SPLINESEGS
 70
     8
  9
$ATTDIA
 70
     0
  9
$ATTREQ
 70
     1
  9
$HANDLING
 70
 22529
  9
$HANDSEED
  5
286
  9
$SURFTAB1
 70
     6
  9
$SURFTAB2
 70
     6
  9
$SURFTYPE
 70
     6
  9
$SURFU
 70
     6
  9
$SURFV
 70
     6
  9
$UCSNAME
  2

  9
$UCSORG
 10
0.0
 20
0.0
 30
0.0
  9
$UCSXDIR
 10
1.0
 20
0.0
 30
0.0
  9
$UCSYDIR
 10
0.0
 20
1.0
 30
0.0
  9
$PUCSNAME
  2

  9
$PUCSORG
 10
0.0
 20
0.0
 30
0.0
  9
$PUCSXDIR
 10
1.0
 20
0.0
 30
0.0
  9
$PUCSYDIR
 10
0.0
 20
1.0
 30
0.0
  9
$USERI1
 70
     0
  9
$USERI2
 70
     0
  9
$USERI3
 70
     0
  9
$USERI4
 70
     0
  9
$USERI5
 70
     0
  9
$USERR1
 40
0.0
  9
$USERR2
 40
0.0
  9
$USERR3
 40
0.0
  9
$USERR4
 40
0.0
  9
$USERR5
 40
0.0
  9
$WORLDVIEW
 70
     1
  9
$SHADEDGE
 70
     3
  9
$SHADEDIF
 70
    70
  9
$TILEMODE
 70
     1
  9
$MAXACTVP
 70
    64
  9
$PINSBASE
 10
0.0
 20
0.0
 30
0.0
  9
$PLIMCHECK
 70
     0
  9
$PEXTMIN
 10
1.000000000000000E+20
 20
1.000000000000000E+20
 30
1.000000000000000E+20
  9
$PEXTMAX
 10
-1.000000000000000E+20
 20
-1.000000000000000E+20
 30
-1.000000000000000E+20
  9
$PLIMMIN
 10
0.0
 20
0.0
  9
$PLIMMAX
 10
12.0
 20
9.0
  9
$UNITMODE
 70
     0
  9
$VISRETAIN
 70
     1
  9
$PLINEGEN
 70
     0
  9
$PSLTSCALE
 70
     1
  9
$TREEDEPTH
 70
  3020
  9
$PICKSTYLE
 70
     1
  9
$CMLSTYLE
  2
STANDARD
  9
$CMLJUST
 70
     0
  9
$CMLSCALE
 40
1.0
  9
$PROXYGRAPHICS
 70
     1
  9
$MEASUREMENT
 70
     0
  0
ENDSEC
  0
SECTION
  2
CLASSES
  0
CLASS
  1
ACDBDICTIONARYWDFLT
  2
AcDbDictionaryWithDefault
  3
AutoCAD 2000
 90
        0
280
     0
281
     0
  0
CLASS
  1
ACDBPLACEHOLDER
  2
AcDbPlaceHolder
  3
AutoCAD 2000
 90
        0
280
     0
281
     0
  0
CLASS
  1
LAYOUT
  2
AcDbLayout
  3
AutoCAD 2000
 90
        0
280
     0
281
     0
  0
CLASS
  1
DICTIONARYVAR
  2
AcDbDictionaryVar
  3
AutoCAD 2000
 90
        0
280
     0
281
     0
  0
CLASS
  1
LONG_TRANSACTION
  2
AcDbLongTransaction
  3
AutoCAD 2000
 90
        0
280
     0
281
     0
  0
CLASS
  1
LWPOLYLINE
  2
AcDbPolyline
  3
AutoCAD 2000
 90
        0
280
     0
281
     1
  0
CLASS
  1
HATCH
  2
AcDbHatch
  3
AutoCAD 2000
 90
        0
280
     0
281
     1
  0
CLASS
  1
XRECORD
  2
AcDbXrecord
  3
AutoCAD 2000
 90
        0
280
     0
281
     0
  0
ENDSEC
  0
SECTION
  2
TABLES
  0
TABLE
  2
VPORT
  5
8
330
0
100
AcDbSymbolTable
 70
     4
  0
VPORT
  5
261
330
8
100
AcDbSymbolTableRecord
100
AcDbViewportTableRecord
  2
*ACTIVE
 70
     0
 10
0.0
 20
0.0
 11
1.0
 21
1.0
 12
149.0
 22
72.0
 13
0.0
 23
0.0
 14
1.0
 24
1.0
 15
0.0
 25
0.0
 16
0.0
 26
0.0
 36
1.0
 17
0.0
 27
0.0
 37
0.0
 40
146.3736886047303
 41
2.043533930857874
 42
50.0
 43
0.0
 44
0.0
 50
0.0
 51
0.0
 71
     0
 72
   100
 73
     1
 74
     3
 75
     0
 76
     0
 77
     0
 78
     0
  0
ENDTAB
  0
TABLE
  2
LTYPE
  5
5
330
0
100
AcDbSymbolTable
 70
     1
  0
LTYPE
  5
13
330
5
100
AcDbSymbolTableRecord
100
AcDbLinetypeTableRecord
  2
BYBLOCK
 70
     0
  3

 72
    65
 73
     0
 40
0.0
  0
LTYPE
  5
14
330
5
100
AcDbSymbolTableRecord
100
AcDbLinetypeTableRecord
  2
BYLAYER
 70
     0
  3

 72
    65
 73
     0
 40
0.0
  0
LTYPE
  5
15
330
5
100
AcDbSymbolTableRecord
100
AcDbLinetypeTableRecord
  2
CONTINUOUS
 70
     0
  3
Solid line
 72
    65
 73
     0
 40
0.0
  0
ENDTAB
  0
TABLE
  2
LAYER
  5
2
330
0
100
AcDbSymbolTable
 70
     1
  0
LAYER
  5
10
330
2
100
AcDbSymbolTableRecord
100
AcDbLayerTableRecord
  2
0
 70
     0
 62
     7
  6
CONTINUOUS
  0
ENDTAB
  0
TABLE
  2
STYLE
  5
3
330
0
100
AcDbSymbolTable
 70
     1
  0
STYLE
  5
11
330
3
100
AcDbSymbolTableRecord
100
AcDbTextStyleTableRecord
  2
STANDARD
 70
     0
 40
0.0
 41
1.0
 50
0.0
 71
     0
 42
0.2
  3
txt
  4

  0
ENDTAB
  0
TABLE
  2
VIEW
  5
6
330
0
100
AcDbSymbolTable
 70
     0
  0
ENDTAB
  0
TABLE
  2
UCS
  5
7
330
0
100
AcDbSymbolTable
 70
     0
  0
ENDTAB
  0
TABLE
  2
APPID
  5
9
330
0
100
AcDbSymbolTable
 70
     1
  0
APPID
  5
12
330
9
100
AcDbSymbolTableRecord
100
AcDbRegAppTableRecord
  2
ACAD
 70
     0
  0
ENDTAB
  0
TABLE
  2
DIMSTYLE
  5
A
330
0
100
AcDbSymbolTable
 70
     1
  0
DIMSTYLE
105
211
330
A
100
AcDbSymbolTableRecord
100
AcDbDimStyleTableRecord
  2
STANDARD
 70
     0
  3

  4

  5

  6

  7

 40
1.0
 41
0.18
 42
0.0625
 43
0.38
 44
0.18
 45
0.0
 46
0.0
 47
0.0
 48
0.0
140
0.18
141
0.09
142
0.0
143
25.4
144
1.0
145
0.0
146
1.0
147
0.09
 71
     0
 72
     0
 73
     1
 74
     1
 75
     0
 76
     0
 77
     0
 78
     0
170
     0
171
     2
172
     0
173
     0
174
     0
175
     0
176
     0
177
     0
178
     0
270
     2
271
     4
272
     4
273
     2
274
     2
340
11
275
     0
280
     0
281
     0
282
     0
283
     1
284
     0
285
     0
286
     0
287
     3
288
     0
  0
ENDTAB
  0
TABLE
  2
BLOCK_RECORD
  5
1
330
0
100
AcDbSymbolTable
 70
     0
  0
BLOCK_RECORD
  5
1E
102
{ACAD_XDICTIONARY
360
284
102
}
330
1
100
AcDbSymbolTableRecord
100
AcDbBlockTableRecord
  2
*MODEL_SPACE
  0
BLOCK_RECORD
  5
1A
102
{ACAD_XDICTIONARY
360
282
102
}
330
1
100
AcDbSymbolTableRecord
100
AcDbBlockTableRecord
  2
*PAPER_SPACE
  0
ENDTAB
  0
ENDSEC
  0
SECTION
  2
BLOCKS
  0
BLOCK
  5
1F
330
1E
100
AcDbEntity
  8
0
100
AcDbBlockBegin
  2
*MODEL_SPACE
 70
     0
 10
0.0
 20
0.0
 30
0.0
  3
*MODEL_SPACE
  1

  0
ENDBLK
  5
20
330
1E
100
AcDbEntity
  8
0
100
AcDbBlockEnd
  0
BLOCK
  5
1B
330
1A
100
AcDbEntity
 67
     1
  8
0
100
AcDbBlockBegin
  2
*PAPER_SPACE
 70
     0
 10
0.0
 20
0.0
 30
0.0
  3
*PAPER_SPACE
  1

  0
ENDBLK
  5
1C
330
1A
100
AcDbEntity
 67
     1
  8
0
100
AcDbBlockEnd
  0
ENDSEC
  0
SECTION
  2
ENTITIES
  0
LINE
  5
22
330
1E
100
AcDbEntity
  8
0
100
AcDbLine
 10
0.5000000000000031
 20
73.82789999999999
 30
0.0
 11
15.5
 21
73.82789999999999
 31
0.0
  0
LINE
  5
23
330
1E
100
AcDbEntity
  8
0
100
AcDbLine
 10
0.0000000000000032
 20
74.3279
 30
0.0
 11
0.0000000000000032
 21
105.0278999999999
 31
0.0
  0
LINE
  5
24
330
1E
100
AcDbEntity
  8
0
100
AcDbLine
 10
0.0000000000000032
 20
74.3279
 30
0.0
 11
0.5000000000000031
 21
73.82789999999999
 31
0.0
  0
LINE
  5
25
330
1E
100
AcDbEntity
  8
0
100
AcDbLine
 10
0.5000000000000031
 20
73.82789999999999
 30
0.0
 11
15.5
 21
73.82789999999999
 31
0.0
  0
LINE
  5
26
330
1E
100
AcDbEntity
  8
0
100
AcDbLine
 10
0.5000000000000031
 20
73.82789999999999
 30
0.0
 11
0.5000000000000031
 21
104.4278999999999
 31
0.0
  0
LINE
  5
27
330
1E
100
AcDbEntity
  8
0
100
AcDbLine
 10
16.0
 20
74.3279
 30
0.0
 11
16.0
 21
105.0278999999999
 31
0.0
  0
LINE
  5
28
330
1E
100
AcDbEntity
  8
0
100
AcDbLine
 10
15.5
 20
73.82789999999999
 30
0.0
 11
16.0
 21
74.3279
 31
0.0
  0
LINE
  5
29
330
1E
100
AcDbEntity
  8
0
100
AcDbLine
 10
15.5
 20
73.82789999999999
 30
0.0
 11
15.5
 21
104.4278999999999
 31
0.0
  0
LINE
  5
2A
330
1E
100
AcDbEntity
  8
0
100
AcDbLine
 10
26.66669999999999
 20
87.8279
 30
0.0
 11
68.0
 21
87.8279
 31
0.0
  0
LINE
  5
2B
330
1E
100
AcDbEntity
  8
0
100
AcDbLine
 10
26.66669999999999
 20
87.8279
 30
0.0
 11
26.66669999999999
 21
88.58389999999999
 31
0.0
  0
LINE
  5
2C
330
1E
100
AcDbEntity
  8
0
100
AcDbLine
 10
64.40000000000001
 20
86.2279
 30
0.0
 11
71.09999999999999
 21
81.1279
 31
0.0
  0
LINE
  5
2D
330
1E
100
AcDbEntity
  8
0
100
AcDbLine
 10
63.1820895522388
 20
87.8279
 30
0.0
 11
64.40000000000001
 21
86.2279
 31
0.0
  0
LINE
  5
2E
330
1E
100
AcDbEntity
  8
0
100
AcDbLine
 10
63.0
 20
84.82789999999999
 30
0.0
 11
70.09999999999999
 21
79.42789999999999
 31
0.0
  0
LINE
  5
2F
330
1E
100
AcDbEntity
  8
0
100
AcDbLine
 10
26.66669999999999
 20
88.58389999999999
 30
0.0
 11
26.66669999999999
 21
90.5999
 31
0.0
  0
LINE
  5
30
330
1E
100
AcDbEntity
  8
0
100
AcDbLine
 10
26.66669999999999
 20
88.58389999999999
 30
0.0
 11
26.66669999999999
 21
87.8279
 31
0.0
  0
LINE
  5
31
330
1E
100
AcDbEntity
  8
0
100
AcDbLine
 10
68.0
 20
88.58389999999999
 30
0.0
 11
68.0
 21
87.8279
 31
0.0
  0
LINE
  5
32
330
1E
100
AcDbEntity
  8
0
100
AcDbLine
 10
26.0
 20
88.3319
 30
0.0
 11
26.66669999999999
 21
87.8279
 31
0.0
  0
LINE
  5
33
330
1E
100
AcDbEntity
  8
0
100
AcDbLine
 10
26.0
 20
88.3319
 30
0.0
 11
26.0
 21
89.08790000000001
 31
0.0
  0
LINE
  5
34
330
1E
100
AcDbEntity
  8
0
100
AcDbLine
 10
60.71830985915489
 20
87.8279
 30
0.0
 11
63.0
 21
84.82789999999999
 31
0.0
  0
LINE
  5
35
330
1E
100
AcDbEntity
  8
0
100
AcDbLine
 10
154.491
 20
60.1721
 30
0.0
 11
154.7909999999999
 21
60.1721
 31
0.0
  0
LINE
  5
36
330
1E
100
AcDbEntity
  8
0
100
AcDbLine
 10
154.491
 20
60.1721
 30
0.0
 11
154.491
 21
0.172100000000008
 31
0.0
  0
LINE
  5
37
330
1E
100
AcDbEntity
  8
0
100
AcDbLine
 10
154.491
 20
0.172100000000006
 30
0.0
 11
154.491
 21
60.1721
 31
0.0
  0
LINE
  5
38
330
1E
100
AcDbEntity
  8
0
100
AcDbLine
 10
154.491
 20
0.172100000000006
 30
0.0
 11
154.8539999999999
 21
0.198299999999995
 31
0.0
  0
LINE
  5
39
330
1E
100
AcDbEntity
  8
0
100
AcDbLine
 10
154.491
 20
0.172100000000006
 30
0.0
 11
154.8539999999999
 21
0.198299999999994
 31
0.0
  0
LINE
  5
3A
330
1E
100
AcDbEntity
  8
0
100
AcDbLine
 10
156.7669999999999
 20
0.648100000000005
 30
0.0
 11
158.268
 21
1.322799999999989
 31
0.0
  0
LINE
  5
3B
330
1E
100
AcDbEntity
  8
0
100
AcDbLine
 10
158.268
 20
1.322799999999989
 30
0.0
 11
160.0679999999999
 21
2.44729999999999
 31
0.0
  0
LINE
  5
3C
330
1E
100
AcDbEntity
  8
0
100
AcDbLine
 10
158.291
 20
60.1721
 30
0.0
 11
160.091
 21
60.1721
 31
0.0
  0
LINE
  5
3D
330
1E
100
AcDbEntity
  8
0
100
AcDbLine
 10
158.268
 20
1.322799999999989
 30
0.0
 11
160.0679999999999
 21
2.44729999999999
 31
0.0
  0
LINE
  5
3E
330
1E
100
AcDbEntity
  8
0
100
AcDbLine
 10
156.691
 20
60.1721
 30
0.0
 11
158.291
 21
60.1721
 31
0.0
  0
LINE
  5
3F
330
1E
100
AcDbEntity
  8
0
100
AcDbLine
 10
156.7669999999999
 20
0.648100000000005
 30
0.0
 11
158.268
 21
1.322799999999989
 31
0.0
  0
LINE
  5
40
330
1E
100
AcDbEntity
  8
0
100
AcDbLine
 10
155.491
 20
60.1721
 30
0.0
 11
156.691
 21
60.1721
 31
0.0
  0
LINE
  5
41
330
1E
100
AcDbEntity
  8
0
100
AcDbLine
 10
155.529
 20
0.273299999999983
 30
0.0
 11
156.7669999999999
 21
0.648100000000005
 31
0.0
  0
LINE
  5
42
330
1E
100
AcDbEntity
  8
0
100
AcDbLine
 10
154.7909999999999
 20
60.1721
 30
0.0
 11
155.491
 21
60.1721
 31
0.0
  0
LINE
  5
43
330
1E
100
AcDbEntity
  8
0
100
AcDbLine
 10
154.8539999999999
 20
0.198299999999995
 30
0.0
 11
155.529
 21
0.273299999999983
 31
0.0
  0
LINE
  5
44
330
1E
100
AcDbEntity
  8
0
100
AcDbLine
 10
160.0679999999999
 20
2.44729999999999
 30
0.0
 11
162.019
 21
4.43379999999998
 31
0.0
  0
LINE
  5
45
330
1E
100
AcDbEntity
  8
0
100
AcDbLine
 10
162.019
 20
4.43379999999998
 30
0.0
 11
163.782
 21
5.783199999999981
 31
0.0
  0
LINE
  5
46
330
1E
100
AcDbEntity
  8
0
100
AcDbLine
 10
163.782
 20
5.783199999999981
 30
0.0
 11
165.62
 21
6.982599999999999
 31
0.0
  0
LINE
  5
47
330
1E
100
AcDbEntity
  8
0
100
AcDbLine
 10
162.019
 20
4.43379999999998
 30
0.0
 11
163.782
 21
5.783199999999981
 31
0.0
  0
LINE
  5
48
330
1E
100
AcDbEntity
  8
0
100
AcDbLine
 10
163.782
 20
5.783199999999981
 30
0.0
 11
165.62
 21
6.982599999999999
 31
0.0
  0
LINE
  5
49
330
1E
100
AcDbEntity
  8
0
100
AcDbLine
 10
165.62
 20
6.982599999999999
 30
0.0
 11
167.4209999999999
 21
8.1821
 31
0.0
  0
LINE
  5
4A
330
1E
100
AcDbEntity
  8
0
100
AcDbLine
 10
167.4209999999999
 20
8.1821
 30
0.0
 11
168.509
 21
9.231599999999989
 31
0.0
  0
LINE
  5
4B
330
1E
100
AcDbEntity
  8
0
100
AcDbLine
 10
168.509
 20
9.231599999999989
 30
0.0
 11
169.222
 21
9.94379999999999
 31
0.0
  0
LINE
  5
4C
330
1E
100
AcDbEntity
  8
0
100
AcDbLine
 10
164.6909999999999
 20
60.1721
 30
0.0
 11
167.1909999999999
 21
60.1721
 31
0.0
  0
LINE
  5
4D
330
1E
100
AcDbEntity
  8
0
100
AcDbLine
 10
161.991
 20
60.1721
 30
0.0
 11
163.8909999999999
 21
60.1721
 31
0.0
  0
LINE
  5
4E
330
1E
100
AcDbEntity
  8
0
100
AcDbLine
 10
161.991
 20
60.1721
 30
0.0
 11
164.6909999999999
 21
60.1721
 31
0.0
  0
LINE
  5
4F
330
1E
100
AcDbEntity
  8
0
100
AcDbLine
 10
163.8909999999999
 20
60.1721
 30
0.0
 11
165.6909999999999
 21
60.1721
 31
0.0
  0
LINE
  5
50
330
1E
100
AcDbEntity
  8
0
100
AcDbLine
 10
167.1909999999999
 20
60.1721
 30
0.0
 11
169.3909999999999
 21
60.1721
 31
0.0
  0
LINE
  5
51
330
1E
100
AcDbEntity
  8
0
100
AcDbLine
 10
165.6909999999999
 20
60.1721
 30
0.0
 11
167.2909999999999
 21
60.1721
 31
0.0
  0
LINE
  5
52
330
1E
100
AcDbEntity
  8
0
100
AcDbLine
 10
167.2909999999999
 20
60.1721
 30
0.0
 11
168.4909999999999
 21
60.1721
 31
0.0
  0
LINE
  5
53
330
1E
100
AcDbEntity
  8
0
100
AcDbLine
 10
169.4909999999999
 20
10.1721
 30
0.0
 11
169.4909999999999
 21
60.1721
 31
0.0
  0
LINE
  5
54
330
1E
100
AcDbEntity
  8
0
100
AcDbLine
 10
169.3909999999999
 20
60.1721
 30
0.0
 11
171.0909999999999
 21
60.1721
 31
0.0
  0
LINE
  5
55
330
1E
100
AcDbEntity
  8
0
100
AcDbLine
 10
168.4909999999999
 20
60.1721
 30
0.0
 11
169.1909999999999
 21
60.1721
 31
0.0
  0
LINE
  5
56
330
1E
100
AcDbEntity
  8
0
100
AcDbLine
 10
169.1909999999999
 20
60.1721
 30
0.0
 11
169.4909999999999
 21
60.1721
 31
0.0
  0
LINE
  5
57
330
1E
100
AcDbEntity
  8
0
100
AcDbLine
 10
171.0909999999999
 20
60.1721
 30
0.0
 11
172.0909999999999
 21
60.1721
 31
0.0
  0
LINE
  5
58
330
1E
100
AcDbEntity
  8
0
100
AcDbLine
 10
172.0909999999999
 20
60.1721
 30
0.0
 11
172.4909999999999
 21
60.1721
 31
0.0
  0
LINE
  5
59
330
1E
100
AcDbEntity
  8
0
100
AcDbLine
 10
172.4909999999999
 20
60.1721
 30
0.0
 11
173.41286
 21
87.8279
 31
0.0
  0
LINE
  5
5A
330
1E
100
AcDbEntity
  8
0
100
AcDbLine
 10
169.4909999999999
 20
60.1721
 30
0.0
 11
169.4909999999999
 21
10.1721
 31
0.0
  0
LINE
  5
5B
330
1E
100
AcDbEntity
  8
0
100
AcDbLine
 10
169.4909999999999
 20
60.1721
 30
0.0
 11
171.0909999999999
 21
60.1721
 31
0.0
  0
LINE
  5
5C
330
1E
100
AcDbEntity
  8
0
100
AcDbLine
 10
169.222
 20
9.94379999999999
 30
0.0
 11
169.4909999999999
 21
10.1721
 31
0.0
  0
LINE
  5
5D
330
1E
100
AcDbEntity
  8
0
100
AcDbLine
 10
160.091
 20
60.1721
 30
0.0
 11
161.991
 21
60.1721
 31
0.0
  0
LINE
  5
5E
330
1E
100
AcDbEntity
  8
0
100
AcDbLine
 10
160.0679999999999
 20
2.44729999999999
 30
0.0
 11
162.019
 21
4.43379999999998
 31
0.0
  0
LINE
  5
5F
330
1E
100
AcDbEntity
  8
0
100
AcDbLine
 10
159.291
 20
60.1721
 30
0.0
 11
161.991
 21
60.1721
 31
0.0
  0
LINE
  5
60
330
1E
100
AcDbEntity
  8
0
100
AcDbLine
 10
156.7909999999999
 20
60.1721
 30
0.0
 11
159.291
 21
60.1721
 31
0.0
  0
LINE
  5
61
330
1E
100
AcDbEntity
  8
0
100
AcDbLine
 10
154.591
 20
60.1721
 30
0.0
 11
156.7909999999999
 21
60.1721
 31
0.0
  0
LINE
  5
62
330
1E
100
AcDbEntity
  8
0
100
AcDbLine
 10
152.8909999999999
 20
60.1721
 30
0.0
 11
154.591
 21
60.1721
 31
0.0
  0
LINE
  5
63
330
1E
100
AcDbEntity
  8
0
100
AcDbLine
 10
152.8909999999999
 20
60.1721
 30
0.0
 11
154.491
 21
60.1721
 31
0.0
  0
LINE
  5
64
330
1E
100
AcDbEntity
  8
0
100
AcDbLine
 10
151.8909999999999
 20
60.1721
 30
0.0
 11
152.8909999999999
 21
60.1721
 31
0.0
  0
LINE
  5
65
330
1E
100
AcDbEntity
  8
0
100
AcDbLine
 10
87.0
 20
76.8279
 30
0.0
 11
95.29999999999999
 21
78.0279
 31
0.0
  0
LINE
  5
66
330
1E
100
AcDbEntity
  8
0
100
AcDbLine
 10
95.29999999999999
 20
78.0279
 30
0.0
 11
102.9
 21
81.1279
 31
0.0
  0
LINE
  5
67
330
1E
100
AcDbEntity
  8
0
100
AcDbLine
 10
87.0
 20
74.8279
 30
0.0
 11
95.8
 21
76.0279
 31
0.0
  0
LINE
  5
68
330
1E
100
AcDbEntity
  8
0
100
AcDbLine
 10
95.8
 20
76.0279
 30
0.0
 11
103.9
 21
79.42789999999999
 31
0.0
  0
LINE
  5
69
330
1E
100
AcDbEntity
  8
0
100
AcDbLine
 10
103.9
 20
79.42789999999999
 30
0.0
 11
111.0
 21
84.82789999999999
 31
0.0
  0
LINE
  5
6A
330
1E
100
AcDbEntity
  8
0
100
AcDbLine
 10
78.7
 20
78.0279
 30
0.0
 11
87.0
 21
76.8279
 31
0.0
  0
LINE
  5
6B
330
1E
100
AcDbEntity
  8
0
100
AcDbLine
 10
78.2
 20
76.0279
 30
0.0
 11
87.0
 21
74.8279
 31
0.0
  0
LINE
  5
6C
330
1E
100
AcDbEntity
  8
0
100
AcDbLine
 10
102.9
 20
81.1279
 30
0.0
 11
109.5999999999999
 21
86.2279
 31
0.0
  0
LINE
  5
6D
330
1E
100
AcDbEntity
  8
0
100
AcDbLine
 10
109.5999999999999
 20
86.2279
 30
0.0
 11
110.817910447761
 21
87.8279
 31
0.0
  0
LINE
  5
6E
330
1E
100
AcDbEntity
  8
0
100
AcDbLine
 10
111.0
 20
84.82789999999999
 30
0.0
 11
113.2816901408449
 21
87.8279
 31
0.0
  0
LINE
  5
6F
330
1E
100
AcDbEntity
  8
0
100
AcDbLine
 10
71.09999999999999
 20
81.1279
 30
0.0
 11
78.7
 21
78.0279
 31
0.0
  0
LINE
  5
70
330
1E
100
AcDbEntity
  8
0
100
AcDbLine
 10
70.09999999999999
 20
79.42789999999999
 30
0.0
 11
78.2
 21
76.0279
 31
0.0
  0
LINE
  5
71
330
1E
100
AcDbEntity
  8
0
100
AcDbLine
 10
150.56914
 20
87.8279
 30
0.0
 11
151.491
 21
60.1721
 31
0.0
  0
LINE
  5
72
330
1E
100
AcDbEntity
  8
0
100
AcDbLine
 10
151.491
 20
60.1721
 30
0.0
 11
151.8909999999999
 21
60.1721
 31
0.0
  0
LINE
  5
73
330
1E
100
AcDbEntity
  8
0
100
AcDbLine
 10
228.2
 20
76.0279
 30
0.0
 11
237.0
 21
74.8279
 31
0.0
  0
LINE
  5
74
330
1E
100
AcDbEntity
  8
0
100
AcDbLine
 10
237.0
 20
74.8279
 30
0.0
 11
245.8
 21
76.0279
 31
0.0
  0
LINE
  5
75
330
1E
100
AcDbEntity
  8
0
100
AcDbLine
 10
228.6999999999999
 20
78.0279
 30
0.0
 11
237.0
 21
76.8279
 31
0.0
  0
LINE
  5
76
330
1E
100
AcDbEntity
  8
0
100
AcDbLine
 10
237.0
 20
76.8279
 30
0.0
 11
245.3
 21
78.0279
 31
0.0
  0
LINE
  5
77
330
1E
100
AcDbEntity
  8
0
100
AcDbLine
 10
221.0999999999999
 20
81.1279
 30
0.0
 11
228.6999999999999
 21
78.0279
 31
0.0
  0
LINE
  5
78
330
1E
100
AcDbEntity
  8
0
100
AcDbLine
 10
220.1
 20
79.42789999999999
 30
0.0
 11
228.2
 21
76.0279
 31
0.0
  0
LINE
  5
79
330
1E
100
AcDbEntity
  8
0
100
AcDbLine
 10
214.4
 20
86.2279
 30
0.0
 11
221.0999999999999
 21
81.1279
 31
0.0
  0
LINE
  5
7A
330
1E
100
AcDbEntity
  8
0
100
AcDbLine
 10
213.182089552239
 20
87.8279
 30
0.0
 11
214.4
 21
86.2279
 31
0.0
  0
LINE
  5
7B
330
1E
100
AcDbEntity
  8
0
100
AcDbLine
 10
213.0
 20
84.82789999999999
 30
0.0
 11
220.1
 21
79.42789999999999
 31
0.0
  0
LINE
  5
7C
330
1E
100
AcDbEntity
  8
0
100
AcDbLine
 10
210.718309859155
 20
87.8279
 30
0.0
 11
213.0
 21
84.82789999999999
 31
0.0
  0
LINE
  5
7D
330
1E
100
AcDbEntity
  8
0
100
AcDbLine
 10
245.3
 20
78.0279
 30
0.0
 11
252.8999999999999
 21
81.1279
 31
0.0
  0
LINE
  5
7E
330
1E
100
AcDbEntity
  8
0
100
AcDbLine
 10
252.8999999999999
 20
81.1279
 30
0.0
 11
259.6
 21
86.2279
 31
0.0
  0
LINE
  5
7F
330
1E
100
AcDbEntity
  8
0
100
AcDbLine
 10
245.8
 20
76.0279
 30
0.0
 11
253.9
 21
79.42789999999999
 31
0.0
  0
LINE
  5
80
330
1E
100
AcDbEntity
  8
0
100
AcDbLine
 10
253.9
 20
79.42789999999999
 30
0.0
 11
261.0
 21
84.82789999999999
 31
0.0
  0
LINE
  5
81
330
1E
100
AcDbEntity
  8
0
100
AcDbLine
 10
173.381604
 20
87.8279
 30
0.0
 11
254.0
 21
87.8279
 31
0.0
  0
LINE
  5
82
330
1E
100
AcDbEntity
  8
0
100
AcDbLine
 10
173.381604
 20
87.8279
 30
0.0
 11
254.0
 21
87.8279
 31
0.0
  0
LINE
  5
83
330
1E
100
AcDbEntity
  8
0
100
AcDbLine
 10
254.0
 20
87.8279
 30
0.0
 11
254.0
 21
88.6279
 31
0.0
  0
LINE
  5
84
330
1E
100
AcDbEntity
  8
0
100
AcDbLine
 10
70.0
 20
87.8279
 30
0.0
 11
173.381604
 21
87.8279
 31
0.0
  0
LINE
  5
85
330
1E
100
AcDbEntity
  8
0
100
AcDbLine
 10
70.0
 20
87.8279
 30
0.0
 11
70.0
 21
88.6279
 31
0.0
  0
LINE
  5
86
330
1E
100
AcDbEntity
  8
0
100
AcDbLine
 10
26.0
 20
89.08790000000001
 30
0.0
 11
26.0
 21
88.3319
 31
0.0
  0
LINE
  5
87
330
1E
100
AcDbEntity
  8
0
100
AcDbLine
 10
26.0
 20
89.08790000000001
 30
0.0
 11
26.0
 21
91.1039
 31
0.0
  0
LINE
  5
88
330
1E
100
AcDbEntity
  8
0
100
AcDbLine
 10
68.0
 20
89.3279
 30
0.0
 11
70.0
 21
89.3279
 31
0.0
  0
LINE
  5
89
330
1E
100
AcDbEntity
  8
0
100
AcDbLine
 10
70.0
 20
89.3279
 30
0.0
 11
70.0
 21
88.6279
 31
0.0
  0
LINE
  5
8A
330
1E
100
AcDbEntity
  8
0
100
AcDbLine
 10
70.0
 20
89.3279
 30
0.0
 11
70.0
 21
90.0279
 31
0.0
  0
LINE
  5
8B
330
1E
100
AcDbEntity
  8
0
100
AcDbLine
 10
26.66669999999999
 20
90.5999
 30
0.0
 11
26.66669999999999
 21
93.95990000000001
 31
0.0
  0
LINE
  5
8C
330
1E
100
AcDbEntity
  8
0
100
AcDbLine
 10
26.66669999999999
 20
90.5999
 30
0.0
 11
26.66669999999999
 21
88.58389999999999
 31
0.0
  0
LINE
  5
8D
330
1E
100
AcDbEntity
  8
0
100
AcDbLine
 10
68.0
 20
90.5999
 30
0.0
 11
68.0
 21
88.58389999999999
 31
0.0
  0
LINE
  5
8E
330
1E
100
AcDbEntity
  8
0
100
AcDbLine
 10
70.0
 20
90.0279
 30
0.0
 11
70.0
 21
89.3279
 31
0.0
  0
LINE
  5
8F
330
1E
100
AcDbEntity
  8
0
100
AcDbLine
 10
70.0
 20
90.0279
 30
0.0
 11
70.0
 21
91.9279
 31
0.0
  0
LINE
  5
90
330
1E
100
AcDbEntity
  8
0
100
AcDbLine
 10
254.0
 20
89.3279
 30
0.0
 11
256.0
 21
89.3279
 31
0.0
  0
LINE
  5
95
330
1E
100
AcDbEntity
  8
0
100
AcDbLine
 10
256.0
 20
89.3279
 30
0.0
 11
256.0
 21
90.0279
 31
0.0
  0
LINE
  5
96
330
1E
100
AcDbEntity
  8
0
100
AcDbLine
 10
256.0
 20
90.0279
 30
0.0
 11
256.0
 21
91.9279
 31
0.0
  0
LINE
  5
97
330
1E
100
AcDbEntity
  8
0
100
AcDbLine
 10
254.0
 20
88.6279
 30
0.0
 11
254.0
 21
90.62789999999999
 31
0.0
  0
LINE
  5
98
330
1E
100
AcDbEntity
  8
0
100
AcDbLine
 10
254.0
 20
88.6279
 30
0.0
 11
254.0
 21
87.8279
 31
0.0
  0
LINE
  5
99
330
1E
100
AcDbEntity
  8
0
100
AcDbLine
 10
70.0
 20
88.6279
 30
0.0
 11
70.0
 21
87.8279
 31
0.0
  0
LINE
  5
9A
330
1E
100
AcDbEntity
  8
0
100
AcDbLine
 10
70.0
 20
88.6279
 30
0.0
 11
70.0
 21
90.62789999999999
 31
0.0
  0
LINE
  5
9B
330
1E
100
AcDbEntity
  8
0
100
AcDbLine
 10
70.0
 20
88.6279
 30
0.0
 11
70.0
 21
89.3279
 31
0.0
  0
LINE
  5
9C
330
1E
100
AcDbEntity
  8
0
100
AcDbLine
 10
26.0
 20
91.1039
 30
0.0
 11
26.0
 21
89.08790000000001
 31
0.0
  0
LINE
  5
9D
330
1E
100
AcDbEntity
  8
0
100
AcDbLine
 10
26.0
 20
91.1039
 30
0.0
 11
26.0
 21
94.3799
 31
0.0
  0
LINE
  5
9E
330
1E
100
AcDbEntity
  8
0
100
AcDbLine
 10
26.66669999999999
 20
93.95990000000001
 30
0.0
 11
26.66669999999999
 21
98.4119
 31
0.0
  0
LINE
  5
9F
330
1E
100
AcDbEntity
  8
0
100
AcDbLine
 10
26.66669999999999
 20
93.95990000000001
 30
0.0
 11
26.66669999999999
 21
90.5999
 31
0.0
  0
LINE
  5
A0
330
1E
100
AcDbEntity
  8
0
100
AcDbLine
 10
68.0
 20
93.95990000000001
 30
0.0
 11
68.0
 21
90.5999
 31
0.0
  0
LINE
  5
A1
330
1E
100
AcDbEntity
  8
0
100
AcDbLine
 10
70.0
 20
91.9279
 30
0.0
 11
70.0
 21
90.0279
 31
0.0
  0
LINE
  5
A2
330
1E
100
AcDbEntity
  8
0
100
AcDbLine
 10
70.0
 20
91.9279
 30
0.0
 11
70.0
 21
95.0279
 31
0.0
  0
LINE
  5
A3
330
1E
100
AcDbEntity
  8
0
100
AcDbLine
 10
70.0
 20
90.62789999999999
 30
0.0
 11
70.0
 21
88.6279
 31
0.0
  0
LINE
  5
A4
330
1E
100
AcDbEntity
  8
0
100
AcDbLine
 10
70.0
 20
90.62789999999999
 30
0.0
 11
70.0
 21
94.02790000000001
 31
0.0
  0
LINE
  5
A5
330
1E
100
AcDbEntity
  8
0
100
AcDbLine
 10
26.66669999999999
 20
98.4119
 30
0.0
 11
26.66669999999999
 21
103.4518999999999
 31
0.0
  0
LINE
  5
A6
330
1E
100
AcDbEntity
  8
0
100
AcDbLine
 10
26.66669999999999
 20
98.4119
 30
0.0
 11
26.66669999999999
 21
93.95990000000001
 31
0.0
  0
LINE
  5
A7
330
1E
100
AcDbEntity
  8
0
100
AcDbLine
 10
68.0
 20
98.4119
 30
0.0
 11
68.0
 21
93.95990000000001
 31
0.0
  0
LINE
  5
A8
330
1E
100
AcDbEntity
  8
0
100
AcDbLine
 10
26.0
 20
94.3799
 30
0.0
 11
26.0
 21
91.1039
 31
0.0
  0
LINE
  5
A9
330
1E
100
AcDbEntity
  8
0
100
AcDbLine
 10
26.0
 20
94.3799
 30
0.0
 11
26.0
 21
98.6639
 31
0.0
  0
LINE
  5
AA
330
1E
100
AcDbEntity
  8
0
100
AcDbLine
 10
26.0
 20
94.3799
 30
0.0
 11
26.0
 21
98.6639
 31
0.0
  0
LINE
  5
AB
330
1E
100
AcDbEntity
  8
0
100
AcDbLine
 10
70.0
 20
95.0279
 30
0.0
 11
70.0
 21
91.9279
 31
0.0
  0
LINE
  5
AC
330
1E
100
AcDbEntity
  8
0
100
AcDbLine
 10
70.0
 20
95.0279
 30
0.0
 11
70.0
 21
99.12790000000001
 31
0.0
  0
LINE
  5
AD
330
1E
100
AcDbEntity
  8
0
100
AcDbLine
 10
70.0
 20
94.02790000000001
 30
0.0
 11
70.0
 21
90.62789999999999
 31
0.0
  0
LINE
  5
AE
330
1E
100
AcDbEntity
  8
0
100
AcDbLine
 10
70.0
 20
94.02790000000001
 30
0.0
 11
70.0
 21
98.32790000000001
 31
0.0
  0
LINE
  5
AF
330
1E
100
AcDbEntity
  8
0
100
AcDbLine
 10
254.0
 20
90.62789999999999
 30
0.0
 11
254.0
 21
94.02790000000001
 31
0.0
  0
LINE
  5
B0
330
1E
100
AcDbEntity
  8
0
100
AcDbLine
 10
254.0
 20
90.62789999999999
 30
0.0
 11
254.0
 21
88.6279
 31
0.0
  0
LINE
  5
B1
330
1E
100
AcDbEntity
  8
0
100
AcDbLine
 10
256.0
 20
91.9279
 30
0.0
 11
256.0
 21
95.0279
 31
0.0
  0
LINE
  5
B2
330
1E
100
AcDbEntity
  8
0
100
AcDbLine
 10
256.0
 20
95.0279
 30
0.0
 11
256.0
 21
99.12790000000001
 31
0.0
  0
LINE
  5
B3
330
1E
100
AcDbEntity
  8
0
100
AcDbLine
 10
254.0
 20
94.02790000000001
 30
0.0
 11
254.0
 21
98.32790000000001
 31
0.0
  0
LINE
  5
B4
330
1E
100
AcDbEntity
  8
0
100
AcDbLine
 10
254.0
 20
94.02790000000001
 30
0.0
 11
254.0
 21
90.62789999999999
 31
0.0
  0
LINE
  5
B5
330
1E
100
AcDbEntity
  8
0
100
AcDbLine
 10
254.0
 20
98.32790000000001
 30
0.0
 11
254.0
 21
103.4278999999999
 31
0.0
  0
LINE
  5
B6
330
1E
100
AcDbEntity
  8
0
100
AcDbLine
 10
254.0
 20
98.32790000000001
 30
0.0
 11
254.0
 21
94.02790000000001
 31
0.0
  0
LINE
  5
B7
330
1E
100
AcDbEntity
  8
0
100
AcDbLine
 10
70.0
 20
98.32790000000001
 30
0.0
 11
70.0
 21
94.02790000000001
 31
0.0
  0
LINE
  5
B8
330
1E
100
AcDbEntity
  8
0
100
AcDbLine
 10
70.0
 20
98.32790000000001
 30
0.0
 11
70.0
 21
103.4278999999999
 31
0.0
  0
LINE
  5
B9
330
1E
100
AcDbEntity
  8
0
100
AcDbLine
 10
26.0
 20
98.6639
 30
0.0
 11
26.0
 21
103.5358999999999
 31
0.0
  0
LINE
  5
BA
330
1E
100
AcDbEntity
  8
0
100
AcDbLine
 10
26.0
 20
98.6639
 30
0.0
 11
26.0
 21
94.3799
 31
0.0
  0
LINE
  5
BB
330
1E
100
AcDbEntity
  8
0
100
AcDbLine
 10
26.0
 20
98.6639
 30
0.0
 11
26.0
 21
94.3799
 31
0.0
  0
LINE
  5
BC
330
1E
100
AcDbEntity
  8
0
100
AcDbLine
 10
26.0
 20
98.6639
 30
0.0
 11
26.0
 21
103.5358999999999
 31
0.0
  0
LINE
  5
BD
330
1E
100
AcDbEntity
  8
0
100
AcDbLine
 10
70.0
 20
99.12790000000001
 30
0.0
 11
70.0
 21
95.0279
 31
0.0
  0
LINE
  5
BE
330
1E
100
AcDbEntity
  8
0
100
AcDbLine
 10
70.0
 20
99.12790000000001
 30
0.0
 11
70.0
 21
103.8278999999999
 31
0.0
  0
LINE
  5
BF
330
1E
100
AcDbEntity
  8
0
100
AcDbLine
 10
26.66669999999999
 20
103.4518999999999
 30
0.0
 11
26.66669999999999
 21
108.8278999999999
 31
0.0
  0
LINE
  5
C0
330
1E
100
AcDbEntity
  8
0
100
AcDbLine
 10
26.66669999999999
 20
103.4518999999999
 30
0.0
 11
26.66669999999999
 21
98.4119
 31
0.0
  0
LINE
  5
C1
330
1E
100
AcDbEntity
  8
0
100
AcDbLine
 10
68.0
 20
103.4518999999999
 30
0.0
 11
68.0
 21
98.4119
 31
0.0
  0
LINE
  5
C2
330
1E
100
AcDbEntity
  8
0
100
AcDbLine
 10
0.5000000000000031
 20
104.6278999999999
 30
0.0
 11
0.5000000000000031
 21
104.4278999999999
 31
0.0
  0
LINE
  5
C3
330
1E
100
AcDbEntity
  8
0
100
AcDbLine
 10
0.5000000000000031
 20
104.6278999999999
 30
0.0
 11
0.5000000000000031
 21
104.8278999999999
 31
0.0
  0
LINE
  5
C4
330
1E
100
AcDbEntity
  8
0
100
AcDbLine
 10
0.5000000000000031
 20
104.4278999999999
 30
0.0
 11
15.5
 21
104.4278999999999
 31
0.0
  0
LINE
  5
C5
330
1E
100
AcDbEntity
  8
0
100
AcDbLine
 10
0.5000000000000031
 20
104.4278999999999
 30
0.0
 11
0.5000000000000031
 21
73.82789999999999
 31
0.0
  0
LINE
  5
C6
330
1E
100
AcDbEntity
  8
0
100
AcDbLine
 10
0.5000000000000031
 20
104.4278999999999
 30
0.0
 11
15.5
 21
104.4278999999999
 31
0.0
  0
LINE
  5
C7
330
1E
100
AcDbEntity
  8
0
100
AcDbLine
 10
0.5000000000000031
 20
104.4278999999999
 30
0.0
 11
0.5000000000000031
 21
104.6278999999999
 31
0.0
  0
LINE
  5
C8
330
1E
100
AcDbEntity
  8
0
100
AcDbLine
 10
0.5000000000000031
 20
104.8278999999999
 30
0.0
 11
15.5
 21
104.8278999999999
 31
0.0
  0
LINE
  5
C9
330
1E
100
AcDbEntity
  8
0
100
AcDbLine
 10
15.5
 20
104.6278999999999
 30
0.0
 11
15.5
 21
104.4278999999999
 31
0.0
  0
LINE
  5
CA
330
1E
100
AcDbEntity
  8
0
100
AcDbLine
 10
15.5
 20
104.6278999999999
 30
0.0
 11
15.5
 21
104.8278999999999
 31
0.0
  0
LINE
  5
CB
330
1E
100
AcDbEntity
  8
0
100
AcDbLine
 10
15.5
 20
104.4278999999999
 30
0.0
 11
15.5
 21
73.82789999999999
 31
0.0
  0
LINE
  5
CC
330
1E
100
AcDbEntity
  8
0
100
AcDbLine
 10
15.5
 20
104.4278999999999
 30
0.0
 11
16.0
 21
105.0278999999999
 31
0.0
  0
LINE
  5
CD
330
1E
100
AcDbEntity
  8
0
100
AcDbLine
 10
15.5
 20
104.4278999999999
 30
0.0
 11
15.5
 21
104.6278999999999
 31
0.0
  0
LINE
  5
CE
330
1E
100
AcDbEntity
  8
0
100
AcDbLine
 10
0.5000000000000031
 20
104.8278999999999
 30
0.0
 11
15.5
 21
104.8278999999999
 31
0.0
  0
LINE
  5
CF
330
1E
100
AcDbEntity
  8
0
100
AcDbLine
 10
0.0000000000000032
 20
105.1279
 30
0.0
 11
0.0000000000000032
 21
105.0278999999999
 31
0.0
  0
LINE
  5
D0
330
1E
100
AcDbEntity
  8
0
100
AcDbLine
 10
0.0000000000000032
 20
105.1279
 30
0.0
 11
0.0000000000000032
 21
105.3279
 31
0.0
  0
LINE
  5
D1
330
1E
100
AcDbEntity
  8
0
100
AcDbLine
 10
0.0000000000000032
 20
105.0278999999999
 30
0.0
 11
0.0000000000000032
 21
74.3279
 31
0.0
  0
LINE
  5
D2
330
1E
100
AcDbEntity
  8
0
100
AcDbLine
 10
0.0000000000000032
 20
105.0278999999999
 30
0.0
 11
0.5000000000000031
 21
104.4278999999999
 31
0.0
  0
LINE
  5
D3
330
1E
100
AcDbEntity
  8
0
100
AcDbLine
 10
0.0000000000000032
 20
105.0278999999999
 30
0.0
 11
0.0000000000000032
 21
105.1279
 31
0.0
  0
LINE
  5
D4
330
1E
100
AcDbEntity
  8
0
100
AcDbLine
 10
0.0000000000000032
 20
108.8278999999999
 30
0.0
 11
0.0000000000000032
 21
105.3279
 31
0.0
  0
LINE
  5
D5
330
1E
100
AcDbEntity
  8
0
100
AcDbLine
 10
0.0000000000000032
 20
108.8278999999999
 30
0.0
 11
0.0000000000000032
 21
105.3279
 31
0.0
  0
LINE
  5
D6
330
1E
100
AcDbEntity
  8
0
100
AcDbLine
 10
0.0000000000000032
 20
108.8278999999999
 30
0.0
 11
0.0000000000000032
 21
112.3278999999999
 31
0.0
  0
LINE
  5
D7
330
1E
100
AcDbEntity
  8
0
100
AcDbLine
 10
0.0000000000000032
 20
105.3279
 30
0.0
 11
0.5000000000000031
 21
104.8278999999999
 31
0.0
  0
LINE
  5
D8
330
1E
100
AcDbEntity
  8
0
100
AcDbLine
 10
0.0000000000000032
 20
105.3279
 30
0.0
 11
0.5000000000000031
 21
104.8278999999999
 31
0.0
  0
LINE
  5
D9
330
1E
100
AcDbEntity
  8
0
100
AcDbLine
 10
0.0000000000000032
 20
105.3279
 30
0.0
 11
0.0000000000000032
 21
105.1279
 31
0.0
  0
LINE
  5
DA
330
1E
100
AcDbEntity
  8
0
100
AcDbLine
 10
0.0000000000000032
 20
105.3279
 30
0.0
 11
0.0000000000000032
 21
108.8278999999999
 31
0.0
  0
LINE
  5
DB
330
1E
100
AcDbEntity
  8
0
100
AcDbLine
 10
0.5000000000000031
 20
108.8278999999999
 30
0.0
 11
0.5000000000000031
 21
104.8278999999999
 31
0.0
  0
LINE
  5
DC
330
1E
100
AcDbEntity
  8
0
100
AcDbLine
 10
0.5000000000000031
 20
108.8278999999999
 30
0.0
 11
0.5000000000000031
 21
112.8279
 31
0.0
  0
LINE
  5
DD
330
1E
100
AcDbEntity
  8
0
100
AcDbLine
 10
15.5
 20
108.8278999999999
 30
0.0
 11
15.5
 21
104.8278999999999
 31
0.0
  0
LINE
  5
DE
330
1E
100
AcDbEntity
  8
0
100
AcDbLine
 10
15.5
 20
108.8278999999999
 30
0.0
 11
15.5
 21
112.8279
 31
0.0
  0
LINE
  5
DF
330
1E
100
AcDbEntity
  8
0
100
AcDbLine
 10
0.0000000000000032
 20
105.3279
 30
0.0
 11
0.0000000000000032
 21
108.8278999999999
 31
0.0
  0
LINE
  5
E0
330
1E
100
AcDbEntity
  8
0
100
AcDbLine
 10
0.5000000000000031
 20
104.8278999999999
 30
0.0
 11
15.5
 21
104.8278999999999
 31
0.0
  0
LINE
  5
E1
330
1E
100
AcDbEntity
  8
0
100
AcDbLine
 10
0.5000000000000031
 20
104.8278999999999
 30
0.0
 11
0.5000000000000031
 21
108.8278999999999
 31
0.0
  0
LINE
  5
E2
330
1E
100
AcDbEntity
  8
0
100
AcDbLine
 10
15.5
 20
104.8278999999999
 30
0.0
 11
16.0
 21
105.3279
 31
0.0
  0
LINE
  5
E3
330
1E
100
AcDbEntity
  8
0
100
AcDbLine
 10
15.5
 20
104.8278999999999
 30
0.0
 11
15.5
 21
108.8278999999999
 31
0.0
  0
LINE
  5
E4
330
1E
100
AcDbEntity
  8
0
100
AcDbLine
 10
0.5000000000000031
 20
104.8278999999999
 30
0.0
 11
15.5
 21
104.8278999999999
 31
0.0
  0
LINE
  5
E5
330
1E
100
AcDbEntity
  8
0
100
AcDbLine
 10
0.5000000000000031
 20
104.8278999999999
 30
0.0
 11
0.5000000000000031
 21
104.6278999999999
 31
0.0
  0
LINE
  5
E6
330
1E
100
AcDbEntity
  8
0
100
AcDbLine
 10
26.0
 20
104.0278999999999
 30
0.0
 11
26.0
 21
104.5279
 31
0.0
  0
LINE
  5
E7
330
1E
100
AcDbEntity
  8
0
100
AcDbLine
 10
26.0
 20
104.5279
 30
0.0
 11
26.0
 21
105.3279
 31
0.0
  0
LINE
  5
E8
330
1E
100
AcDbEntity
  8
0
100
AcDbLine
 10
16.0
 20
103.8278999999999
 30
0.0
 11
26.0
 21
103.8278999999999
 31
0.0
  0
LINE
  5
E9
330
1E
100
AcDbEntity
  8
0
100
AcDbLine
 10
16.0
 20
105.3279
 30
0.0
 11
16.0
 21
105.1279
 31
0.0
  0
LINE
  5
EA
330
1E
100
AcDbEntity
  8
0
100
AcDbLine
 10
16.0
 20
105.3279
 30
0.0
 11
16.0
 21
108.8278999999999
 31
0.0
  0
LINE
  5
EB
330
1E
100
AcDbEntity
  8
0
100
AcDbLine
 10
16.0
 20
108.8278999999999
 30
0.0
 11
16.0
 21
105.3279
 31
0.0
  0
LINE
  5
EC
330
1E
100
AcDbEntity
  8
0
100
AcDbLine
 10
16.0
 20
108.8278999999999
 30
0.0
 11
16.0
 21
112.3278999999999
 31
0.0
  0
LINE
  5
ED
330
1E
100
AcDbEntity
  8
0
100
AcDbLine
 10
26.0
 20
105.3279
 30
0.0
 11
26.0
 21
106.3279
 31
0.0
  0
LINE
  5
EE
330
1E
100
AcDbEntity
  8
0
100
AcDbLine
 10
26.0
 20
106.3279
 30
0.0
 11
26.0
 21
107.5279
 31
0.0
  0
LINE
  5
EF
330
1E
100
AcDbEntity
  8
0
100
AcDbLine
 10
26.0
 20
107.5279
 30
0.0
 11
26.0
 21
108.8278999999999
 31
0.0
  0
LINE
  5
F0
330
1E
100
AcDbEntity
  8
0
100
AcDbLine
 10
16.0
 20
105.1279
 30
0.0
 11
16.0
 21
105.0278999999999
 31
0.0
  0
LINE
  5
F1
330
1E
100
AcDbEntity
  8
0
100
AcDbLine
 10
16.0
 20
105.1279
 30
0.0
 11
16.0
 21
105.3279
 31
0.0
  0
LINE
  5
F2
330
1E
100
AcDbEntity
  8
0
100
AcDbLine
 10
16.0
 20
105.0278999999999
 30
0.0
 11
16.0
 21
74.3279
 31
0.0
  0
LINE
  5
F3
330
1E
100
AcDbEntity
  8
0
100
AcDbLine
 10
16.0
 20
105.0278999999999
 30
0.0
 11
16.0
 21
105.1279
 31
0.0
  0
LINE
  5
F4
330
1E
100
AcDbEntity
  8
0
100
AcDbLine
 10
15.5
 20
104.8278999999999
 30
0.0
 11
16.0
 21
105.3279
 31
0.0
  0
LINE
  5
F5
330
1E
100
AcDbEntity
  8
0
100
AcDbLine
 10
15.5
 20
104.8278999999999
 30
0.0
 11
16.0
 21
105.3279
 31
0.0
  0
LINE
  5
F6
330
1E
100
AcDbEntity
  8
0
100
AcDbLine
 10
15.5
 20
104.8278999999999
 30
0.0
 11
15.5
 21
104.6278999999999
 31
0.0
  0
LINE
  5
F7
330
1E
100
AcDbEntity
  8
0
100
AcDbLine
 10
26.0
 20
108.8278999999999
 30
0.0
 11
26.0
 21
114.1199
 31
0.0
  0
LINE
  5
F8
330
1E
100
AcDbEntity
  8
0
100
AcDbLine
 10
26.0
 20
108.8278999999999
 30
0.0
 11
26.0
 21
103.5358999999999
 31
0.0
  0
LINE
  5
F9
330
1E
100
AcDbEntity
  8
0
100
AcDbLine
 10
26.0
 20
108.8278999999999
 30
0.0
 11
26.0
 21
110.1278999999999
 31
0.0
  0
LINE
  5
FA
330
1E
100
AcDbEntity
  8
0
100
AcDbLine
 10
68.0
 20
108.8278999999999
 30
0.0
 11
68.0
 21
103.4518999999999
 31
0.0
  0
LINE
  5
FB
330
1E
100
AcDbEntity
  8
0
100
AcDbLine
 10
26.66669999999999
 20
108.8278999999999
 30
0.0
 11
26.66669999999999
 21
114.2039
 31
0.0
  0
LINE
  5
FC
330
1E
100
AcDbEntity
  8
0
100
AcDbLine
 10
26.66669999999999
 20
108.8278999999999
 30
0.0
 11
26.66669999999999
 21
103.4518999999999
 31
0.0
  0
LINE
  5
FD
330
1E
100
AcDbEntity
  8
0
100
AcDbLine
 10
26.0
 20
103.8278999999999
 30
0.0
 11
26.0
 21
103.5358999999999
 31
0.0
  0
LINE
  5
FE
330
1E
100
AcDbEntity
  8
0
100
AcDbLine
 10
26.0
 20
103.8278999999999
 30
0.0
 11
26.0
 21
104.0278999999999
 31
0.0
  0
LINE
  5
FF
330
1E
100
AcDbEntity
  8
0
100
AcDbLine
 10
26.0
 20
103.5358999999999
 30
0.0
 11
26.0
 21
98.6639
 31
0.0
  0
LINE
  5
100
330
1E
100
AcDbEntity
  8
0
100
AcDbLine
 10
26.0
 20
103.5358999999999
 30
0.0
 11
26.0
 21
103.8278999999999
 31
0.0
  0
LINE
  5
101
330
1E
100
AcDbEntity
  8
0
100
AcDbLine
 10
26.0
 20
103.5358999999999
 30
0.0
 11
26.0
 21
108.8278999999999
 31
0.0
  0
LINE
  5
102
330
1E
100
AcDbEntity
  8
0
100
AcDbLine
 10
26.0
 20
103.5358999999999
 30
0.0
 11
26.0
 21
98.6639
 31
0.0
  0
LINE
  5
103
330
1E
100
AcDbEntity
  8
0
100
AcDbLine
 10
70.0
 20
103.8278999999999
 30
0.0
 11
70.0
 21
99.12790000000001
 31
0.0
  0
LINE
  5
104
330
1E
100
AcDbEntity
  8
0
100
AcDbLine
 10
70.0
 20
103.8278999999999
 30
0.0
 11
70.0
 21
108.8278999999999
 31
0.0
  0
LINE
  5
105
330
1E
100
AcDbEntity
  8
0
100
AcDbLine
 10
70.0
 20
103.4278999999999
 30
0.0
 11
70.0
 21
98.32790000000001
 31
0.0
  0
LINE
  5
106
330
1E
100
AcDbEntity
  8
0
100
AcDbLine
 10
70.0
 20
103.4278999999999
 30
0.0
 11
70.0
 21
108.8278999999999
 31
0.0
  0
LINE
  5
107
330
1E
100
AcDbEntity
  8
0
100
AcDbLine
 10
256.0
 20
99.12790000000001
 30
0.0
 11
256.0
 21
103.8278999999999
 31
0.0
  0
LINE
  5
108
330
1E
100
AcDbEntity
  8
0
100
AcDbLine
 10
256.0
 20
103.8278999999999
 30
0.0
 11
256.0
 21
108.8278999999999
 31
0.0
  0
LINE
  5
109
330
1E
100
AcDbEntity
  8
0
100
AcDbLine
 10
254.0
 20
103.4278999999999
 30
0.0
 11
254.0
 21
108.8278999999999
 31
0.0
  0
LINE
  5
10A
330
1E
100
AcDbEntity
  8
0
100
AcDbLine
 10
254.0
 20
103.4278999999999
 30
0.0
 11
254.0
 21
98.32790000000001
 31
0.0
  0
LINE
  5
10B
330
1E
100
AcDbEntity
  8
0
100
AcDbLine
 10
254.0
 20
108.8278999999999
 30
0.0
 11
254.0
 21
114.2279
 31
0.0
  0
LINE
  5
10C
330
1E
100
AcDbEntity
  8
0
100
AcDbLine
 10
254.0
 20
108.8278999999999
 30
0.0
 11
254.0
 21
103.4278999999999
 31
0.0
  0
LINE
  5
10D
330
1E
100
AcDbEntity
  8
0
100
AcDbLine
 10
70.0
 20
108.8278999999999
 30
0.0
 11
70.0
 21
103.4278999999999
 31
0.0
  0
LINE
  5
10E
330
1E
100
AcDbEntity
  8
0
100
AcDbLine
 10
70.0
 20
108.8278999999999
 30
0.0
 11
70.0
 21
103.8278999999999
 31
0.0
  0
LINE
  5
10F
330
1E
100
AcDbEntity
  8
0
100
AcDbLine
 10
70.0
 20
108.8278999999999
 30
0.0
 11
70.0
 21
114.2279
 31
0.0
  0
LINE
  5
110
330
1E
100
AcDbEntity
  8
0
100
AcDbLine
 10
70.0
 20
108.8278999999999
 30
0.0
 11
70.0
 21
113.8279
 31
0.0
  0
LINE
  5
111
330
1E
100
AcDbEntity
  8
0
100
AcDbLine
 10
26.0
 20
112.3278999999999
 30
0.0
 11
26.0
 21
113.1278999999999
 31
0.0
  0
LINE
  5
112
330
1E
100
AcDbEntity
  8
0
100
AcDbLine
 10
26.0
 20
111.3279
 30
0.0
 11
26.0
 21
112.3278999999999
 31
0.0
  0
LINE
  5
113
330
1E
100
AcDbEntity
  8
0
100
AcDbLine
 10
26.0
 20
110.1278999999999
 30
0.0
 11
26.0
 21
111.3279
 31
0.0
  0
LINE
  5
114
330
1E
100
AcDbEntity
  8
0
100
AcDbLine
 10
0.0000000000000032
 20
112.3278999999999
 30
0.0
 11
0.0000000000000032
 21
108.8278999999999
 31
0.0
  0
LINE
  5
115
330
1E
100
AcDbEntity
  8
0
100
AcDbLine
 10
0.0000000000000032
 20
112.3278999999999
 30
0.0
 11
0.5000000000000031
 21
112.8279
 31
0.0
  0
LINE
  5
116
330
1E
100
AcDbEntity
  8
0
100
AcDbLine
 10
0.0000000000000032
 20
112.3278999999999
 30
0.0
 11
0.0000000000000032
 21
112.5279
 31
0.0
  0
LINE
  5
117
330
1E
100
AcDbEntity
  8
0
100
AcDbLine
 10
0.0000000000000032
 20
112.6279
 30
0.0
 11
0.5000000000000031
 21
113.2279
 31
0.0
  0
LINE
  5
118
330
1E
100
AcDbEntity
  8
0
100
AcDbLine
 10
0.0000000000000032
 20
112.6279
 30
0.0
 11
0.0000000000000032
 21
112.5279
 31
0.0
  0
LINE
  5
119
330
1E
100
AcDbEntity
  8
0
100
AcDbLine
 10
0.0000000000000032
 20
112.6279
 30
0.0
 11
0.0000000000000032
 21
143.3278999999999
 31
0.0
  0
LINE
  5
11A
330
1E
100
AcDbEntity
  8
0
100
AcDbLine
 10
0.0000000000000032
 20
112.5279
 30
0.0
 11
0.0000000000000032
 21
112.3278999999999
 31
0.0
  0
LINE
  5
11B
330
1E
100
AcDbEntity
  8
0
100
AcDbLine
 10
0.0000000000000032
 20
112.5279
 30
0.0
 11
0.0000000000000032
 21
112.6279
 31
0.0
  0
LINE
  5
11C
330
1E
100
AcDbEntity
  8
0
100
AcDbLine
 10
16.0
 20
112.6279
 30
0.0
 11
16.0
 21
112.5279
 31
0.0
  0
LINE
  5
11D
330
1E
100
AcDbEntity
  8
0
100
AcDbLine
 10
16.0
 20
112.6279
 30
0.0
 11
16.0
 21
143.3278999999999
 31
0.0
  0
LINE
  5
11E
330
1E
100
AcDbEntity
  8
0
100
AcDbLine
 10
0.5000000000000031
 20
112.8279
 30
0.0
 11
15.5
 21
112.8279
 31
0.0
  0
LINE
  5
11F
330
1E
100
AcDbEntity
  8
0
100
AcDbLine
 10
0.5000000000000031
 20
112.8279
 30
0.0
 11
0.5000000000000031
 21
108.8278999999999
 31
0.0
  0
LINE
  5
120
330
1E
100
AcDbEntity
  8
0
100
AcDbLine
 10
0.5000000000000031
 20
112.8279
 30
0.0
 11
15.5
 21
112.8279
 31
0.0
  0
LINE
  5
121
330
1E
100
AcDbEntity
  8
0
100
AcDbLine
 10
0.5000000000000031
 20
112.8279
 30
0.0
 11
0.5000000000000031
 21
113.0279
 31
0.0
  0
LINE
  5
122
330
1E
100
AcDbEntity
  8
0
100
AcDbLine
 10
0.5000000000000031
 20
113.2279
 30
0.0
 11
15.5
 21
113.2279
 31
0.0
  0
LINE
  5
123
330
1E
100
AcDbEntity
  8
0
100
AcDbLine
 10
0.5000000000000031
 20
113.2279
 30
0.0
 11
15.5
 21
113.2279
 31
0.0
  0
LINE
  5
124
330
1E
100
AcDbEntity
  8
0
100
AcDbLine
 10
0.5000000000000031
 20
113.2279
 30
0.0
 11
0.5000000000000031
 21
113.0279
 31
0.0
  0
LINE
  5
125
330
1E
100
AcDbEntity
  8
0
100
AcDbLine
 10
0.5000000000000031
 20
113.2279
 30
0.0
 11
0.5000000000000031
 21
143.8279
 31
0.0
  0
LINE
  5
126
330
1E
100
AcDbEntity
  8
0
100
AcDbLine
 10
15.5
 20
113.2279
 30
0.0
 11
16.0
 21
112.6279
 31
0.0
  0
LINE
  5
127
330
1E
100
AcDbEntity
  8
0
100
AcDbLine
 10
15.5
 20
113.2279
 30
0.0
 11
15.5
 21
113.0279
 31
0.0
  0
LINE
  5
128
330
1E
100
AcDbEntity
  8
0
100
AcDbLine
 10
15.5
 20
113.2279
 30
0.0
 11
15.5
 21
143.8279
 31
0.0
  0
LINE
  5
129
330
1E
100
AcDbEntity
  8
0
100
AcDbLine
 10
0.5000000000000031
 20
113.0279
 30
0.0
 11
0.5000000000000031
 21
112.8279
 31
0.0
  0
LINE
  5
12A
330
1E
100
AcDbEntity
  8
0
100
AcDbLine
 10
0.5000000000000031
 20
113.0279
 30
0.0
 11
0.5000000000000031
 21
113.2279
 31
0.0
  0
LINE
  5
12B
330
1E
100
AcDbEntity
  8
0
100
AcDbLine
 10
16.0
 20
113.8279
 30
0.0
 11
26.0
 21
113.8279
 31
0.0
  0
LINE
  5
12C
330
1E
100
AcDbEntity
  8
0
100
AcDbLine
 10
15.5
 20
113.0279
 30
0.0
 11
15.5
 21
112.8279
 31
0.0
  0
LINE
  5
12D
330
1E
100
AcDbEntity
  8
0
100
AcDbLine
 10
15.5
 20
113.0279
 30
0.0
 11
15.5
 21
113.2279
 31
0.0
  0
LINE
  5
12E
330
1E
100
AcDbEntity
  8
0
100
AcDbLine
 10
15.5
 20
112.8279
 30
0.0
 11
15.5
 21
108.8278999999999
 31
0.0
  0
LINE
  5
12F
330
1E
100
AcDbEntity
  8
0
100
AcDbLine
 10
15.5
 20
112.8279
 30
0.0
 11
16.0
 21
112.3278999999999
 31
0.0
  0
LINE
  5
130
330
1E
100
AcDbEntity
  8
0
100
AcDbLine
 10
15.5
 20
112.8279
 30
0.0
 11
15.5
 21
113.0279
 31
0.0
  0
LINE
  5
131
330
1E
100
AcDbEntity
  8
0
100
AcDbLine
 10
26.0
 20
113.6279
 30
0.0
 11
26.0
 21
113.8279
 31
0.0
  0
LINE
  5
132
330
1E
100
AcDbEntity
  8
0
100
AcDbLine
 10
26.0
 20
113.1278999999999
 30
0.0
 11
26.0
 21
113.6279
 31
0.0
  0
LINE
  5
133
330
1E
100
AcDbEntity
  8
0
100
AcDbLine
 10
16.0
 20
112.5279
 30
0.0
 11
16.0
 21
112.3278999999999
 31
0.0
  0
LINE
  5
134
330
1E
100
AcDbEntity
  8
0
100
AcDbLine
 10
16.0
 20
112.5279
 30
0.0
 11
16.0
 21
112.6279
 31
0.0
  0
LINE
  5
135
330
1E
100
AcDbEntity
  8
0
100
AcDbLine
 10
16.0
 20
112.3278999999999
 30
0.0
 11
16.0
 21
108.8278999999999
 31
0.0
  0
LINE
  5
136
330
1E
100
AcDbEntity
  8
0
100
AcDbLine
 10
16.0
 20
112.3278999999999
 30
0.0
 11
16.0
 21
112.5279
 31
0.0
  0
LINE
  5
137
330
1E
100
AcDbEntity
  8
0
100
AcDbLine
 10
26.0
 20
113.8279
 30
0.0
 11
26.0
 21
114.1199
 31
0.0
  0
LINE
  5
138
330
1E
100
AcDbEntity
  8
0
100
AcDbLine
 10
68.0
 20
114.2039
 30
0.0
 11
68.0
 21
108.8278999999999
 31
0.0
  0
LINE
  5
139
330
1E
100
AcDbEntity
  8
0
100
AcDbLine
 10
26.66669999999999
 20
114.2039
 30
0.0
 11
26.66669999999999
 21
119.2439
 31
0.0
  0
LINE
  5
13A
330
1E
100
AcDbEntity
  8
0
100
AcDbLine
 10
26.66669999999999
 20
114.2039
 30
0.0
 11
26.66669999999999
 21
108.8278999999999
 31
0.0
  0
LINE
  5
13B
330
1E
100
AcDbEntity
  8
0
100
AcDbLine
 10
26.0
 20
114.1199
 30
0.0
 11
26.0
 21
113.8279
 31
0.0
  0
LINE
  5
13C
330
1E
100
AcDbEntity
  8
0
100
AcDbLine
 10
26.0
 20
114.1199
 30
0.0
 11
26.0
 21
118.9918999999999
 31
0.0
  0
LINE
  5
13D
330
1E
100
AcDbEntity
  8
0
100
AcDbLine
 10
26.0
 20
114.1199
 30
0.0
 11
26.0
 21
108.8278999999999
 31
0.0
  0
LINE
  5
13E
330
1E
100
AcDbEntity
  8
0
100
AcDbLine
 10
68.0
 20
119.2439
 30
0.0
 11
68.0
 21
114.2039
 31
0.0
  0
LINE
  5
13F
330
1E
100
AcDbEntity
  8
0
100
AcDbLine
 10
26.66669999999999
 20
119.2439
 30
0.0
 11
26.66669999999999
 21
123.6958999999999
 31
0.0
  0
LINE
  5
140
330
1E
100
AcDbEntity
  8
0
100
AcDbLine
 10
26.66669999999999
 20
119.2439
 30
0.0
 11
26.66669999999999
 21
114.2039
 31
0.0
  0
LINE
  5
141
330
1E
100
AcDbEntity
  8
0
100
AcDbLine
 10
26.0
 20
118.9918999999999
 30
0.0
 11
26.0
 21
114.1199
 31
0.0
  0
LINE
  5
142
330
1E
100
AcDbEntity
  8
0
100
AcDbLine
 10
26.0
 20
118.9918999999999
 30
0.0
 11
26.0
 21
123.2758999999999
 31
0.0
  0
LINE
  5
143
330
1E
100
AcDbEntity
  8
0
100
AcDbLine
 10
70.0
 20
118.5278999999999
 30
0.0
 11
70.0
 21
113.8279
 31
0.0
  0
LINE
  5
144
330
1E
100
AcDbEntity
  8
0
100
AcDbLine
 10
70.0
 20
118.5278999999999
 30
0.0
 11
70.0
 21
122.6278999999999
 31
0.0
  0
LINE
  5
145
330
1E
100
AcDbEntity
  8
0
100
AcDbLine
 10
70.0
 20
113.8279
 30
0.0
 11
70.0
 21
108.8278999999999
 31
0.0
  0
LINE
  5
146
330
1E
100
AcDbEntity
  8
0
100
AcDbLine
 10
70.0
 20
113.8279
 30
0.0
 11
70.0
 21
118.5278999999999
 31
0.0
  0
LINE
  5
147
330
1E
100
AcDbEntity
  8
0
100
AcDbLine
 10
254.0
 20
114.2279
 30
0.0
 11
254.0
 21
119.3278999999999
 31
0.0
  0
LINE
  5
148
330
1E
100
AcDbEntity
  8
0
100
AcDbLine
 10
254.0
 20
114.2279
 30
0.0
 11
254.0
 21
108.8278999999999
 31
0.0
  0
LINE
  5
149
330
1E
100
AcDbEntity
  8
0
100
AcDbLine
 10
256.0
 20
118.5278999999999
 30
0.0
 11
256.0
 21
122.6278999999999
 31
0.0
  0
LINE
  5
14A
330
1E
100
AcDbEntity
  8
0
100
AcDbLine
 10
256.0
 20
113.8279
 30
0.0
 11
256.0
 21
118.5278999999999
 31
0.0
  0
LINE
  5
14B
330
1E
100
AcDbEntity
  8
0
100
AcDbLine
 10
70.0
 20
114.2279
 30
0.0
 11
70.0
 21
108.8278999999999
 31
0.0
  0
LINE
  5
14C
330
1E
100
AcDbEntity
  8
0
100
AcDbLine
 10
70.0
 20
114.2279
 30
0.0
 11
70.0
 21
119.3278999999999
 31
0.0
  0
LINE
  5
14D
330
1E
100
AcDbEntity
  8
0
100
AcDbLine
 10
256.0
 20
108.8278999999999
 30
0.0
 11
256.0
 21
103.4518999999999
 31
0.0
  0
LINE
  5
14E
330
1E
100
AcDbEntity
  8
0
100
AcDbLine
 10
256.0
 20
108.8278999999999
 30
0.0
 11
256.0
 21
113.8279
 31
0.0
  0
LINE
  5
14F
330
1E
100
AcDbEntity
  8
0
100
AcDbLine
 10
256.0
 20
103.4518999999999
 30
0.0
 11
256.0
 21
98.4119
 31
0.0
  0
LINE
  5
150
330
1E
100
AcDbEntity
  8
0
100
AcDbLine
 10
256.0
 20
98.4119
 30
0.0
 11
256.0
 21
93.95990000000001
 31
0.0
  0
LINE
  5
151
330
1E
100
AcDbEntity
  8
0
100
AcDbLine
 10
256.0
 20
93.95990000000001
 30
0.0
 11
256.0
 21
90.5999
 31
0.0
  0
LINE
  5
152
330
1E
100
AcDbEntity
  8
0
100
AcDbLine
 10
256.0
 20
90.5999
 30
0.0
 11
256.0
 21
88.58389999999999
 31
0.0
  0
LINE
  5
153
330
1E
100
AcDbEntity
  8
0
100
AcDbLine
 10
256.0
 20
114.2039
 30
0.0
 11
256.0
 21
108.8278999999999
 31
0.0
  0
LINE
  5
154
330
1E
100
AcDbEntity
  8
0
100
AcDbLine
 10
26.0
 20
123.2758999999999
 30
0.0
 11
26.0
 21
118.9918999999999
 31
0.0
  0
LINE
  5
155
330
1E
100
AcDbEntity
  8
0
100
AcDbLine
 10
26.0
 20
123.2758999999999
 30
0.0
 11
26.0
 21
126.5519
 31
0.0
  0
LINE
  5
156
330
1E
100
AcDbEntity
  8
0
100
AcDbLine
 10
70.0
 20
122.6278999999999
 30
0.0
 11
70.0
 21
118.5278999999999
 31
0.0
  0
LINE
  5
157
330
1E
100
AcDbEntity
  8
0
100
AcDbLine
 10
70.0
 20
122.6278999999999
 30
0.0
 11
70.0
 21
125.7279
 31
0.0
  0
LINE
  5
158
330
1E
100
AcDbEntity
  8
0
100
AcDbLine
 10
68.0
 20
123.6958999999999
 30
0.0
 11
68.0
 21
119.2439
 31
0.0
  0
LINE
  5
159
330
1E
100
AcDbEntity
  8
0
100
AcDbLine
 10
26.66669999999999
 20
123.6958999999999
 30
0.0
 11
26.66669999999999
 21
127.0558999999999
 31
0.0
  0
LINE
  5
15A
330
1E
100
AcDbEntity
  8
0
100
AcDbLine
 10
26.66669999999999
 20
123.6958999999999
 30
0.0
 11
26.66669999999999
 21
119.2439
 31
0.0
  0
LINE
  5
15B
330
1E
100
AcDbEntity
  8
0
100
AcDbLine
 10
68.0
 20
127.0558999999999
 30
0.0
 11
68.0
 21
123.6958999999999
 31
0.0
  0
LINE
  5
15C
330
1E
100
AcDbEntity
  8
0
100
AcDbLine
 10
26.66669999999999
 20
127.0558999999999
 30
0.0
 11
26.66669999999999
 21
129.0718999999999
 31
0.0
  0
LINE
  5
15D
330
1E
100
AcDbEntity
  8
0
100
AcDbLine
 10
26.66669999999999
 20
127.0558999999999
 30
0.0
 11
26.66669999999999
 21
123.6958999999999
 31
0.0
  0
LINE
  5
15E
330
1E
100
AcDbEntity
  8
0
100
AcDbLine
 10
26.0
 20
126.5519
 30
0.0
 11
26.0
 21
123.2758999999999
 31
0.0
  0
LINE
  5
15F
330
1E
100
AcDbEntity
  8
0
100
AcDbLine
 10
26.0
 20
126.5519
 30
0.0
 11
26.0
 21
128.5679
 31
0.0
  0
LINE
  5
160
330
1E
100
AcDbEntity
  8
0
100
AcDbLine
 10
70.0
 20
125.7279
 30
0.0
 11
70.0
 21
122.6278999999999
 31
0.0
  0
LINE
  5
161
330
1E
100
AcDbEntity
  8
0
100
AcDbLine
 10
70.0
 20
125.7279
 30
0.0
 11
70.0
 21
127.6278999999999
 31
0.0
  0
LINE
  5
162
330
1E
100
AcDbEntity
  8
0
100
AcDbLine
 10
70.0
 20
127.0279
 30
0.0
 11
70.0
 21
123.6278999999999
 31
0.0
  0
LINE
  5
163
330
1E
100
AcDbEntity
  8
0
100
AcDbLine
 10
70.0
 20
127.0279
 30
0.0
 11
70.0
 21
129.0278999999999
 31
0.0
  0
LINE
  5
164
330
1E
100
AcDbEntity
  8
0
100
AcDbLine
 10
70.0
 20
123.6278999999999
 30
0.0
 11
70.0
 21
119.3278999999999
 31
0.0
  0
LINE
  5
165
330
1E
100
AcDbEntity
  8
0
100
AcDbLine
 10
70.0
 20
123.6278999999999
 30
0.0
 11
70.0
 21
127.0279
 31
0.0
  0
LINE
  5
166
330
1E
100
AcDbEntity
  8
0
100
AcDbLine
 10
254.0
 20
119.3278999999999
 30
0.0
 11
254.0
 21
123.6278999999999
 31
0.0
  0
LINE
  5
167
330
1E
100
AcDbEntity
  8
0
100
AcDbLine
 10
254.0
 20
119.3278999999999
 30
0.0
 11
254.0
 21
114.2279
 31
0.0
  0
LINE
  5
168
330
1E
100
AcDbEntity
  8
0
100
AcDbLine
 10
254.0
 20
127.0279
 30
0.0
 11
254.0
 21
129.0278999999999
 31
0.0
  0
LINE
  5
169
330
1E
100
AcDbEntity
  8
0
100
AcDbLine
 10
254.0
 20
127.0279
 30
0.0
 11
254.0
 21
123.6278999999999
 31
0.0
  0
LINE
  5
16A
330
1E
100
AcDbEntity
  8
0
100
AcDbLine
 10
254.0
 20
123.6278999999999
 30
0.0
 11
254.0
 21
127.0279
 31
0.0
  0
LINE
  5
16B
330
1E
100
AcDbEntity
  8
0
100
AcDbLine
 10
254.0
 20
123.6278999999999
 30
0.0
 11
254.0
 21
119.3278999999999
 31
0.0
  0
LINE
  5
16C
330
1E
100
AcDbEntity
  8
0
100
AcDbLine
 10
256.0
 20
125.7279
 30
0.0
 11
256.0
 21
127.6278999999999
 31
0.0
  0
LINE
  5
16D
330
1E
100
AcDbEntity
  8
0
100
AcDbLine
 10
256.0
 20
122.6278999999999
 30
0.0
 11
256.0
 21
125.7279
 31
0.0
  0
LINE
  5
16E
330
1E
100
AcDbEntity
  8
0
100
AcDbLine
 10
70.0
 20
119.3278999999999
 30
0.0
 11
70.0
 21
114.2279
 31
0.0
  0
LINE
  5
16F
330
1E
100
AcDbEntity
  8
0
100
AcDbLine
 10
70.0
 20
119.3278999999999
 30
0.0
 11
70.0
 21
123.6278999999999
 31
0.0
  0
LINE
  5
170
330
1E
100
AcDbEntity
  8
0
100
AcDbLine
 10
256.0
 20
119.2439
 30
0.0
 11
256.0
 21
114.2039
 31
0.0
  0
LINE
  5
171
330
1E
100
AcDbEntity
  8
0
100
AcDbLine
 10
256.0
 20
123.6958999999999
 30
0.0
 11
256.0
 21
119.2439
 31
0.0
  0
LINE
  5
172
330
1E
100
AcDbEntity
  8
0
100
AcDbLine
 10
26.0
 20
128.5679
 30
0.0
 11
26.0
 21
126.5519
 31
0.0
  0
LINE
  5
173
330
1E
100
AcDbEntity
  8
0
100
AcDbLine
 10
26.0
 20
128.5679
 30
0.0
 11
26.0
 21
129.3239
 31
0.0
  0
LINE
  5
174
330
1E
100
AcDbEntity
  8
0
100
AcDbLine
 10
68.0
 20
128.3279
 30
0.0
 11
70.0
 21
128.3279
 31
0.0
  0
LINE
  5
175
330
1E
100
AcDbEntity
  8
0
100
AcDbLine
 10
70.0
 20
127.6278999999999
 30
0.0
 11
70.0
 21
125.7279
 31
0.0
  0
LINE
  5
176
330
1E
100
AcDbEntity
  8
0
100
AcDbLine
 10
70.0
 20
127.6278999999999
 30
0.0
 11
70.0
 21
128.3279
 31
0.0
  0
LINE
  5
177
330
1E
100
AcDbEntity
  8
0
100
AcDbLine
 10
68.0
 20
129.0718999999999
 30
0.0
 11
68.0
 21
127.0558999999999
 31
0.0
  0
LINE
  5
178
330
1E
100
AcDbEntity
  8
0
100
AcDbLine
 10
26.66669999999999
 20
129.0718999999999
 30
0.0
 11
26.66669999999999
 21
129.8278999999999
 31
0.0
  0
LINE
  5
179
330
1E
100
AcDbEntity
  8
0
100
AcDbLine
 10
26.66669999999999
 20
129.0718999999999
 30
0.0
 11
26.66669999999999
 21
127.0558999999999
 31
0.0
  0
LINE
  5
17A
330
1E
100
AcDbEntity
  8
0
100
AcDbLine
 10
70.0
 20
129.0278999999999
 30
0.0
 11
70.0
 21
129.8278999999999
 31
0.0
  0
LINE
  5
17B
330
1E
100
AcDbEntity
  8
0
100
AcDbLine
 10
70.0
 20
129.0278999999999
 30
0.0
 11
70.0
 21
128.3279
 31
0.0
  0
LINE
  5
17C
330
1E
100
AcDbEntity
  8
0
100
AcDbLine
 10
70.0
 20
129.0278999999999
 30
0.0
 11
70.0
 21
127.0279
 31
0.0
  0
LINE
  5
17D
330
1E
100
AcDbEntity
  8
0
100
AcDbLine
 10
256.0
 20
127.6278999999999
 30
0.0
 11
256.0
 21
128.3279
 31
0.0
  0
LINE
  5
17E
330
1E
100
AcDbEntity
  8
0
100
AcDbLine
 10
254.0
 20
129.0278999999999
 30
0.0
 11
254.0
 21
129.8278999999999
 31
0.0
  0
LINE
  5
17F
330
1E
100
AcDbEntity
  8
0
100
AcDbLine
 10
254.0
 20
129.0278999999999
 30
0.0
 11
254.0
 21
127.0279
 31
0.0
  0
LINE
  5
180
330
1E
100
AcDbEntity
  8
0
100
AcDbLine
 10
254.0
 20
128.3279
 30
0.0
 11
256.0
 21
128.3279
 31
0.0
  0
LINE
  5
181
330
1E
100
AcDbEntity
  8
0
100
AcDbLine
 10
70.0
 20
128.3279
 30
0.0
 11
70.0
 21
129.0278999999999
 31
0.0
  0
LINE
  5
182
330
1E
100
AcDbEntity
  8
0
100
AcDbLine
 10
70.0
 20
128.3279
 30
0.0
 11
70.0
 21
127.6278999999999
 31
0.0
  0
LINE
  5
183
330
1E
100
AcDbEntity
  8
0
100
AcDbLine
 10
256.0
 20
127.0558999999999
 30
0.0
 11
256.0
 21
123.6958999999999
 31
0.0
  0
LINE
  5
184
330
1E
100
AcDbEntity
  8
0
100
AcDbLine
 10
256.0
 20
128.3279
 30
0.0
 11
256.0
 21
129.0718999999999
 31
0.0
  0
LINE
  5
185
330
1E
100
AcDbEntity
  8
0
100
AcDbLine
 10
26.0
 20
129.3239
 30
0.0
 11
26.0
 21
128.5679
 31
0.0
  0
LINE
  5
186
330
1E
100
AcDbEntity
  8
0
100
AcDbLine
 10
26.0
 20
129.3239
 30
0.0
 11
26.66669999999999
 21
129.8278999999999
 31
0.0
  0
LINE
  5
187
330
1E
100
AcDbEntity
  8
0
100
AcDbLine
 10
26.66669999999999
 20
129.8278999999999
 30
0.0
 11
68.0
 21
129.8278999999999
 31
0.0
  0
LINE
  5
188
330
1E
100
AcDbEntity
  8
0
100
AcDbLine
 10
26.66669999999999
 20
129.8278999999999
 30
0.0
 11
26.66669999999999
 21
129.0718999999999
 31
0.0
  0
LINE
  5
189
330
1E
100
AcDbEntity
  8
0
100
AcDbLine
 10
68.0
 20
129.8278999999999
 30
0.0
 11
68.0
 21
129.0718999999999
 31
0.0
  0
LINE
  5
18A
330
1E
100
AcDbEntity
  8
0
100
AcDbLine
 10
63.1820895522388
 20
129.8278999999999
 30
0.0
 11
64.40000000000001
 21
131.4278999999999
 31
0.0
  0
LINE
  5
18B
330
1E
100
AcDbEntity
  8
0
100
AcDbLine
 10
0.0000000000000032
 20
143.3278999999999
 30
0.0
 11
0.5000000000000031
 21
143.8279
 31
0.0
  0
LINE
  5
18C
330
1E
100
AcDbEntity
  8
0
100
AcDbLine
 10
0.0000000000000032
 20
143.3278999999999
 30
0.0
 11
0.0000000000000032
 21
112.6279
 31
0.0
  0
LINE
  5
18D
330
1E
100
AcDbEntity
  8
0
100
AcDbLine
 10
0.5000000000000031
 20
143.8279
 30
0.0
 11
15.5
 21
143.8279
 31
0.0
  0
LINE
  5
18E
330
1E
100
AcDbEntity
  8
0
100
AcDbLine
 10
0.5000000000000031
 20
143.8279
 30
0.0
 11
15.5
 21
143.8279
 31
0.0
  0
LINE
  5
18F
330
1E
100
AcDbEntity
  8
0
100
AcDbLine
 10
0.5000000000000031
 20
143.8279
 30
0.0
 11
0.5000000000000031
 21
113.2279
 31
0.0
  0
LINE
  5
190
330
1E
100
AcDbEntity
  8
0
100
AcDbLine
 10
15.5
 20
143.8279
 30
0.0
 11
16.0
 21
143.3278999999999
 31
0.0
  0
LINE
  5
191
330
1E
100
AcDbEntity
  8
0
100
AcDbLine
 10
15.5
 20
143.8279
 30
0.0
 11
15.5
 21
113.2279
 31
0.0
  0
LINE
  5
192
330
1E
100
AcDbEntity
  8
0
100
AcDbLine
 10
16.0
 20
143.3278999999999
 30
0.0
 11
16.0
 21
112.6279
 31
0.0
  0
LINE
  5
193
330
1E
100
AcDbEntity
  8
0
100
AcDbLine
 10
64.40000000000001
 20
131.4278999999999
 30
0.0
 11
71.09999999999999
 21
136.5278999999999
 31
0.0
  0
LINE
  5
194
330
1E
100
AcDbEntity
  8
0
100
AcDbLine
 10
63.0
 20
132.8278999999999
 30
0.0
 11
70.09999999999999
 21
138.2279
 31
0.0
  0
LINE
  5
195
330
1E
100
AcDbEntity
  8
0
100
AcDbLine
 10
60.71830985915489
 20
129.8278999999999
 30
0.0
 11
63.0
 21
132.8278999999999
 31
0.0
  0
LINE
  5
196
330
1E
100
AcDbEntity
  8
0
100
AcDbLine
 10
213.182089552239
 20
129.8278999999999
 30
0.0
 11
214.4
 21
131.4278999999999
 31
0.0
  0
LINE
  5
197
330
1E
100
AcDbEntity
  8
0
100
AcDbLine
 10
210.718309859155
 20
129.8278999999999
 30
0.0
 11
213.0
 21
132.8278999999999
 31
0.0
  0
LINE
  5
198
330
1E
100
AcDbEntity
  8
0
100
AcDbLine
 10
254.0
 20
129.8278999999999
 30
0.0
 11
254.0
 21
129.0278999999999
 31
0.0
  0
LINE
  5
199
330
1E
100
AcDbEntity
  8
0
100
AcDbLine
 10
102.9
 20
136.5278999999999
 30
0.0
 11
109.5999999999999
 21
131.4278999999999
 31
0.0
  0
LINE
  5
19A
330
1E
100
AcDbEntity
  8
0
100
AcDbLine
 10
109.5999999999999
 20
131.4278999999999
 30
0.0
 11
110.817910447761
 21
129.8278999999999
 31
0.0
  0
LINE
  5
19B
330
1E
100
AcDbEntity
  8
0
100
AcDbLine
 10
95.29999999999999
 20
139.6279
 30
0.0
 11
102.9
 21
136.5278999999999
 31
0.0
  0
LINE
  5
19C
330
1E
100
AcDbEntity
  8
0
100
AcDbLine
 10
103.9
 20
138.2279
 30
0.0
 11
111.0
 21
132.8278999999999
 31
0.0
  0
LINE
  5
19D
330
1E
100
AcDbEntity
  8
0
100
AcDbLine
 10
214.4
 20
131.4278999999999
 30
0.0
 11
221.0999999999999
 21
136.5278999999999
 31
0.0
  0
LINE
  5
19E
330
1E
100
AcDbEntity
  8
0
100
AcDbLine
 10
221.0999999999999
 20
136.5278999999999
 30
0.0
 11
228.6999999999999
 21
139.6279
 31
0.0
  0
LINE
  5
19F
330
1E
100
AcDbEntity
  8
0
100
AcDbLine
 10
220.1
 20
138.2279
 30
0.0
 11
228.2
 21
141.6279
 31
0.0
  0
LINE
  5
1A0
330
1E
100
AcDbEntity
  8
0
100
AcDbLine
 10
213.0
 20
132.8278999999999
 30
0.0
 11
220.1
 21
138.2279
 31
0.0
  0
LINE
  5
1A1
330
1E
100
AcDbEntity
  8
0
100
AcDbLine
 10
252.8999999999999
 20
136.5278999999999
 30
0.0
 11
259.6
 21
131.4278999999999
 31
0.0
  0
LINE
  5
1A2
330
1E
100
AcDbEntity
  8
0
100
AcDbLine
 10
228.6999999999999
 20
139.6279
 30
0.0
 11
237.0
 21
140.8279
 31
0.0
  0
LINE
  5
1A3
330
1E
100
AcDbEntity
  8
0
100
AcDbLine
 10
245.3
 20
139.6279
 30
0.0
 11
252.8999999999999
 21
136.5278999999999
 31
0.0
  0
LINE
  5
1A4
330
1E
100
AcDbEntity
  8
0
100
AcDbLine
 10
253.9
 20
138.2279
 30
0.0
 11
261.0
 21
132.8278999999999
 31
0.0
  0
LINE
  5
1A5
330
1E
100
AcDbEntity
  8
0
100
AcDbLine
 10
111.0
 20
132.8278999999999
 30
0.0
 11
113.2816901408449
 21
129.8278999999999
 31
0.0
  0
LINE
  5
1A6
330
1E
100
AcDbEntity
  8
0
100
AcDbLine
 10
87.0
 20
140.8279
 30
0.0
 11
95.29999999999999
 21
139.6279
 31
0.0
  0
LINE
  5
1A7
330
1E
100
AcDbEntity
  8
0
100
AcDbLine
 10
228.2
 20
141.6279
 30
0.0
 11
237.0
 21
142.8279
 31
0.0
  0
LINE
  5
1A8
330
1E
100
AcDbEntity
  8
0
100
AcDbLine
 10
237.0
 20
140.8279
 30
0.0
 11
245.3
 21
139.6279
 31
0.0
  0
LINE
  5
1A9
330
1E
100
AcDbEntity
  8
0
100
AcDbLine
 10
245.8
 20
141.6279
 30
0.0
 11
253.9
 21
138.2279
 31
0.0
  0
LINE
  5
1AA
330
1E
100
AcDbEntity
  8
0
100
AcDbLine
 10
95.8
 20
141.6279
 30
0.0
 11
103.9
 21
138.2279
 31
0.0
  0
LINE
  5
1AB
330
1E
100
AcDbEntity
  8
0
100
AcDbLine
 10
78.7
 20
139.6279
 30
0.0
 11
87.0
 21
140.8279
 31
0.0
  0
LINE
  5
1AC
330
1E
100
AcDbEntity
  8
0
100
AcDbLine
 10
71.09999999999999
 20
136.5278999999999
 30
0.0
 11
78.7
 21
139.6279
 31
0.0
  0
LINE
  5
1AD
330
1E
100
AcDbEntity
  8
0
100
AcDbLine
 10
237.0
 20
142.8279
 30
0.0
 11
245.8
 21
141.6279
 31
0.0
  0
LINE
  5
1AE
330
1E
100
AcDbEntity
  8
0
100
AcDbLine
 10
87.0
 20
142.8279
 30
0.0
 11
95.8
 21
141.6279
 31
0.0
  0
LINE
  5
1AF
330
1E
100
AcDbEntity
  8
0
100
AcDbLine
 10
78.2
 20
141.6279
 30
0.0
 11
87.0
 21
142.8279
 31
0.0
  0
LINE
  5
1B0
330
1E
100
AcDbEntity
  8
0
100
AcDbLine
 10
70.09999999999999
 20
138.2279
 30
0.0
 11
78.2
 21
141.6279
 31
0.0
  0
LINE
  5
1B1
330
1E
100
AcDbEntity
  8
0
100
AcDbLine
 10
162.0
 20
129.8278999999999
 30
0.0
 11
254.0
 21
129.8278999999999
 31
0.0
  0
LINE
  5
1B2
330
1E
100
AcDbEntity
  8
0
100
AcDbLine
 10
70.0
 20
129.8278999999999
 30
0.0
 11
162.0
 21
129.8278999999999
 31
0.0
  0
LINE
  5
1B3
330
1E
100
AcDbEntity
  8
0
100
AcDbLine
 10
70.0
 20
129.8278999999999
 30
0.0
 11
70.0
 21
129.0278999999999
 31
0.0
  0
LINE
  5
1B4
330
1E
100
AcDbEntity
  8
0
100
AcDbLine
 10
256.0
 20
129.0718999999999
 30
0.0
 11
256.0
 21
129.8278999999999
 31
0.0
  0
LINE
  5
1B5
330
1E
100
AcDbEntity
  8
0
100
AcDbLine
 10
256.0
 20
129.0718999999999
 30
0.0
 11
256.0
 21
127.0558999999999
 31
0.0
  0
LINE
  5
1B6
330
1E
100
AcDbEntity
  8
0
100
AcDbLine
 10
256.0
 20
129.8278999999999
 30
0.0
 11
285.7979999999999
 21
129.8278999999999
 31
0.0
  0
LINE
  5
1B7
330
1E
100
AcDbEntity
  8
0
100
AcDbLine
 10
256.0
 20
129.8278999999999
 30
0.0
 11
256.0
 21
129.0718999999999
 31
0.0
  0
LINE
  5
1B8
330
1E
100
AcDbEntity
  8
0
100
AcDbLine
 10
256.0
 20
88.58389999999999
 30
0.0
 11
256.0
 21
89.3279
 31
0.0
  0
LINE
  5
1B9
330
1E
100
AcDbEntity
  8
0
100
AcDbLine
 10
256.0
 20
88.58389999999999
 30
0.0
 11
256.0
 21
87.8279
 31
0.0
  0
LINE
  5
1BA
330
1E
100
AcDbEntity
  8
0
100
AcDbLine
 10
259.6
 20
86.2279
 30
0.0
 11
260.8179104477609
 21
87.8279
 31
0.0
  0
LINE
  5
1BB
330
1E
100
AcDbEntity
  8
0
100
AcDbLine
 10
261.0
 20
84.82789999999999
 30
0.0
 11
263.281690140845
 21
87.8279
 31
0.0
  0
LINE
  5
1BC
330
1E
100
AcDbEntity
  8
0
100
AcDbLine
 10
259.6
 20
131.4278999999999
 30
0.0
 11
260.8179104477609
 21
129.8278999999999
 31
0.0
  0
LINE
  5
1BD
330
1E
100
AcDbEntity
  8
0
100
AcDbLine
 10
261.0
 20
132.8278999999999
 30
0.0
 11
263.281690140845
 21
129.8278999999999
 31
0.0
  0
LINE
  5
1BE
330
1E
100
AcDbEntity
  8
0
100
AcDbLine
 10
277.7979999999999
 20
133.4519
 30
0.0
 11
277.8939999999999
 21
133.5471
 31
0.0
  0
LINE
  5
1BF
330
1E
100
AcDbEntity
  8
0
100
AcDbLine
 10
277.7979999999999
 20
133.4519
 30
0.0
 11
277.7979999999999
 21
129.8278999999999
 31
0.0
  0
LINE
  5
1C0
330
1E
100
AcDbEntity
  8
0
100
AcDbLine
 10
277.7979999999999
 20
133.4519
 30
0.0
 11
277.942
 21
133.4519
 31
0.0
  0
LINE
  5
1C1
330
1E
100
AcDbEntity
  8
0
100
AcDbLine
 10
281.798
 20
133.4519
 30
0.0
 11
282.8219999999999
 21
133.4519
 31
0.0
  0
LINE
  5
1C2
330
1E
100
AcDbEntity
  8
0
100
AcDbLine
 10
282.8219999999999
 20
133.4519
 30
0.0
 11
283.7819999999999
 21
133.4519
 31
0.0
  0
LINE
  5
1C3
330
1E
100
AcDbEntity
  8
0
100
AcDbLine
 10
283.7819999999999
 20
133.4519
 30
0.0
 11
284.6299999999999
 21
133.4519
 31
0.0
  0
LINE
  5
1C4
330
1E
100
AcDbEntity
  8
0
100
AcDbLine
 10
284.6299999999999
 20
133.4519
 30
0.0
 11
285.27
 21
133.4519
 31
0.0
  0
LINE
  5
1C5
330
1E
100
AcDbEntity
  8
0
100
AcDbLine
 10
285.27
 20
133.4519
 30
0.0
 11
285.6539999999999
 21
133.4519
 31
0.0
  0
LINE
  5
1C6
330
1E
100
AcDbEntity
  8
0
100
AcDbLine
 10
285.6539999999999
 20
133.4519
 30
0.0
 11
285.7979999999999
 21
133.4519
 31
0.0
  0
LINE
  5
1C7
330
1E
100
AcDbEntity
  8
0
100
AcDbLine
 10
280.7739999999999
 20
133.4519
 30
0.0
 11
281.798
 21
133.4519
 31
0.0
  0
LINE
  5
1C8
330
1E
100
AcDbEntity
  8
0
100
AcDbLine
 10
279.814
 20
133.4519
 30
0.0
 11
280.7739999999999
 21
133.4519
 31
0.0
  0
LINE
  5
1C9
330
1E
100
AcDbEntity
  8
0
100
AcDbLine
 10
278.966
 20
133.4519
 30
0.0
 11
279.814
 21
133.4519
 31
0.0
  0
LINE
  5
1CA
330
1E
100
AcDbEntity
  8
0
100
AcDbLine
 10
278.3259999999999
 20
133.4519
 30
0.0
 11
278.966
 21
133.4519
 31
0.0
  0
LINE
  5
1CB
330
1E
100
AcDbEntity
  8
0
100
AcDbLine
 10
277.942
 20
133.4519
 30
0.0
 11
278.3259999999999
 21
133.4519
 31
0.0
  0
LINE
  5
1CC
330
1E
100
AcDbEntity
  8
0
100
AcDbLine
 10
277.7979999999999
 20
129.8278999999999
 30
0.0
 11
277.7979999999999
 21
133.4519
 31
0.0
  0
LINE
  5
1CD
330
1E
100
AcDbEntity
  8
0
100
AcDbLine
 10
281.798
 20
133.5471
 30
0.0
 11
282.8059999999999
 21
133.5471
 31
0.0
  0
LINE
  5
1CE
330
1E
100
AcDbEntity
  8
0
100
AcDbLine
 10
282.8059999999999
 20
133.5471
 30
0.0
 11
283.734
 21
133.5471
 31
0.0
  0
LINE
  5
1CF
330
1E
100
AcDbEntity
  8
0
100
AcDbLine
 10
283.734
 20
133.5471
 30
0.0
 11
284.55
 21
133.5471
 31
0.0
  0
LINE
  5
1D0
330
1E
100
AcDbEntity
  8
0
100
AcDbLine
 10
284.55
 20
133.5471
 30
0.0
 11
285.174
 21
133.5471
 31
0.0
  0
LINE
  5
1D1
330
1E
100
AcDbEntity
  8
0
100
AcDbLine
 10
285.174
 20
133.5471
 30
0.0
 11
285.5579999999999
 21
133.5471
 31
0.0
  0
LINE
  5
1D2
330
1E
100
AcDbEntity
  8
0
100
AcDbLine
 10
285.5579999999999
 20
133.5471
 30
0.0
 11
285.7019999999999
 21
133.5471
 31
0.0
  0
LINE
  5
1D3
330
1E
100
AcDbEntity
  8
0
100
AcDbLine
 10
280.79
 20
133.5471
 30
0.0
 11
281.798
 21
133.5471
 31
0.0
  0
LINE
  5
1D4
330
1E
100
AcDbEntity
  8
0
100
AcDbLine
 10
279.862
 20
133.5471
 30
0.0
 11
280.79
 21
133.5471
 31
0.0
  0
LINE
  5
1D5
330
1E
100
AcDbEntity
  8
0
100
AcDbLine
 10
279.0459999999999
 20
133.5471
 30
0.0
 11
279.862
 21
133.5471
 31
0.0
  0
LINE
  5
1D6
330
1E
100
AcDbEntity
  8
0
100
AcDbLine
 10
278.422
 20
133.5471
 30
0.0
 11
279.0459999999999
 21
133.5471
 31
0.0
  0
LINE
  5
1D7
330
1E
100
AcDbEntity
  8
0
100
AcDbLine
 10
278.038
 20
133.5471
 30
0.0
 11
278.422
 21
133.5471
 31
0.0
  0
LINE
  5
1D8
330
1E
100
AcDbEntity
  8
0
100
AcDbLine
 10
277.8939999999999
 20
133.5471
 30
0.0
 11
278.038
 21
133.5471
 31
0.0
  0
LINE
  5
1D9
330
1E
100
AcDbEntity
  8
0
100
AcDbLine
 10
285.7019999999999
 20
133.5471
 30
0.0
 11
285.7979999999999
 21
133.4519
 31
0.0
  0
LINE
  5
1DA
330
1E
100
AcDbEntity
  8
0
100
AcDbLine
 10
285.7979999999999
 20
133.4519
 30
0.0
 11
285.7979999999999
 21
129.8278999999999
 31
0.0
  0
LINE
  5
1DB
330
1E
100
AcDbEntity
  8
0
100
AcDbLine
 10
297.3329999999999
 20
103.4518999999999
 30
0.0
 11
297.3329999999999
 21
108.8278999999999
 31
0.0
  0
LINE
  5
1DC
330
1E
100
AcDbEntity
  8
0
100
AcDbLine
 10
297.3329999999999
 20
103.4518999999999
 30
0.0
 11
297.3329999999999
 21
98.4119
 31
0.0
  0
LINE
  5
1DD
330
1E
100
AcDbEntity
  8
0
100
AcDbLine
 10
297.3329999999999
 20
98.4119
 30
0.0
 11
297.3329999999999
 21
103.4518999999999
 31
0.0
  0
LINE
  5
1DE
330
1E
100
AcDbEntity
  8
0
100
AcDbLine
 10
297.3329999999999
 20
98.4119
 30
0.0
 11
297.3329999999999
 21
93.95990000000001
 31
0.0
  0
LINE
  5
1DF
330
1E
100
AcDbEntity
  8
0
100
AcDbLine
 10
297.3329999999999
 20
93.95990000000001
 30
0.0
 11
297.3329999999999
 21
98.4119
 31
0.0
  0
LINE
  5
1E0
330
1E
100
AcDbEntity
  8
0
100
AcDbLine
 10
297.3329999999999
 20
93.95990000000001
 30
0.0
 11
297.3329999999999
 21
90.5999
 31
0.0
  0
LINE
  5
1E1
330
1E
100
AcDbEntity
  8
0
100
AcDbLine
 10
297.3329999999999
 20
90.5999
 30
0.0
 11
297.3329999999999
 21
93.95990000000001
 31
0.0
  0
LINE
  5
1E2
330
1E
100
AcDbEntity
  8
0
100
AcDbLine
 10
297.3329999999999
 20
90.5999
 30
0.0
 11
297.3329999999999
 21
88.58389999999999
 31
0.0
  0
LINE
  5
1E3
330
1E
100
AcDbEntity
  8
0
100
AcDbLine
 10
297.3329999999999
 20
88.58389999999999
 30
0.0
 11
297.3329999999999
 21
90.5999
 31
0.0
  0
LINE
  5
1E4
330
1E
100
AcDbEntity
  8
0
100
AcDbLine
 10
297.3329999999999
 20
88.58389999999999
 30
0.0
 11
297.3329999999999
 21
87.8279
 31
0.0
  0
LINE
  5
1E5
330
1E
100
AcDbEntity
  8
0
100
AcDbLine
 10
297.3329999999999
 20
108.8278999999999
 30
0.0
 11
297.3329999999999
 21
114.2039
 31
0.0
  0
LINE
  5
1E6
330
1E
100
AcDbEntity
  8
0
100
AcDbLine
 10
297.3329999999999
 20
108.8278999999999
 30
0.0
 11
297.3329999999999
 21
103.4518999999999
 31
0.0
  0
LINE
  5
1E7
330
1E
100
AcDbEntity
  8
0
100
AcDbLine
 10
297.3329999999999
 20
114.2039
 30
0.0
 11
297.3329999999999
 21
119.2439
 31
0.0
  0
LINE
  5
1E8
330
1E
100
AcDbEntity
  8
0
100
AcDbLine
 10
297.3329999999999
 20
114.2039
 30
0.0
 11
297.3329999999999
 21
108.8278999999999
 31
0.0
  0
LINE
  5
1E9
330
1E
100
AcDbEntity
  8
0
100
AcDbLine
 10
297.3329999999999
 20
119.2439
 30
0.0
 11
297.3329999999999
 21
123.6958999999999
 31
0.0
  0
LINE
  5
1EA
330
1E
100
AcDbEntity
  8
0
100
AcDbLine
 10
297.3329999999999
 20
119.2439
 30
0.0
 11
297.3329999999999
 21
114.2039
 31
0.0
  0
LINE
  5
1EB
330
1E
100
AcDbEntity
  8
0
100
AcDbLine
 10
297.3329999999999
 20
123.6958999999999
 30
0.0
 11
297.3329999999999
 21
127.0558999999999
 31
0.0
  0
LINE
  5
1EC
330
1E
100
AcDbEntity
  8
0
100
AcDbLine
 10
297.3329999999999
 20
123.6958999999999
 30
0.0
 11
297.3329999999999
 21
119.2439
 31
0.0
  0
LINE
  5
1ED
330
1E
100
AcDbEntity
  8
0
100
AcDbLine
 10
297.3329999999999
 20
127.0558999999999
 30
0.0
 11
297.3329999999999
 21
129.0718999999999
 31
0.0
  0
LINE
  5
1EE
330
1E
100
AcDbEntity
  8
0
100
AcDbLine
 10
297.3329999999999
 20
127.0558999999999
 30
0.0
 11
297.3329999999999
 21
123.6958999999999
 31
0.0
  0
LINE
  5
1EF
330
1E
100
AcDbEntity
  8
0
100
AcDbLine
 10
298.0
 20
103.5358999999999
 30
0.0
 11
298.0
 21
108.8278999999999
 31
0.0
  0
LINE
  5
1F0
330
1E
100
AcDbEntity
  8
0
100
AcDbLine
 10
298.0
 20
103.5358999999999
 30
0.0
 11
298.0
 21
98.6639
 31
0.0
  0
LINE
  5
1F1
330
1E
100
AcDbEntity
  8
0
100
AcDbLine
 10
298.0
 20
98.6639
 30
0.0
 11
298.0
 21
103.5358999999999
 31
0.0
  0
LINE
  5
1F2
330
1E
100
AcDbEntity
  8
0
100
AcDbLine
 10
298.0
 20
98.6639
 30
0.0
 11
298.0
 21
94.3799
 31
0.0
  0
LINE
  5
1F3
330
1E
100
AcDbEntity
  8
0
100
AcDbLine
 10
298.0
 20
94.3799
 30
0.0
 11
298.0
 21
98.6639
 31
0.0
  0
LINE
  5
1F4
330
1E
100
AcDbEntity
  8
0
100
AcDbLine
 10
298.0
 20
94.3799
 30
0.0
 11
298.0
 21
91.1039
 31
0.0
  0
LINE
  5
1F5
330
1E
100
AcDbEntity
  8
0
100
AcDbLine
 10
298.0
 20
91.1039
 30
0.0
 11
298.0
 21
94.3799
 31
0.0
  0
LINE
  5
1F6
330
1E
100
AcDbEntity
  8
0
100
AcDbLine
 10
298.0
 20
91.1039
 30
0.0
 11
298.0
 21
89.08790000000001
 31
0.0
  0
LINE
  5
1F7
330
1E
100
AcDbEntity
  8
0
100
AcDbLine
 10
298.0
 20
89.08790000000001
 30
0.0
 11
298.0
 21
91.1039
 31
0.0
  0
LINE
  5
1F8
330
1E
100
AcDbEntity
  8
0
100
AcDbLine
 10
298.0
 20
89.08790000000001
 30
0.0
 11
298.0
 21
88.3319
 31
0.0
  0
LINE
  5
1F9
330
1E
100
AcDbEntity
  8
0
100
AcDbLine
 10
298.0
 20
88.3319
 30
0.0
 11
298.0
 21
89.08790000000001
 31
0.0
  0
LINE
  5
1FA
330
1E
100
AcDbEntity
  8
0
100
AcDbLine
 10
298.0
 20
108.8278999999999
 30
0.0
 11
298.0
 21
114.1199
 31
0.0
  0
LINE
  5
1FB
330
1E
100
AcDbEntity
  8
0
100
AcDbLine
 10
298.0
 20
108.8278999999999
 30
0.0
 11
298.0
 21
103.5358999999999
 31
0.0
  0
LINE
  5
1FC
330
1E
100
AcDbEntity
  8
0
100
AcDbLine
 10
298.0
 20
114.1199
 30
0.0
 11
298.0
 21
118.9918999999999
 31
0.0
  0
LINE
  5
1FD
330
1E
100
AcDbEntity
  8
0
100
AcDbLine
 10
298.0
 20
114.1199
 30
0.0
 11
298.0
 21
108.8278999999999
 31
0.0
  0
LINE
  5
1FE
330
1E
100
AcDbEntity
  8
0
100
AcDbLine
 10
298.0
 20
118.9918999999999
 30
0.0
 11
298.0
 21
123.2758999999999
 31
0.0
  0
LINE
  5
1FF
330
1E
100
AcDbEntity
  8
0
100
AcDbLine
 10
298.0
 20
118.9918999999999
 30
0.0
 11
298.0
 21
114.1199
 31
0.0
  0
LINE
  5
200
330
1E
100
AcDbEntity
  8
0
100
AcDbLine
 10
298.0
 20
123.2758999999999
 30
0.0
 11
298.0
 21
126.5519
 31
0.0
  0
LINE
  5
201
330
1E
100
AcDbEntity
  8
0
100
AcDbLine
 10
298.0
 20
123.2758999999999
 30
0.0
 11
298.0
 21
118.9918999999999
 31
0.0
  0
LINE
  5
202
330
1E
100
AcDbEntity
  8
0
100
AcDbLine
 10
298.0
 20
126.5519
 30
0.0
 11
298.0
 21
128.5679
 31
0.0
  0
LINE
  5
203
330
1E
100
AcDbEntity
  8
0
100
AcDbLine
 10
298.0
 20
126.5519
 30
0.0
 11
298.0
 21
123.2758999999999
 31
0.0
  0
LINE
  5
204
330
1E
100
AcDbEntity
  8
0
100
AcDbLine
 10
298.0
 20
129.3239
 30
0.0
 11
298.0
 21
128.5679
 31
0.0
  0
LINE
  5
205
330
1E
100
AcDbEntity
  8
0
100
AcDbLine
 10
298.0
 20
128.5679
 30
0.0
 11
298.0
 21
129.3239
 31
0.0
  0
LINE
  5
206
330
1E
100
AcDbEntity
  8
0
100
AcDbLine
 10
298.0
 20
128.5679
 30
0.0
 11
298.0
 21
126.5519
 31
0.0
  0
LINE
  5
207
330
1E
100
AcDbEntity
  8
0
100
AcDbLine
 10
297.3329999999999
 20
129.0718999999999
 30
0.0
 11
297.3329999999999
 21
129.8278999999999
 31
0.0
  0
LINE
  5
208
330
1E
100
AcDbEntity
  8
0
100
AcDbLine
 10
297.3329999999999
 20
129.0718999999999
 30
0.0
 11
297.3329999999999
 21
127.0558999999999
 31
0.0
  0
LINE
  5
209
330
1E
100
AcDbEntity
  8
0
100
AcDbLine
 10
297.3329999999999
 20
129.8278999999999
 30
0.0
 11
298.0
 21
129.3239
 31
0.0
  0
LINE
  5
20A
330
1E
100
AcDbEntity
  8
0
100
AcDbLine
 10
297.3329999999999
 20
129.8278999999999
 30
0.0
 11
297.3329999999999
 21
129.0718999999999
 31
0.0
  0
LINE
  5
20B
330
1E
100
AcDbEntity
  8
0
100
AcDbLine
 10
285.7979999999999
 20
129.8278999999999
 30
0.0
 11
297.3329999999999
 21
129.8278999999999
 31
0.0
  0
LINE
  5
20C
330
1E
100
AcDbEntity
  8
0
100
AcDbLine
 10
285.7979999999999
 20
129.8278999999999
 30
0.0
 11
285.7979999999999
 21
133.4519
 31
0.0
  0
LINE
  5
20D
330
1E
100
AcDbEntity
  8
0
100
AcDbLine
 10
297.3329999999999
 20
87.8279
 30
0.0
 11
298.0
 21
88.3319
 31
0.0
  0
LINE
  5
20E
330
1E
100
AcDbEntity
  8
0
100
AcDbLine
 10
297.3329999999999
 20
87.8279
 30
0.0
 11
297.3329999999999
 21
88.58389999999999
 31
0.0
  0
LINE
  5
20F
330
1E
100
AcDbEntity
  8
0
100
AcDbLine
 10
256.0
 20
87.8279
 30
0.0
 11
256.0
 21
88.58389999999999
 31
0.0
  0
LINE
  5
210
330
1E
100
AcDbEntity
  8
0
100
AcDbLine
 10
256.0
 20
87.8279
 30
0.0
 11
297.3329999999999
 21
87.8279
 31
0.0
  0
ENDSEC
  0
SECTION
  2
OBJECTS
  0
DICTIONARY
  5
C
330
0
100
AcDbDictionary
  3
ACAD_GROUP
350
D
  3
ACAD_LAYOUT
350
19
  3
ACAD_MLINESTYLE
350
16
  3
ACAD_PLOTSETTINGS
350
18
  3
ACAD_PLOTSTYLENAME
350
E
  3
ACDBHEADERROUNDTRIPXREC
350
262
  3
ACDBVARIABLEDICTIONARY
350
215
  0
DICTIONARY
  5
284
330
1E
100
AcDbDictionary
280
     1
  3
ACAD_LAYOUTSELFREF
360
285
  0
DICTIONARY
  5
282
330
1A
100
AcDbDictionary
280
     1
  3
ACAD_LAYOUTSELFREF
360
283
  0
DICTIONARY
  5
D
102
{ACAD_REACTORS
330
C
102
}
330
C
100
AcDbDictionary
  0
DICTIONARY
  5
19
102
{ACAD_REACTORS
330
C
102
}
330
C
100
AcDbDictionary
  0
DICTIONARY
  5
16
102
{ACAD_REACTORS
330
C
102
}
330
C
100
AcDbDictionary
  3
STANDARD
350
17
  0
DICTIONARY
  5
18
102
{ACAD_REACTORS
330
C
102
}
330
C
100
AcDbDictionary
  0
ACDBDICTIONARYWDFLT
  5
E
102
{ACAD_REACTORS
330
C
102
}
330
C
100
AcDbDictionary
281
     1
  3
Normal
350
F
100
AcDbDictionaryWithDefault
340
F
  0
DICTIONARY
  5
262
102
{ACAD_REACTORS
330
C
102
}
330
C
100
AcDbDictionary
  3
CEPSNTYPE
350
26C
  3
FINGERPRINTGUID
350
26D
  3
HYPERLINKBASE
350
265
  3
INSUNITS
350
26B
  3
LAYOUTDICT
350
267
  3
LWETCUNION
350
26A
  3
PLOTSETDICT
350
268
  3
PLOTSTYLNAMDICT
350
269
  3
PSVPSCALE
350
26F
  3
PUCSBASE
350
272
  3
PUCSORGBACK
350
278
  3
PUCSORGBOTTOM
350
274
  3
PUCSORGFRONT
350
277
  3
PUCSORGLEFT
350
275
  3
PUCSORGRIGHT
350
276
  3
PUCSORGTOP
350
273
  3
PUCSORTHOREF
350
270
  3
PUCSORTHOVIEW
350
271
  3
STYLESHEET
350
266
  3
TSTACKALIGN
350
263
  3
TSTACKSIZE
350
264
  3
UCSBASE
350
27B
  3
UCSORGBACK
350
281
  3
UCSORGBOTTOM
350
27D
  3
UCSORGFRONT
350
280
  3
UCSORGLEFT
350
27E
  3
UCSORGRIGHT
350
27F
  3
UCSORGTOP
350
27C
  3
UCSORTHOREF
350
279
  3
UCSORTHOVIEW
350
27A
  3
VERSIONGUID
350
26E
  0
DICTIONARY
  5
215
102
{ACAD_REACTORS
330
C
102
}
330
C
100
AcDbDictionary
  3
DIMASSOC
350
216
  0
XRECORD
  5
285
102
{ACAD_REACTORS
330
284
102
}
330
284
100
AcDbXrecord
340
1E
  0
XRECORD
  5
283
102
{ACAD_REACTORS
330
282
102
}
330
282
100
AcDbXrecord
340
1A
  0
MLINESTYLE
  5
17
102
{ACAD_REACTORS
330
16
102
}
330
16
100
AcDbMlineStyle
  2
STANDARD
 70
     0
  3

 62
   256
 51
90.0
 52
90.0
 71
     2
 49
0.5
 62
   256
  6
BYLAYER
 49
-0.5
 62
   256
  6
BYLAYER
  0
ACDBPLACEHOLDER
  5
F
102
{ACAD_REACTORS
330
E
102
}
330
E
100
AcDbPlaceHolder
280
     0
  0
XRECORD
  5
26C
102
{ACAD_REACTORS
330
262
102
}
330
262
100
AcDbXrecord
 90
        0
  0
XRECORD
  5
26D
102
{ACAD_REACTORS
330
262
102
}
330
262
100
AcDbXrecord
  1
{EF810A8B-61C6-4EAB-B3B6-39F7086AABE1}
  0
XRECORD
  5
265
102
{ACAD_REACTORS
330
262
102
}
330
262
100
AcDbXrecord
  1

  0
XRECORD
  5
26B
102
{ACAD_REACTORS
330
262
102
}
330
262
100
AcDbXrecord
 90
        0
  0
XRECORD
  5
267
102
{ACAD_REACTORS
330
262
102
}
330
262
100
AcDbXrecord
340
19
  0
XRECORD
  5
26A
102
{ACAD_REACTORS
330
262
102
}
330
262
100
AcDbXrecord
 90
    10781
  0
XRECORD
  5
268
102
{ACAD_REACTORS
330
262
102
}
330
262
100
AcDbXrecord
340
18
  0
XRECORD
  5
269
102
{ACAD_REACTORS
330
262
102
}
330
262
100
AcDbXrecord
340
E
  0
XRECORD
  5
26F
102
{ACAD_REACTORS
330
262
102
}
330
262
100
AcDbXrecord
 40
0.0
  0
XRECORD
  5
272
102
{ACAD_REACTORS
330
262
102
}
330
262
100
AcDbXrecord
340
0
  0
XRECORD
  5
278
102
{ACAD_REACTORS
330
262
102
}
330
262
100
AcDbXrecord
 10
0.0
 20
0.0
 30
0.0
  0
XRECORD
  5
274
102
{ACAD_REACTORS
330
262
102
}
330
262
100
AcDbXrecord
 10
0.0
 20
0.0
 30
0.0
  0
XRECORD
  5
277
102
{ACAD_REACTORS
330
262
102
}
330
262
100
AcDbXrecord
 10
0.0
 20
0.0
 30
0.0
  0
XRECORD
  5
275
102
{ACAD_REACTORS
330
262
102
}
330
262
100
AcDbXrecord
 10
0.0
 20
0.0
 30
0.0
  0
XRECORD
  5
276
102
{ACAD_REACTORS
330
262
102
}
330
262
100
AcDbXrecord
 10
0.0
 20
0.0
 30
0.0
  0
XRECORD
  5
273
102
{ACAD_REACTORS
330
262
102
}
330
262
100
AcDbXrecord
 10
0.0
 20
0.0
 30
0.0
  0
XRECORD
  5
270
102
{ACAD_REACTORS
330
262
102
}
330
262
100
AcDbXrecord
340
0
  0
XRECORD
  5
271
102
{ACAD_REACTORS
330
262
102
}
330
262
100
AcDbXrecord
 70
     0
  0
XRECORD
  5
266
102
{ACAD_REACTORS
330
262
102
}
330
262
100
AcDbXrecord
  1

  0
XRECORD
  5
263
102
{ACAD_REACTORS
330
262
102
}
330
262
100
AcDbXrecord
 90
        1
  0
XRECORD
  5
264
102
{ACAD_REACTORS
330
262
102
}
330
262
100
AcDbXrecord
 90
       70
  0
XRECORD
  5
27B
102
{ACAD_REACTORS
330
262
102
}
330
262
100
AcDbXrecord
340
0
  0
XRECORD
  5
281
102
{ACAD_REACTORS
330
262
102
}
330
262
100
AcDbXrecord
 10
0.0
 20
0.0
 30
0.0
  0
XRECORD
  5
27D
102
{ACAD_REACTORS
330
262
102
}
330
262
100
AcDbXrecord
 10
0.0
 20
0.0
 30
0.0
  0
XRECORD
  5
280
102
{ACAD_REACTORS
330
262
102
}
330
262
100
AcDbXrecord
 10
0.0
 20
0.0
 30
0.0
  0
XRECORD
  5
27E
102
{ACAD_REACTORS
330
262
102
}
330
262
100
AcDbXrecord
 10
0.0
 20
0.0
 30
0.0
  0
XRECORD
  5
27F
102
{ACAD_REACTORS
330
262
102
}
330
262
100
AcDbXrecord
 10
0.0
 20
0.0
 30
0.0
  0
XRECORD
  5
27C
102
{ACAD_REACTORS
330
262
102
}
330
262
100
AcDbXrecord
 10
0.0
 20
0.0
 30
0.0
  0
XRECORD
  5
279
102
{ACAD_REACTORS
330
262
102
}
330
262
100
AcDbXrecord
340
0
  0
XRECORD
  5
27A
102
{ACAD_REACTORS
330
262
102
}
330
262
100
AcDbXrecord
 70
     1
  0
XRECORD
  5
26E
102
{ACAD_REACTORS
330
262
102
}
330
262
100
AcDbXrecord
  1
{BAA430A2-7DBC-40BA-8441-981477AC3942}
  0
DICTIONARYVAR
  5
216
102
{ACAD_REACTORS
330
215
102
}
330
215
100
DictionaryVariables
280
     0
  1
1
  0
ENDSEC
  0
EOF
