  0
SECTION
  2
HEADER
  9
$ACADVER
  1
AC1014
  9
$ACADMAINTVER
 70
     9
  9
$DWGCODEPAGE
  3
ANSI_1252
  9
$INSBASE
 10
0.0
 20
0.0
 30
0.0
  9
$EXTMIN
 10
-0.0000000000000037
 20
-0.249999999999996
 30
0.0
  9
$EXTMAX
 10
270.0
 20
79.25
 30
0.0
  9
$LIMMIN
 10
0.0
 20
0.0
  9
$LIMMAX
 10
12.0
 20
9.0
  9
$ORTHOMODE
 70
     0
  9
$REGENMODE
 70
     1
  9
$FILLMODE
 70
     1
  9
$QTEXTMODE
 70
     0
  9
$MIRRTEXT
 70
     1
  9
$DRAGMODE
 70
     2
  9
$LTSCALE
 40
1.0
  9
$OSMODE
 70
    37
  9
$ATTMODE
 70
     1
  9
$TEXTSIZE
 40
0.2
  9
$TRACEWID
 40
0.05
  9
$TEXTSTYLE
  7
STANDARD
  9
$CLAYER
  8
0
  9
$CELTYPE
  6
CONTINUOUS
  9
$CECOLOR
 62
   256
  9
$CELTSCALE
 40
1.0
  9
$DELOBJ
 70
     1
  9
$DISPSILH
 70
     0
  9
$DIMSCALE
 40
1.0
  9
$DIMASZ
 40
0.18
  9
$DIMEXO
 40
0.0625
  9
$DIMDLI
 40
0.38
  9
$DIMRND
 40
0.0
  9
$DIMDLE
 40
0.0
  9
$DIMEXE
 40
0.18
  9
$DIMTP
 40
0.0
  9
$DIMTM
 40
0.0
  9
$DIMTXT
 40
0.18
  9
$DIMCEN
 40
0.09
  9
$DIMTSZ
 40
0.0
  9
$DIMTOL
 70
     0
  9
$DIMLIM
 70
     0
  9
$DIMTIH
 70
     1
  9
$DIMTOH
 70
     1
  9
$DIMSE1
 70
     0
  9
$DIMSE2
 70
     0
  9
$DIMTAD
 70
     0
  9
$DIMZIN
 70
     0
  9
$DIMBLK
  1

  9
$DIMASO
 70
     1
  9
$DIMSHO
 70
     1
  9
$DIMPOST
  1

  9
$DIMAPOST
  1

  9
$DIMALT
 70
     0
  9
$DIMALTD
 70
     2
  9
$DIMALTF
 40
25.4
  9
$DIMLFAC
 40
1.0
  9
$DIMTOFL
 70
     0
  9
$DIMTVP
 40
0.0
  9
$DIMTIX
 70
     0
  9
$DIMSOXD
 70
     0
  9
$DIMSAH
 70
     0
  9
$DIMBLK1
  1

  9
$DIMBLK2
  1

  9
$DIMSTYLE
  2
STANDARD
  9
$DIMCLRD
 70
     0
  9
$DIMCLRE
 70
     0
  9
$DIMCLRT
 70
     0
  9
$DIMTFAC
 40
1.0
  9
$DIMGAP
 40
0.09
  9
$DIMJUST
 70
     0
  9
$DIMSD1
 70
     0
  9
$DIMSD2
 70
     0
  9
$DIMTOLJ
 70
     1
  9
$DIMTZIN
 70
     0
  9
$DIMALTZ
 70
     0
  9
$DIMALTTZ
 70
     0
  9
$DIMFIT
 70
     3
  9
$DIMUPT
 70
     0
  9
$DIMUNIT
 70
     2
  9
$DIMDEC
 70
     4
  9
$DIMTDEC
 70
     4
  9
$DIMALTU
 70
     2
  9
$DIMALTTD
 70
     2
  9
$DIMTXSTY
  7
STANDARD
  9
$DIMAUNIT
 70
     0
  9
$LUNITS
 70
     2
  9
$LUPREC
 70
     4
  9
$SKETCHINC
 40
0.1
  9
$FILLETRAD
 40
0.0
  9
$AUNITS
 70
     0
  9
$AUPREC
 70
     0
  9
$MENU
  1
.
  9
$ELEVATION
 40
0.0
  9
$PELEVATION
 40
0.0
  9
$THICKNESS
 40
0.0
  9
$LIMCHECK
 70
     0
  9
$BLIPMODE
 70
     0
  9
$CHAMFERA
 40
0.0
  9
$CHAMFERB
 40
0.0
  9
$CHAMFERC
 40
0.0
  9
$CHAMFERD
 40
0.0
  9
$SKPOLY
 70
     0
  9
$TDCREATE
 40
2454687.554445706
  9
$TDUPDATE
 40
2454687.555003970
  9
$TDINDWG
 40
0.0005584491
  9
$TDUSRTIMER
 40
0.0005584491
  9
$USRTIMER
 70
     1
  9
$ANGBASE
 50
0.0
  9
$ANGDIR
 70
     0
  9
$PDMODE
 70
     0
  9
$PDSIZE
 40
0.0
  9
$PLINEWID
 40
0.0
  9
$COORDS
 70
     1
  9
$SPLFRAME
 70
     0
  9
$SPLINETYPE
 70
     6
  9
$SPLINESEGS
 70
     8
  9
$ATTDIA
 70
     0
  9
$ATTREQ
 70
     1
  9
$HANDLING
 70
 22529
  9
$HANDSEED
  5
23B
  9
$SURFTAB1
 70
     6
  9
$SURFTAB2
 70
     6
  9
$SURFTYPE
 70
     6
  9
$SURFU
 70
     6
  9
$SURFV
 70
     6
  9
$UCSNAME
  2

  9
$UCSORG
 10
0.0
 20
0.0
 30
0.0
  9
$UCSXDIR
 10
1.0
 20
0.0
 30
0.0
  9
$UCSYDIR
 10
0.0
 20
1.0
 30
0.0
  9
$PUCSNAME
  2

  9
$PUCSORG
 10
0.0
 20
0.0
 30
0.0
  9
$PUCSXDIR
 10
1.0
 20
0.0
 30
0.0
  9
$PUCSYDIR
 10
0.0
 20
1.0
 30
0.0
  9
$USERI1
 70
     0
  9
$USERI2
 70
     0
  9
$USERI3
 70
     0
  9
$USERI4
 70
     0
  9
$USERI5
 70
     0
  9
$USERR1
 40
0.0
  9
$USERR2
 40
0.0
  9
$USERR3
 40
0.0
  9
$USERR4
 40
0.0
  9
$USERR5
 40
0.0
  9
$WORLDVIEW
 70
     1
  9
$SHADEDGE
 70
     3
  9
$SHADEDIF
 70
    70
  9
$TILEMODE
 70
     1
  9
$MAXACTVP
 70
    64
  9
$PINSBASE
 10
0.0
 20
0.0
 30
0.0
  9
$PLIMCHECK
 70
     0
  9
$PEXTMIN
 10
1.000000000000000E+20
 20
1.000000000000000E+20
 30
1.000000000000000E+20
  9
$PEXTMAX
 10
-1.000000000000000E+20
 20
-1.000000000000000E+20
 30
-1.000000000000000E+20
  9
$PLIMMIN
 10
0.0
 20
0.0
  9
$PLIMMAX
 10
12.0
 20
9.0
  9
$UNITMODE
 70
     0
  9
$VISRETAIN
 70
     1
  9
$PLINEGEN
 70
     0
  9
$PSLTSCALE
 70
     1
  9
$TREEDEPTH
 70
  3020
  9
$PICKSTYLE
 70
     1
  9
$CMLSTYLE
  2
STANDARD
  9
$CMLJUST
 70
     0
  9
$CMLSCALE
 40
1.0
  9
$PROXYGRAPHICS
 70
     1
  9
$MEASUREMENT
 70
     0
  0
ENDSEC
  0
SECTION
  2
CLASSES
  0
CLASS
  1
ACDBDICTIONARYWDFLT
  2
AcDbDictionaryWithDefault
  3
AutoCAD 2000
 90
        0
280
     0
281
     0
  0
CLASS
  1
ACDBPLACEHOLDER
  2
AcDbPlaceHolder
  3
AutoCAD 2000
 90
        0
280
     0
281
     0
  0
CLASS
  1
LAYOUT
  2
AcDbLayout
  3
AutoCAD 2000
 90
        0
280
     0
281
     0
  0
CLASS
  1
DICTIONARYVAR
  2
AcDbDictionaryVar
  3
AutoCAD 2000
 90
        0
280
     0
281
     0
  0
CLASS
  1
LONG_TRANSACTION
  2
AcDbLongTransaction
  3
AutoCAD 2000
 90
        0
280
     0
281
     0
  0
CLASS
  1
LWPOLYLINE
  2
AcDbPolyline
  3
AutoCAD 2000
 90
        0
280
     0
281
     1
  0
CLASS
  1
HATCH
  2
AcDbHatch
  3
AutoCAD 2000
 90
        0
280
     0
281
     1
  0
CLASS
  1
XRECORD
  2
AcDbXrecord
  3
AutoCAD 2000
 90
        0
280
     0
281
     0
  0
ENDSEC
  0
SECTION
  2
TABLES
  0
TABLE
  2
VPORT
  5
8
330
0
100
AcDbSymbolTable
 70
     2
  0
VPORT
  5
216
330
8
100
AcDbSymbolTableRecord
100
AcDbViewportTableRecord
  2
*ACTIVE
 70
     0
 10
0.0
 20
0.0
 11
1.0
 21
1.0
 12
135.0
 22
39.50000000000001
 13
0.0
 23
0.0
 14
1.0
 24
1.0
 15
0.0
 25
0.0
 16
0.0
 26
0.0
 36
1.0
 17
0.0
 27
0.0
 37
0.0
 40
132.6204561183798
 41
2.043533930857874
 42
50.0
 43
0.0
 44
0.0
 50
0.0
 51
0.0
 71
     0
 72
   100
 73
     1
 74
     3
 75
     0
 76
     0
 77
     0
 78
     0
  0
ENDTAB
  0
TABLE
  2
LTYPE
  5
5
330
0
100
AcDbSymbolTable
 70
     1
  0
LTYPE
  5
13
330
5
100
AcDbSymbolTableRecord
100
AcDbLinetypeTableRecord
  2
BYBLOCK
 70
     0
  3

 72
    65
 73
     0
 40
0.0
  0
LTYPE
  5
14
330
5
100
AcDbSymbolTableRecord
100
AcDbLinetypeTableRecord
  2
BYLAYER
 70
     0
  3

 72
    65
 73
     0
 40
0.0
  0
LTYPE
  5
15
330
5
100
AcDbSymbolTableRecord
100
AcDbLinetypeTableRecord
  2
CONTINUOUS
 70
     0
  3
Solid line
 72
    65
 73
     0
 40
0.0
  0
ENDTAB
  0
TABLE
  2
LAYER
  5
2
330
0
100
AcDbSymbolTable
 70
     1
  0
LAYER
  5
10
330
2
100
AcDbSymbolTableRecord
100
AcDbLayerTableRecord
  2
0
 70
     0
 62
     7
  6
CONTINUOUS
  0
ENDTAB
  0
TABLE
  2
STYLE
  5
3
330
0
100
AcDbSymbolTable
 70
     1
  0
STYLE
  5
11
330
3
100
AcDbSymbolTableRecord
100
AcDbTextStyleTableRecord
  2
STANDARD
 70
     0
 40
0.0
 41
1.0
 50
0.0
 71
     0
 42
0.2
  3
txt
  4

  0
ENDTAB
  0
TABLE
  2
VIEW
  5
6
330
0
100
AcDbSymbolTable
 70
     0
  0
ENDTAB
  0
TABLE
  2
UCS
  5
7
330
0
100
AcDbSymbolTable
 70
     0
  0
ENDTAB
  0
TABLE
  2
APPID
  5
9
330
0
100
AcDbSymbolTable
 70
     1
  0
APPID
  5
12
330
9
100
AcDbSymbolTableRecord
100
AcDbRegAppTableRecord
  2
ACAD
 70
     0
  0
ENDTAB
  0
TABLE
  2
DIMSTYLE
  5
A
330
0
100
AcDbSymbolTable
 70
     1
  0
DIMSTYLE
105
210
330
A
100
AcDbSymbolTableRecord
100
AcDbDimStyleTableRecord
  2
STANDARD
 70
     0
  3

  4

  5

  6

  7

 40
1.0
 41
0.18
 42
0.0625
 43
0.38
 44
0.18
 45
0.0
 46
0.0
 47
0.0
 48
0.0
140
0.18
141
0.09
142
0.0
143
25.4
144
1.0
145
0.0
146
1.0
147
0.09
 71
     0
 72
     0
 73
     1
 74
     1
 75
     0
 76
     0
 77
     0
 78
     0
170
     0
171
     2
172
     0
173
     0
174
     0
175
     0
176
     0
177
     0
178
     0
270
     2
271
     4
272
     4
273
     2
274
     2
340
11
275
     0
280
     0
281
     0
282
     0
283
     1
284
     0
285
     0
286
     0
287
     3
288
     0
  0
ENDTAB
  0
TABLE
  2
BLOCK_RECORD
  5
1
330
0
100
AcDbSymbolTable
 70
     0
  0
BLOCK_RECORD
  5
1E
102
{ACAD_XDICTIONARY
360
239
102
}
330
1
100
AcDbSymbolTableRecord
100
AcDbBlockTableRecord
  2
*MODEL_SPACE
  0
BLOCK_RECORD
  5
1A
102
{ACAD_XDICTIONARY
360
237
102
}
330
1
100
AcDbSymbolTableRecord
100
AcDbBlockTableRecord
  2
*PAPER_SPACE
  0
ENDTAB
  0
ENDSEC
  0
SECTION
  2
BLOCKS
  0
BLOCK
  5
1F
330
1E
100
AcDbEntity
  8
0
100
AcDbBlockBegin
  2
*MODEL_SPACE
 70
     0
 10
0.0
 20
0.0
 30
0.0
  3
*MODEL_SPACE
  1

  0
ENDBLK
  5
20
330
1E
100
AcDbEntity
  8
0
100
AcDbBlockEnd
  0
BLOCK
  5
1B
330
1A
100
AcDbEntity
 67
     1
  8
0
100
AcDbBlockBegin
  2
*PAPER_SPACE
 70
     0
 10
0.0
 20
0.0
 30
0.0
  3
*PAPER_SPACE
  1

  0
ENDBLK
  5
1C
330
1A
100
AcDbEntity
 67
     1
  8
0
100
AcDbBlockEnd
  0
ENDSEC
  0
SECTION
  2
ENTITIES
  0
LINE
  5
22
330
1E
100
AcDbEntity
  8
0
100
AcDbLine
 10
-0.0000000000000037
 20
40.25
 30
0.0
 11
30.6
 21
40.25
 31
0.0
  0
LINE
  5
23
330
1E
100
AcDbEntity
  8
0
100
AcDbLine
 10
-0.0000000000000037
 20
48.25
 30
0.0
 11
30.6
 21
48.25
 31
0.0
  0
LINE
  5
24
330
1E
100
AcDbEntity
  8
0
100
AcDbLine
 10
-0.0000000000000033
 20
48.25
 30
0.0
 11
-0.0000000000000033
 21
44.24999999999999
 31
0.0
  0
LINE
  5
25
330
1E
100
AcDbEntity
  8
0
100
AcDbLine
 10
-0.0000000000000033
 20
48.25
 30
0.0
 11
0.499999999999997
 21
47.75
 31
0.0
  0
LINE
  5
26
330
1E
100
AcDbEntity
  8
0
100
AcDbLine
 10
-0.0000000000000033
 20
48.25
 30
0.0
 11
30.6
 21
48.25
 31
0.0
  0
LINE
  5
27
330
1E
100
AcDbEntity
  8
0
100
AcDbLine
 10
-0.0000000000000033
 20
44.24999999999999
 30
0.0
 11
-0.0000000000000033
 21
40.25
 31
0.0
  0
LINE
  5
28
330
1E
100
AcDbEntity
  8
0
100
AcDbLine
 10
-0.0000000000000033
 20
44.24999999999999
 30
0.0
 11
-0.0000000000000033
 21
48.25
 31
0.0
  0
LINE
  5
29
330
1E
100
AcDbEntity
  8
0
100
AcDbLine
 10
4.5
 20
13.25
 30
0.0
 11
31.0
 21
13.25
 31
0.0
  0
LINE
  5
2A
330
1E
100
AcDbEntity
  8
0
100
AcDbLine
 10
4.5
 20
13.25
 30
0.0
 11
4.5
 21
13.75
 31
0.0
  0
LINE
  5
2B
330
1E
100
AcDbEntity
  8
0
100
AcDbLine
 10
4.5
 20
13.75
 30
0.0
 11
31.0
 21
13.75
 31
0.0
  0
LINE
  5
2C
330
1E
100
AcDbEntity
  8
0
100
AcDbLine
 10
6.599999999999999
 20
36.65
 30
0.0
 11
9.5
 21
29.55
 31
0.0
  0
LINE
  5
2D
330
1E
100
AcDbEntity
  8
0
100
AcDbLine
 10
9.5
 20
29.55
 30
0.0
 11
14.19999999999999
 21
23.45
 31
0.0
  0
LINE
  5
2E
330
1E
100
AcDbEntity
  8
0
100
AcDbLine
 10
14.19999999999999
 20
23.45
 30
0.0
 11
20.3
 21
18.75
 31
0.0
  0
LINE
  5
2F
330
1E
100
AcDbEntity
  8
0
100
AcDbLine
 10
4.5
 20
13.75
 30
0.0
 11
4.5
 21
13.25
 31
0.0
  0
LINE
  5
30
330
1E
100
AcDbEntity
  8
0
100
AcDbLine
 10
4.5
 20
13.75
 30
0.0
 11
4.5
 21
40.25
 31
0.0
  0
LINE
  5
31
330
1E
100
AcDbEntity
  8
0
100
AcDbLine
 10
4.5
 20
13.75
 30
0.0
 11
31.0
 21
13.75
 31
0.0
  0
LINE
  5
32
330
1E
100
AcDbEntity
  8
0
100
AcDbLine
 10
4.0
 20
13.75
 30
0.0
 11
4.5
 21
13.25
 31
0.0
  0
LINE
  5
33
330
1E
100
AcDbEntity
  8
0
100
AcDbLine
 10
4.0
 20
13.75
 30
0.0
 11
4.0
 21
40.25
 31
0.0
  0
LINE
  5
34
330
1E
100
AcDbEntity
  8
0
100
AcDbLine
 10
4.0
 20
13.75
 30
0.0
 11
4.5
 21
13.75
 31
0.0
  0
LINE
  5
35
330
1E
100
AcDbEntity
  8
0
100
AcDbLine
 10
4.5
 20
13.25
 30
0.0
 11
31.0
 21
13.25
 31
0.0
  0
LINE
  5
36
330
1E
100
AcDbEntity
  8
0
100
AcDbLine
 10
20.3
 20
18.75
 30
0.0
 11
27.4
 21
15.84999999999999
 31
0.0
  0
LINE
  5
37
330
1E
100
AcDbEntity
  8
0
100
AcDbLine
 10
22.29999999999999
 20
31.55
 30
0.0
 11
26.1
 21
28.65
 31
0.0
  0
LINE
  5
38
330
1E
100
AcDbEntity
  8
0
100
AcDbLine
 10
27.4
 20
15.84999999999999
 30
0.0
 11
31.0
 21
15.32894736842099
 31
0.0
  0
LINE
  5
39
330
1E
100
AcDbEntity
  8
0
100
AcDbLine
 10
30.5
 20
27.35
 30
0.0
 11
31.0
 21
27.2833333333333
 31
0.0
  0
LINE
  5
3A
330
1E
100
AcDbEntity
  8
0
100
AcDbLine
 10
30.4
 20
26.95
 30
0.0
 11
31.0
 21
26.8586956521739
 31
0.0
  0
LINE
  5
3B
330
1E
100
AcDbEntity
  8
0
100
AcDbLine
 10
26.1
 20
28.65
 30
0.0
 11
30.4
 21
26.95
 31
0.0
  0
LINE
  5
3C
330
1E
100
AcDbEntity
  8
0
100
AcDbLine
 10
26.3
 20
29.05
 30
0.0
 11
30.5
 21
27.35
 31
0.0
  0
LINE
  5
3D
330
1E
100
AcDbEntity
  8
0
100
AcDbLine
 10
22.6
 20
31.85
 30
0.0
 11
26.3
 21
29.05
 31
0.0
  0
LINE
  5
3E
330
1E
100
AcDbEntity
  8
0
100
AcDbLine
 10
26.1
 20
28.65
 30
0.0
 11
30.4
 21
26.95
 31
0.0
  0
LINE
  5
3F
330
1E
100
AcDbEntity
  8
0
100
AcDbLine
 10
22.29999999999999
 20
31.55
 30
0.0
 11
26.1
 21
28.65
 31
0.0
  0
LINE
  5
40
330
1E
100
AcDbEntity
  8
0
100
AcDbLine
 10
19.8
 20
35.54999999999999
 30
0.0
 11
22.6
 21
31.85
 31
0.0
  0
LINE
  5
41
330
1E
100
AcDbEntity
  8
0
100
AcDbLine
 10
18.1
 20
39.75
 30
0.0
 11
19.8
 21
35.54999999999999
 31
0.0
  0
LINE
  5
42
330
1E
100
AcDbEntity
  8
0
100
AcDbLine
 10
19.39999999999999
 20
35.35
 30
0.0
 11
22.29999999999999
 21
31.55
 31
0.0
  0
LINE
  5
43
330
1E
100
AcDbEntity
  8
0
100
AcDbLine
 10
19.39999999999999
 20
35.35
 30
0.0
 11
22.29999999999999
 21
31.55
 31
0.0
  0
LINE
  5
44
330
1E
100
AcDbEntity
  8
0
100
AcDbLine
 10
17.7
 20
39.64999999999999
 30
0.0
 11
19.39999999999999
 21
35.35
 31
0.0
  0
LINE
  5
45
330
1E
100
AcDbEntity
  8
0
100
AcDbLine
 10
6.07894736842105
 20
40.25
 30
0.0
 11
6.599999999999999
 21
36.65
 31
0.0
  0
LINE
  5
46
330
1E
100
AcDbEntity
  8
0
100
AcDbLine
 10
4.5
 20
40.25
 30
0.0
 11
4.5
 21
13.75
 31
0.0
  0
LINE
  5
47
330
1E
100
AcDbEntity
  8
0
100
AcDbLine
 10
4.0
 20
40.25
 30
0.0
 11
4.0
 21
13.75
 31
0.0
  0
LINE
  5
48
330
1E
100
AcDbEntity
  8
0
100
AcDbLine
 10
18.0333333333333
 20
40.25
 30
0.0
 11
18.1
 21
39.75
 31
0.0
  0
LINE
  5
49
330
1E
100
AcDbEntity
  8
0
100
AcDbLine
 10
17.60869565217389
 20
40.25
 30
0.0
 11
17.7
 21
39.64999999999999
 31
0.0
  0
LINE
  5
4A
330
1E
100
AcDbEntity
  8
0
100
AcDbLine
 10
30.8
 20
40.04999999999999
 30
0.0
 11
31.0
 21
39.85
 31
0.0
  0
LINE
  5
4B
330
1E
100
AcDbEntity
  8
0
100
AcDbLine
 10
31.0
 20
39.85
 30
0.0
 11
31.0
 21
9.25
 31
0.0
  0
LINE
  5
4C
330
1E
100
AcDbEntity
  8
0
100
AcDbLine
 10
31.0
 20
39.85
 30
0.0
 11
31.5
 21
40.45
 31
0.0
  0
LINE
  5
4D
330
1E
100
AcDbEntity
  8
0
100
AcDbLine
 10
35.0
 20
9.75
 30
0.0
 11
38.5
 21
9.75
 31
0.0
  0
LINE
  5
4E
330
1E
100
AcDbEntity
  8
0
100
AcDbLine
 10
121.5
 20
4.75
 30
0.0
 11
121.5
 21
5.250000000000009
 31
0.0
  0
LINE
  5
4F
330
1E
100
AcDbEntity
  8
0
100
AcDbLine
 10
121.5
 20
4.75
 30
0.0
 11
135.0
 21
4.75
 31
0.0
  0
LINE
  5
50
330
1E
100
AcDbEntity
  8
0
100
AcDbLine
 10
121.5
 20
4.75
 30
0.0
 11
122.0
 21
4.75
 31
0.0
  0
LINE
  5
51
330
1E
100
AcDbEntity
  8
0
100
AcDbLine
 10
121.0
 20
5.25
 30
0.0
 11
121.0
 21
12.25
 31
0.0
  0
LINE
  5
52
330
1E
100
AcDbEntity
  8
0
100
AcDbLine
 10
121.0
 20
5.25
 30
0.0
 11
121.5
 21
4.75
 31
0.0
  0
LINE
  5
53
330
1E
100
AcDbEntity
  8
0
100
AcDbLine
 10
121.0
 20
5.250000000000009
 30
0.0
 11
121.5
 21
5.250000000000009
 31
0.0
  0
LINE
  5
54
330
1E
100
AcDbEntity
  8
0
100
AcDbLine
 10
121.0
 20
5.250000000000009
 30
0.0
 11
121.0
 21
12.25
 31
0.0
  0
LINE
  5
55
330
1E
100
AcDbEntity
  8
0
100
AcDbLine
 10
121.0
 20
5.250000000000009
 30
0.0
 11
121.5
 21
4.75
 31
0.0
  0
LINE
  5
56
330
1E
100
AcDbEntity
  8
0
100
AcDbLine
 10
122.6933
 20
-0.149999999999996
 30
0.0
 11
123.95
 21
-0.149999999999996
 31
0.0
  0
LINE
  5
57
330
1E
100
AcDbEntity
  8
0
100
AcDbLine
 10
122.2167
 20
-0.149999999999997
 30
0.0
 11
122.6933
 21
-0.149999999999997
 31
0.0
  0
LINE
  5
58
330
1E
100
AcDbEntity
  8
0
100
AcDbLine
 10
122.2167
 20
-0.149999999999997
 30
0.0
 11
135.0
 21
-0.249999999999996
 31
0.0
  0
LINE
  5
59
330
1E
100
AcDbEntity
  8
0
100
AcDbLine
 10
122.2167
 20
-0.149999999999997
 30
0.0
 11
122.6933
 21
-0.149999999999996
 31
0.0
  0
LINE
  5
5A
330
1E
100
AcDbEntity
  8
0
100
AcDbLine
 10
123.95
 20
-0.149999999999996
 30
0.0
 11
125.9867
 21
-0.149999999999996
 31
0.0
  0
LINE
  5
5B
330
1E
100
AcDbEntity
  8
0
100
AcDbLine
 10
122.4766999999999
 20
0.100000000000004
 30
0.0
 11
123.7333
 21
0.100000000000004
 31
0.0
  0
LINE
  5
5C
330
1E
100
AcDbEntity
  8
0
100
AcDbLine
 10
122.0
 20
0.100000000000003
 30
0.0
 11
122.2167
 21
-0.149999999999997
 31
0.0
  0
LINE
  5
5D
330
1E
100
AcDbEntity
  8
0
100
AcDbLine
 10
122.0
 20
0.100000000000003
 30
0.0
 11
122.0
 21
4.75
 31
0.0
  0
LINE
  5
5E
330
1E
100
AcDbEntity
  8
0
100
AcDbLine
 10
122.0
 20
0.100000000000003
 30
0.0
 11
122.4766999999999
 21
0.100000000000004
 31
0.0
  0
LINE
  5
5F
330
1E
100
AcDbEntity
  8
0
100
AcDbLine
 10
123.7333
 20
0.100000000000004
 30
0.0
 11
125.8132999999999
 21
0.100000000000004
 31
0.0
  0
LINE
  5
60
330
1E
100
AcDbEntity
  8
0
100
AcDbLine
 10
125.8132999999999
 20
0.100000000000004
 30
0.0
 11
128.5432999999999
 21
0.100000000000004
 31
0.0
  0
LINE
  5
61
330
1E
100
AcDbEntity
  8
0
100
AcDbLine
 10
125.9867
 20
-0.149999999999996
 30
0.0
 11
128.6299999999999
 21
-0.149999999999996
 31
0.0
  0
LINE
  5
62
330
1E
100
AcDbEntity
  8
0
100
AcDbLine
 10
128.6299999999999
 20
-0.149999999999996
 30
0.0
 11
131.7067
 21
-0.149999999999996
 31
0.0
  0
LINE
  5
63
330
1E
100
AcDbEntity
  8
0
100
AcDbLine
 10
131.7067
 20
-0.149999999999996
 30
0.0
 11
135.0
 21
-0.149999999999996
 31
0.0
  0
LINE
  5
64
330
1E
100
AcDbEntity
  8
0
100
AcDbLine
 10
146.05
 20
-0.149999999999996
 30
0.0
 11
147.307
 21
-0.149999999999996
 31
0.0
  0
LINE
  5
65
330
1E
100
AcDbEntity
  8
0
100
AcDbLine
 10
144.013
 20
-0.149999999999996
 30
0.0
 11
146.05
 21
-0.149999999999996
 31
0.0
  0
LINE
  5
66
330
1E
100
AcDbEntity
  8
0
100
AcDbLine
 10
141.37
 20
-0.149999999999996
 30
0.0
 11
144.013
 21
-0.149999999999996
 31
0.0
  0
LINE
  5
67
330
1E
100
AcDbEntity
  8
0
100
AcDbLine
 10
138.2929999999999
 20
-0.149999999999996
 30
0.0
 11
141.37
 21
-0.149999999999996
 31
0.0
  0
LINE
  5
68
330
1E
100
AcDbEntity
  8
0
100
AcDbLine
 10
135.0
 20
-0.149999999999996
 30
0.0
 11
138.2929999999999
 21
-0.149999999999996
 31
0.0
  0
LINE
  5
69
330
1E
100
AcDbEntity
  8
0
100
AcDbLine
 10
135.0
 20
-0.249999999999996
 30
0.0
 11
147.7829999999999
 21
-0.149999999999997
 31
0.0
  0
LINE
  5
6A
330
1E
100
AcDbEntity
  8
0
100
AcDbLine
 10
147.307
 20
-0.149999999999996
 30
0.0
 11
147.7829999999999
 21
-0.149999999999997
 31
0.0
  0
LINE
  5
6B
330
1E
100
AcDbEntity
  8
0
100
AcDbLine
 10
147.7829999999999
 20
-0.149999999999997
 30
0.0
 11
148.0
 21
0.100000000000003
 31
0.0
  0
LINE
  5
6C
330
1E
100
AcDbEntity
  8
0
100
AcDbLine
 10
147.307
 20
-0.149999999999997
 30
0.0
 11
147.7829999999999
 21
-0.149999999999997
 31
0.0
  0
LINE
  5
6D
330
1E
100
AcDbEntity
  8
0
100
AcDbLine
 10
128.5432999999999
 20
0.100000000000004
 30
0.0
 11
131.6632999999999
 21
0.100000000000004
 31
0.0
  0
LINE
  5
6E
330
1E
100
AcDbEntity
  8
0
100
AcDbLine
 10
131.6632999999999
 20
0.100000000000004
 30
0.0
 11
135.0
 21
0.100000000000004
 31
0.0
  0
LINE
  5
6F
330
1E
100
AcDbEntity
  8
0
100
AcDbLine
 10
144.187
 20
0.100000000000004
 30
0.0
 11
146.2669999999999
 21
0.100000000000004
 31
0.0
  0
LINE
  5
70
330
1E
100
AcDbEntity
  8
0
100
AcDbLine
 10
141.4569999999999
 20
0.100000000000004
 30
0.0
 11
144.187
 21
0.100000000000004
 31
0.0
  0
LINE
  5
71
330
1E
100
AcDbEntity
  8
0
100
AcDbLine
 10
138.337
 20
0.100000000000004
 30
0.0
 11
141.4569999999999
 21
0.100000000000004
 31
0.0
  0
LINE
  5
72
330
1E
100
AcDbEntity
  8
0
100
AcDbLine
 10
135.0
 20
0.100000000000004
 30
0.0
 11
138.337
 21
0.100000000000004
 31
0.0
  0
LINE
  5
73
330
1E
100
AcDbEntity
  8
0
100
AcDbLine
 10
147.5229999999999
 20
0.100000000000004
 30
0.0
 11
148.0
 21
0.100000000000003
 31
0.0
  0
LINE
  5
74
330
1E
100
AcDbEntity
  8
0
100
AcDbLine
 10
146.2669999999999
 20
0.100000000000004
 30
0.0
 11
147.5229999999999
 21
0.100000000000004
 31
0.0
  0
LINE
  5
75
330
1E
100
AcDbEntity
  8
0
100
AcDbLine
 10
148.0
 20
0.100000000000003
 30
0.0
 11
148.0
 21
4.75
 31
0.0
  0
LINE
  5
76
330
1E
100
AcDbEntity
  8
0
100
AcDbLine
 10
148.5
 20
4.75
 30
0.0
 11
149.0
 21
5.25
 31
0.0
  0
LINE
  5
77
330
1E
100
AcDbEntity
  8
0
100
AcDbLine
 10
122.4766999999999
 20
4.75
 30
0.0
 11
123.7333
 21
4.75
 31
0.0
  0
LINE
  5
78
330
1E
100
AcDbEntity
  8
0
100
AcDbLine
 10
123.7333
 20
4.75
 30
0.0
 11
125.8132999999999
 21
4.75
 31
0.0
  0
LINE
  5
79
330
1E
100
AcDbEntity
  8
0
100
AcDbLine
 10
125.8132999999999
 20
4.75
 30
0.0
 11
128.5432999999999
 21
4.75
 31
0.0
  0
LINE
  5
7A
330
1E
100
AcDbEntity
  8
0
100
AcDbLine
 10
128.5432999999999
 20
4.75
 30
0.0
 11
131.6632999999999
 21
4.75
 31
0.0
  0
LINE
  5
7B
330
1E
100
AcDbEntity
  8
0
100
AcDbLine
 10
131.6632999999999
 20
4.75
 30
0.0
 11
135.0
 21
4.75
 31
0.0
  0
LINE
  5
7C
330
1E
100
AcDbEntity
  8
0
100
AcDbLine
 10
122.0
 20
4.75
 30
0.0
 11
122.0
 21
0.100000000000003
 31
0.0
  0
LINE
  5
7D
330
1E
100
AcDbEntity
  8
0
100
AcDbLine
 10
122.0
 20
4.75
 30
0.0
 11
122.4766999999999
 21
4.75
 31
0.0
  0
LINE
  5
7E
330
1E
100
AcDbEntity
  8
0
100
AcDbLine
 10
135.0
 20
5.250000000000009
 30
0.0
 11
148.5
 21
5.250000000000009
 31
0.0
  0
LINE
  5
7F
330
1E
100
AcDbEntity
  8
0
100
AcDbLine
 10
148.0
 20
4.75
 30
0.0
 11
148.0
 21
0.100000000000003
 31
0.0
  0
LINE
  5
80
330
1E
100
AcDbEntity
  8
0
100
AcDbLine
 10
147.5229999999999
 20
4.75
 30
0.0
 11
148.0
 21
4.75
 31
0.0
  0
LINE
  5
81
330
1E
100
AcDbEntity
  8
0
100
AcDbLine
 10
146.2669999999999
 20
4.75
 30
0.0
 11
147.5229999999999
 21
4.75
 31
0.0
  0
LINE
  5
82
330
1E
100
AcDbEntity
  8
0
100
AcDbLine
 10
144.187
 20
4.75
 30
0.0
 11
146.2669999999999
 21
4.75
 31
0.0
  0
LINE
  5
83
330
1E
100
AcDbEntity
  8
0
100
AcDbLine
 10
141.4569999999999
 20
4.75
 30
0.0
 11
144.187
 21
4.75
 31
0.0
  0
LINE
  5
84
330
1E
100
AcDbEntity
  8
0
100
AcDbLine
 10
138.337
 20
4.75
 30
0.0
 11
141.4569999999999
 21
4.75
 31
0.0
  0
LINE
  5
85
330
1E
100
AcDbEntity
  8
0
100
AcDbLine
 10
135.0
 20
4.75
 30
0.0
 11
148.5
 21
4.75
 31
0.0
  0
LINE
  5
86
330
1E
100
AcDbEntity
  8
0
100
AcDbLine
 10
135.0
 20
4.75
 30
0.0
 11
138.337
 21
4.75
 31
0.0
  0
LINE
  5
87
330
1E
100
AcDbEntity
  8
0
100
AcDbLine
 10
148.5
 20
5.250000000000009
 30
0.0
 11
149.0
 21
5.250000000000009
 31
0.0
  0
LINE
  5
88
330
1E
100
AcDbEntity
  8
0
100
AcDbLine
 10
148.5
 20
5.250000000000009
 30
0.0
 11
148.5
 21
4.75
 31
0.0
  0
LINE
  5
89
330
1E
100
AcDbEntity
  8
0
100
AcDbLine
 10
148.5
 20
5.250000000000009
 30
0.0
 11
148.5
 21
12.25
 31
0.0
  0
LINE
  5
8A
330
1E
100
AcDbEntity
  8
0
100
AcDbLine
 10
239.0
 20
9.25
 30
0.0
 11
239.0
 21
39.85
 31
0.0
  0
LINE
  5
8B
330
1E
100
AcDbEntity
  8
0
100
AcDbLine
 10
235.0
 20
9.25
 30
0.0
 11
239.0
 21
9.25
 31
0.0
  0
LINE
  5
8C
330
1E
100
AcDbEntity
  8
0
100
AcDbLine
 10
231.0
 20
9.25
 30
0.0
 11
235.0
 21
9.25
 31
0.0
  0
LINE
  5
8D
330
1E
100
AcDbEntity
  8
0
100
AcDbLine
 10
231.0
 20
9.25
 30
0.0
 11
231.0
 21
39.85
 31
0.0
  0
LINE
  5
8E
330
1E
100
AcDbEntity
  8
0
100
AcDbLine
 10
231.0
 20
9.25
 30
0.0
 11
231.4999999999999
 21
9.75
 31
0.0
  0
LINE
  5
8F
330
1E
100
AcDbEntity
  8
0
100
AcDbLine
 10
149.0
 20
5.250000000000009
 30
0.0
 11
149.0
 21
12.25
 31
0.0
  0
LINE
  5
90
330
1E
100
AcDbEntity
  8
0
100
AcDbLine
 10
148.5
 20
4.75
 30
0.0
 11
149.0
 21
5.250000000000009
 31
0.0
  0
LINE
  5
91
330
1E
100
AcDbEntity
  8
0
100
AcDbLine
 10
148.5
 20
4.75
 30
0.0
 11
148.5
 21
5.250000000000009
 31
0.0
  0
LINE
  5
92
330
1E
100
AcDbEntity
  8
0
100
AcDbLine
 10
148.0
 20
4.75
 30
0.0
 11
148.5
 21
4.75
 31
0.0
  0
LINE
  5
93
330
1E
100
AcDbEntity
  8
0
100
AcDbLine
 10
121.5
 20
5.250000000000009
 30
0.0
 11
135.0
 21
5.250000000000009
 31
0.0
  0
LINE
  5
94
330
1E
100
AcDbEntity
  8
0
100
AcDbLine
 10
121.5
 20
5.250000000000009
 30
0.0
 11
121.5
 21
12.25
 31
0.0
  0
LINE
  5
95
330
1E
100
AcDbEntity
  8
0
100
AcDbLine
 10
121.5
 20
5.250000000000009
 30
0.0
 11
121.5
 21
4.75
 31
0.0
  0
LINE
  5
96
330
1E
100
AcDbEntity
  8
0
100
AcDbLine
 10
235.0
 20
9.75
 30
0.0
 11
238.5
 21
9.75
 31
0.0
  0
LINE
  5
97
330
1E
100
AcDbEntity
  8
0
100
AcDbLine
 10
238.5
 20
9.75
 30
0.0
 11
239.0
 21
9.25
 31
0.0
  0
LINE
  5
98
330
1E
100
AcDbEntity
  8
0
100
AcDbLine
 10
238.5
 20
9.75
 30
0.0
 11
238.5
 21
40.45
 31
0.0
  0
LINE
  5
99
330
1E
100
AcDbEntity
  8
0
100
AcDbLine
 10
231.4999999999999
 20
9.75
 30
0.0
 11
235.0
 21
9.75
 31
0.0
  0
LINE
  5
9A
330
1E
100
AcDbEntity
  8
0
100
AcDbLine
 10
231.4999999999999
 20
9.75
 30
0.0
 11
231.4999999999999
 21
40.45
 31
0.0
  0
LINE
  5
9B
330
1E
100
AcDbEntity
  8
0
100
AcDbLine
 10
38.5
 20
9.75
 30
0.0
 11
39.0
 21
9.25
 31
0.0
  0
LINE
  5
9C
330
1E
100
AcDbEntity
  8
0
100
AcDbLine
 10
38.5
 20
9.75
 30
0.0
 11
38.5
 21
40.45
 31
0.0
  0
LINE
  5
9D
330
1E
100
AcDbEntity
  8
0
100
AcDbLine
 10
39.0
 20
9.25
 30
0.0
 11
39.0
 21
39.85
 31
0.0
  0
LINE
  5
9E
330
1E
100
AcDbEntity
  8
0
100
AcDbLine
 10
35.0
 20
9.25
 30
0.0
 11
39.0
 21
9.25
 31
0.0
  0
LINE
  5
9F
330
1E
100
AcDbEntity
  8
0
100
AcDbLine
 10
39.0
 20
13.75
 30
0.0
 11
121.0
 21
13.75
 31
0.0
  0
LINE
  5
A0
330
1E
100
AcDbEntity
  8
0
100
AcDbLine
 10
39.0
 20
15.32894736842099
 30
0.0
 11
42.6
 21
15.84999999999999
 31
0.0
  0
LINE
  5
A1
330
1E
100
AcDbEntity
  8
0
100
AcDbLine
 10
39.0
 20
13.25
 30
0.0
 11
121.0
 21
13.25
 31
0.0
  0
LINE
  5
A2
330
1E
100
AcDbEntity
  8
0
100
AcDbLine
 10
39.0
 20
27.2833333333333
 30
0.0
 11
39.5
 21
27.35
 31
0.0
  0
LINE
  5
A3
330
1E
100
AcDbEntity
  8
0
100
AcDbLine
 10
39.0
 20
26.8586956521739
 30
0.0
 11
39.6
 21
26.95
 31
0.0
  0
LINE
  5
A4
330
1E
100
AcDbEntity
  8
0
100
AcDbLine
 10
39.0
 20
13.75
 30
0.0
 11
121.0
 21
13.75
 31
0.0
  0
LINE
  5
A5
330
1E
100
AcDbEntity
  8
0
100
AcDbLine
 10
39.0
 20
13.25
 30
0.0
 11
121.0
 21
13.25
 31
0.0
  0
LINE
  5
A6
330
1E
100
AcDbEntity
  8
0
100
AcDbLine
 10
39.5
 20
27.35
 30
0.0
 11
43.7
 21
29.05
 31
0.0
  0
LINE
  5
A7
330
1E
100
AcDbEntity
  8
0
100
AcDbLine
 10
42.6
 20
15.84999999999999
 30
0.0
 11
49.7
 21
18.75
 31
0.0
  0
LINE
  5
A8
330
1E
100
AcDbEntity
  8
0
100
AcDbLine
 10
39.6
 20
26.95
 30
0.0
 11
43.89999999999999
 21
28.65
 31
0.0
  0
LINE
  5
A9
330
1E
100
AcDbEntity
  8
0
100
AcDbLine
 10
39.6
 20
26.95
 30
0.0
 11
43.89999999999999
 21
28.65
 31
0.0
  0
LINE
  5
AA
330
1E
100
AcDbEntity
  8
0
100
AcDbLine
 10
43.7
 20
29.05
 30
0.0
 11
47.4
 21
31.85
 31
0.0
  0
LINE
  5
AB
330
1E
100
AcDbEntity
  8
0
100
AcDbLine
 10
43.89999999999999
 20
28.65
 30
0.0
 11
47.7
 21
31.55
 31
0.0
  0
LINE
  5
AC
330
1E
100
AcDbEntity
  8
0
100
AcDbLine
 10
43.89999999999999
 20
28.65
 30
0.0
 11
47.7
 21
31.55
 31
0.0
  0
LINE
  5
AD
330
1E
100
AcDbEntity
  8
0
100
AcDbLine
 10
47.4
 20
31.85
 30
0.0
 11
50.2
 21
35.54999999999999
 31
0.0
  0
LINE
  5
AE
330
1E
100
AcDbEntity
  8
0
100
AcDbLine
 10
47.7
 20
31.55
 30
0.0
 11
50.6
 21
35.35
 31
0.0
  0
LINE
  5
AF
330
1E
100
AcDbEntity
  8
0
100
AcDbLine
 10
49.7
 20
18.75
 30
0.0
 11
55.8
 21
23.45
 31
0.0
  0
LINE
  5
B0
330
1E
100
AcDbEntity
  8
0
100
AcDbLine
 10
47.7
 20
31.55
 30
0.0
 11
50.6
 21
35.35
 31
0.0
  0
LINE
  5
B1
330
1E
100
AcDbEntity
  8
0
100
AcDbLine
 10
50.2
 20
35.54999999999999
 30
0.0
 11
51.9
 21
39.75
 31
0.0
  0
LINE
  5
B2
330
1E
100
AcDbEntity
  8
0
100
AcDbLine
 10
51.9
 20
39.75
 30
0.0
 11
51.96666666666669
 21
40.25
 31
0.0
  0
LINE
  5
B3
330
1E
100
AcDbEntity
  8
0
100
AcDbLine
 10
50.6
 20
35.35
 30
0.0
 11
52.3
 21
39.64999999999999
 31
0.0
  0
LINE
  5
B4
330
1E
100
AcDbEntity
  8
0
100
AcDbLine
 10
63.39999999999999
 20
36.65
 30
0.0
 11
63.9210526315789
 21
40.25
 31
0.0
  0
LINE
  5
B5
330
1E
100
AcDbEntity
  8
0
100
AcDbLine
 10
60.5
 20
29.55
 30
0.0
 11
63.39999999999999
 21
36.65
 31
0.0
  0
LINE
  5
B6
330
1E
100
AcDbEntity
  8
0
100
AcDbLine
 10
55.8
 20
23.45
 30
0.0
 11
60.5
 21
29.55
 31
0.0
  0
LINE
  5
B7
330
1E
100
AcDbEntity
  8
0
100
AcDbLine
 10
52.3
 20
39.64999999999999
 30
0.0
 11
52.3913043478261
 21
40.25
 31
0.0
  0
LINE
  5
B8
330
1E
100
AcDbEntity
  8
0
100
AcDbLine
 10
39.2
 20
40.04999999999999
 30
0.0
 11
39.39999999999999
 21
40.25
 31
0.0
  0
LINE
  5
B9
330
1E
100
AcDbEntity
  8
0
100
AcDbLine
 10
121.0
 20
12.25
 30
0.0
 11
121.0
 21
5.25
 31
0.0
  0
LINE
  5
BA
330
1E
100
AcDbEntity
  8
0
100
AcDbLine
 10
121.0
 20
12.25
 30
0.0
 11
121.0
 21
17.05
 31
0.0
  0
LINE
  5
BB
330
1E
100
AcDbEntity
  8
0
100
AcDbLine
 10
121.0
 20
12.25
 30
0.0
 11
121.0
 21
5.250000000000009
 31
0.0
  0
LINE
  5
BC
330
1E
100
AcDbEntity
  8
0
100
AcDbLine
 10
121.0
 20
12.25
 30
0.0
 11
121.0
 21
24.05
 31
0.0
  0
LINE
  5
BD
330
1E
100
AcDbEntity
  8
0
100
AcDbLine
 10
121.0
 20
17.05
 30
0.0
 11
121.0
 21
12.25
 31
0.0
  0
LINE
  5
BE
330
1E
100
AcDbEntity
  8
0
100
AcDbLine
 10
121.0
 20
17.05
 30
0.0
 11
121.0
 21
21.45
 31
0.0
  0
LINE
  5
BF
330
1E
100
AcDbEntity
  8
0
100
AcDbLine
 10
121.0
 20
21.45
 30
0.0
 11
121.0
 21
17.05
 31
0.0
  0
LINE
  5
C0
330
1E
100
AcDbEntity
  8
0
100
AcDbLine
 10
121.0
 20
21.45
 30
0.0
 11
121.0
 21
25.35
 31
0.0
  0
LINE
  5
C1
330
1E
100
AcDbEntity
  8
0
100
AcDbLine
 10
121.0
 20
25.35
 30
0.0
 11
121.0
 21
21.45
 31
0.0
  0
LINE
  5
C2
330
1E
100
AcDbEntity
  8
0
100
AcDbLine
 10
121.0
 20
25.35
 30
0.0
 11
121.0
 21
28.35
 31
0.0
  0
LINE
  5
C3
330
1E
100
AcDbEntity
  8
0
100
AcDbLine
 10
121.0
 20
28.35
 30
0.0
 11
121.0
 21
25.35
 31
0.0
  0
LINE
  5
C4
330
1E
100
AcDbEntity
  8
0
100
AcDbLine
 10
121.0
 20
28.35
 30
0.0
 11
121.0
 21
30.15
 31
0.0
  0
LINE
  5
C5
330
1E
100
AcDbEntity
  8
0
100
AcDbLine
 10
121.0
 20
30.15
 30
0.0
 11
121.0
 21
28.35
 31
0.0
  0
LINE
  5
C6
330
1E
100
AcDbEntity
  8
0
100
AcDbLine
 10
121.0
 20
30.15
 30
0.0
 11
121.0
 21
30.75
 31
0.0
  0
LINE
  5
C7
330
1E
100
AcDbEntity
  8
0
100
AcDbLine
 10
121.0
 20
30.75
 30
0.0
 11
121.0
 21
30.15
 31
0.0
  0
LINE
  5
C8
330
1E
100
AcDbEntity
  8
0
100
AcDbLine
 10
121.0
 20
24.05
 30
0.0
 11
121.0
 21
12.25
 31
0.0
  0
LINE
  5
C9
330
1E
100
AcDbEntity
  8
0
100
AcDbLine
 10
121.0
 20
24.05
 30
0.0
 11
121.0
 21
34.95
 31
0.0
  0
LINE
  5
CA
330
1E
100
AcDbEntity
  8
0
100
AcDbLine
 10
121.0
 20
34.95
 30
0.0
 11
121.0
 21
24.05
 31
0.0
  0
LINE
  5
CB
330
1E
100
AcDbEntity
  8
0
100
AcDbLine
 10
121.0
 20
34.95
 30
0.0
 11
121.0
 21
44.35
 31
0.0
  0
LINE
  5
CC
330
1E
100
AcDbEntity
  8
0
100
AcDbLine
 10
121.5
 20
12.25
 30
0.0
 11
121.5
 21
5.250000000000009
 31
0.0
  0
LINE
  5
CD
330
1E
100
AcDbEntity
  8
0
100
AcDbLine
 10
121.5
 20
12.25
 30
0.0
 11
121.5
 21
24.15
 31
0.0
  0
LINE
  5
CE
330
1E
100
AcDbEntity
  8
0
100
AcDbLine
 10
148.5
 20
12.25
 30
0.0
 11
148.5
 21
24.15
 31
0.0
  0
LINE
  5
CF
330
1E
100
AcDbEntity
  8
0
100
AcDbLine
 10
148.5
 20
12.25
 30
0.0
 11
148.5
 21
5.250000000000009
 31
0.0
  0
LINE
  5
D0
330
1E
100
AcDbEntity
  8
0
100
AcDbLine
 10
149.0
 20
13.75
 30
0.0
 11
231.0
 21
13.75
 31
0.0
  0
LINE
  5
D1
330
1E
100
AcDbEntity
  8
0
100
AcDbLine
 10
149.0
 20
13.25
 30
0.0
 11
231.0
 21
13.25
 31
0.0
  0
LINE
  5
D2
330
1E
100
AcDbEntity
  8
0
100
AcDbLine
 10
149.0
 20
12.25
 30
0.0
 11
149.0
 21
24.05
 31
0.0
  0
LINE
  5
D3
330
1E
100
AcDbEntity
  8
0
100
AcDbLine
 10
149.0
 20
12.25
 30
0.0
 11
149.0
 21
5.250000000000009
 31
0.0
  0
LINE
  5
D4
330
1E
100
AcDbEntity
  8
0
100
AcDbLine
 10
265.5
 20
13.25
 30
0.0
 11
266.0
 21
13.75
 31
0.0
  0
LINE
  5
D5
330
1E
100
AcDbEntity
  8
0
100
AcDbLine
 10
265.5
 20
13.25
 30
0.0
 11
265.5
 21
13.75
 31
0.0
  0
LINE
  5
D6
330
1E
100
AcDbEntity
  8
0
100
AcDbLine
 10
239.0
 20
13.75
 30
0.0
 11
265.5
 21
13.75
 31
0.0
  0
LINE
  5
D7
330
1E
100
AcDbEntity
  8
0
100
AcDbLine
 10
239.0
 20
13.25
 30
0.0
 11
265.5
 21
13.25
 31
0.0
  0
LINE
  5
D8
330
1E
100
AcDbEntity
  8
0
100
AcDbLine
 10
266.0
 20
13.75
 30
0.0
 11
266.0
 21
40.25
 31
0.0
  0
LINE
  5
D9
330
1E
100
AcDbEntity
  8
0
100
AcDbLine
 10
265.5
 20
13.75
 30
0.0
 11
265.5
 21
40.25
 31
0.0
  0
LINE
  5
DA
330
1E
100
AcDbEntity
  8
0
100
AcDbLine
 10
265.5
 20
13.75
 30
0.0
 11
266.0
 21
13.75
 31
0.0
  0
LINE
  5
DB
330
1E
100
AcDbEntity
  8
0
100
AcDbLine
 10
265.5
 20
13.75
 30
0.0
 11
265.5
 21
13.25
 31
0.0
  0
LINE
  5
DC
330
1E
100
AcDbEntity
  8
0
100
AcDbLine
 10
209.5
 20
29.55
 30
0.0
 11
214.1999999999999
 21
23.45
 31
0.0
  0
LINE
  5
DD
330
1E
100
AcDbEntity
  8
0
100
AcDbLine
 10
214.1999999999999
 20
23.45
 30
0.0
 11
220.3
 21
18.75
 31
0.0
  0
LINE
  5
DE
330
1E
100
AcDbEntity
  8
0
100
AcDbLine
 10
226.1
 20
28.65
 30
0.0
 11
230.4
 21
26.95
 31
0.0
  0
LINE
  5
DF
330
1E
100
AcDbEntity
  8
0
100
AcDbLine
 10
239.0
 20
26.8586956521739
 30
0.0
 11
239.5999999999999
 21
26.95
 31
0.0
  0
LINE
  5
E0
330
1E
100
AcDbEntity
  8
0
100
AcDbLine
 10
239.5999999999999
 20
26.95
 30
0.0
 11
243.9
 21
28.65
 31
0.0
  0
LINE
  5
E1
330
1E
100
AcDbEntity
  8
0
100
AcDbLine
 10
239.5999999999999
 20
26.95
 30
0.0
 11
243.9
 21
28.65
 31
0.0
  0
LINE
  5
E2
330
1E
100
AcDbEntity
  8
0
100
AcDbLine
 10
239.0
 20
27.2833333333333
 30
0.0
 11
239.5
 21
27.35
 31
0.0
  0
LINE
  5
E3
330
1E
100
AcDbEntity
  8
0
100
AcDbLine
 10
239.5
 20
27.35
 30
0.0
 11
243.6999999999999
 21
29.05
 31
0.0
  0
LINE
  5
E4
330
1E
100
AcDbEntity
  8
0
100
AcDbLine
 10
230.5
 20
27.35
 30
0.0
 11
231.0
 21
27.2833333333333
 31
0.0
  0
LINE
  5
E5
330
1E
100
AcDbEntity
  8
0
100
AcDbLine
 10
226.3
 20
29.05
 30
0.0
 11
230.5
 21
27.35
 31
0.0
  0
LINE
  5
E6
330
1E
100
AcDbEntity
  8
0
100
AcDbLine
 10
230.4
 20
26.95
 30
0.0
 11
231.0
 21
26.8586956521739
 31
0.0
  0
LINE
  5
E7
330
1E
100
AcDbEntity
  8
0
100
AcDbLine
 10
226.1
 20
28.65
 30
0.0
 11
230.4
 21
26.95
 31
0.0
  0
LINE
  5
E8
330
1E
100
AcDbEntity
  8
0
100
AcDbLine
 10
222.5999999999999
 20
31.85
 30
0.0
 11
226.3
 21
29.05
 31
0.0
  0
LINE
  5
E9
330
1E
100
AcDbEntity
  8
0
100
AcDbLine
 10
222.3
 20
31.55
 30
0.0
 11
226.1
 21
28.65
 31
0.0
  0
LINE
  5
EA
330
1E
100
AcDbEntity
  8
0
100
AcDbLine
 10
220.3
 20
18.75
 30
0.0
 11
227.4
 21
15.84999999999999
 31
0.0
  0
LINE
  5
EB
330
1E
100
AcDbEntity
  8
0
100
AcDbLine
 10
227.4
 20
15.84999999999999
 30
0.0
 11
231.0
 21
15.32894736842099
 31
0.0
  0
LINE
  5
EC
330
1E
100
AcDbEntity
  8
0
100
AcDbLine
 10
243.6999999999999
 20
29.05
 30
0.0
 11
247.4
 21
31.85
 31
0.0
  0
LINE
  5
ED
330
1E
100
AcDbEntity
  8
0
100
AcDbLine
 10
243.9
 20
28.65
 30
0.0
 11
247.6999999999999
 21
31.55
 31
0.0
  0
LINE
  5
EE
330
1E
100
AcDbEntity
  8
0
100
AcDbLine
 10
247.4
 20
31.85
 30
0.0
 11
250.1999999999999
 21
35.54999999999999
 31
0.0
  0
LINE
  5
EF
330
1E
100
AcDbEntity
  8
0
100
AcDbLine
 10
247.6999999999999
 20
31.55
 30
0.0
 11
250.5999999999999
 21
35.35
 31
0.0
  0
LINE
  5
F0
330
1E
100
AcDbEntity
  8
0
100
AcDbLine
 10
260.4999999999999
 20
29.55
 30
0.0
 11
263.3999999999999
 21
36.65
 31
0.0
  0
LINE
  5
F1
330
1E
100
AcDbEntity
  8
0
100
AcDbLine
 10
255.8
 20
23.45
 30
0.0
 11
260.4999999999999
 21
29.55
 31
0.0
  0
LINE
  5
F2
330
1E
100
AcDbEntity
  8
0
100
AcDbLine
 10
249.6999999999999
 20
18.75
 30
0.0
 11
255.8
 21
23.45
 31
0.0
  0
LINE
  5
F3
330
1E
100
AcDbEntity
  8
0
100
AcDbLine
 10
242.6
 20
15.84999999999999
 30
0.0
 11
249.6999999999999
 21
18.75
 31
0.0
  0
LINE
  5
F4
330
1E
100
AcDbEntity
  8
0
100
AcDbLine
 10
239.0
 20
15.32894736842099
 30
0.0
 11
242.6
 21
15.84999999999999
 31
0.0
  0
LINE
  5
F5
330
1E
100
AcDbEntity
  8
0
100
AcDbLine
 10
149.0
 20
24.05
 30
0.0
 11
149.0
 21
34.95
 31
0.0
  0
LINE
  5
F6
330
1E
100
AcDbEntity
  8
0
100
AcDbLine
 10
149.0
 20
24.05
 30
0.0
 11
149.0
 21
12.25
 31
0.0
  0
LINE
  5
F7
330
1E
100
AcDbEntity
  8
0
100
AcDbLine
 10
149.0
 20
34.95
 30
0.0
 11
149.0
 21
44.35
 31
0.0
  0
LINE
  5
F8
330
1E
100
AcDbEntity
  8
0
100
AcDbLine
 10
149.0
 20
34.95
 30
0.0
 11
149.0
 21
24.05
 31
0.0
  0
LINE
  5
F9
330
1E
100
AcDbEntity
  8
0
100
AcDbLine
 10
148.5
 20
24.15
 30
0.0
 11
148.5
 21
35.15
 31
0.0
  0
LINE
  5
FA
330
1E
100
AcDbEntity
  8
0
100
AcDbLine
 10
148.5
 20
24.15
 30
0.0
 11
148.5
 21
12.25
 31
0.0
  0
LINE
  5
FB
330
1E
100
AcDbEntity
  8
0
100
AcDbLine
 10
148.5
 20
35.15
 30
0.0
 11
148.5
 21
44.75
 31
0.0
  0
LINE
  5
FC
330
1E
100
AcDbEntity
  8
0
100
AcDbLine
 10
148.5
 20
35.15
 30
0.0
 11
148.5
 21
24.15
 31
0.0
  0
LINE
  5
FD
330
1E
100
AcDbEntity
  8
0
100
AcDbLine
 10
121.5
 20
24.15
 30
0.0
 11
121.5
 21
12.25
 31
0.0
  0
LINE
  5
FE
330
1E
100
AcDbEntity
  8
0
100
AcDbLine
 10
121.5
 20
24.15
 30
0.0
 11
121.5
 21
35.15
 31
0.0
  0
LINE
  5
FF
330
1E
100
AcDbEntity
  8
0
100
AcDbLine
 10
250.1999999999999
 20
35.54999999999999
 30
0.0
 11
251.9
 21
39.75
 31
0.0
  0
LINE
  5
100
330
1E
100
AcDbEntity
  8
0
100
AcDbLine
 10
250.5999999999999
 20
35.35
 30
0.0
 11
252.3
 21
39.64999999999999
 31
0.0
  0
LINE
  5
101
330
1E
100
AcDbEntity
  8
0
100
AcDbLine
 10
219.7999999999999
 20
35.54999999999999
 30
0.0
 11
222.5999999999999
 21
31.85
 31
0.0
  0
LINE
  5
102
330
1E
100
AcDbEntity
  8
0
100
AcDbLine
 10
219.3999999999999
 20
35.35
 30
0.0
 11
222.3
 21
31.55
 31
0.0
  0
LINE
  5
103
330
1E
100
AcDbEntity
  8
0
100
AcDbLine
 10
219.3999999999999
 20
35.35
 30
0.0
 11
222.3
 21
31.55
 31
0.0
  0
LINE
  5
104
330
1E
100
AcDbEntity
  8
0
100
AcDbLine
 10
200.0
 20
40.25
 30
0.0
 11
200.0
 21
44.24999999999999
 31
0.0
  0
LINE
  5
105
330
1E
100
AcDbEntity
  8
0
100
AcDbLine
 10
200.0
 20
40.25
 30
0.0
 11
230.6
 21
40.25
 31
0.0
  0
LINE
  5
106
330
1E
100
AcDbEntity
  8
0
100
AcDbLine
 10
200.0
 20
40.25
 30
0.0
 11
200.4999999999999
 21
40.75
 31
0.0
  0
LINE
  5
107
330
1E
100
AcDbEntity
  8
0
100
AcDbLine
 10
239.0
 20
39.85
 30
0.0
 11
239.0
 21
9.25
 31
0.0
  0
LINE
  5
108
330
1E
100
AcDbEntity
  8
0
100
AcDbLine
 10
239.0
 20
39.85
 30
0.0
 11
239.1999999999999
 21
40.04999999999999
 31
0.0
  0
LINE
  5
109
330
1E
100
AcDbEntity
  8
0
100
AcDbLine
 10
230.6
 20
40.25
 30
0.0
 11
230.8
 21
40.04999999999999
 31
0.0
  0
LINE
  5
10A
330
1E
100
AcDbEntity
  8
0
100
AcDbLine
 10
230.6
 20
40.25
 30
0.0
 11
231.1999999999999
 21
40.75
 31
0.0
  0
LINE
  5
10B
330
1E
100
AcDbEntity
  8
0
100
AcDbLine
 10
239.1999999999999
 20
40.04999999999999
 30
0.0
 11
239.4
 21
40.25
 31
0.0
  0
LINE
  5
10C
330
1E
100
AcDbEntity
  8
0
100
AcDbLine
 10
239.4
 20
40.25
 30
0.0
 11
270.0
 21
40.25
 31
0.0
  0
LINE
  5
10D
330
1E
100
AcDbEntity
  8
0
100
AcDbLine
 10
230.8
 20
40.04999999999999
 30
0.0
 11
231.0
 21
39.85
 31
0.0
  0
LINE
  5
10E
330
1E
100
AcDbEntity
  8
0
100
AcDbLine
 10
231.0
 20
39.85
 30
0.0
 11
231.0
 21
9.25
 31
0.0
  0
LINE
  5
10F
330
1E
100
AcDbEntity
  8
0
100
AcDbLine
 10
231.0
 20
39.85
 30
0.0
 11
231.4999999999999
 21
40.45
 31
0.0
  0
LINE
  5
110
330
1E
100
AcDbEntity
  8
0
100
AcDbLine
 10
251.9
 20
39.75
 30
0.0
 11
251.9666666666669
 21
40.25
 31
0.0
  0
LINE
  5
111
330
1E
100
AcDbEntity
  8
0
100
AcDbLine
 10
252.3
 20
39.64999999999999
 30
0.0
 11
252.3913043478259
 21
40.25
 31
0.0
  0
LINE
  5
112
330
1E
100
AcDbEntity
  8
0
100
AcDbLine
 10
218.1
 20
39.75
 30
0.0
 11
219.7999999999999
 21
35.54999999999999
 31
0.0
  0
LINE
  5
113
330
1E
100
AcDbEntity
  8
0
100
AcDbLine
 10
218.033333333333
 20
40.25
 30
0.0
 11
218.1
 21
39.75
 31
0.0
  0
LINE
  5
114
330
1E
100
AcDbEntity
  8
0
100
AcDbLine
 10
217.7
 20
39.64999999999999
 30
0.0
 11
219.3999999999999
 21
35.35
 31
0.0
  0
LINE
  5
115
330
1E
100
AcDbEntity
  8
0
100
AcDbLine
 10
217.6086956521739
 20
40.25
 30
0.0
 11
217.7
 21
39.64999999999999
 31
0.0
  0
LINE
  5
116
330
1E
100
AcDbEntity
  8
0
100
AcDbLine
 10
206.0789473684209
 20
40.25
 30
0.0
 11
206.5999999999999
 21
36.65
 31
0.0
  0
LINE
  5
117
330
1E
100
AcDbEntity
  8
0
100
AcDbLine
 10
206.5999999999999
 20
36.65
 30
0.0
 11
209.5
 21
29.55
 31
0.0
  0
LINE
  5
118
330
1E
100
AcDbEntity
  8
0
100
AcDbLine
 10
270.0
 20
40.25
 30
0.0
 11
270.0
 21
44.24999999999999
 31
0.0
  0
LINE
  5
119
330
1E
100
AcDbEntity
  8
0
100
AcDbLine
 10
265.5
 20
40.25
 30
0.0
 11
265.5
 21
13.75
 31
0.0
  0
LINE
  5
11A
330
1E
100
AcDbEntity
  8
0
100
AcDbLine
 10
266.0
 20
40.25
 30
0.0
 11
266.0
 21
13.75
 31
0.0
  0
LINE
  5
11B
330
1E
100
AcDbEntity
  8
0
100
AcDbLine
 10
263.3999999999999
 20
36.65
 30
0.0
 11
263.921052631579
 21
40.25
 31
0.0
  0
LINE
  5
11C
330
1E
100
AcDbEntity
  8
0
100
AcDbLine
 10
121.5
 20
35.15
 30
0.0
 11
121.5
 21
24.15
 31
0.0
  0
LINE
  5
11D
330
1E
100
AcDbEntity
  8
0
100
AcDbLine
 10
121.5
 20
35.15
 30
0.0
 11
121.5
 21
44.75
 31
0.0
  0
LINE
  5
11E
330
1E
100
AcDbEntity
  8
0
100
AcDbLine
 10
70.0
 20
40.25
 30
0.0
 11
70.0
 21
44.24999999999999
 31
0.0
  0
LINE
  5
11F
330
1E
100
AcDbEntity
  8
0
100
AcDbLine
 10
39.39999999999999
 20
40.25
 30
0.0
 11
70.0
 21
40.25
 31
0.0
  0
LINE
  5
120
330
1E
100
AcDbEntity
  8
0
100
AcDbLine
 10
39.0
 20
39.85
 30
0.0
 11
39.2
 21
40.04999999999999
 31
0.0
  0
LINE
  5
121
330
1E
100
AcDbEntity
  8
0
100
AcDbLine
 10
39.0
 20
39.85
 30
0.0
 11
39.0
 21
9.25
 31
0.0
  0
LINE
  5
122
330
1E
100
AcDbEntity
  8
0
100
AcDbLine
 10
31.5
 20
9.75
 30
0.0
 11
35.0
 21
9.75
 31
0.0
  0
LINE
  5
123
330
1E
100
AcDbEntity
  8
0
100
AcDbLine
 10
31.5
 20
9.75
 30
0.0
 11
31.5
 21
40.45
 31
0.0
  0
LINE
  5
124
330
1E
100
AcDbEntity
  8
0
100
AcDbLine
 10
31.0
 20
9.25
 30
0.0
 11
35.0
 21
9.25
 31
0.0
  0
LINE
  5
125
330
1E
100
AcDbEntity
  8
0
100
AcDbLine
 10
31.0
 20
9.25
 30
0.0
 11
31.0
 21
39.85
 31
0.0
  0
LINE
  5
126
330
1E
100
AcDbEntity
  8
0
100
AcDbLine
 10
31.0
 20
9.25
 30
0.0
 11
31.5
 21
9.75
 31
0.0
  0
LINE
  5
127
330
1E
100
AcDbEntity
  8
0
100
AcDbLine
 10
0.499999999999997
 20
47.75
 30
0.0
 11
0.499999999999997
 21
44.24999999999999
 31
0.0
  0
LINE
  5
128
330
1E
100
AcDbEntity
  8
0
100
AcDbLine
 10
0.499999999999997
 20
47.75
 30
0.0
 11
31.2
 21
47.75
 31
0.0
  0
LINE
  5
129
330
1E
100
AcDbEntity
  8
0
100
AcDbLine
 10
0.499999999999997
 20
40.75
 30
0.0
 11
31.2
 21
40.75
 31
0.0
  0
LINE
  5
12A
330
1E
100
AcDbEntity
  8
0
100
AcDbLine
 10
0.499999999999997
 20
40.75
 30
0.0
 11
0.499999999999997
 21
44.24999999999999
 31
0.0
  0
LINE
  5
12B
330
1E
100
AcDbEntity
  8
0
100
AcDbLine
 10
238.5
 20
40.45
 30
0.0
 11
238.5
 21
9.75
 31
0.0
  0
LINE
  5
12C
330
1E
100
AcDbEntity
  8
0
100
AcDbLine
 10
238.5
 20
40.45
 30
0.0
 11
239.0
 21
39.85
 31
0.0
  0
LINE
  5
12D
330
1E
100
AcDbEntity
  8
0
100
AcDbLine
 10
231.4999999999999
 20
40.45
 30
0.0
 11
231.4999999999999
 21
9.75
 31
0.0
  0
LINE
  5
12E
330
1E
100
AcDbEntity
  8
0
100
AcDbLine
 10
38.79999999999999
 20
40.75
 30
0.0
 11
69.5
 21
40.75
 31
0.0
  0
LINE
  5
12F
330
1E
100
AcDbEntity
  8
0
100
AcDbLine
 10
38.79999999999999
 20
40.75
 30
0.0
 11
39.39999999999999
 21
40.25
 31
0.0
  0
LINE
  5
130
330
1E
100
AcDbEntity
  8
0
100
AcDbLine
 10
200.4999999999999
 20
40.75
 30
0.0
 11
200.4999999999999
 21
44.24999999999999
 31
0.0
  0
LINE
  5
131
330
1E
100
AcDbEntity
  8
0
100
AcDbLine
 10
200.4999999999999
 20
40.75
 30
0.0
 11
231.1999999999999
 21
40.75
 31
0.0
  0
LINE
  5
132
330
1E
100
AcDbEntity
  8
0
100
AcDbLine
 10
238.8
 20
40.75
 30
0.0
 11
239.4
 21
40.25
 31
0.0
  0
LINE
  5
133
330
1E
100
AcDbEntity
  8
0
100
AcDbLine
 10
238.8
 20
40.75
 30
0.0
 11
269.4999999999999
 21
40.75
 31
0.0
  0
LINE
  5
134
330
1E
100
AcDbEntity
  8
0
100
AcDbLine
 10
269.4999999999999
 20
40.75
 30
0.0
 11
270.0
 21
40.25
 31
0.0
  0
LINE
  5
135
330
1E
100
AcDbEntity
  8
0
100
AcDbLine
 10
269.4999999999999
 20
40.75
 30
0.0
 11
269.4999999999999
 21
44.24999999999999
 31
0.0
  0
LINE
  5
136
330
1E
100
AcDbEntity
  8
0
100
AcDbLine
 10
69.5
 20
40.75
 30
0.0
 11
70.0
 21
40.25
 31
0.0
  0
LINE
  5
137
330
1E
100
AcDbEntity
  8
0
100
AcDbLine
 10
69.5
 20
40.75
 30
0.0
 11
69.5
 21
44.24999999999999
 31
0.0
  0
LINE
  5
138
330
1E
100
AcDbEntity
  8
0
100
AcDbLine
 10
38.5
 20
40.45
 30
0.0
 11
39.0
 21
39.85
 31
0.0
  0
LINE
  5
139
330
1E
100
AcDbEntity
  8
0
100
AcDbLine
 10
38.5
 20
40.45
 30
0.0
 11
38.5
 21
9.75
 31
0.0
  0
LINE
  5
13A
330
1E
100
AcDbEntity
  8
0
100
AcDbLine
 10
31.5
 20
40.45
 30
0.0
 11
31.5
 21
9.75
 31
0.0
  0
LINE
  5
13B
330
1E
100
AcDbEntity
  8
0
100
AcDbLine
 10
0.499999999999997
 20
47.75
 30
0.0
 11
31.2
 21
47.75
 31
0.0
  0
LINE
  5
13C
330
1E
100
AcDbEntity
  8
0
100
AcDbLine
 10
31.5
 20
48.04999999999999
 30
0.0
 11
31.5
 21
78.75
 31
0.0
  0
LINE
  5
13D
330
1E
100
AcDbEntity
  8
0
100
AcDbLine
 10
6.07894736842105
 20
48.25
 30
0.0
 11
6.599999999999999
 21
51.85
 31
0.0
  0
LINE
  5
13E
330
1E
100
AcDbEntity
  8
0
100
AcDbLine
 10
4.5
 20
48.25
 30
0.0
 11
4.5
 21
74.75
 31
0.0
  0
LINE
  5
13F
330
1E
100
AcDbEntity
  8
0
100
AcDbLine
 10
4.0
 20
48.25
 30
0.0
 11
4.0
 21
74.75
 31
0.0
  0
LINE
  5
140
330
1E
100
AcDbEntity
  8
0
100
AcDbLine
 10
18.0333333333333
 20
48.25
 30
0.0
 11
18.1
 21
48.75
 31
0.0
  0
LINE
  5
141
330
1E
100
AcDbEntity
  8
0
100
AcDbLine
 10
17.60869565217389
 20
48.25
 30
0.0
 11
17.7
 21
48.85
 31
0.0
  0
LINE
  5
142
330
1E
100
AcDbEntity
  8
0
100
AcDbLine
 10
30.6
 20
48.25
 30
0.0
 11
30.8
 21
48.45
 31
0.0
  0
LINE
  5
143
330
1E
100
AcDbEntity
  8
0
100
AcDbLine
 10
30.6
 20
48.25
 30
0.0
 11
31.2
 21
47.75
 31
0.0
  0
LINE
  5
144
330
1E
100
AcDbEntity
  8
0
100
AcDbLine
 10
30.8
 20
48.45
 30
0.0
 11
31.0
 21
48.65
 31
0.0
  0
LINE
  5
145
330
1E
100
AcDbEntity
  8
0
100
AcDbLine
 10
38.5
 20
48.04999999999999
 30
0.0
 11
38.5
 21
78.75
 31
0.0
  0
LINE
  5
146
330
1E
100
AcDbEntity
  8
0
100
AcDbLine
 10
38.5
 20
48.04999999999999
 30
0.0
 11
39.0
 21
48.65
 31
0.0
  0
LINE
  5
147
330
1E
100
AcDbEntity
  8
0
100
AcDbLine
 10
38.79999999999999
 20
47.75
 30
0.0
 11
39.39999999999999
 21
48.25
 31
0.0
  0
LINE
  5
148
330
1E
100
AcDbEntity
  8
0
100
AcDbLine
 10
38.79999999999999
 20
47.75
 30
0.0
 11
69.5
 21
47.75
 31
0.0
  0
LINE
  5
149
330
1E
100
AcDbEntity
  8
0
100
AcDbLine
 10
18.1
 20
48.75
 30
0.0
 11
19.8
 21
52.95
 31
0.0
  0
LINE
  5
14A
330
1E
100
AcDbEntity
  8
0
100
AcDbLine
 10
6.599999999999999
 20
51.85
 30
0.0
 11
9.5
 21
58.95
 31
0.0
  0
LINE
  5
14B
330
1E
100
AcDbEntity
  8
0
100
AcDbLine
 10
9.5
 20
58.95
 30
0.0
 11
14.19999999999999
 21
65.04999999999999
 31
0.0
  0
LINE
  5
14C
330
1E
100
AcDbEntity
  8
0
100
AcDbLine
 10
4.5
 20
74.75
 30
0.0
 11
31.0
 21
74.75
 31
0.0
  0
LINE
  5
14D
330
1E
100
AcDbEntity
  8
0
100
AcDbLine
 10
14.19999999999999
 20
65.04999999999999
 30
0.0
 11
20.3
 21
69.75
 31
0.0
  0
LINE
  5
14E
330
1E
100
AcDbEntity
  8
0
100
AcDbLine
 10
4.5
 20
74.75
 30
0.0
 11
4.5
 21
75.25
 31
0.0
  0
LINE
  5
14F
330
1E
100
AcDbEntity
  8
0
100
AcDbLine
 10
4.5
 20
74.75
 30
0.0
 11
31.0
 21
74.75
 31
0.0
  0
LINE
  5
150
330
1E
100
AcDbEntity
  8
0
100
AcDbLine
 10
4.5
 20
74.75
 30
0.0
 11
4.5
 21
48.25
 31
0.0
  0
LINE
  5
151
330
1E
100
AcDbEntity
  8
0
100
AcDbLine
 10
4.5
 20
75.25
 30
0.0
 11
31.0
 21
75.25
 31
0.0
  0
LINE
  5
152
330
1E
100
AcDbEntity
  8
0
100
AcDbLine
 10
4.5
 20
75.25
 30
0.0
 11
31.0
 21
75.25
 31
0.0
  0
LINE
  5
153
330
1E
100
AcDbEntity
  8
0
100
AcDbLine
 10
4.5
 20
75.25
 30
0.0
 11
4.5
 21
74.75
 31
0.0
  0
LINE
  5
154
330
1E
100
AcDbEntity
  8
0
100
AcDbLine
 10
4.0
 20
74.75
 30
0.0
 11
4.5
 21
75.25
 31
0.0
  0
LINE
  5
155
330
1E
100
AcDbEntity
  8
0
100
AcDbLine
 10
4.0
 20
74.75
 30
0.0
 11
4.0
 21
48.25
 31
0.0
  0
LINE
  5
156
330
1E
100
AcDbEntity
  8
0
100
AcDbLine
 10
4.0
 20
74.75
 30
0.0
 11
4.5
 21
74.75
 31
0.0
  0
LINE
  5
157
330
1E
100
AcDbEntity
  8
0
100
AcDbLine
 10
22.6
 20
56.65
 30
0.0
 11
26.3
 21
59.45
 31
0.0
  0
LINE
  5
158
330
1E
100
AcDbEntity
  8
0
100
AcDbLine
 10
19.8
 20
52.95
 30
0.0
 11
22.6
 21
56.65
 31
0.0
  0
LINE
  5
159
330
1E
100
AcDbEntity
  8
0
100
AcDbLine
 10
20.3
 20
69.75
 30
0.0
 11
27.4
 21
72.65
 31
0.0
  0
LINE
  5
15A
330
1E
100
AcDbEntity
  8
0
100
AcDbLine
 10
30.5
 20
61.15
 30
0.0
 11
31.0
 21
61.21666666666669
 31
0.0
  0
LINE
  5
15B
330
1E
100
AcDbEntity
  8
0
100
AcDbLine
 10
26.3
 20
59.45
 30
0.0
 11
30.5
 21
61.15
 31
0.0
  0
LINE
  5
15C
330
1E
100
AcDbEntity
  8
0
100
AcDbLine
 10
27.4
 20
72.65
 30
0.0
 11
31.0
 21
73.1710526315789
 31
0.0
  0
LINE
  5
15D
330
1E
100
AcDbEntity
  8
0
100
AcDbLine
 10
30.4
 20
61.55
 30
0.0
 11
31.0
 21
61.6413043478261
 31
0.0
  0
LINE
  5
15E
330
1E
100
AcDbEntity
  8
0
100
AcDbLine
 10
26.1
 20
59.85
 30
0.0
 11
30.4
 21
61.55
 31
0.0
  0
LINE
  5
15F
330
1E
100
AcDbEntity
  8
0
100
AcDbLine
 10
22.29999999999999
 20
56.95
 30
0.0
 11
26.1
 21
59.85
 31
0.0
  0
LINE
  5
160
330
1E
100
AcDbEntity
  8
0
100
AcDbLine
 10
19.39999999999999
 20
53.15
 30
0.0
 11
22.29999999999999
 21
56.95
 31
0.0
  0
LINE
  5
161
330
1E
100
AcDbEntity
  8
0
100
AcDbLine
 10
17.7
 20
48.85
 30
0.0
 11
19.39999999999999
 21
53.15
 31
0.0
  0
LINE
  5
162
330
1E
100
AcDbEntity
  8
0
100
AcDbLine
 10
31.5
 20
78.75
 30
0.0
 11
35.0
 21
78.75
 31
0.0
  0
LINE
  5
163
330
1E
100
AcDbEntity
  8
0
100
AcDbLine
 10
31.5
 20
78.75
 30
0.0
 11
31.5
 21
48.04999999999999
 31
0.0
  0
LINE
  5
164
330
1E
100
AcDbEntity
  8
0
100
AcDbLine
 10
31.0
 20
48.65
 30
0.0
 11
31.0
 21
79.25
 31
0.0
  0
LINE
  5
165
330
1E
100
AcDbEntity
  8
0
100
AcDbLine
 10
31.0
 20
48.65
 30
0.0
 11
31.5
 21
48.04999999999999
 31
0.0
  0
LINE
  5
166
330
1E
100
AcDbEntity
  8
0
100
AcDbLine
 10
31.0
 20
79.25
 30
0.0
 11
31.0
 21
48.65
 31
0.0
  0
LINE
  5
167
330
1E
100
AcDbEntity
  8
0
100
AcDbLine
 10
31.0
 20
79.25
 30
0.0
 11
35.0
 21
79.25
 31
0.0
  0
LINE
  5
168
330
1E
100
AcDbEntity
  8
0
100
AcDbLine
 10
31.0
 20
79.25
 30
0.0
 11
31.5
 21
78.75
 31
0.0
  0
LINE
  5
169
330
1E
100
AcDbEntity
  8
0
100
AcDbLine
 10
35.0
 20
78.75
 30
0.0
 11
38.5
 21
78.75
 31
0.0
  0
LINE
  5
16A
330
1E
100
AcDbEntity
  8
0
100
AcDbLine
 10
39.0
 20
73.1710526315789
 30
0.0
 11
42.6
 21
72.65
 31
0.0
  0
LINE
  5
16B
330
1E
100
AcDbEntity
  8
0
100
AcDbLine
 10
39.0
 20
74.75
 30
0.0
 11
135.0
 21
74.75
 31
0.0
  0
LINE
  5
16C
330
1E
100
AcDbEntity
  8
0
100
AcDbLine
 10
39.0
 20
75.25
 30
0.0
 11
135.0
 21
75.25
 31
0.0
  0
LINE
  5
16D
330
1E
100
AcDbEntity
  8
0
100
AcDbLine
 10
39.0
 20
61.21666666666669
 30
0.0
 11
39.5
 21
61.15
 31
0.0
  0
LINE
  5
16E
330
1E
100
AcDbEntity
  8
0
100
AcDbLine
 10
39.0
 20
74.75
 30
0.0
 11
135.0
 21
74.75
 31
0.0
  0
LINE
  5
16F
330
1E
100
AcDbEntity
  8
0
100
AcDbLine
 10
39.0
 20
75.25
 30
0.0
 11
135.0
 21
75.25
 31
0.0
  0
LINE
  5
170
330
1E
100
AcDbEntity
  8
0
100
AcDbLine
 10
39.0
 20
61.6413043478261
 30
0.0
 11
39.6
 21
61.55
 31
0.0
  0
LINE
  5
171
330
1E
100
AcDbEntity
  8
0
100
AcDbLine
 10
39.0
 20
79.25
 30
0.0
 11
39.0
 21
48.65
 31
0.0
  0
LINE
  5
172
330
1E
100
AcDbEntity
  8
0
100
AcDbLine
 10
38.5
 20
78.75
 30
0.0
 11
39.0
 21
79.25
 31
0.0
  0
LINE
  5
173
330
1E
100
AcDbEntity
  8
0
100
AcDbLine
 10
38.5
 20
78.75
 30
0.0
 11
38.5
 21
48.04999999999999
 31
0.0
  0
LINE
  5
174
330
1E
100
AcDbEntity
  8
0
100
AcDbLine
 10
39.0
 20
48.65
 30
0.0
 11
39.0
 21
79.25
 31
0.0
  0
LINE
  5
175
330
1E
100
AcDbEntity
  8
0
100
AcDbLine
 10
39.0
 20
48.65
 30
0.0
 11
39.2
 21
48.45
 31
0.0
  0
LINE
  5
176
330
1E
100
AcDbEntity
  8
0
100
AcDbLine
 10
35.0
 20
79.25
 30
0.0
 11
39.0
 21
79.25
 31
0.0
  0
LINE
  5
177
330
1E
100
AcDbEntity
  8
0
100
AcDbLine
 10
39.2
 20
48.45
 30
0.0
 11
39.39999999999999
 21
48.25
 31
0.0
  0
LINE
  5
178
330
1E
100
AcDbEntity
  8
0
100
AcDbLine
 10
69.5
 20
47.75
 30
0.0
 11
70.0
 21
48.25
 31
0.0
  0
LINE
  5
179
330
1E
100
AcDbEntity
  8
0
100
AcDbLine
 10
69.5
 20
47.75
 30
0.0
 11
69.5
 21
44.24999999999999
 31
0.0
  0
LINE
  5
17A
330
1E
100
AcDbEntity
  8
0
100
AcDbLine
 10
50.2
 20
52.95
 30
0.0
 11
51.9
 21
48.75
 31
0.0
  0
LINE
  5
17B
330
1E
100
AcDbEntity
  8
0
100
AcDbLine
 10
51.9
 20
48.75
 30
0.0
 11
51.96666666666669
 21
48.25
 31
0.0
  0
LINE
  5
17C
330
1E
100
AcDbEntity
  8
0
100
AcDbLine
 10
43.7
 20
59.45
 30
0.0
 11
47.4
 21
56.65
 31
0.0
  0
LINE
  5
17D
330
1E
100
AcDbEntity
  8
0
100
AcDbLine
 10
47.4
 20
56.65
 30
0.0
 11
50.2
 21
52.95
 31
0.0
  0
LINE
  5
17E
330
1E
100
AcDbEntity
  8
0
100
AcDbLine
 10
39.5
 20
61.15
 30
0.0
 11
43.7
 21
59.45
 31
0.0
  0
LINE
  5
17F
330
1E
100
AcDbEntity
  8
0
100
AcDbLine
 10
42.6
 20
72.65
 30
0.0
 11
49.7
 21
69.75
 31
0.0
  0
LINE
  5
180
330
1E
100
AcDbEntity
  8
0
100
AcDbLine
 10
39.6
 20
61.55
 30
0.0
 11
43.89999999999999
 21
59.85
 31
0.0
  0
LINE
  5
181
330
1E
100
AcDbEntity
  8
0
100
AcDbLine
 10
43.89999999999999
 20
59.85
 30
0.0
 11
47.7
 21
56.95
 31
0.0
  0
LINE
  5
182
330
1E
100
AcDbEntity
  8
0
100
AcDbLine
 10
49.7
 20
69.75
 30
0.0
 11
55.8
 21
65.04999999999999
 31
0.0
  0
LINE
  5
183
330
1E
100
AcDbEntity
  8
0
100
AcDbLine
 10
47.7
 20
56.95
 30
0.0
 11
50.6
 21
53.15
 31
0.0
  0
LINE
  5
184
330
1E
100
AcDbEntity
  8
0
100
AcDbLine
 10
50.6
 20
53.15
 30
0.0
 11
52.3
 21
48.85
 31
0.0
  0
LINE
  5
185
330
1E
100
AcDbEntity
  8
0
100
AcDbLine
 10
63.39999999999999
 20
51.85
 30
0.0
 11
63.9210526315789
 21
48.25
 31
0.0
  0
LINE
  5
186
330
1E
100
AcDbEntity
  8
0
100
AcDbLine
 10
60.5
 20
58.95
 30
0.0
 11
63.39999999999999
 21
51.85
 31
0.0
  0
LINE
  5
187
330
1E
100
AcDbEntity
  8
0
100
AcDbLine
 10
55.8
 20
65.04999999999999
 30
0.0
 11
60.5
 21
58.95
 31
0.0
  0
LINE
  5
188
330
1E
100
AcDbEntity
  8
0
100
AcDbLine
 10
52.3
 20
48.85
 30
0.0
 11
52.3913043478261
 21
48.25
 31
0.0
  0
LINE
  5
189
330
1E
100
AcDbEntity
  8
0
100
AcDbLine
 10
70.0
 20
48.25
 30
0.0
 11
70.0
 21
44.24999999999999
 31
0.0
  0
LINE
  5
18A
330
1E
100
AcDbEntity
  8
0
100
AcDbLine
 10
39.39999999999999
 20
48.25
 30
0.0
 11
70.0
 21
48.25
 31
0.0
  0
LINE
  5
18B
330
1E
100
AcDbEntity
  8
0
100
AcDbLine
 10
69.5
 20
44.24999999999999
 30
0.0
 11
69.5
 21
40.75
 31
0.0
  0
LINE
  5
18C
330
1E
100
AcDbEntity
  8
0
100
AcDbLine
 10
69.5
 20
44.24999999999999
 30
0.0
 11
69.5
 21
47.75
 31
0.0
  0
LINE
  5
18D
330
1E
100
AcDbEntity
  8
0
100
AcDbLine
 10
121.0
 20
44.35
 30
0.0
 11
121.0
 21
34.95
 31
0.0
  0
LINE
  5
18E
330
1E
100
AcDbEntity
  8
0
100
AcDbLine
 10
121.0
 20
44.35
 30
0.0
 11
121.0
 21
51.65
 31
0.0
  0
LINE
  5
18F
330
1E
100
AcDbEntity
  8
0
100
AcDbLine
 10
121.0
 20
51.65
 30
0.0
 11
121.0
 21
44.35
 31
0.0
  0
LINE
  5
190
330
1E
100
AcDbEntity
  8
0
100
AcDbLine
 10
121.0
 20
51.65
 30
0.0
 11
121.0
 21
56.15
 31
0.0
  0
LINE
  5
191
330
1E
100
AcDbEntity
  8
0
100
AcDbLine
 10
121.5
 20
44.75
 30
0.0
 11
121.5
 21
35.15
 31
0.0
  0
LINE
  5
192
330
1E
100
AcDbEntity
  8
0
100
AcDbLine
 10
121.5
 20
44.75
 30
0.0
 11
121.5
 21
52.05
 31
0.0
  0
LINE
  5
193
330
1E
100
AcDbEntity
  8
0
100
AcDbLine
 10
121.0
 20
56.15
 30
0.0
 11
121.0
 21
51.65
 31
0.0
  0
LINE
  5
194
330
1E
100
AcDbEntity
  8
0
100
AcDbLine
 10
121.0
 20
56.15
 30
0.0
 11
121.0
 21
57.75
 31
0.0
  0
LINE
  5
195
330
1E
100
AcDbEntity
  8
0
100
AcDbLine
 10
121.0
 20
57.75
 30
0.0
 11
121.5
 21
58.25
 31
0.0
  0
LINE
  5
196
330
1E
100
AcDbEntity
  8
0
100
AcDbLine
 10
121.0
 20
57.75
 30
0.0
 11
121.0
 21
56.15
 31
0.0
  0
LINE
  5
197
330
1E
100
AcDbEntity
  8
0
100
AcDbLine
 10
121.0
 20
57.75
 30
0.0
 11
121.0
 21
30.75
 31
0.0
  0
LINE
  5
198
330
1E
100
AcDbEntity
  8
0
100
AcDbLine
 10
121.5
 20
52.05
 30
0.0
 11
121.5
 21
44.75
 31
0.0
  0
LINE
  5
199
330
1E
100
AcDbEntity
  8
0
100
AcDbLine
 10
121.5
 20
52.05
 30
0.0
 11
121.5
 21
56.55
 31
0.0
  0
LINE
  5
19A
330
1E
100
AcDbEntity
  8
0
100
AcDbLine
 10
148.5
 20
44.75
 30
0.0
 11
148.5
 21
52.05
 31
0.0
  0
LINE
  5
19B
330
1E
100
AcDbEntity
  8
0
100
AcDbLine
 10
148.5
 20
44.75
 30
0.0
 11
148.5
 21
35.15
 31
0.0
  0
LINE
  5
19C
330
1E
100
AcDbEntity
  8
0
100
AcDbLine
 10
148.5
 20
58.25
 30
0.0
 11
149.0
 21
57.75
 31
0.0
  0
LINE
  5
19D
330
1E
100
AcDbEntity
  8
0
100
AcDbLine
 10
148.5
 20
58.25
 30
0.0
 11
148.5
 21
56.55
 31
0.0
  0
LINE
  5
19E
330
1E
100
AcDbEntity
  8
0
100
AcDbLine
 10
148.5
 20
52.05
 30
0.0
 11
148.5
 21
56.55
 31
0.0
  0
LINE
  5
19F
330
1E
100
AcDbEntity
  8
0
100
AcDbLine
 10
148.5
 20
52.05
 30
0.0
 11
148.5
 21
44.75
 31
0.0
  0
LINE
  5
1A0
330
1E
100
AcDbEntity
  8
0
100
AcDbLine
 10
149.0
 20
44.35
 30
0.0
 11
149.0
 21
51.65
 31
0.0
  0
LINE
  5
1A1
330
1E
100
AcDbEntity
  8
0
100
AcDbLine
 10
149.0
 20
44.35
 30
0.0
 11
149.0
 21
34.95
 31
0.0
  0
LINE
  5
1A2
330
1E
100
AcDbEntity
  8
0
100
AcDbLine
 10
200.4999999999999
 20
47.75
 30
0.0
 11
231.1999999999999
 21
47.75
 31
0.0
  0
LINE
  5
1A3
330
1E
100
AcDbEntity
  8
0
100
AcDbLine
 10
200.4999999999999
 20
47.75
 30
0.0
 11
200.4999999999999
 21
44.24999999999999
 31
0.0
  0
LINE
  5
1A4
330
1E
100
AcDbEntity
  8
0
100
AcDbLine
 10
200.4999999999999
 20
44.24999999999999
 30
0.0
 11
200.4999999999999
 21
47.75
 31
0.0
  0
LINE
  5
1A5
330
1E
100
AcDbEntity
  8
0
100
AcDbLine
 10
200.4999999999999
 20
44.24999999999999
 30
0.0
 11
200.4999999999999
 21
40.75
 31
0.0
  0
LINE
  5
1A6
330
1E
100
AcDbEntity
  8
0
100
AcDbLine
 10
200.0
 20
44.24999999999999
 30
0.0
 11
200.0
 21
48.25
 31
0.0
  0
LINE
  5
1A7
330
1E
100
AcDbEntity
  8
0
100
AcDbLine
 10
200.0
 20
44.24999999999999
 30
0.0
 11
200.0
 21
40.25
 31
0.0
  0
LINE
  5
1A8
330
1E
100
AcDbEntity
  8
0
100
AcDbLine
 10
200.0
 20
48.25
 30
0.0
 11
200.0
 21
44.24999999999999
 31
0.0
  0
LINE
  5
1A9
330
1E
100
AcDbEntity
  8
0
100
AcDbLine
 10
200.0
 20
48.25
 30
0.0
 11
230.6
 21
48.25
 31
0.0
  0
LINE
  5
1AA
330
1E
100
AcDbEntity
  8
0
100
AcDbLine
 10
200.0
 20
48.25
 30
0.0
 11
200.4999999999999
 21
47.75
 31
0.0
  0
LINE
  5
1AB
330
1E
100
AcDbEntity
  8
0
100
AcDbLine
 10
230.6
 20
48.25
 30
0.0
 11
230.8
 21
48.45
 31
0.0
  0
LINE
  5
1AC
330
1E
100
AcDbEntity
  8
0
100
AcDbLine
 10
230.6
 20
48.25
 30
0.0
 11
231.1999999999999
 21
47.75
 31
0.0
  0
LINE
  5
1AD
330
1E
100
AcDbEntity
  8
0
100
AcDbLine
 10
218.033333333333
 20
48.25
 30
0.0
 11
218.1
 21
48.75
 31
0.0
  0
LINE
  5
1AE
330
1E
100
AcDbEntity
  8
0
100
AcDbLine
 10
217.6086956521739
 20
48.25
 30
0.0
 11
217.7
 21
48.85
 31
0.0
  0
LINE
  5
1AF
330
1E
100
AcDbEntity
  8
0
100
AcDbLine
 10
231.4999999999999
 20
48.04999999999999
 30
0.0
 11
231.4999999999999
 21
78.75
 31
0.0
  0
LINE
  5
1B0
330
1E
100
AcDbEntity
  8
0
100
AcDbLine
 10
238.8
 20
47.75
 30
0.0
 11
269.4999999999999
 21
47.75
 31
0.0
  0
LINE
  5
1B1
330
1E
100
AcDbEntity
  8
0
100
AcDbLine
 10
238.8
 20
47.75
 30
0.0
 11
239.4
 21
48.25
 31
0.0
  0
LINE
  5
1B2
330
1E
100
AcDbEntity
  8
0
100
AcDbLine
 10
239.4
 20
48.25
 30
0.0
 11
270.0
 21
48.25
 31
0.0
  0
LINE
  5
1B3
330
1E
100
AcDbEntity
  8
0
100
AcDbLine
 10
238.5
 20
48.04999999999999
 30
0.0
 11
239.0
 21
48.65
 31
0.0
  0
LINE
  5
1B4
330
1E
100
AcDbEntity
  8
0
100
AcDbLine
 10
238.5
 20
48.04999999999999
 30
0.0
 11
238.5
 21
78.75
 31
0.0
  0
LINE
  5
1B5
330
1E
100
AcDbEntity
  8
0
100
AcDbLine
 10
206.0789473684209
 20
48.25
 30
0.0
 11
206.5999999999999
 21
51.85
 31
0.0
  0
LINE
  5
1B6
330
1E
100
AcDbEntity
  8
0
100
AcDbLine
 10
269.4999999999999
 20
44.24999999999999
 30
0.0
 11
269.4999999999999
 21
47.75
 31
0.0
  0
LINE
  5
1B7
330
1E
100
AcDbEntity
  8
0
100
AcDbLine
 10
269.4999999999999
 20
44.24999999999999
 30
0.0
 11
269.4999999999999
 21
40.75
 31
0.0
  0
LINE
  5
1B8
330
1E
100
AcDbEntity
  8
0
100
AcDbLine
 10
269.4999999999999
 20
47.75
 30
0.0
 11
269.4999999999999
 21
44.24999999999999
 31
0.0
  0
LINE
  5
1B9
330
1E
100
AcDbEntity
  8
0
100
AcDbLine
 10
269.4999999999999
 20
47.75
 30
0.0
 11
270.0
 21
48.25
 31
0.0
  0
LINE
  5
1BA
330
1E
100
AcDbEntity
  8
0
100
AcDbLine
 10
270.0
 20
44.24999999999999
 30
0.0
 11
270.0
 21
48.25
 31
0.0
  0
LINE
  5
1BB
330
1E
100
AcDbEntity
  8
0
100
AcDbLine
 10
270.0
 20
44.24999999999999
 30
0.0
 11
270.0
 21
40.25
 31
0.0
  0
LINE
  5
1BC
330
1E
100
AcDbEntity
  8
0
100
AcDbLine
 10
270.0
 20
48.25
 30
0.0
 11
270.0
 21
44.24999999999999
 31
0.0
  0
LINE
  5
1BD
330
1E
100
AcDbEntity
  8
0
100
AcDbLine
 10
266.0
 20
48.25
 30
0.0
 11
266.0
 21
74.75
 31
0.0
  0
LINE
  5
1BE
330
1E
100
AcDbEntity
  8
0
100
AcDbLine
 10
230.8
 20
48.45
 30
0.0
 11
231.0
 21
48.65
 31
0.0
  0
LINE
  5
1BF
330
1E
100
AcDbEntity
  8
0
100
AcDbLine
 10
218.1
 20
48.75
 30
0.0
 11
219.7999999999999
 21
52.95
 31
0.0
  0
LINE
  5
1C0
330
1E
100
AcDbEntity
  8
0
100
AcDbLine
 10
217.7
 20
48.85
 30
0.0
 11
219.3999999999999
 21
53.15
 31
0.0
  0
LINE
  5
1C1
330
1E
100
AcDbEntity
  8
0
100
AcDbLine
 10
231.0
 20
48.65
 30
0.0
 11
231.0
 21
79.25
 31
0.0
  0
LINE
  5
1C2
330
1E
100
AcDbEntity
  8
0
100
AcDbLine
 10
231.0
 20
48.65
 30
0.0
 11
231.4999999999999
 21
48.04999999999999
 31
0.0
  0
LINE
  5
1C3
330
1E
100
AcDbEntity
  8
0
100
AcDbLine
 10
251.9
 20
48.75
 30
0.0
 11
251.9666666666669
 21
48.25
 31
0.0
  0
LINE
  5
1C4
330
1E
100
AcDbEntity
  8
0
100
AcDbLine
 10
252.3
 20
48.85
 30
0.0
 11
252.3913043478259
 21
48.25
 31
0.0
  0
LINE
  5
1C5
330
1E
100
AcDbEntity
  8
0
100
AcDbLine
 10
239.1999999999999
 20
48.45
 30
0.0
 11
239.4
 21
48.25
 31
0.0
  0
LINE
  5
1C6
330
1E
100
AcDbEntity
  8
0
100
AcDbLine
 10
239.0
 20
48.65
 30
0.0
 11
239.1999999999999
 21
48.45
 31
0.0
  0
LINE
  5
1C7
330
1E
100
AcDbEntity
  8
0
100
AcDbLine
 10
239.0
 20
48.65
 30
0.0
 11
239.0
 21
79.25
 31
0.0
  0
LINE
  5
1C8
330
1E
100
AcDbEntity
  8
0
100
AcDbLine
 10
219.7999999999999
 20
52.95
 30
0.0
 11
222.5999999999999
 21
56.65
 31
0.0
  0
LINE
  5
1C9
330
1E
100
AcDbEntity
  8
0
100
AcDbLine
 10
219.3999999999999
 20
53.15
 30
0.0
 11
222.3
 21
56.95
 31
0.0
  0
LINE
  5
1CA
330
1E
100
AcDbEntity
  8
0
100
AcDbLine
 10
250.1999999999999
 20
52.95
 30
0.0
 11
251.9
 21
48.75
 31
0.0
  0
LINE
  5
1CB
330
1E
100
AcDbEntity
  8
0
100
AcDbLine
 10
250.5999999999999
 20
53.15
 30
0.0
 11
252.3
 21
48.85
 31
0.0
  0
LINE
  5
1CC
330
1E
100
AcDbEntity
  8
0
100
AcDbLine
 10
263.3999999999999
 20
51.85
 30
0.0
 11
263.921052631579
 21
48.25
 31
0.0
  0
LINE
  5
1CD
330
1E
100
AcDbEntity
  8
0
100
AcDbLine
 10
206.5999999999999
 20
51.85
 30
0.0
 11
209.5
 21
58.95
 31
0.0
  0
LINE
  5
1CE
330
1E
100
AcDbEntity
  8
0
100
AcDbLine
 10
265.5
 20
48.25
 30
0.0
 11
265.5
 21
74.75
 31
0.0
  0
LINE
  5
1CF
330
1E
100
AcDbEntity
  8
0
100
AcDbLine
 10
149.0
 20
51.65
 30
0.0
 11
149.0
 21
56.15
 31
0.0
  0
LINE
  5
1D0
330
1E
100
AcDbEntity
  8
0
100
AcDbLine
 10
149.0
 20
51.65
 30
0.0
 11
149.0
 21
44.35
 31
0.0
  0
LINE
  5
1D1
330
1E
100
AcDbEntity
  8
0
100
AcDbLine
 10
222.5999999999999
 20
56.65
 30
0.0
 11
226.3
 21
59.45
 31
0.0
  0
LINE
  5
1D2
330
1E
100
AcDbEntity
  8
0
100
AcDbLine
 10
222.3
 20
56.95
 30
0.0
 11
226.1
 21
59.85
 31
0.0
  0
LINE
  5
1D3
330
1E
100
AcDbEntity
  8
0
100
AcDbLine
 10
247.4
 20
56.65
 30
0.0
 11
250.1999999999999
 21
52.95
 31
0.0
  0
LINE
  5
1D4
330
1E
100
AcDbEntity
  8
0
100
AcDbLine
 10
247.6999999999999
 20
56.95
 30
0.0
 11
250.5999999999999
 21
53.15
 31
0.0
  0
LINE
  5
1D5
330
1E
100
AcDbEntity
  8
0
100
AcDbLine
 10
149.0
 20
57.75
 30
0.0
 11
149.0
 21
56.15
 31
0.0
  0
LINE
  5
1D6
330
1E
100
AcDbEntity
  8
0
100
AcDbLine
 10
149.0
 20
56.15
 30
0.0
 11
149.0
 21
57.75
 31
0.0
  0
LINE
  5
1D7
330
1E
100
AcDbEntity
  8
0
100
AcDbLine
 10
149.0
 20
56.15
 30
0.0
 11
149.0
 21
51.65
 31
0.0
  0
LINE
  5
1D8
330
1E
100
AcDbEntity
  8
0
100
AcDbLine
 10
148.5
 20
56.55
 30
0.0
 11
148.5
 21
58.25
 31
0.0
  0
LINE
  5
1D9
330
1E
100
AcDbEntity
  8
0
100
AcDbLine
 10
148.5
 20
56.55
 30
0.0
 11
148.5
 21
52.05
 31
0.0
  0
LINE
  5
1DA
330
1E
100
AcDbEntity
  8
0
100
AcDbLine
 10
135.0
 20
58.25
 30
0.0
 11
148.5
 21
58.25
 31
0.0
  0
LINE
  5
1DB
330
1E
100
AcDbEntity
  8
0
100
AcDbLine
 10
121.5
 20
56.55
 30
0.0
 11
121.5
 21
52.05
 31
0.0
  0
LINE
  5
1DC
330
1E
100
AcDbEntity
  8
0
100
AcDbLine
 10
121.5
 20
56.55
 30
0.0
 11
121.5
 21
58.25
 31
0.0
  0
LINE
  5
1DD
330
1E
100
AcDbEntity
  8
0
100
AcDbLine
 10
209.5
 20
58.95
 30
0.0
 11
214.1999999999999
 21
65.04999999999999
 31
0.0
  0
LINE
  5
1DE
330
1E
100
AcDbEntity
  8
0
100
AcDbLine
 10
214.1999999999999
 20
65.04999999999999
 30
0.0
 11
220.3
 21
69.75
 31
0.0
  0
LINE
  5
1DF
330
1E
100
AcDbEntity
  8
0
100
AcDbLine
 10
226.3
 20
59.45
 30
0.0
 11
230.5
 21
61.15
 31
0.0
  0
LINE
  5
1E0
330
1E
100
AcDbEntity
  8
0
100
AcDbLine
 10
230.5
 20
61.15
 30
0.0
 11
231.0
 21
61.21666666666669
 31
0.0
  0
LINE
  5
1E1
330
1E
100
AcDbEntity
  8
0
100
AcDbLine
 10
230.4
 20
61.55
 30
0.0
 11
231.0
 21
61.6413043478261
 31
0.0
  0
LINE
  5
1E2
330
1E
100
AcDbEntity
  8
0
100
AcDbLine
 10
226.1
 20
59.85
 30
0.0
 11
230.4
 21
61.55
 31
0.0
  0
LINE
  5
1E3
330
1E
100
AcDbEntity
  8
0
100
AcDbLine
 10
239.0
 20
61.21666666666669
 30
0.0
 11
239.5
 21
61.15
 31
0.0
  0
LINE
  5
1E4
330
1E
100
AcDbEntity
  8
0
100
AcDbLine
 10
239.0
 20
61.6413043478261
 30
0.0
 11
239.5999999999999
 21
61.55
 31
0.0
  0
LINE
  5
1E5
330
1E
100
AcDbEntity
  8
0
100
AcDbLine
 10
220.3
 20
69.75
 30
0.0
 11
227.4
 21
72.65
 31
0.0
  0
LINE
  5
1E6
330
1E
100
AcDbEntity
  8
0
100
AcDbLine
 10
239.0
 20
73.1710526315789
 30
0.0
 11
242.6
 21
72.65
 31
0.0
  0
LINE
  5
1E7
330
1E
100
AcDbEntity
  8
0
100
AcDbLine
 10
227.4
 20
72.65
 30
0.0
 11
231.0
 21
73.1710526315789
 31
0.0
  0
LINE
  5
1E8
330
1E
100
AcDbEntity
  8
0
100
AcDbLine
 10
239.0
 20
74.75
 30
0.0
 11
265.5
 21
74.75
 31
0.0
  0
LINE
  5
1E9
330
1E
100
AcDbEntity
  8
0
100
AcDbLine
 10
135.0
 20
74.75
 30
0.0
 11
231.0
 21
74.75
 31
0.0
  0
LINE
  5
1EA
330
1E
100
AcDbEntity
  8
0
100
AcDbLine
 10
239.5
 20
61.15
 30
0.0
 11
243.6999999999999
 21
59.45
 31
0.0
  0
LINE
  5
1EB
330
1E
100
AcDbEntity
  8
0
100
AcDbLine
 10
239.5999999999999
 20
61.55
 30
0.0
 11
243.9
 21
59.85
 31
0.0
  0
LINE
  5
1EC
330
1E
100
AcDbEntity
  8
0
100
AcDbLine
 10
243.6999999999999
 20
59.45
 30
0.0
 11
247.4
 21
56.65
 31
0.0
  0
LINE
  5
1ED
330
1E
100
AcDbEntity
  8
0
100
AcDbLine
 10
243.9
 20
59.85
 30
0.0
 11
247.6999999999999
 21
56.95
 31
0.0
  0
LINE
  5
1EE
330
1E
100
AcDbEntity
  8
0
100
AcDbLine
 10
260.4999999999999
 20
58.95
 30
0.0
 11
263.3999999999999
 21
51.85
 31
0.0
  0
LINE
  5
1EF
330
1E
100
AcDbEntity
  8
0
100
AcDbLine
 10
255.8
 20
65.04999999999999
 30
0.0
 11
260.4999999999999
 21
58.95
 31
0.0
  0
LINE
  5
1F0
330
1E
100
AcDbEntity
  8
0
100
AcDbLine
 10
249.6999999999999
 20
69.75
 30
0.0
 11
255.8
 21
65.04999999999999
 31
0.0
  0
LINE
  5
1F1
330
1E
100
AcDbEntity
  8
0
100
AcDbLine
 10
242.6
 20
72.65
 30
0.0
 11
249.6999999999999
 21
69.75
 31
0.0
  0
LINE
  5
1F2
330
1E
100
AcDbEntity
  8
0
100
AcDbLine
 10
265.5
 20
74.75
 30
0.0
 11
265.5
 21
48.25
 31
0.0
  0
LINE
  5
1F3
330
1E
100
AcDbEntity
  8
0
100
AcDbLine
 10
265.5
 20
74.75
 30
0.0
 11
266.0
 21
74.75
 31
0.0
  0
LINE
  5
1F4
330
1E
100
AcDbEntity
  8
0
100
AcDbLine
 10
265.5
 20
74.75
 30
0.0
 11
265.5
 21
75.25
 31
0.0
  0
LINE
  5
1F5
330
1E
100
AcDbEntity
  8
0
100
AcDbLine
 10
239.0
 20
75.25
 30
0.0
 11
265.5
 21
75.25
 31
0.0
  0
LINE
  5
1F6
330
1E
100
AcDbEntity
  8
0
100
AcDbLine
 10
231.4999999999999
 20
78.75
 30
0.0
 11
235.0
 21
78.75
 31
0.0
  0
LINE
  5
1F7
330
1E
100
AcDbEntity
  8
0
100
AcDbLine
 10
231.4999999999999
 20
78.75
 30
0.0
 11
231.4999999999999
 21
48.04999999999999
 31
0.0
  0
LINE
  5
1F8
330
1E
100
AcDbEntity
  8
0
100
AcDbLine
 10
231.0
 20
79.25
 30
0.0
 11
235.0
 21
79.25
 31
0.0
  0
LINE
  5
1F9
330
1E
100
AcDbEntity
  8
0
100
AcDbLine
 10
231.0
 20
79.25
 30
0.0
 11
231.0
 21
48.65
 31
0.0
  0
LINE
  5
1FA
330
1E
100
AcDbEntity
  8
0
100
AcDbLine
 10
231.0
 20
79.25
 30
0.0
 11
231.4999999999999
 21
78.75
 31
0.0
  0
LINE
  5
1FB
330
1E
100
AcDbEntity
  8
0
100
AcDbLine
 10
235.0
 20
78.75
 30
0.0
 11
238.5
 21
78.75
 31
0.0
  0
LINE
  5
1FC
330
1E
100
AcDbEntity
  8
0
100
AcDbLine
 10
238.5
 20
78.75
 30
0.0
 11
239.0
 21
79.25
 31
0.0
  0
LINE
  5
1FD
330
1E
100
AcDbEntity
  8
0
100
AcDbLine
 10
238.5
 20
78.75
 30
0.0
 11
238.5
 21
48.04999999999999
 31
0.0
  0
LINE
  5
1FE
330
1E
100
AcDbEntity
  8
0
100
AcDbLine
 10
239.0
 20
79.25
 30
0.0
 11
239.0
 21
48.65
 31
0.0
  0
LINE
  5
1FF
330
1E
100
AcDbEntity
  8
0
100
AcDbLine
 10
235.0
 20
79.25
 30
0.0
 11
239.0
 21
79.25
 31
0.0
  0
LINE
  5
200
330
1E
100
AcDbEntity
  8
0
100
AcDbLine
 10
135.0
 20
75.25
 30
0.0
 11
231.0
 21
75.25
 31
0.0
  0
LINE
  5
201
330
1E
100
AcDbEntity
  8
0
100
AcDbLine
 10
266.0
 20
74.75
 30
0.0
 11
266.0
 21
48.25
 31
0.0
  0
LINE
  5
202
330
1E
100
AcDbEntity
  8
0
100
AcDbLine
 10
265.5
 20
75.25
 30
0.0
 11
266.0
 21
74.75
 31
0.0
  0
LINE
  5
203
330
1E
100
AcDbEntity
  8
0
100
AcDbLine
 10
265.5
 20
75.25
 30
0.0
 11
265.5
 21
74.75
 31
0.0
  0
LINE
  5
204
330
1E
100
AcDbEntity
  8
0
100
AcDbLine
 10
121.5
 20
58.25
 30
0.0
 11
135.0
 21
58.25
 31
0.0
  0
LINE
  5
205
330
1E
100
AcDbEntity
  8
0
100
AcDbLine
 10
121.5
 20
58.25
 30
0.0
 11
121.5
 21
56.55
 31
0.0
  0
LINE
  5
206
330
1E
100
AcDbEntity
  8
0
100
AcDbLine
 10
70.0
 20
44.24999999999999
 30
0.0
 11
70.0
 21
40.25
 31
0.0
  0
LINE
  5
207
330
1E
100
AcDbEntity
  8
0
100
AcDbLine
 10
70.0
 20
44.24999999999999
 30
0.0
 11
70.0
 21
48.25
 31
0.0
  0
LINE
  5
208
330
1E
100
AcDbEntity
  8
0
100
AcDbLine
 10
0.499999999999997
 20
40.75
 30
0.0
 11
31.2
 21
40.75
 31
0.0
  0
LINE
  5
209
330
1E
100
AcDbEntity
  8
0
100
AcDbLine
 10
0.499999999999997
 20
44.24999999999999
 30
0.0
 11
0.499999999999997
 21
40.75
 31
0.0
  0
LINE
  5
20A
330
1E
100
AcDbEntity
  8
0
100
AcDbLine
 10
0.499999999999997
 20
44.24999999999999
 30
0.0
 11
0.499999999999997
 21
47.75
 31
0.0
  0
LINE
  5
20B
330
1E
100
AcDbEntity
  8
0
100
AcDbLine
 10
30.6
 20
40.25
 30
0.0
 11
30.8
 21
40.04999999999999
 31
0.0
  0
LINE
  5
20C
330
1E
100
AcDbEntity
  8
0
100
AcDbLine
 10
30.6
 20
40.25
 30
0.0
 11
31.2
 21
40.75
 31
0.0
  0
LINE
  5
20D
330
1E
100
AcDbEntity
  8
0
100
AcDbLine
 10
-0.0000000000000033
 20
40.25
 30
0.0
 11
0.499999999999997
 21
40.75
 31
0.0
  0
LINE
  5
20E
330
1E
100
AcDbEntity
  8
0
100
AcDbLine
 10
-0.0000000000000033
 20
40.25
 30
0.0
 11
30.6
 21
40.25
 31
0.0
  0
LINE
  5
20F
330
1E
100
AcDbEntity
  8
0
100
AcDbLine
 10
-0.0000000000000033
 20
40.25
 30
0.0
 11
-0.0000000000000033
 21
44.24999999999999
 31
0.0
  0
ENDSEC
  0
SECTION
  2
OBJECTS
  0
DICTIONARY
  5
C
330
0
100
AcDbDictionary
  3
ACAD_GROUP
350
D
  3
ACAD_LAYOUT
350
19
  3
ACAD_MLINESTYLE
350
16
  3
ACAD_PLOTSETTINGS
350
18
  3
ACAD_PLOTSTYLENAME
350
E
  3
ACDBHEADERROUNDTRIPXREC
350
217
  3
ACDBVARIABLEDICTIONARY
350
214
  0
DICTIONARY
  5
239
330
1E
100
AcDbDictionary
280
     1
  3
ACAD_LAYOUTSELFREF
360
23A
  0
DICTIONARY
  5
237
330
1A
100
AcDbDictionary
280
     1
  3
ACAD_LAYOUTSELFREF
360
238
  0
DICTIONARY
  5
D
102
{ACAD_REACTORS
330
C
102
}
330
C
100
AcDbDictionary
  0
DICTIONARY
  5
19
102
{ACAD_REACTORS
330
C
102
}
330
C
100
AcDbDictionary
  0
DICTIONARY
  5
16
102
{ACAD_REACTORS
330
C
102
}
330
C
100
AcDbDictionary
  3
STANDARD
350
17
  0
DICTIONARY
  5
18
102
{ACAD_REACTORS
330
C
102
}
330
C
100
AcDbDictionary
  0
ACDBDICTIONARYWDFLT
  5
E
102
{ACAD_REACTORS
330
C
102
}
330
C
100
AcDbDictionary
281
     1
  3
Normal
350
F
100
AcDbDictionaryWithDefault
340
F
  0
DICTIONARY
  5
217
102
{ACAD_REACTORS
330
C
102
}
330
C
100
AcDbDictionary
  3
CEPSNTYPE
350
221
  3
FINGERPRINTGUID
350
222
  3
HYPERLINKBASE
350
21A
  3
INSUNITS
350
220
  3
LAYOUTDICT
350
21C
  3
LWETCUNION
350
21F
  3
PLOTSETDICT
350
21D
  3
PLOTSTYLNAMDICT
350
21E
  3
PSVPSCALE
350
224
  3
PUCSBASE
350
227
  3
PUCSORGBACK
350
22D
  3
PUCSORGBOTTOM
350
229
  3
PUCSORGFRONT
350
22C
  3
PUCSORGLEFT
350
22A
  3
PUCSORGRIGHT
350
22B
  3
PUCSORGTOP
350
228
  3
PUCSORTHOREF
350
225
  3
PUCSORTHOVIEW
350
226
  3
STYLESHEET
350
21B
  3
TSTACKALIGN
350
218
  3
TSTACKSIZE
350
219
  3
UCSBASE
350
230
  3
UCSORGBACK
350
236
  3
UCSORGBOTTOM
350
232
  3
UCSORGFRONT
350
235
  3
UCSORGLEFT
350
233
  3
UCSORGRIGHT
350
234
  3
UCSORGTOP
350
231
  3
UCSORTHOREF
350
22E
  3
UCSORTHOVIEW
350
22F
  3
VERSIONGUID
350
223
  0
DICTIONARY
  5
214
102
{ACAD_REACTORS
330
C
102
}
330
C
100
AcDbDictionary
  3
DIMASSOC
350
215
  0
XRECORD
  5
23A
102
{ACAD_REACTORS
330
239
102
}
330
239
100
AcDbXrecord
340
1E
  0
XRECORD
  5
238
102
{ACAD_REACTORS
330
237
102
}
330
237
100
AcDbXrecord
340
1A
  0
MLINESTYLE
  5
17
102
{ACAD_REACTORS
330
16
102
}
330
16
100
AcDbMlineStyle
  2
STANDARD
 70
     0
  3

 62
   256
 51
90.0
 52
90.0
 71
     2
 49
0.5
 62
   256
  6
BYLAYER
 49
-0.5
 62
   256
  6
BYLAYER
  0
ACDBPLACEHOLDER
  5
F
102
{ACAD_REACTORS
330
E
102
}
330
E
100
AcDbPlaceHolder
280
     0
  0
XRECORD
  5
221
102
{ACAD_REACTORS
330
217
102
}
330
217
100
AcDbXrecord
 90
        0
  0
XRECORD
  5
222
102
{ACAD_REACTORS
330
217
102
}
330
217
100
AcDbXrecord
  1
{8AF1A7DE-AA19-4B6F-A95A-D48B2749B867}
  0
XRECORD
  5
21A
102
{ACAD_REACTORS
330
217
102
}
330
217
100
AcDbXrecord
  1

  0
XRECORD
  5
220
102
{ACAD_REACTORS
330
217
102
}
330
217
100
AcDbXrecord
 90
        0
  0
XRECORD
  5
21C
102
{ACAD_REACTORS
330
217
102
}
330
217
100
AcDbXrecord
340
19
  0
XRECORD
  5
21F
102
{ACAD_REACTORS
330
217
102
}
330
217
100
AcDbXrecord
 90
    10781
  0
XRECORD
  5
21D
102
{ACAD_REACTORS
330
217
102
}
330
217
100
AcDbXrecord
340
18
  0
XRECORD
  5
21E
102
{ACAD_REACTORS
330
217
102
}
330
217
100
AcDbXrecord
340
E
  0
XRECORD
  5
224
102
{ACAD_REACTORS
330
217
102
}
330
217
100
AcDbXrecord
 40
0.0
  0
XRECORD
  5
227
102
{ACAD_REACTORS
330
217
102
}
330
217
100
AcDbXrecord
340
0
  0
XRECORD
  5
22D
102
{ACAD_REACTORS
330
217
102
}
330
217
100
AcDbXrecord
 10
0.0
 20
0.0
 30
0.0
  0
XRECORD
  5
229
102
{ACAD_REACTORS
330
217
102
}
330
217
100
AcDbXrecord
 10
0.0
 20
0.0
 30
0.0
  0
XRECORD
  5
22C
102
{ACAD_REACTORS
330
217
102
}
330
217
100
AcDbXrecord
 10
0.0
 20
0.0
 30
0.0
  0
XRECORD
  5
22A
102
{ACAD_REACTORS
330
217
102
}
330
217
100
AcDbXrecord
 10
0.0
 20
0.0
 30
0.0
  0
XRECORD
  5
22B
102
{ACAD_REACTORS
330
217
102
}
330
217
100
AcDbXrecord
 10
0.0
 20
0.0
 30
0.0
  0
XRECORD
  5
228
102
{ACAD_REACTORS
330
217
102
}
330
217
100
AcDbXrecord
 10
0.0
 20
0.0
 30
0.0
  0
XRECORD
  5
225
102
{ACAD_REACTORS
330
217
102
}
330
217
100
AcDbXrecord
340
0
  0
XRECORD
  5
226
102
{ACAD_REACTORS
330
217
102
}
330
217
100
AcDbXrecord
 70
     0
  0
XRECORD
  5
21B
102
{ACAD_REACTORS
330
217
102
}
330
217
100
AcDbXrecord
  1

  0
XRECORD
  5
218
102
{ACAD_REACTORS
330
217
102
}
330
217
100
AcDbXrecord
 90
        1
  0
XRECORD
  5
219
102
{ACAD_REACTORS
330
217
102
}
330
217
100
AcDbXrecord
 90
       70
  0
XRECORD
  5
230
102
{ACAD_REACTORS
330
217
102
}
330
217
100
AcDbXrecord
340
0
  0
XRECORD
  5
236
102
{ACAD_REACTORS
330
217
102
}
330
217
100
AcDbXrecord
 10
0.0
 20
0.0
 30
0.0
  0
XRECORD
  5
232
102
{ACAD_REACTORS
330
217
102
}
330
217
100
AcDbXrecord
 10
0.0
 20
0.0
 30
0.0
  0
XRECORD
  5
235
102
{ACAD_REACTORS
330
217
102
}
330
217
100
AcDbXrecord
 10
0.0
 20
0.0
 30
0.0
  0
XRECORD
  5
233
102
{ACAD_REACTORS
330
217
102
}
330
217
100
AcDbXrecord
 10
0.0
 20
0.0
 30
0.0
  0
XRECORD
  5
234
102
{ACAD_REACTORS
330
217
102
}
330
217
100
AcDbXrecord
 10
0.0
 20
0.0
 30
0.0
  0
XRECORD
  5
231
102
{ACAD_REACTORS
330
217
102
}
330
217
100
AcDbXrecord
 10
0.0
 20
0.0
 30
0.0
  0
XRECORD
  5
22E
102
{ACAD_REACTORS
330
217
102
}
330
217
100
AcDbXrecord
340
0
  0
XRECORD
  5
22F
102
{ACAD_REACTORS
330
217
102
}
330
217
100
AcDbXrecord
 70
     1
  0
XRECORD
  5
223
102
{ACAD_REACTORS
330
217
102
}
330
217
100
AcDbXrecord
  1
{E02C9621-E7AE-4AD3-8EDA-126C13282452}
  0
DICTIONARYVAR
  5
215
102
{ACAD_REACTORS
330
214
102
}
330
214
100
DictionaryVariables
280
     0
  1
1
  0
ENDSEC
  0
EOF
