  0
SECTION
  2
HEADER
  9
$ACADVER
  1
AC1015
  9
$ACADMAINTVER
 70
    13
  9
$DWGCODEPAGE
  3
ANSI_1252
  9
$INSBASE
 10
0.0
 20
0.0
 30
0.0
  9
$EXTMIN
 10
0.0000000000000017
 20
-0.246500000000004
 30
0.0
  9
$EXTMAX
 10
63.0
 20
194.2465
 30
0.0
  9
$LIMMIN
 10
0.0
 20
0.0
  9
$LIMMAX
 10
12.0
 20
9.0
  9
$ORTHOMODE
 70
     0
  9
$REGENMODE
 70
     1
  9
$FILLMODE
 70
     1
  9
$QTEXTMODE
 70
     0
  9
$MIRRTEXT
 70
     1
  9
$LTSCALE
 40
1.0
  9
$ATTMODE
 70
     1
  9
$TEXTSIZE
 40
0.2
  9
$TRACEWID
 40
0.05
  9
$TEXTSTYLE
  7
Standard
  9
$CLAYER
  8
0
  9
$CELTYPE
  6
Continuous
  9
$CECOLOR
 62
   256
  9
$CELTSCALE
 40
1.0
  9
$DISPSILH
 70
     0
  9
$DIMSCALE
 40
1.0
  9
$DIMASZ
 40
0.18
  9
$DIMEXO
 40
0.0625
  9
$DIMDLI
 40
0.38
  9
$DIMRND
 40
0.0
  9
$DIMDLE
 40
0.0
  9
$DIMEXE
 40
0.18
  9
$DIMTP
 40
0.0
  9
$DIMTM
 40
0.0
  9
$DIMTXT
 40
0.18
  9
$DIMCEN
 40
0.09
  9
$DIMTSZ
 40
0.0
  9
$DIMTOL
 70
     0
  9
$DIMLIM
 70
     0
  9
$DIMTIH
 70
     1
  9
$DIMTOH
 70
     1
  9
$DIMSE1
 70
     0
  9
$DIMSE2
 70
     0
  9
$DIMTAD
 70
     0
  9
$DIMZIN
 70
     0
  9
$DIMBLK
  1

  9
$DIMASO
 70
     1
  9
$DIMSHO
 70
     1
  9
$DIMPOST
  1

  9
$DIMAPOST
  1

  9
$DIMALT
 70
     0
  9
$DIMALTD
 70
     2
  9
$DIMALTF
 40
25.4
  9
$DIMLFAC
 40
1.0
  9
$DIMTOFL
 70
     0
  9
$DIMTVP
 40
0.0
  9
$DIMTIX
 70
     0
  9
$DIMSOXD
 70
     0
  9
$DIMSAH
 70
     0
  9
$DIMBLK1
  1

  9
$DIMBLK2
  1

  9
$DIMSTYLE
  2
Standard
  9
$DIMCLRD
 70
     0
  9
$DIMCLRE
 70
     0
  9
$DIMCLRT
 70
     0
  9
$DIMTFAC
 40
1.0
  9
$DIMGAP
 40
0.09
  9
$DIMJUST
 70
     0
  9
$DIMSD1
 70
     0
  9
$DIMSD2
 70
     0
  9
$DIMTOLJ
 70
     1
  9
$DIMTZIN
 70
     0
  9
$DIMALTZ
 70
     0
  9
$DIMALTTZ
 70
     0
  9
$DIMUPT
 70
     0
  9
$DIMDEC
 70
     4
  9
$DIMTDEC
 70
     4
  9
$DIMALTU
 70
     2
  9
$DIMALTTD
 70
     2
  9
$DIMTXSTY
  7
Standard
  9
$DIMAUNIT
 70
     0
  9
$DIMADEC
 70
     0
  9
$DIMALTRND
 40
0.0
  9
$DIMAZIN
 70
     0
  9
$DIMDSEP
 70
    46
  9
$DIMATFIT
 70
     3
  9
$DIMFRAC
 70
     0
  9
$DIMLDRBLK
  1

  9
$DIMLUNIT
 70
     2
  9
$DIMLWD
 70
    -2
  9
$DIMLWE
 70
    -2
  9
$DIMTMOVE
 70
     0
  9
$LUNITS
 70
     2
  9
$LUPREC
 70
     4
  9
$SKETCHINC
 40
0.1
  9
$FILLETRAD
 40
0.0
  9
$AUNITS
 70
     0
  9
$AUPREC
 70
     0
  9
$MENU
  1
.
  9
$ELEVATION
 40
0.0
  9
$PELEVATION
 40
0.0
  9
$THICKNESS
 40
0.0
  9
$LIMCHECK
 70
     0
  9
$CHAMFERA
 40
0.0
  9
$CHAMFERB
 40
0.0
  9
$CHAMFERC
 40
0.0
  9
$CHAMFERD
 40
0.0
  9
$SKPOLY
 70
     0
  9
$TDCREATE
 40
2454635.633940787
  9
$TDUCREATE
 40
2454635.550607453
  9
$TDUPDATE
 40
2454635.634153102
  9
$TDUUPDATE
 40
2454635.550819768
  9
$TDINDWG
 40
0.0002123148
  9
$TDUSRTIMER
 40
0.0002123148
  9
$USRTIMER
 70
     1
  9
$ANGBASE
 50
0.0
  9
$ANGDIR
 70
     0
  9
$PDMODE
 70
     0
  9
$PDSIZE
 40
0.0
  9
$PLINEWID
 40
0.0
  9
$SPLFRAME
 70
     0
  9
$SPLINETYPE
 70
     6
  9
$SPLINESEGS
 70
     8
  9
$HANDSEED
  5
14E
  9
$SURFTAB1
 70
     6
  9
$SURFTAB2
 70
     6
  9
$SURFTYPE
 70
     6
  9
$SURFU
 70
     6
  9
$SURFV
 70
     6
  9
$UCSBASE
  2

  9
$UCSNAME
  2

  9
$UCSORG
 10
0.0
 20
0.0
 30
0.0
  9
$UCSXDIR
 10
1.0
 20
0.0
 30
0.0
  9
$UCSYDIR
 10
0.0
 20
1.0
 30
0.0
  9
$UCSORTHOREF
  2

  9
$UCSORTHOVIEW
 70
     1
  9
$UCSORGTOP
 10
0.0
 20
0.0
 30
0.0
  9
$UCSORGBOTTOM
 10
0.0
 20
0.0
 30
0.0
  9
$UCSORGLEFT
 10
0.0
 20
0.0
 30
0.0
  9
$UCSORGRIGHT
 10
0.0
 20
0.0
 30
0.0
  9
$UCSORGFRONT
 10
0.0
 20
0.0
 30
0.0
  9
$UCSORGBACK
 10
0.0
 20
0.0
 30
0.0
  9
$PUCSBASE
  2

  9
$PUCSNAME
  2

  9
$PUCSORG
 10
0.0
 20
0.0
 30
0.0
  9
$PUCSXDIR
 10
1.0
 20
0.0
 30
0.0
  9
$PUCSYDIR
 10
0.0
 20
1.0
 30
0.0
  9
$PUCSORTHOREF
  2

  9
$PUCSORTHOVIEW
 70
     0
  9
$PUCSORGTOP
 10
0.0
 20
0.0
 30
0.0
  9
$PUCSORGBOTTOM
 10
0.0
 20
0.0
 30
0.0
  9
$PUCSORGLEFT
 10
0.0
 20
0.0
 30
0.0
  9
$PUCSORGRIGHT
 10
0.0
 20
0.0
 30
0.0
  9
$PUCSORGFRONT
 10
0.0
 20
0.0
 30
0.0
  9
$PUCSORGBACK
 10
0.0
 20
0.0
 30
0.0
  9
$USERI1
 70
     0
  9
$USERI2
 70
     0
  9
$USERI3
 70
     0
  9
$USERI4
 70
     0
  9
$USERI5
 70
     0
  9
$USERR1
 40
0.0
  9
$USERR2
 40
0.0
  9
$USERR3
 40
0.0
  9
$USERR4
 40
0.0
  9
$USERR5
 40
0.0
  9
$WORLDVIEW
 70
     1
  9
$SHADEDGE
 70
     3
  9
$SHADEDIF
 70
    70
  9
$TILEMODE
 70
     1
  9
$MAXACTVP
 70
    64
  9
$PINSBASE
 10
0.0
 20
0.0
 30
0.0
  9
$PLIMCHECK
 70
     0
  9
$PEXTMIN
 10
1.000000000000000E+20
 20
1.000000000000000E+20
 30
1.000000000000000E+20
  9
$PEXTMAX
 10
-1.000000000000000E+20
 20
-1.000000000000000E+20
 30
-1.000000000000000E+20
  9
$PLIMMIN
 10
0.0
 20
0.0
  9
$PLIMMAX
 10
12.0
 20
9.0
  9
$UNITMODE
 70
     0
  9
$VISRETAIN
 70
     1
  9
$PLINEGEN
 70
     0
  9
$PSLTSCALE
 70
     1
  9
$TREEDEPTH
 70
  3020
  9
$CMLSTYLE
  2
Standard
  9
$CMLJUST
 70
     0
  9
$CMLSCALE
 40
1.0
  9
$PROXYGRAPHICS
 70
     1
  9
$MEASUREMENT
 70
     0
  9
$CELWEIGHT
370
    -1
  9
$ENDCAPS
280
     0
  9
$JOINSTYLE
280
     0
  9
$LWDISPLAY
290
     0
  9
$INSUNITS
 70
     0
  9
$HYPERLINKBASE
  1

  9
$STYLESHEET
  1

  9
$XEDIT
290
     1
  9
$CEPSNTYPE
380
     0
  9
$PSTYLEMODE
290
     1
  9
$FINGERPRINTGUID
  2
{B1559AF3-6EE1-4473-AFBA-81C9361B531C}
  9
$VERSIONGUID
  2
{C28048CB-DFBB-47C6-87C2-56ED09CFE869}
  9
$EXTNAMES
290
     1
  9
$PSVPSCALE
 40
0.0
  9
$OLESTARTUP
290
     0
  0
ENDSEC
  0
SECTION
  2
CLASSES
  0
CLASS
  1
ACDBDICTIONARYWDFLT
  2
AcDbDictionaryWithDefault
  3
AutoCAD 2000
 90
        0
280
     0
281
     0
  0
CLASS
  1
ACDBPLACEHOLDER
  2
AcDbPlaceHolder
  3
AutoCAD 2000
 90
        0
280
     0
281
     0
  0
CLASS
  1
LAYOUT
  2
AcDbLayout
  3
AutoCAD 2000
 90
        0
280
     0
281
     0
  0
CLASS
  1
DICTIONARYVAR
  2
AcDbDictionaryVar
  3
AutoCAD 2000
 90
        0
280
     0
281
     0
  0
ENDSEC
  0
SECTION
  2
TABLES
  0
TABLE
  2
VPORT
  5
8
330
0
100
AcDbSymbolTable
 70
     2
  0
VPORT
  5
14D
330
8
100
AcDbSymbolTableRecord
100
AcDbViewportTableRecord
  2
*Active
 70
     0
 10
0.0
 20
0.0
 11
1.0
 21
1.0
 12
31.5
 22
97.0
 13
0.0
 23
0.0
 14
1.0
 24
1.0
 15
0.0
 25
0.0
 16
0.0
 26
0.0
 36
1.0
 17
0.0
 27
0.0
 37
0.0
 40
195.9852736572889
 41
2.043533930857874
 42
50.0
 43
0.0
 44
0.0
 50
0.0
 51
0.0
 71
     0
 72
   100
 73
     1
 74
     3
 75
     0
 76
     0
 77
     0
 78
     0
281
     0
 65
     1
110
0.0
120
0.0
130
0.0
111
1.0
121
0.0
131
0.0
112
0.0
122
1.0
132
0.0
 79
     1
146
0.0
  0
ENDTAB
  0
TABLE
  2
LTYPE
  5
5
330
0
100
AcDbSymbolTable
 70
     1
  0
LTYPE
  5
13
330
5
100
AcDbSymbolTableRecord
100
AcDbLinetypeTableRecord
  2
ByBlock
 70
     0
  3

 72
    65
 73
     0
 40
0.0
  0
LTYPE
  5
14
330
5
100
AcDbSymbolTableRecord
100
AcDbLinetypeTableRecord
  2
ByLayer
 70
     0
  3

 72
    65
 73
     0
 40
0.0
  0
LTYPE
  5
15
330
5
100
AcDbSymbolTableRecord
100
AcDbLinetypeTableRecord
  2
Continuous
 70
     0
  3
Solid line
 72
    65
 73
     0
 40
0.0
  0
ENDTAB
  0
TABLE
  2
LAYER
  5
2
330
0
100
AcDbSymbolTable
 70
     1
  0
LAYER
  5
10
330
2
100
AcDbSymbolTableRecord
100
AcDbLayerTableRecord
  2
0
 70
     0
 62
     7
  6
Continuous
370
    -3
390
F
  0
ENDTAB
  0
TABLE
  2
STYLE
  5
3
330
0
100
AcDbSymbolTable
 70
     1
  0
STYLE
  5
11
330
3
100
AcDbSymbolTableRecord
100
AcDbTextStyleTableRecord
  2
Standard
 70
     0
 40
0.0
 41
1.0
 50
0.0
 71
     0
 42
0.2
  3
txt
  4

  0
ENDTAB
  0
TABLE
  2
VIEW
  5
6
330
0
100
AcDbSymbolTable
 70
     0
  0
ENDTAB
  0
TABLE
  2
UCS
  5
7
330
0
100
AcDbSymbolTable
 70
     0
  0
ENDTAB
  0
TABLE
  2
APPID
  5
9
330
0
100
AcDbSymbolTable
 70
     1
  0
APPID
  5
12
330
9
100
AcDbSymbolTableRecord
100
AcDbRegAppTableRecord
  2
ACAD
 70
     0
  0
ENDTAB
  0
TABLE
  2
DIMSTYLE
  5
A
330
0
100
AcDbSymbolTable
 70
     1
100
AcDbDimStyleTable
 71
     0
  0
DIMSTYLE
105
147
330
A
100
AcDbSymbolTableRecord
100
AcDbDimStyleTableRecord
  2
Standard
 70
     0
340
11
  0
ENDTAB
  0
TABLE
  2
BLOCK_RECORD
  5
1
330
0
100
AcDbSymbolTable
 70
     0
  0
BLOCK_RECORD
  5
1E
330
1
100
AcDbSymbolTableRecord
100
AcDbBlockTableRecord
  2
*Model_Space
340
21
  0
BLOCK_RECORD
  5
1A
330
1
100
AcDbSymbolTableRecord
100
AcDbBlockTableRecord
  2
*Paper_Space
340
1D
  0
ENDTAB
  0
ENDSEC
  0
SECTION
  2
BLOCKS
  0
BLOCK
  5
1F
330
1E
100
AcDbEntity
  8
0
100
AcDbBlockBegin
  2
*Model_Space
 70
     0
 10
0.0
 20
0.0
 30
0.0
  3
*Model_Space
  1

  0
ENDBLK
  5
20
330
1E
100
AcDbEntity
  8
0
100
AcDbBlockEnd
  0
BLOCK
  5
1B
330
1A
100
AcDbEntity
 67
     1
  8
0
100
AcDbBlockBegin
  2
*Paper_Space
 70
     0
 10
0.0
 20
0.0
 30
0.0
  3
*Paper_Space
  1

  0
ENDBLK
  5
1C
330
1A
100
AcDbEntity
 67
     1
  8
0
100
AcDbBlockEnd
  0
ENDSEC
  0
SECTION
  2
ENTITIES
  0
LINE
  5
22
330
1E
100
AcDbEntity
  8
0
100
AcDbLine
 10
0.500000000000002
 20
7.753499999999999
 30
0.0
 11
1.6
 21
7.753499999999999
 31
0.0
  0
LINE
  5
23
330
1E
100
AcDbEntity
  8
0
100
AcDbLine
 10
1.1
 20
7.253499999999999
 30
0.0
 11
4.2
 21
7.253499999999999
 31
0.0
  0
LINE
  5
24
330
1E
100
AcDbEntity
  8
0
100
AcDbLine
 10
1.1
 20
-0.246500000000002
 30
0.0
 11
4.2
 21
-0.246500000000001
 31
0.0
  0
LINE
  5
25
330
1E
100
AcDbEntity
  8
0
100
AcDbLine
 10
0.0000000000000017
 20
7.253499999999999
 30
0.0
 11
0.0000000000000017
 21
-0.246500000000002
 31
0.0
  0
LINE
  5
26
330
1E
100
AcDbEntity
  8
0
100
AcDbLine
 10
0.0000000000000017
 20
7.253499999999999
 30
0.0
 11
0.500000000000002
 21
7.753499999999999
 31
0.0
  0
LINE
  5
27
330
1E
100
AcDbEntity
  8
0
100
AcDbLine
 10
0.0000000000000017
 20
7.253499999999999
 30
0.0
 11
1.1
 21
7.253499999999999
 31
0.0
  0
LINE
  5
28
330
1E
100
AcDbEntity
  8
0
100
AcDbLine
 10
0.0000000000000017
 20
-0.246500000000002
 30
0.0
 11
1.1
 21
-0.246500000000003
 31
0.0
  0
LINE
  5
29
330
1E
100
AcDbEntity
  8
0
100
AcDbLine
 10
0.0000000000000017
 20
-0.246500000000002
 30
0.0
 11
1.1
 21
-0.246500000000002
 31
0.0
  0
LINE
  5
2A
330
1E
100
AcDbEntity
  8
0
100
AcDbLine
 10
0.0000000000000017
 20
-0.246500000000002
 30
0.0
 11
0.0000000000000017
 21
7.253499999999999
 31
0.0
  0
LINE
  5
2B
330
1E
100
AcDbEntity
  8
0
100
AcDbLine
 10
4.2
 20
-0.246500000000001
 30
0.0
 11
9.3
 21
-0.246500000000001
 31
0.0
  0
LINE
  5
2C
330
1E
100
AcDbEntity
  8
0
100
AcDbLine
 10
1.6
 20
7.753499999999999
 30
0.0
 11
4.7
 21
7.753499999999999
 31
0.0
  0
LINE
  5
2D
330
1E
100
AcDbEntity
  8
0
100
AcDbLine
 10
4.7
 20
7.753499999999999
 30
0.0
 11
9.599999999999999
 21
7.753499999999999
 31
0.0
  0
LINE
  5
2E
330
1E
100
AcDbEntity
  8
0
100
AcDbLine
 10
4.2
 20
7.253499999999999
 30
0.0
 11
9.3
 21
7.253499999999999
 31
0.0
  0
LINE
  5
2F
330
1E
100
AcDbEntity
  8
0
100
AcDbLine
 10
9.3
 20
7.253499999999999
 30
0.0
 11
15.8
 21
7.253499999999999
 31
0.0
  0
LINE
  5
30
330
1E
100
AcDbEntity
  8
0
100
AcDbLine
 10
9.3
 20
-0.246500000000001
 30
0.0
 11
15.8
 21
-0.2465
 31
0.0
  0
LINE
  5
31
330
1E
100
AcDbEntity
  8
0
100
AcDbLine
 10
1.1
 20
-0.246500000000003
 30
0.0
 11
4.2
 21
-0.246500000000003
 31
0.0
  0
LINE
  5
32
330
1E
100
AcDbEntity
  8
0
100
AcDbLine
 10
4.2
 20
-0.246500000000003
 30
0.0
 11
9.3
 21
-0.246500000000003
 31
0.0
  0
LINE
  5
33
330
1E
100
AcDbEntity
  8
0
100
AcDbLine
 10
15.8
 20
-0.2465
 30
0.0
 11
23.39999999999999
 21
-0.2465
 31
0.0
  0
LINE
  5
34
330
1E
100
AcDbEntity
  8
0
100
AcDbLine
 10
10.5
 20
7.753499999999999
 30
0.0
 11
10.5
 21
104.2534999999999
 31
0.0
  0
LINE
  5
35
330
1E
100
AcDbEntity
  8
0
100
AcDbLine
 10
10.5
 20
7.753499999999999
 30
0.0
 11
10.5
 21
104.2534999999999
 31
0.0
  0
LINE
  5
36
330
1E
100
AcDbEntity
  8
0
100
AcDbLine
 10
11.0
 20
7.753499999999999
 30
0.0
 11
11.0
 21
104.2534999999999
 31
0.0
  0
LINE
  5
37
330
1E
100
AcDbEntity
  8
0
100
AcDbLine
 10
11.0
 20
104.7535
 30
0.0
 11
31.5
 21
104.7535
 31
0.0
  0
LINE
  5
38
330
1E
100
AcDbEntity
  8
0
100
AcDbLine
 10
11.0
 20
104.2534999999999
 30
0.0
 11
31.5
 21
104.2534999999999
 31
0.0
  0
LINE
  5
39
330
1E
100
AcDbEntity
  8
0
100
AcDbLine
 10
11.0
 20
104.2534999999999
 30
0.0
 11
11.0
 21
104.7535
 31
0.0
  0
LINE
  5
3A
330
1E
100
AcDbEntity
  8
0
100
AcDbLine
 10
11.0
 20
104.2534999999999
 30
0.0
 11
11.0
 21
7.753500000000009
 31
0.0
  0
LINE
  5
3B
330
1E
100
AcDbEntity
  8
0
100
AcDbLine
 10
11.0
 20
104.2534999999999
 30
0.0
 11
31.5
 21
104.2534999999999
 31
0.0
  0
LINE
  5
3C
330
1E
100
AcDbEntity
  8
0
100
AcDbLine
 10
11.0
 20
104.7535
 30
0.0
 11
11.0
 21
104.2534999999999
 31
0.0
  0
LINE
  5
3D
330
1E
100
AcDbEntity
  8
0
100
AcDbLine
 10
11.0
 20
104.7535
 30
0.0
 11
31.5
 21
104.7535
 31
0.0
  0
LINE
  5
3E
330
1E
100
AcDbEntity
  8
0
100
AcDbLine
 10
10.5
 20
104.2534999999999
 30
0.0
 11
10.5
 21
7.753500000000009
 31
0.0
  0
LINE
  5
3F
330
1E
100
AcDbEntity
  8
0
100
AcDbLine
 10
10.5
 20
104.2534999999999
 30
0.0
 11
11.0
 21
104.2534999999999
 31
0.0
  0
LINE
  5
40
330
1E
100
AcDbEntity
  8
0
100
AcDbLine
 10
10.5
 20
104.2534999999999
 30
0.0
 11
11.0
 21
104.7535
 31
0.0
  0
LINE
  5
41
330
1E
100
AcDbEntity
  8
0
100
AcDbLine
 10
10.5
 20
104.2534999999999
 30
0.0
 11
10.5
 21
7.753499999999999
 31
0.0
  0
LINE
  5
42
330
1E
100
AcDbEntity
  8
0
100
AcDbLine
 10
9.599999999999999
 20
7.753499999999999
 30
0.0
 11
16.1
 21
7.753499999999999
 31
0.0
  0
LINE
  5
43
330
1E
100
AcDbEntity
  8
0
100
AcDbLine
 10
19.0
 20
71.4535
 30
0.0
 11
20.2
 21
68.2535
 31
0.0
  0
LINE
  5
44
330
1E
100
AcDbEntity
  8
0
100
AcDbLine
 10
18.5
 20
74.7535
 30
0.0
 11
19.0
 21
71.4535
 31
0.0
  0
LINE
  5
45
330
1E
100
AcDbEntity
  8
0
100
AcDbLine
 10
18.5
 20
74.7535
 30
0.0
 11
19.0
 21
78.0535
 31
0.0
  0
LINE
  5
46
330
1E
100
AcDbEntity
  8
0
100
AcDbLine
 10
18.0
 20
71.15349999999999
 30
0.0
 11
19.39999999999999
 21
67.7535
 31
0.0
  0
LINE
  5
47
330
1E
100
AcDbEntity
  8
0
100
AcDbLine
 10
19.39999999999999
 20
67.7535
 30
0.0
 11
21.6
 21
64.8535
 31
0.0
  0
LINE
  5
48
330
1E
100
AcDbEntity
  8
0
100
AcDbLine
 10
17.5
 20
74.7535
 30
0.0
 11
18.0
 21
71.15349999999999
 31
0.0
  0
LINE
  5
49
330
1E
100
AcDbEntity
  8
0
100
AcDbLine
 10
17.5
 20
74.7535
 30
0.0
 11
18.0
 21
78.3535
 31
0.0
  0
LINE
  5
4A
330
1E
100
AcDbEntity
  8
0
100
AcDbLine
 10
18.0
 20
78.3535
 30
0.0
 11
19.39999999999999
 21
81.75349999999999
 31
0.0
  0
LINE
  5
4B
330
1E
100
AcDbEntity
  8
0
100
AcDbLine
 10
19.0
 20
78.0535
 30
0.0
 11
20.2
 21
81.2535
 31
0.0
  0
LINE
  5
4C
330
1E
100
AcDbEntity
  8
0
100
AcDbLine
 10
19.39999999999999
 20
81.75349999999999
 30
0.0
 11
21.6
 21
84.65349999999999
 31
0.0
  0
LINE
  5
4D
330
1E
100
AcDbEntity
  8
0
100
AcDbLine
 10
19.5
 20
74.7543
 30
0.0
 11
19.9
 21
71.65359999999999
 31
0.0
  0
LINE
  5
4E
330
1E
100
AcDbEntity
  8
0
100
AcDbLine
 10
19.5
 20
74.7543
 30
0.0
 11
19.9
 21
77.85429999999999
 31
0.0
  0
LINE
  5
4F
330
1E
100
AcDbEntity
  8
0
100
AcDbLine
 10
20.2
 20
68.2535
 30
0.0
 11
22.29999999999999
 21
65.5535
 31
0.0
  0
LINE
  5
50
330
1E
100
AcDbEntity
  8
0
100
AcDbLine
 10
20.4333333333381
 20
70.40927777776659
 30
0.0
 11
21.1
 21
68.85349999999999
 31
0.0
  0
LINE
  5
51
330
1E
100
AcDbEntity
  8
0
100
AcDbLine
 10
21.1
 20
68.8542
 30
0.0
 11
23.0
 21
66.2536
 31
0.0
  0
LINE
  5
52
330
1E
100
AcDbEntity
  8
0
100
AcDbLine
 10
22.29999999999999
 20
65.5535
 30
0.0
 11
25.0
 21
63.45349999999999
 31
0.0
  0
LINE
  5
53
330
1E
100
AcDbEntity
  8
0
100
AcDbLine
 10
21.6
 20
64.8535
 30
0.0
 11
24.5
 21
62.6535
 31
0.0
  0
LINE
  5
54
330
1E
100
AcDbEntity
  8
0
100
AcDbLine
 10
21.6
 20
64.8535
 30
0.0
 11
24.5
 21
62.6535
 31
0.0
  0
LINE
  5
55
330
1E
100
AcDbEntity
  8
0
100
AcDbLine
 10
23.0
 20
66.2535
 30
0.0
 11
25.6
 21
64.3537
 31
0.0
  0
LINE
  5
56
330
1E
100
AcDbEntity
  8
0
100
AcDbLine
 10
22.1555555555606
 20
67.40927777777089
 30
0.0
 11
23.0
 21
66.2535
 31
0.0
  0
LINE
  5
57
330
1E
100
AcDbEntity
  8
0
100
AcDbLine
 10
22.8
 20
69.7535
 30
0.0
 11
24.39999999999999
 21
67.65399999999999
 31
0.0
  0
LINE
  5
58
330
1E
100
AcDbEntity
  8
0
100
AcDbLine
 10
23.0
 20
66.2536
 30
0.0
 11
25.6
 21
64.35389999999999
 31
0.0
  0
LINE
  5
59
330
1E
100
AcDbEntity
  8
0
100
AcDbLine
 10
21.1
 20
68.85349999999999
 30
0.0
 11
22.43000000001019
 21
67.033779999986
 31
0.0
  0
LINE
  5
5A
330
1E
100
AcDbEntity
  8
0
100
AcDbLine
 10
21.1
 20
68.85349999999999
 30
0.0
 11
22.1555555555606
 21
67.40927777777089
 31
0.0
  0
LINE
  5
5B
330
1E
100
AcDbEntity
  8
0
100
AcDbLine
 10
19.73999999999909
 20
72.8937400000067
 30
0.0
 11
19.9
 21
71.6535
 31
0.0
  0
LINE
  5
5C
330
1E
100
AcDbEntity
  8
0
100
AcDbLine
 10
19.9
 20
71.6535
 30
0.0
 11
20.4333333333381
 21
70.40927777776659
 31
0.0
  0
LINE
  5
5D
330
1E
100
AcDbEntity
  8
0
100
AcDbLine
 10
19.9
 20
77.85429999999999
 30
0.0
 11
21.1
 21
80.65330000000001
 31
0.0
  0
LINE
  5
5E
330
1E
100
AcDbEntity
  8
0
100
AcDbLine
 10
21.89999999999999
 20
72.1533
 30
0.0
 11
22.8
 21
69.7535
 31
0.0
  0
LINE
  5
5F
330
1E
100
AcDbEntity
  8
0
100
AcDbLine
 10
20.2
 20
81.2535
 30
0.0
 11
22.29999999999999
 21
83.9535
 31
0.0
  0
LINE
  5
60
330
1E
100
AcDbEntity
  8
0
100
AcDbLine
 10
21.1
 20
80.65330000000001
 30
0.0
 11
23.0
 21
83.2543
 31
0.0
  0
LINE
  5
61
330
1E
100
AcDbEntity
  8
0
100
AcDbLine
 10
20.4999999999968
 20
79.2537999999925
 30
0.0
 11
21.1
 21
80.6543
 31
0.0
  0
LINE
  5
62
330
1E
100
AcDbEntity
  8
0
100
AcDbLine
 10
22.8
 20
79.75329999999999
 30
0.0
 11
24.39999999999999
 21
81.8543
 31
0.0
  0
LINE
  5
63
330
1E
100
AcDbEntity
  8
0
100
AcDbLine
 10
21.89999999999999
 20
77.35330000000001
 30
0.0
 11
22.8
 21
79.75329999999999
 31
0.0
  0
LINE
  5
64
330
1E
100
AcDbEntity
  8
0
100
AcDbLine
 10
22.29999999999999
 20
83.9535
 30
0.0
 11
25.0
 21
86.05349999999999
 31
0.0
  0
LINE
  5
65
330
1E
100
AcDbEntity
  8
0
100
AcDbLine
 10
21.6
 20
84.65349999999999
 30
0.0
 11
24.5
 21
86.85349999999999
 31
0.0
  0
LINE
  5
66
330
1E
100
AcDbEntity
  8
0
100
AcDbLine
 10
23.0
 20
83.2543
 30
0.0
 11
25.6
 21
85.1543
 31
0.0
  0
LINE
  5
67
330
1E
100
AcDbEntity
  8
0
100
AcDbLine
 10
23.0
 20
83.2543
 30
0.0
 11
25.6
 21
85.1533
 31
0.0
  0
LINE
  5
68
330
1E
100
AcDbEntity
  8
0
100
AcDbLine
 10
21.1
 20
80.6543
 30
0.0
 11
22.0500000000051
 21
81.95380000000701
 31
0.0
  0
LINE
  5
69
330
1E
100
AcDbEntity
  8
0
100
AcDbLine
 10
21.49999999999999
 20
74.7539
 30
0.0
 11
21.89999999999999
 21
72.1533
 31
0.0
  0
LINE
  5
6A
330
1E
100
AcDbEntity
  8
0
100
AcDbLine
 10
21.49999999999999
 20
74.7539
 30
0.0
 11
21.89999999999999
 21
77.35330000000001
 31
0.0
  0
LINE
  5
6B
330
1E
100
AcDbEntity
  8
0
100
AcDbLine
 10
19.9
 20
71.65359999999999
 30
0.0
 11
21.1
 21
68.8542
 31
0.0
  0
LINE
  5
6C
330
1E
100
AcDbEntity
  8
0
100
AcDbLine
 10
20.2600000000026
 20
70.813779999994
 30
0.0
 11
21.1
 21
68.85349999999999
 31
0.0
  0
LINE
  5
6D
330
1E
100
AcDbEntity
  8
0
100
AcDbLine
 10
19.5
 20
74.7535
 30
0.0
 11
19.7909090909077
 21
72.4992454545565
 31
0.0
  0
LINE
  5
6E
330
1E
100
AcDbEntity
  8
0
100
AcDbLine
 10
19.5
 20
74.7535
 30
0.0
 11
19.73999999999909
 21
72.8937400000067
 31
0.0
  0
LINE
  5
6F
330
1E
100
AcDbEntity
  8
0
100
AcDbLine
 10
23.3
 20
104.7535
 30
0.0
 11
24.7
 21
105.5535
 31
0.0
  0
LINE
  5
70
330
1E
100
AcDbEntity
  8
0
100
AcDbLine
 10
16.1
 20
7.753499999999999
 30
0.0
 11
23.5
 21
7.753499999999999
 31
0.0
  0
LINE
  5
71
330
1E
100
AcDbEntity
  8
0
100
AcDbLine
 10
15.8
 20
7.253499999999999
 30
0.0
 11
23.39999999999999
 21
7.253499999999999
 31
0.0
  0
LINE
  5
72
330
1E
100
AcDbEntity
  8
0
100
AcDbLine
 10
23.39999999999999
 20
7.253499999999999
 30
0.0
 11
31.5
 21
7.253499999999999
 31
0.0
  0
LINE
  5
73
330
1E
100
AcDbEntity
  8
0
100
AcDbLine
 10
23.39999999999999
 20
-0.2465
 30
0.0
 11
31.5
 21
-0.2465
 31
0.0
  0
LINE
  5
74
330
1E
100
AcDbEntity
  8
0
100
AcDbLine
 10
9.3
 20
-0.246500000000003
 30
0.0
 11
15.8
 21
-0.246500000000004
 31
0.0
  0
LINE
  5
75
330
1E
100
AcDbEntity
  8
0
100
AcDbLine
 10
15.8
 20
-0.246500000000004
 30
0.0
 11
23.39999999999999
 21
-0.246500000000004
 31
0.0
  0
LINE
  5
76
330
1E
100
AcDbEntity
  8
0
100
AcDbLine
 10
31.5
 20
-0.246500000000004
 30
0.0
 11
39.6
 21
-0.246500000000004
 31
0.0
  0
LINE
  5
77
330
1E
100
AcDbEntity
  8
0
100
AcDbLine
 10
31.5
 20
7.753499999999999
 30
0.0
 11
39.5
 21
7.753499999999999
 31
0.0
  0
LINE
  5
78
330
1E
100
AcDbEntity
  8
0
100
AcDbLine
 10
31.5
 20
7.253499999999999
 30
0.0
 11
39.6
 21
7.253499999999999
 31
0.0
  0
LINE
  5
79
330
1E
100
AcDbEntity
  8
0
100
AcDbLine
 10
47.2
 20
-0.246500000000004
 30
0.0
 11
53.7
 21
-0.246500000000003
 31
0.0
  0
LINE
  5
7A
330
1E
100
AcDbEntity
  8
0
100
AcDbLine
 10
39.6
 20
-0.246500000000004
 30
0.0
 11
47.2
 21
-0.246500000000004
 31
0.0
  0
LINE
  5
7B
330
1E
100
AcDbEntity
  8
0
100
AcDbLine
 10
58.79999999999999
 20
-0.246500000000003
 30
0.0
 11
61.9
 21
-0.246500000000003
 31
0.0
  0
LINE
  5
7C
330
1E
100
AcDbEntity
  8
0
100
AcDbLine
 10
53.7
 20
-0.246500000000003
 30
0.0
 11
58.79999999999999
 21
-0.246500000000003
 31
0.0
  0
LINE
  5
7D
330
1E
100
AcDbEntity
  8
0
100
AcDbLine
 10
63.0
 20
-0.246500000000002
 30
0.0
 11
63.0
 21
7.253499999999999
 31
0.0
  0
LINE
  5
7E
330
1E
100
AcDbEntity
  8
0
100
AcDbLine
 10
61.9
 20
-0.246500000000003
 30
0.0
 11
63.0
 21
-0.246500000000002
 31
0.0
  0
LINE
  5
7F
330
1E
100
AcDbEntity
  8
0
100
AcDbLine
 10
61.9
 20
-0.246500000000002
 30
0.0
 11
63.0
 21
-0.246500000000002
 31
0.0
  0
LINE
  5
80
330
1E
100
AcDbEntity
  8
0
100
AcDbLine
 10
58.79999999999999
 20
-0.246500000000001
 30
0.0
 11
61.9
 21
-0.246500000000002
 31
0.0
  0
LINE
  5
81
330
1E
100
AcDbEntity
  8
0
100
AcDbLine
 10
53.7
 20
-0.246500000000001
 30
0.0
 11
58.79999999999999
 21
-0.246500000000001
 31
0.0
  0
LINE
  5
82
330
1E
100
AcDbEntity
  8
0
100
AcDbLine
 10
47.2
 20
-0.2465
 30
0.0
 11
53.7
 21
-0.246500000000001
 31
0.0
  0
LINE
  5
83
330
1E
100
AcDbEntity
  8
0
100
AcDbLine
 10
39.5
 20
7.753499999999999
 30
0.0
 11
46.9
 21
7.753499999999999
 31
0.0
  0
LINE
  5
84
330
1E
100
AcDbEntity
  8
0
100
AcDbLine
 10
61.9
 20
7.253499999999999
 30
0.0
 11
63.0
 21
7.253499999999999
 31
0.0
  0
LINE
  5
85
330
1E
100
AcDbEntity
  8
0
100
AcDbLine
 10
63.0
 20
7.253499999999999
 30
0.0
 11
63.0
 21
-0.246500000000002
 31
0.0
  0
LINE
  5
86
330
1E
100
AcDbEntity
  8
0
100
AcDbLine
 10
58.79999999999999
 20
7.253499999999999
 30
0.0
 11
61.9
 21
7.253499999999999
 31
0.0
  0
LINE
  5
87
330
1E
100
AcDbEntity
  8
0
100
AcDbLine
 10
53.7
 20
7.253499999999999
 30
0.0
 11
58.79999999999999
 21
7.253499999999999
 31
0.0
  0
LINE
  5
88
330
1E
100
AcDbEntity
  8
0
100
AcDbLine
 10
52.5
 20
7.753499999999999
 30
0.0
 11
52.5
 21
104.2534999999999
 31
0.0
  0
LINE
  5
89
330
1E
100
AcDbEntity
  8
0
100
AcDbLine
 10
52.0
 20
7.753499999999999
 30
0.0
 11
52.0
 21
104.2534999999999
 31
0.0
  0
LINE
  5
8A
330
1E
100
AcDbEntity
  8
0
100
AcDbLine
 10
61.4
 20
7.753499999999999
 30
0.0
 11
62.5
 21
7.753499999999999
 31
0.0
  0
LINE
  5
8B
330
1E
100
AcDbEntity
  8
0
100
AcDbLine
 10
62.5
 20
7.753499999999999
 30
0.0
 11
63.0
 21
7.253499999999999
 31
0.0
  0
LINE
  5
8C
330
1E
100
AcDbEntity
  8
0
100
AcDbLine
 10
58.3
 20
7.753499999999999
 30
0.0
 11
61.4
 21
7.753499999999999
 31
0.0
  0
LINE
  5
8D
330
1E
100
AcDbEntity
  8
0
100
AcDbLine
 10
53.39999999999999
 20
7.753499999999999
 30
0.0
 11
58.3
 21
7.753499999999999
 31
0.0
  0
LINE
  5
8E
330
1E
100
AcDbEntity
  8
0
100
AcDbLine
 10
46.9
 20
7.753499999999999
 30
0.0
 11
53.39999999999999
 21
7.753499999999999
 31
0.0
  0
LINE
  5
8F
330
1E
100
AcDbEntity
  8
0
100
AcDbLine
 10
47.2
 20
7.253499999999999
 30
0.0
 11
53.7
 21
7.253499999999999
 31
0.0
  0
LINE
  5
90
330
1E
100
AcDbEntity
  8
0
100
AcDbLine
 10
39.6
 20
7.253499999999999
 30
0.0
 11
47.2
 21
7.253499999999999
 31
0.0
  0
LINE
  5
91
330
1E
100
AcDbEntity
  8
0
100
AcDbLine
 10
39.6
 20
-0.2465
 30
0.0
 11
47.2
 21
-0.2465
 31
0.0
  0
LINE
  5
92
330
1E
100
AcDbEntity
  8
0
100
AcDbLine
 10
31.5
 20
-0.2465
 30
0.0
 11
39.6
 21
-0.2465
 31
0.0
  0
LINE
  5
93
330
1E
100
AcDbEntity
  8
0
100
AcDbLine
 10
24.5
 20
62.6535
 30
0.0
 11
27.9
 21
61.2535
 31
0.0
  0
LINE
  5
94
330
1E
100
AcDbEntity
  8
0
100
AcDbLine
 10
24.5
 20
62.6535
 30
0.0
 11
27.9
 21
61.2535
 31
0.0
  0
LINE
  5
95
330
1E
100
AcDbEntity
  8
0
100
AcDbLine
 10
23.5
 20
74.7539
 30
0.0
 11
23.8
 21
76.7543
 31
0.0
  0
LINE
  5
96
330
1E
100
AcDbEntity
  8
0
100
AcDbLine
 10
24.6
 20
70.7534
 30
0.0
 11
25.89999999999999
 21
69.15389999999999
 31
0.0
  0
LINE
  5
97
330
1E
100
AcDbEntity
  8
0
100
AcDbLine
 10
23.8
 20
76.7543
 30
0.0
 11
24.6
 21
78.7543
 31
0.0
  0
LINE
  5
98
330
1E
100
AcDbEntity
  8
0
100
AcDbLine
 10
24.5
 20
86.85349999999999
 30
0.0
 11
27.9
 21
88.2535
 31
0.0
  0
LINE
  5
99
330
1E
100
AcDbEntity
  8
0
100
AcDbLine
 10
24.6
 20
78.7543
 30
0.0
 11
25.89999999999999
 21
80.3533
 31
0.0
  0
LINE
  5
9A
330
1E
100
AcDbEntity
  8
0
100
AcDbLine
 10
24.39999999999999
 20
81.8543
 30
0.0
 11
26.5
 21
83.4533
 31
0.0
  0
LINE
  5
9B
330
1E
100
AcDbEntity
  8
0
100
AcDbLine
 10
23.8
 20
72.7536
 30
0.0
 11
24.6
 21
70.7534
 31
0.0
  0
LINE
  5
9C
330
1E
100
AcDbEntity
  8
0
100
AcDbLine
 10
23.5
 20
74.75369999999999
 30
0.0
 11
23.8
 21
72.7536
 31
0.0
  0
LINE
  5
9D
330
1E
100
AcDbEntity
  8
0
100
AcDbLine
 10
23.5
 20
74.75369999999999
 30
0.0
 11
23.8
 21
76.7543
 31
0.0
  0
LINE
  5
9E
330
1E
100
AcDbEntity
  8
0
100
AcDbLine
 10
24.39999999999999
 20
67.65399999999999
 30
0.0
 11
26.5
 21
66.0535
 31
0.0
  0
LINE
  5
9F
330
1E
100
AcDbEntity
  8
0
100
AcDbLine
 10
28.2
 20
62.2535
 30
0.0
 11
31.5
 21
61.7535
 31
0.0
  0
LINE
  5
A0
330
1E
100
AcDbEntity
  8
0
100
AcDbLine
 10
27.9
 20
61.2535
 30
0.0
 11
31.5
 21
60.7535
 31
0.0
  0
LINE
  5
A1
330
1E
100
AcDbEntity
  8
0
100
AcDbLine
 10
25.0
 20
63.45349999999999
 30
0.0
 11
28.2
 21
62.2535
 31
0.0
  0
LINE
  5
A2
330
1E
100
AcDbEntity
  8
0
100
AcDbLine
 10
28.39999999999999
 20
63.154
 30
0.0
 11
31.5
 21
62.75339999999999
 31
0.0
  0
LINE
  5
A3
330
1E
100
AcDbEntity
  8
0
100
AcDbLine
 10
28.39999999999999
 20
63.1533
 30
0.0
 11
30.5700000000167
 21
62.8735799999979
 31
0.0
  0
LINE
  5
A4
330
1E
100
AcDbEntity
  8
0
100
AcDbLine
 10
25.6
 20
64.3537
 30
0.0
 11
26.9999999999698
 21
63.75375000001289
 31
0.0
  0
LINE
  5
A5
330
1E
100
AcDbEntity
  8
0
100
AcDbLine
 10
25.6
 20
85.1533
 30
0.0
 11
28.39999999999999
 21
86.35330000000001
 31
0.0
  0
LINE
  5
A6
330
1E
100
AcDbEntity
  8
0
100
AcDbLine
 10
25.0
 20
86.05349999999999
 30
0.0
 11
28.2
 21
87.2535
 31
0.0
  0
LINE
  5
A7
330
1E
100
AcDbEntity
  8
0
100
AcDbLine
 10
25.6
 20
85.1543
 30
0.0
 11
28.39999999999999
 21
86.35330000000001
 31
0.0
  0
LINE
  5
A8
330
1E
100
AcDbEntity
  8
0
100
AcDbLine
 10
25.89999999999999
 20
80.3533
 30
0.0
 11
27.5
 21
81.6543
 31
0.0
  0
LINE
  5
A9
330
1E
100
AcDbEntity
  8
0
100
AcDbLine
 10
27.5
 20
81.6543
 30
0.0
 11
29.5
 21
82.4543
 31
0.0
  0
LINE
  5
AA
330
1E
100
AcDbEntity
  8
0
100
AcDbLine
 10
28.2
 20
87.2535
 30
0.0
 11
31.5
 21
87.75350000000001
 31
0.0
  0
LINE
  5
AB
330
1E
100
AcDbEntity
  8
0
100
AcDbLine
 10
27.9
 20
88.2535
 30
0.0
 11
31.5
 21
88.7535
 31
0.0
  0
LINE
  5
AC
330
1E
100
AcDbEntity
  8
0
100
AcDbLine
 10
26.5
 20
83.4533
 30
0.0
 11
28.9
 21
84.3543
 31
0.0
  0
LINE
  5
AD
330
1E
100
AcDbEntity
  8
0
100
AcDbLine
 10
28.39999999999999
 20
86.35330000000001
 30
0.0
 11
31.5
 21
86.7543
 31
0.0
  0
LINE
  5
AE
330
1E
100
AcDbEntity
  8
0
100
AcDbLine
 10
27.5
 20
67.8536
 30
0.0
 11
29.5
 21
67.05339999999999
 31
0.0
  0
LINE
  5
AF
330
1E
100
AcDbEntity
  8
0
100
AcDbLine
 10
25.89999999999999
 20
69.15389999999999
 30
0.0
 11
27.5
 21
67.8536
 31
0.0
  0
LINE
  5
B0
330
1E
100
AcDbEntity
  8
0
100
AcDbLine
 10
26.5
 20
66.0535
 30
0.0
 11
28.9
 21
65.1538
 31
0.0
  0
LINE
  5
B1
330
1E
100
AcDbEntity
  8
0
100
AcDbLine
 10
25.6
 20
64.35389999999999
 30
0.0
 11
28.39999999999999
 21
63.154
 31
0.0
  0
LINE
  5
B2
330
1E
100
AcDbEntity
  8
0
100
AcDbLine
 10
26.4399999999849
 20
63.9939300000065
 30
0.0
 11
28.39999999999999
 21
63.1533
 31
0.0
  0
LINE
  5
B3
330
1E
100
AcDbEntity
  8
0
100
AcDbLine
 10
28.9
 20
84.3543
 30
0.0
 11
31.5
 21
84.75329999999999
 31
0.0
  0
LINE
  5
B4
330
1E
100
AcDbEntity
  8
0
100
AcDbLine
 10
31.5
 20
61.7535
 30
0.0
 11
34.79999999999999
 21
62.2535
 31
0.0
  0
LINE
  5
B5
330
1E
100
AcDbEntity
  8
0
100
AcDbLine
 10
31.5
 20
60.7535
 30
0.0
 11
35.1
 21
61.2535
 31
0.0
  0
LINE
  5
B6
330
1E
100
AcDbEntity
  8
0
100
AcDbLine
 10
31.5
 20
64.75419999999999
 30
0.0
 11
34.1
 21
65.1538
 31
0.0
  0
LINE
  5
B7
330
1E
100
AcDbEntity
  8
0
100
AcDbLine
 10
31.5
 20
62.75339999999999
 30
0.0
 11
34.6
 21
63.154
 31
0.0
  0
LINE
  5
B8
330
1E
100
AcDbEntity
  8
0
100
AcDbLine
 10
31.5
 20
66.75329999999999
 30
0.0
 11
33.2777777778097
 21
67.0201444444492
 31
0.0
  0
LINE
  5
B9
330
1E
100
AcDbEntity
  8
0
100
AcDbLine
 10
31.5
 20
66.75409999999999
 30
0.0
 11
33.5
 21
67.05339999999999
 31
0.0
  0
LINE
  5
BA
330
1E
100
AcDbEntity
  8
0
100
AcDbLine
 10
29.7222222221903
 20
67.0201444444492
 30
0.0
 11
31.5
 21
66.75329999999999
 31
0.0
  0
LINE
  5
BB
330
1E
100
AcDbEntity
  8
0
100
AcDbLine
 10
31.5
 20
82.7533
 30
0.0
 11
33.5
 21
82.4543
 31
0.0
  0
LINE
  5
BC
330
1E
100
AcDbEntity
  8
0
100
AcDbLine
 10
31.5
 20
84.75329999999999
 30
0.0
 11
34.1
 21
84.3543
 31
0.0
  0
LINE
  5
BD
330
1E
100
AcDbEntity
  8
0
100
AcDbLine
 10
31.5
 20
87.75350000000001
 30
0.0
 11
34.79999999999999
 21
87.2535
 31
0.0
  0
LINE
  5
BE
330
1E
100
AcDbEntity
  8
0
100
AcDbLine
 10
31.5
 20
88.7535
 30
0.0
 11
35.1
 21
88.2535
 31
0.0
  0
LINE
  5
BF
330
1E
100
AcDbEntity
  8
0
100
AcDbLine
 10
31.5
 20
86.7543
 30
0.0
 11
34.6
 21
86.35330000000001
 31
0.0
  0
LINE
  5
C0
330
1E
100
AcDbEntity
  8
0
100
AcDbLine
 10
29.5
 20
82.4543
 30
0.0
 11
31.5
 21
82.7533
 31
0.0
  0
LINE
  5
C1
330
1E
100
AcDbEntity
  8
0
100
AcDbLine
 10
29.5
 20
67.05339999999999
 30
0.0
 11
31.5
 21
66.75409999999999
 31
0.0
  0
LINE
  5
C2
330
1E
100
AcDbEntity
  8
0
100
AcDbLine
 10
28.9
 20
65.1538
 30
0.0
 11
31.5
 21
64.75419999999999
 31
0.0
  0
LINE
  5
C3
330
1E
100
AcDbEntity
  8
0
100
AcDbLine
 10
31.5
 20
104.7535
 30
0.0
 11
52.0
 21
104.7535
 31
0.0
  0
LINE
  5
C4
330
1E
100
AcDbEntity
  8
0
100
AcDbLine
 10
34.1
 20
65.1538
 30
0.0
 11
36.5
 21
66.0535
 31
0.0
  0
LINE
  5
C5
330
1E
100
AcDbEntity
  8
0
100
AcDbLine
 10
34.6
 20
63.154
 30
0.0
 11
37.4
 21
64.35389999999999
 31
0.0
  0
LINE
  5
C6
330
1E
100
AcDbEntity
  8
0
100
AcDbLine
 10
32.4299999999833
 20
62.8735799999979
 30
0.0
 11
34.6
 21
63.1533
 31
0.0
  0
LINE
  5
C7
330
1E
100
AcDbEntity
  8
0
100
AcDbLine
 10
34.79999999999999
 20
62.2535
 30
0.0
 11
38.0
 21
63.45349999999999
 31
0.0
  0
LINE
  5
C8
330
1E
100
AcDbEntity
  8
0
100
AcDbLine
 10
35.1
 20
61.2535
 30
0.0
 11
38.5
 21
62.6535
 31
0.0
  0
LINE
  5
C9
330
1E
100
AcDbEntity
  8
0
100
AcDbLine
 10
35.1
 20
61.2535
 30
0.0
 11
38.5
 21
62.6535
 31
0.0
  0
LINE
  5
CA
330
1E
100
AcDbEntity
  8
0
100
AcDbLine
 10
34.6
 20
63.1533
 30
0.0
 11
36.5600000000151
 21
63.9939300000065
 31
0.0
  0
LINE
  5
CB
330
1E
100
AcDbEntity
  8
0
100
AcDbLine
 10
33.5
 20
67.05339999999999
 30
0.0
 11
35.5
 21
67.8536
 31
0.0
  0
LINE
  5
CC
330
1E
100
AcDbEntity
  8
0
100
AcDbLine
 10
38.0
 20
63.45349999999999
 30
0.0
 11
40.7
 21
65.5535
 31
0.0
  0
LINE
  5
CD
330
1E
100
AcDbEntity
  8
0
100
AcDbLine
 10
37.4
 20
64.3537
 30
0.0
 11
40.0
 21
66.2535
 31
0.0
  0
LINE
  5
CE
330
1E
100
AcDbEntity
  8
0
100
AcDbLine
 10
36.0000000000302
 20
63.75375000001289
 30
0.0
 11
37.4
 21
64.3537
 31
0.0
  0
LINE
  5
CF
330
1E
100
AcDbEntity
  8
0
100
AcDbLine
 10
36.5
 20
66.0535
 30
0.0
 11
38.6
 21
67.65399999999999
 31
0.0
  0
LINE
  5
D0
330
1E
100
AcDbEntity
  8
0
100
AcDbLine
 10
37.4
 20
64.35389999999999
 30
0.0
 11
40.0
 21
66.2536
 31
0.0
  0
LINE
  5
D1
330
1E
100
AcDbEntity
  8
0
100
AcDbLine
 10
35.5
 20
67.8536
 30
0.0
 11
37.1
 21
69.15389999999999
 31
0.0
  0
LINE
  5
D2
330
1E
100
AcDbEntity
  8
0
100
AcDbLine
 10
37.1
 20
69.15389999999999
 30
0.0
 11
38.39999999999999
 21
70.7534
 31
0.0
  0
LINE
  5
D3
330
1E
100
AcDbEntity
  8
0
100
AcDbLine
 10
38.5
 20
62.6535
 30
0.0
 11
41.39999999999999
 21
64.8535
 31
0.0
  0
LINE
  5
D4
330
1E
100
AcDbEntity
  8
0
100
AcDbLine
 10
38.5
 20
62.6535
 30
0.0
 11
41.39999999999999
 21
64.8535
 31
0.0
  0
LINE
  5
D5
330
1E
100
AcDbEntity
  8
0
100
AcDbLine
 10
40.0
 20
66.2535
 30
0.0
 11
40.84444444443939
 21
67.40927777777089
 31
0.0
  0
LINE
  5
D6
330
1E
100
AcDbEntity
  8
0
100
AcDbLine
 10
40.7
 20
65.5535
 30
0.0
 11
42.8
 21
68.2535
 31
0.0
  0
LINE
  5
D7
330
1E
100
AcDbEntity
  8
0
100
AcDbLine
 10
41.39999999999999
 20
64.8535
 30
0.0
 11
43.6
 21
67.7535
 31
0.0
  0
LINE
  5
D8
330
1E
100
AcDbEntity
  8
0
100
AcDbLine
 10
40.0
 20
66.2536
 30
0.0
 11
41.9
 21
68.8542
 31
0.0
  0
LINE
  5
D9
330
1E
100
AcDbEntity
  8
0
100
AcDbLine
 10
38.6
 20
67.65399999999999
 30
0.0
 11
40.2
 21
69.7535
 31
0.0
  0
LINE
  5
DA
330
1E
100
AcDbEntity
  8
0
100
AcDbLine
 10
40.2
 20
69.7535
 30
0.0
 11
41.1
 21
72.1533
 31
0.0
  0
LINE
  5
DB
330
1E
100
AcDbEntity
  8
0
100
AcDbLine
 10
41.1
 20
72.1533
 30
0.0
 11
41.5
 21
74.7539
 31
0.0
  0
LINE
  5
DC
330
1E
100
AcDbEntity
  8
0
100
AcDbLine
 10
41.9
 20
68.8542
 30
0.0
 11
43.1
 21
71.65359999999999
 31
0.0
  0
LINE
  5
DD
330
1E
100
AcDbEntity
  8
0
100
AcDbLine
 10
40.56999999998979
 20
67.033779999986
 30
0.0
 11
41.9
 21
68.85349999999999
 31
0.0
  0
LINE
  5
DE
330
1E
100
AcDbEntity
  8
0
100
AcDbLine
 10
42.8
 20
68.2535
 30
0.0
 11
44.0
 21
71.4535
 31
0.0
  0
LINE
  5
DF
330
1E
100
AcDbEntity
  8
0
100
AcDbLine
 10
44.0
 20
71.4535
 30
0.0
 11
44.5
 21
74.7535
 31
0.0
  0
LINE
  5
E0
330
1E
100
AcDbEntity
  8
0
100
AcDbLine
 10
43.6
 20
67.7535
 30
0.0
 11
45.0
 21
71.15349999999999
 31
0.0
  0
LINE
  5
E1
330
1E
100
AcDbEntity
  8
0
100
AcDbLine
 10
45.0
 20
71.15349999999999
 30
0.0
 11
45.49999999999999
 21
74.7535
 31
0.0
  0
LINE
  5
E2
330
1E
100
AcDbEntity
  8
0
100
AcDbLine
 10
43.1
 20
71.6535
 30
0.0
 11
43.26000000000089
 21
72.8937400000067
 31
0.0
  0
LINE
  5
E3
330
1E
100
AcDbEntity
  8
0
100
AcDbLine
 10
42.56666666666189
 20
70.40927777776659
 30
0.0
 11
43.1
 21
71.6535
 31
0.0
  0
LINE
  5
E4
330
1E
100
AcDbEntity
  8
0
100
AcDbLine
 10
43.1
 20
71.65359999999999
 30
0.0
 11
43.5
 21
74.7543
 31
0.0
  0
LINE
  5
E5
330
1E
100
AcDbEntity
  8
0
100
AcDbLine
 10
41.9
 20
68.85349999999999
 30
0.0
 11
42.73999999999739
 21
70.813779999994
 31
0.0
  0
LINE
  5
E6
330
1E
100
AcDbEntity
  8
0
100
AcDbLine
 10
41.9
 20
68.85349999999999
 30
0.0
 11
42.56666666666189
 21
70.40927777776659
 31
0.0
  0
LINE
  5
E7
330
1E
100
AcDbEntity
  8
0
100
AcDbLine
 10
43.20909090909229
 20
72.4992454545565
 30
0.0
 11
43.5
 21
74.7535
 31
0.0
  0
LINE
  5
E8
330
1E
100
AcDbEntity
  8
0
100
AcDbLine
 10
38.39999999999999
 20
70.7534
 30
0.0
 11
39.2
 21
72.7536
 31
0.0
  0
LINE
  5
E9
330
1E
100
AcDbEntity
  8
0
100
AcDbLine
 10
33.5
 20
82.4543
 30
0.0
 11
35.5
 21
81.6543
 31
0.0
  0
LINE
  5
EA
330
1E
100
AcDbEntity
  8
0
100
AcDbLine
 10
35.5
 20
81.6543
 30
0.0
 11
37.1
 21
80.3533
 31
0.0
  0
LINE
  5
EB
330
1E
100
AcDbEntity
  8
0
100
AcDbLine
 10
37.1
 20
80.3533
 30
0.0
 11
38.39999999999999
 21
78.7543
 31
0.0
  0
LINE
  5
EC
330
1E
100
AcDbEntity
  8
0
100
AcDbLine
 10
34.1
 20
84.3543
 30
0.0
 11
36.5
 21
83.4533
 31
0.0
  0
LINE
  5
ED
330
1E
100
AcDbEntity
  8
0
100
AcDbLine
 10
36.5
 20
83.4533
 30
0.0
 11
38.6
 21
81.8543
 31
0.0
  0
LINE
  5
EE
330
1E
100
AcDbEntity
  8
0
100
AcDbLine
 10
37.4
 20
85.1533
 30
0.0
 11
40.0
 21
83.2543
 31
0.0
  0
LINE
  5
EF
330
1E
100
AcDbEntity
  8
0
100
AcDbLine
 10
34.79999999999999
 20
87.2535
 30
0.0
 11
38.0
 21
86.05349999999999
 31
0.0
  0
LINE
  5
F0
330
1E
100
AcDbEntity
  8
0
100
AcDbLine
 10
35.1
 20
88.2535
 30
0.0
 11
38.5
 21
86.85349999999999
 31
0.0
  0
LINE
  5
F1
330
1E
100
AcDbEntity
  8
0
100
AcDbLine
 10
34.6
 20
86.35330000000001
 30
0.0
 11
37.4
 21
85.1543
 31
0.0
  0
LINE
  5
F2
330
1E
100
AcDbEntity
  8
0
100
AcDbLine
 10
34.6
 20
86.35330000000001
 30
0.0
 11
37.4
 21
85.1533
 31
0.0
  0
LINE
  5
F3
330
1E
100
AcDbEntity
  8
0
100
AcDbLine
 10
38.39999999999999
 20
78.7543
 30
0.0
 11
39.2
 21
76.7543
 31
0.0
  0
LINE
  5
F4
330
1E
100
AcDbEntity
  8
0
100
AcDbLine
 10
39.2
 20
76.7543
 30
0.0
 11
39.5
 21
74.75369999999999
 31
0.0
  0
LINE
  5
F5
330
1E
100
AcDbEntity
  8
0
100
AcDbLine
 10
39.2
 20
76.7543
 30
0.0
 11
39.5
 21
74.7539
 31
0.0
  0
LINE
  5
F6
330
1E
100
AcDbEntity
  8
0
100
AcDbLine
 10
38.0
 20
86.05349999999999
 30
0.0
 11
40.7
 21
83.9535
 31
0.0
  0
LINE
  5
F7
330
1E
100
AcDbEntity
  8
0
100
AcDbLine
 10
38.5
 20
86.85349999999999
 30
0.0
 11
41.39999999999999
 21
84.65349999999999
 31
0.0
  0
LINE
  5
F8
330
1E
100
AcDbEntity
  8
0
100
AcDbLine
 10
38.6
 20
81.8543
 30
0.0
 11
40.2
 21
79.75329999999999
 31
0.0
  0
LINE
  5
F9
330
1E
100
AcDbEntity
  8
0
100
AcDbLine
 10
37.4
 20
85.1543
 30
0.0
 11
40.0
 21
83.2543
 31
0.0
  0
LINE
  5
FA
330
1E
100
AcDbEntity
  8
0
100
AcDbLine
 10
40.94999999999489
 20
81.95380000000701
 30
0.0
 11
41.9
 21
80.6543
 31
0.0
  0
LINE
  5
FB
330
1E
100
AcDbEntity
  8
0
100
AcDbLine
 10
40.2
 20
79.75329999999999
 30
0.0
 11
41.1
 21
77.35330000000001
 31
0.0
  0
LINE
  5
FC
330
1E
100
AcDbEntity
  8
0
100
AcDbLine
 10
41.9
 20
80.6543
 30
0.0
 11
42.5000000000032
 21
79.2537999999925
 31
0.0
  0
LINE
  5
FD
330
1E
100
AcDbEntity
  8
0
100
AcDbLine
 10
41.1
 20
77.35330000000001
 30
0.0
 11
41.5
 21
74.7539
 31
0.0
  0
LINE
  5
FE
330
1E
100
AcDbEntity
  8
0
100
AcDbLine
 10
40.7
 20
83.9535
 30
0.0
 11
42.8
 21
81.2535
 31
0.0
  0
LINE
  5
FF
330
1E
100
AcDbEntity
  8
0
100
AcDbLine
 10
41.39999999999999
 20
84.65349999999999
 30
0.0
 11
43.6
 21
81.75349999999999
 31
0.0
  0
LINE
  5
100
330
1E
100
AcDbEntity
  8
0
100
AcDbLine
 10
40.0
 20
83.2543
 30
0.0
 11
41.9
 21
80.65330000000001
 31
0.0
  0
LINE
  5
101
330
1E
100
AcDbEntity
  8
0
100
AcDbLine
 10
42.8
 20
81.2535
 30
0.0
 11
44.0
 21
78.0535
 31
0.0
  0
LINE
  5
102
330
1E
100
AcDbEntity
  8
0
100
AcDbLine
 10
43.1
 20
77.85429999999999
 30
0.0
 11
43.5
 21
74.7543
 31
0.0
  0
LINE
  5
103
330
1E
100
AcDbEntity
  8
0
100
AcDbLine
 10
41.9
 20
80.65330000000001
 30
0.0
 11
43.1
 21
77.85429999999999
 31
0.0
  0
LINE
  5
104
330
1E
100
AcDbEntity
  8
0
100
AcDbLine
 10
44.0
 20
78.0535
 30
0.0
 11
44.5
 21
74.7535
 31
0.0
  0
LINE
  5
105
330
1E
100
AcDbEntity
  8
0
100
AcDbLine
 10
43.6
 20
81.75349999999999
 30
0.0
 11
45.0
 21
78.3535
 31
0.0
  0
LINE
  5
106
330
1E
100
AcDbEntity
  8
0
100
AcDbLine
 10
45.0
 20
78.3535
 30
0.0
 11
45.49999999999999
 21
74.7535
 31
0.0
  0
LINE
  5
107
330
1E
100
AcDbEntity
  8
0
100
AcDbLine
 10
39.2
 20
72.7536
 30
0.0
 11
39.5
 21
74.75369999999999
 31
0.0
  0
LINE
  5
108
330
1E
100
AcDbEntity
  8
0
100
AcDbLine
 10
52.5
 20
104.2534999999999
 30
0.0
 11
52.5
 21
7.753500000000009
 31
0.0
  0
LINE
  5
109
330
1E
100
AcDbEntity
  8
0
100
AcDbLine
 10
36.0
 20
106.0535
 30
0.0
 11
38.3
 21
105.5535
 31
0.0
  0
LINE
  5
10A
330
1E
100
AcDbEntity
  8
0
100
AcDbLine
 10
35.4
 20
106.0535
 30
0.0
 11
36.0
 21
106.0535
 31
0.0
  0
LINE
  5
10B
330
1E
100
AcDbEntity
  8
0
100
AcDbLine
 10
27.2
 20
106.0535
 30
0.0
 11
35.4
 21
106.0535
 31
0.0
  0
LINE
  5
10C
330
1E
100
AcDbEntity
  8
0
100
AcDbLine
 10
38.3
 20
105.5535
 30
0.0
 11
39.7
 21
104.7535
 31
0.0
  0
LINE
  5
10D
330
1E
100
AcDbEntity
  8
0
100
AcDbLine
 10
52.0
 20
104.7535
 30
0.0
 11
52.5
 21
104.2534999999999
 31
0.0
  0
LINE
  5
10E
330
1E
100
AcDbEntity
  8
0
100
AcDbLine
 10
52.0
 20
104.7535
 30
0.0
 11
52.0
 21
104.2534999999999
 31
0.0
  0
LINE
  5
10F
330
1E
100
AcDbEntity
  8
0
100
AcDbLine
 10
52.0
 20
104.2534999999999
 30
0.0
 11
52.0
 21
104.7535
 31
0.0
  0
LINE
  5
110
330
1E
100
AcDbEntity
  8
0
100
AcDbLine
 10
52.0
 20
104.2534999999999
 30
0.0
 11
52.0
 21
7.753500000000009
 31
0.0
  0
LINE
  5
111
330
1E
100
AcDbEntity
  8
0
100
AcDbLine
 10
52.0
 20
104.2534999999999
 30
0.0
 11
52.5
 21
104.2534999999999
 31
0.0
  0
LINE
  5
112
330
1E
100
AcDbEntity
  8
0
100
AcDbLine
 10
31.5
 20
104.2534999999999
 30
0.0
 11
52.0
 21
104.2534999999999
 31
0.0
  0
LINE
  5
113
330
1E
100
AcDbEntity
  8
0
100
AcDbLine
 10
34.5
 20
106.0535
 30
0.0
 11
34.5
 21
111.2235
 31
0.0
  0
LINE
  5
114
330
1E
100
AcDbEntity
  8
0
100
AcDbLine
 10
28.5
 20
106.0535
 30
0.0
 11
28.5
 21
111.2235
 31
0.0
  0
LINE
  5
115
330
1E
100
AcDbEntity
  8
0
100
AcDbLine
 10
27.9
 20
111.6735
 30
0.0
 11
27.9
 21
111.2235
 31
0.0
  0
LINE
  5
116
330
1E
100
AcDbEntity
  8
0
100
AcDbLine
 10
27.9
 20
111.6735
 30
0.0
 11
31.5
 21
111.6735
 31
0.0
  0
LINE
  5
117
330
1E
100
AcDbEntity
  8
0
100
AcDbLine
 10
27.9
 20
111.6735
 30
0.0
 11
27.9
 21
191.3655
 31
0.0
  0
LINE
  5
118
330
1E
100
AcDbEntity
  8
0
100
AcDbLine
 10
27.5
 20
191.4464999999999
 30
0.0
 11
27.5
 21
193.7154999999999
 31
0.0
  0
LINE
  5
119
330
1E
100
AcDbEntity
  8
0
100
AcDbLine
 10
27.5
 20
191.4464999999999
 30
0.0
 11
27.5
 21
111.7545
 31
0.0
  0
LINE
  5
11A
330
1E
100
AcDbEntity
  8
0
100
AcDbLine
 10
27.5
 20
191.4464999999999
 30
0.0
 11
27.9
 21
191.9774999999999
 31
0.0
  0
LINE
  5
11B
330
1E
100
AcDbEntity
  8
0
100
AcDbLine
 10
27.5
 20
193.7154999999999
 30
0.0
 11
27.5
 21
114.0235
 31
0.0
  0
LINE
  5
11C
330
1E
100
AcDbEntity
  8
0
100
AcDbLine
 10
27.5
 20
193.7154999999999
 30
0.0
 11
27.9
 21
194.2465
 31
0.0
  0
LINE
  5
11D
330
1E
100
AcDbEntity
  8
0
100
AcDbLine
 10
27.5
 20
193.7154999999999
 30
0.0
 11
27.5
 21
191.4464999999999
 31
0.0
  0
LINE
  5
11E
330
1E
100
AcDbEntity
  8
0
100
AcDbLine
 10
27.9
 20
191.9774999999999
 30
0.0
 11
27.9
 21
194.2465
 31
0.0
  0
LINE
  5
11F
330
1E
100
AcDbEntity
  8
0
100
AcDbLine
 10
27.9
 20
191.9774999999999
 30
0.0
 11
27.9
 21
191.3655
 31
0.0
  0
LINE
  5
120
330
1E
100
AcDbEntity
  8
0
100
AcDbLine
 10
27.9
 20
191.9774999999999
 30
0.0
 11
31.5
 21
191.9774999999999
 31
0.0
  0
LINE
  5
121
330
1E
100
AcDbEntity
  8
0
100
AcDbLine
 10
27.9
 20
194.2465
 30
0.0
 11
31.5
 21
194.2465
 31
0.0
  0
LINE
  5
122
330
1E
100
AcDbEntity
  8
0
100
AcDbLine
 10
27.9
 20
194.2465
 30
0.0
 11
27.9
 21
191.9774999999999
 31
0.0
  0
LINE
  5
123
330
1E
100
AcDbEntity
  8
0
100
AcDbLine
 10
27.9
 20
191.3655
 30
0.0
 11
27.9
 21
111.6735
 31
0.0
  0
LINE
  5
124
330
1E
100
AcDbEntity
  8
0
100
AcDbLine
 10
27.9
 20
191.3655
 30
0.0
 11
31.5
 21
191.3655
 31
0.0
  0
LINE
  5
125
330
1E
100
AcDbEntity
  8
0
100
AcDbLine
 10
27.9
 20
191.3655
 30
0.0
 11
27.9
 21
191.9774999999999
 31
0.0
  0
LINE
  5
126
330
1E
100
AcDbEntity
  8
0
100
AcDbLine
 10
27.5
 20
114.0235
 30
0.0
 11
27.5
 21
193.7154999999999
 31
0.0
  0
LINE
  5
127
330
1E
100
AcDbEntity
  8
0
100
AcDbLine
 10
27.5
 20
114.0235
 30
0.0
 11
27.5
 21
111.7545
 31
0.0
  0
LINE
  5
128
330
1E
100
AcDbEntity
  8
0
100
AcDbLine
 10
27.5
 20
111.7545
 30
0.0
 11
27.5
 21
114.0235
 31
0.0
  0
LINE
  5
129
330
1E
100
AcDbEntity
  8
0
100
AcDbLine
 10
27.5
 20
111.7545
 30
0.0
 11
27.9
 21
111.2235
 31
0.0
  0
LINE
  5
12A
330
1E
100
AcDbEntity
  8
0
100
AcDbLine
 10
27.5
 20
111.7545
 30
0.0
 11
27.5
 21
191.4464999999999
 31
0.0
  0
LINE
  5
12B
330
1E
100
AcDbEntity
  8
0
100
AcDbLine
 10
34.5
 20
111.2235
 30
0.0
 11
34.5
 21
106.0535
 31
0.0
  0
LINE
  5
12C
330
1E
100
AcDbEntity
  8
0
100
AcDbLine
 10
28.5
 20
111.2235
 30
0.0
 11
28.5
 21
106.0535
 31
0.0
  0
LINE
  5
12D
330
1E
100
AcDbEntity
  8
0
100
AcDbLine
 10
35.1
 20
111.2235
 30
0.0
 11
35.5
 21
111.7545
 31
0.0
  0
LINE
  5
12E
330
1E
100
AcDbEntity
  8
0
100
AcDbLine
 10
35.1
 20
111.2235
 30
0.0
 11
35.1
 21
111.6735
 31
0.0
  0
LINE
  5
12F
330
1E
100
AcDbEntity
  8
0
100
AcDbLine
 10
31.5
 20
191.9774999999999
 30
0.0
 11
35.1
 21
191.9774999999999
 31
0.0
  0
LINE
  5
130
330
1E
100
AcDbEntity
  8
0
100
AcDbLine
 10
35.1
 20
191.9774999999999
 30
0.0
 11
35.5
 21
191.4464999999999
 31
0.0
  0
LINE
  5
131
330
1E
100
AcDbEntity
  8
0
100
AcDbLine
 10
35.1
 20
191.9774999999999
 30
0.0
 11
35.1
 21
191.3655
 31
0.0
  0
LINE
  5
132
330
1E
100
AcDbEntity
  8
0
100
AcDbLine
 10
35.1
 20
191.9774999999999
 30
0.0
 11
35.1
 21
194.2465
 31
0.0
  0
LINE
  5
133
330
1E
100
AcDbEntity
  8
0
100
AcDbLine
 10
35.1
 20
194.2465
 30
0.0
 11
35.5
 21
193.7154999999999
 31
0.0
  0
LINE
  5
134
330
1E
100
AcDbEntity
  8
0
100
AcDbLine
 10
35.1
 20
194.2465
 30
0.0
 11
35.1
 21
191.9774999999999
 31
0.0
  0
LINE
  5
135
330
1E
100
AcDbEntity
  8
0
100
AcDbLine
 10
31.5
 20
194.2465
 30
0.0
 11
35.1
 21
194.2465
 31
0.0
  0
LINE
  5
136
330
1E
100
AcDbEntity
  8
0
100
AcDbLine
 10
31.5
 20
191.3655
 30
0.0
 11
35.1
 21
191.3655
 31
0.0
  0
LINE
  5
137
330
1E
100
AcDbEntity
  8
0
100
AcDbLine
 10
35.1
 20
191.3655
 30
0.0
 11
35.1
 21
111.6735
 31
0.0
  0
LINE
  5
138
330
1E
100
AcDbEntity
  8
0
100
AcDbLine
 10
35.1
 20
191.3655
 30
0.0
 11
35.1
 21
191.9774999999999
 31
0.0
  0
LINE
  5
139
330
1E
100
AcDbEntity
  8
0
100
AcDbLine
 10
31.5
 20
111.6735
 30
0.0
 11
35.1
 21
111.6735
 31
0.0
  0
LINE
  5
13A
330
1E
100
AcDbEntity
  8
0
100
AcDbLine
 10
35.5
 20
111.7545
 30
0.0
 11
35.5
 21
191.4464999999999
 31
0.0
  0
LINE
  5
13B
330
1E
100
AcDbEntity
  8
0
100
AcDbLine
 10
35.5
 20
193.7154999999999
 30
0.0
 11
35.5
 21
191.4464999999999
 31
0.0
  0
LINE
  5
13C
330
1E
100
AcDbEntity
  8
0
100
AcDbLine
 10
35.5
 20
191.4464999999999
 30
0.0
 11
35.5
 21
111.7545
 31
0.0
  0
LINE
  5
13D
330
1E
100
AcDbEntity
  8
0
100
AcDbLine
 10
35.5
 20
191.4464999999999
 30
0.0
 11
35.5
 21
193.7154999999999
 31
0.0
  0
LINE
  5
13E
330
1E
100
AcDbEntity
  8
0
100
AcDbLine
 10
35.1
 20
111.6735
 30
0.0
 11
35.1
 21
111.2235
 31
0.0
  0
LINE
  5
13F
330
1E
100
AcDbEntity
  8
0
100
AcDbLine
 10
35.1
 20
111.6735
 30
0.0
 11
35.1
 21
191.3655
 31
0.0
  0
LINE
  5
140
330
1E
100
AcDbEntity
  8
0
100
AcDbLine
 10
31.5
 20
111.2235
 30
0.0
 11
35.1
 21
111.2235
 31
0.0
  0
LINE
  5
141
330
1E
100
AcDbEntity
  8
0
100
AcDbLine
 10
27.9
 20
111.2235
 30
0.0
 11
31.5
 21
111.2235
 31
0.0
  0
LINE
  5
142
330
1E
100
AcDbEntity
  8
0
100
AcDbLine
 10
27.9
 20
111.2235
 30
0.0
 11
27.9
 21
111.6735
 31
0.0
  0
LINE
  5
143
330
1E
100
AcDbEntity
  8
0
100
AcDbLine
 10
27.0
 20
106.0535
 30
0.0
 11
27.2
 21
106.0535
 31
0.0
  0
LINE
  5
144
330
1E
100
AcDbEntity
  8
0
100
AcDbLine
 10
24.7
 20
105.5535
 30
0.0
 11
27.0
 21
106.0535
 31
0.0
  0
LINE
  5
145
330
1E
100
AcDbEntity
  8
0
100
AcDbLine
 10
23.5
 20
7.753499999999999
 30
0.0
 11
31.5
 21
7.753499999999999
 31
0.0
  0
LINE
  5
146
330
1E
100
AcDbEntity
  8
0
100
AcDbLine
 10
23.39999999999999
 20
-0.246500000000004
 30
0.0
 11
31.5
 21
-0.246500000000004
 31
0.0
  0
ENDSEC
  0
SECTION
  2
OBJECTS
  0
DICTIONARY
  5
C
330
0
100
AcDbDictionary
281
     1
  3
ACAD_GROUP
350
D
  3
ACAD_LAYOUT
350
19
  3
ACAD_MLINESTYLE
350
16
  3
ACAD_PLOTSETTINGS
350
18
  3
ACAD_PLOTSTYLENAME
350
E
  3
AcDbVariableDictionary
350
14B
  0
DICTIONARY
  5
D
102
{ACAD_REACTORS
330
C
102
}
330
C
100
AcDbDictionary
281
     1
  0
DICTIONARY
  5
19
102
{ACAD_REACTORS
330
C
102
}
330
C
100
AcDbDictionary
281
     1
  3
Layout1
350
1D
  3
Model
350
21
  0
DICTIONARY
  5
16
102
{ACAD_REACTORS
330
C
102
}
330
C
100
AcDbDictionary
281
     1
  3
Standard
350
17
  0
DICTIONARY
  5
18
102
{ACAD_REACTORS
330
C
102
}
330
C
100
AcDbDictionary
281
     1
  0
ACDBDICTIONARYWDFLT
  5
E
102
{ACAD_REACTORS
330
C
102
}
330
C
100
AcDbDictionary
281
     1
  3
Normal
350
F
100
AcDbDictionaryWithDefault
340
F
  0
DICTIONARY
  5
14B
102
{ACAD_REACTORS
330
C
102
}
330
C
100
AcDbDictionary
281
     1
  3
DIMASSOC
350
14C
  0
LAYOUT
  5
1D
102
{ACAD_REACTORS
330
19
102
}
330
19
100
AcDbPlotSettings
  1

  2
hp deskjet 980c series
  4

  6

 40
0.0
 41
0.0
 42
0.0
 43
0.0
 44
0.0
 45
0.0
 46
0.0
 47
0.0
 48
0.0
 49
0.0
140
0.0
141
0.0
142
1.0
143
1.0
 70
   688
 72
     0
 73
     0
 74
     5
  7

 75
    16
147
1.0
148
0.0
149
0.0
100
AcDbLayout
  1
Layout1
 70
     1
 71
     1
 10
0.0
 20
0.0
 11
12.0
 21
9.0
 12
0.0
 22
0.0
 32
0.0
 14
1.000000000000000E+20
 24
1.000000000000000E+20
 34
1.000000000000000E+20
 15
-1.000000000000000E+20
 25
-1.000000000000000E+20
 35
-1.000000000000000E+20
146
0.0
 13
0.0
 23
0.0
 33
0.0
 16
1.0
 26
0.0
 36
0.0
 17
0.0
 27
1.0
 37
0.0
 76
     0
330
1A
  0
LAYOUT
  5
21
102
{ACAD_REACTORS
330
19
102
}
330
19
100
AcDbPlotSettings
  1

  2
hp deskjet 980c series
  4

  6

 40
0.0
 41
0.0
 42
0.0
 43
0.0
 44
0.0
 45
0.0
 46
0.0
 47
0.0
 48
0.0
 49
0.0
140
0.0
141
0.0
142
1.0
143
1.0
 70
  1712
 72
     0
 73
     0
 74
     0
  7

 75
     0
147
1.0
148
0.0
149
0.0
100
AcDbLayout
  1
Model
 70
     1
 71
     0
 10
0.0
 20
0.0
 11
12.0
 21
9.0
 12
0.0
 22
0.0
 32
0.0
 14
0.0
 24
0.0
 34
0.0
 15
0.0
 25
0.0
 35
0.0
146
0.0
 13
0.0
 23
0.0
 33
0.0
 16
1.0
 26
0.0
 36
0.0
 17
0.0
 27
1.0
 37
0.0
 76
     0
330
1E
  0
MLINESTYLE
  5
17
102
{ACAD_REACTORS
330
16
102
}
330
16
100
AcDbMlineStyle
  2
STANDARD
 70
     0
  3

 62
   256
 51
90.0
 52
90.0
 71
     2
 49
0.5
 62
   256
  6
BYLAYER
 49
-0.5
 62
   256
  6
BYLAYER
  0
ACDBPLACEHOLDER
  5
F
102
{ACAD_REACTORS
330
E
102
}
330
E
  0
DICTIONARYVAR
  5
14C
102
{ACAD_REACTORS
330
14B
102
}
330
14B
100
DictionaryVariables
280
     0
  1
1
  0
ENDSEC
  0
EOF
