  0
SECTION
  2
HEADER
  9
$ACADVER
  1
AC1014
  9
$ACADMAINTVER
 70
     9
  9
$DWGCODEPAGE
  3
ANSI_1252
  9
$INSBASE
 10
0.0
 20
0.0
 30
0.0
  9
$EXTMIN
 10
0.0
 20
0.250000000000009
 30
0.0
  9
$EXTMAX
 10
310.0
 20
182.75
 30
0.0
  9
$LIMMIN
 10
0.0
 20
0.0
  9
$LIMMAX
 10
12.0
 20
9.0
  9
$ORTHOMODE
 70
     0
  9
$REGENMODE
 70
     1
  9
$FILLMODE
 70
     1
  9
$QTEXTMODE
 70
     0
  9
$MIRRTEXT
 70
     1
  9
$DRAGMODE
 70
     2
  9
$LTSCALE
 40
1.0
  9
$OSMODE
 70
    37
  9
$ATTMODE
 70
     1
  9
$TEXTSIZE
 40
0.2
  9
$TRACEWID
 40
0.05
  9
$TEXTSTYLE
  7
STANDARD
  9
$CLAYER
  8
0
  9
$CELTYPE
  6
CONTINUOUS
  9
$CECOLOR
 62
   256
  9
$CELTSCALE
 40
1.0
  9
$DELOBJ
 70
     1
  9
$DISPSILH
 70
     0
  9
$DIMSCALE
 40
1.0
  9
$DIMASZ
 40
0.18
  9
$DIMEXO
 40
0.0625
  9
$DIMDLI
 40
0.38
  9
$DIMRND
 40
0.0
  9
$DIMDLE
 40
0.0
  9
$DIMEXE
 40
0.18
  9
$DIMTP
 40
0.0
  9
$DIMTM
 40
0.0
  9
$DIMTXT
 40
0.18
  9
$DIMCEN
 40
0.09
  9
$DIMTSZ
 40
0.0
  9
$DIMTOL
 70
     0
  9
$DIMLIM
 70
     0
  9
$DIMTIH
 70
     1
  9
$DIMTOH
 70
     1
  9
$DIMSE1
 70
     0
  9
$DIMSE2
 70
     0
  9
$DIMTAD
 70
     0
  9
$DIMZIN
 70
     0
  9
$DIMBLK
  1

  9
$DIMASO
 70
     1
  9
$DIMSHO
 70
     1
  9
$DIMPOST
  1

  9
$DIMAPOST
  1

  9
$DIMALT
 70
     0
  9
$DIMALTD
 70
     2
  9
$DIMALTF
 40
25.4
  9
$DIMLFAC
 40
1.0
  9
$DIMTOFL
 70
     0
  9
$DIMTVP
 40
0.0
  9
$DIMTIX
 70
     0
  9
$DIMSOXD
 70
     0
  9
$DIMSAH
 70
     0
  9
$DIMBLK1
  1

  9
$DIMBLK2
  1

  9
$DIMSTYLE
  2
STANDARD
  9
$DIMCLRD
 70
     0
  9
$DIMCLRE
 70
     0
  9
$DIMCLRT
 70
     0
  9
$DIMTFAC
 40
1.0
  9
$DIMGAP
 40
0.09
  9
$DIMJUST
 70
     0
  9
$DIMSD1
 70
     0
  9
$DIMSD2
 70
     0
  9
$DIMTOLJ
 70
     1
  9
$DIMTZIN
 70
     0
  9
$DIMALTZ
 70
     0
  9
$DIMALTTZ
 70
     0
  9
$DIMFIT
 70
     3
  9
$DIMUPT
 70
     0
  9
$DIMUNIT
 70
     2
  9
$DIMDEC
 70
     4
  9
$DIMTDEC
 70
     4
  9
$DIMALTU
 70
     2
  9
$DIMALTTD
 70
     2
  9
$DIMTXSTY
  7
STANDARD
  9
$DIMAUNIT
 70
     0
  9
$LUNITS
 70
     2
  9
$LUPREC
 70
     4
  9
$SKETCHINC
 40
0.1
  9
$FILLETRAD
 40
0.0
  9
$AUNITS
 70
     0
  9
$AUPREC
 70
     0
  9
$MENU
  1
.
  9
$ELEVATION
 40
0.0
  9
$PELEVATION
 40
0.0
  9
$THICKNESS
 40
0.0
  9
$LIMCHECK
 70
     0
  9
$BLIPMODE
 70
     0
  9
$CHAMFERA
 40
0.0
  9
$CHAMFERB
 40
0.0
  9
$CHAMFERC
 40
0.0
  9
$CHAMFERD
 40
0.0
  9
$SKPOLY
 70
     0
  9
$TDCREATE
 40
2454687.554355277
  9
$TDUPDATE
 40
2454687.557530011
  9
$TDINDWG
 40
0.0031749074
  9
$TDUSRTIMER
 40
0.0031749074
  9
$USRTIMER
 70
     1
  9
$ANGBASE
 50
0.0
  9
$ANGDIR
 70
     0
  9
$PDMODE
 70
     0
  9
$PDSIZE
 40
0.0
  9
$PLINEWID
 40
0.0
  9
$COORDS
 70
     1
  9
$SPLFRAME
 70
     0
  9
$SPLINETYPE
 70
     6
  9
$SPLINESEGS
 70
     8
  9
$ATTDIA
 70
     0
  9
$ATTREQ
 70
     1
  9
$HANDLING
 70
 22529
  9
$HANDSEED
  5
1D6
  9
$SURFTAB1
 70
     6
  9
$SURFTAB2
 70
     6
  9
$SURFTYPE
 70
     6
  9
$SURFU
 70
     6
  9
$SURFV
 70
     6
  9
$UCSNAME
  2

  9
$UCSORG
 10
0.0
 20
0.0
 30
0.0
  9
$UCSXDIR
 10
1.0
 20
0.0
 30
0.0
  9
$UCSYDIR
 10
0.0
 20
1.0
 30
0.0
  9
$PUCSNAME
  2

  9
$PUCSORG
 10
0.0
 20
0.0
 30
0.0
  9
$PUCSXDIR
 10
1.0
 20
0.0
 30
0.0
  9
$PUCSYDIR
 10
0.0
 20
1.0
 30
0.0
  9
$USERI1
 70
     0
  9
$USERI2
 70
     0
  9
$USERI3
 70
     0
  9
$USERI4
 70
     0
  9
$USERI5
 70
     0
  9
$USERR1
 40
0.0
  9
$USERR2
 40
0.0
  9
$USERR3
 40
0.0
  9
$USERR4
 40
0.0
  9
$USERR5
 40
0.0
  9
$WORLDVIEW
 70
     1
  9
$SHADEDGE
 70
     3
  9
$SHADEDIF
 70
    70
  9
$TILEMODE
 70
     1
  9
$MAXACTVP
 70
    64
  9
$PINSBASE
 10
0.0
 20
0.0
 30
0.0
  9
$PLIMCHECK
 70
     0
  9
$PEXTMIN
 10
1.000000000000000E+20
 20
1.000000000000000E+20
 30
1.000000000000000E+20
  9
$PEXTMAX
 10
-1.000000000000000E+20
 20
-1.000000000000000E+20
 30
-1.000000000000000E+20
  9
$PLIMMIN
 10
0.0
 20
0.0
  9
$PLIMMAX
 10
12.0
 20
9.0
  9
$UNITMODE
 70
     0
  9
$VISRETAIN
 70
     1
  9
$PLINEGEN
 70
     0
  9
$PSLTSCALE
 70
     1
  9
$TREEDEPTH
 70
  3020
  9
$PICKSTYLE
 70
     1
  9
$CMLSTYLE
  2
STANDARD
  9
$CMLJUST
 70
     0
  9
$CMLSCALE
 40
1.0
  9
$PROXYGRAPHICS
 70
     1
  9
$MEASUREMENT
 70
     0
  0
ENDSEC
  0
SECTION
  2
CLASSES
  0
CLASS
  1
ACDBDICTIONARYWDFLT
  2
AcDbDictionaryWithDefault
  3
AutoCAD 2000
 90
        0
280
     0
281
     0
  0
CLASS
  1
ACDBPLACEHOLDER
  2
AcDbPlaceHolder
  3
AutoCAD 2000
 90
        0
280
     0
281
     0
  0
CLASS
  1
LAYOUT
  2
AcDbLayout
  3
AutoCAD 2000
 90
        0
280
     0
281
     0
  0
CLASS
  1
DICTIONARYVAR
  2
AcDbDictionaryVar
  3
AutoCAD 2000
 90
        0
280
     0
281
     0
  0
CLASS
  1
LONG_TRANSACTION
  2
AcDbLongTransaction
  3
AutoCAD 2000
 90
        0
280
     0
281
     0
  0
CLASS
  1
LWPOLYLINE
  2
AcDbPolyline
  3
AutoCAD 2000
 90
        0
280
     0
281
     1
  0
CLASS
  1
HATCH
  2
AcDbHatch
  3
AutoCAD 2000
 90
        0
280
     0
281
     1
  0
CLASS
  1
XRECORD
  2
AcDbXrecord
  3
AutoCAD 2000
 90
        0
280
     0
281
     0
  0
ENDSEC
  0
SECTION
  2
TABLES
  0
TABLE
  2
VPORT
  5
8
330
0
100
AcDbSymbolTable
 70
     2
  0
VPORT
  5
1B1
330
8
100
AcDbSymbolTableRecord
100
AcDbViewportTableRecord
  2
*ACTIVE
 70
     0
 10
0.0
 20
0.0
 11
1.0
 21
1.0
 12
155.0
 22
91.50000000000002
 13
0.0
 23
0.0
 14
1.0
 24
1.0
 15
0.0
 25
0.0
 16
0.0
 26
0.0
 36
1.0
 17
0.0
 27
0.0
 37
0.0
 40
183.9002557544757
 41
2.043533930857874
 42
50.0
 43
0.0
 44
0.0
 50
0.0
 51
0.0
 71
     0
 72
   100
 73
     1
 74
     3
 75
     0
 76
     0
 77
     0
 78
     0
  0
ENDTAB
  0
TABLE
  2
LTYPE
  5
5
330
0
100
AcDbSymbolTable
 70
     1
  0
LTYPE
  5
13
330
5
100
AcDbSymbolTableRecord
100
AcDbLinetypeTableRecord
  2
BYBLOCK
 70
     0
  3

 72
    65
 73
     0
 40
0.0
  0
LTYPE
  5
14
330
5
100
AcDbSymbolTableRecord
100
AcDbLinetypeTableRecord
  2
BYLAYER
 70
     0
  3

 72
    65
 73
     0
 40
0.0
  0
LTYPE
  5
15
330
5
100
AcDbSymbolTableRecord
100
AcDbLinetypeTableRecord
  2
CONTINUOUS
 70
     0
  3
Solid line
 72
    65
 73
     0
 40
0.0
  0
ENDTAB
  0
TABLE
  2
LAYER
  5
2
330
0
100
AcDbSymbolTable
 70
     1
  0
LAYER
  5
10
330
2
100
AcDbSymbolTableRecord
100
AcDbLayerTableRecord
  2
0
 70
     0
 62
     7
  6
CONTINUOUS
  0
ENDTAB
  0
TABLE
  2
STYLE
  5
3
330
0
100
AcDbSymbolTable
 70
     1
  0
STYLE
  5
11
330
3
100
AcDbSymbolTableRecord
100
AcDbTextStyleTableRecord
  2
STANDARD
 70
     0
 40
0.0
 41
1.0
 50
0.0
 71
     0
 42
0.2
  3
txt
  4

  0
ENDTAB
  0
TABLE
  2
VIEW
  5
6
330
0
100
AcDbSymbolTable
 70
     0
  0
ENDTAB
  0
TABLE
  2
UCS
  5
7
330
0
100
AcDbSymbolTable
 70
     0
  0
ENDTAB
  0
TABLE
  2
APPID
  5
9
330
0
100
AcDbSymbolTable
 70
     1
  0
APPID
  5
12
330
9
100
AcDbSymbolTableRecord
100
AcDbRegAppTableRecord
  2
ACAD
 70
     0
  0
ENDTAB
  0
TABLE
  2
DIMSTYLE
  5
A
330
0
100
AcDbSymbolTable
 70
     1
  0
DIMSTYLE
105
1AB
330
A
100
AcDbSymbolTableRecord
100
AcDbDimStyleTableRecord
  2
STANDARD
 70
     0
  3

  4

  5

  6

  7

 40
1.0
 41
0.18
 42
0.0625
 43
0.38
 44
0.18
 45
0.0
 46
0.0
 47
0.0
 48
0.0
140
0.18
141
0.09
142
0.0
143
25.4
144
1.0
145
0.0
146
1.0
147
0.09
 71
     0
 72
     0
 73
     1
 74
     1
 75
     0
 76
     0
 77
     0
 78
     0
170
     0
171
     2
172
     0
173
     0
174
     0
175
     0
176
     0
177
     0
178
     0
270
     2
271
     4
272
     4
273
     2
274
     2
340
11
275
     0
280
     0
281
     0
282
     0
283
     1
284
     0
285
     0
286
     0
287
     3
288
     0
  0
ENDTAB
  0
TABLE
  2
BLOCK_RECORD
  5
1
330
0
100
AcDbSymbolTable
 70
     0
  0
BLOCK_RECORD
  5
1E
102
{ACAD_XDICTIONARY
360
1D4
102
}
330
1
100
AcDbSymbolTableRecord
100
AcDbBlockTableRecord
  2
*MODEL_SPACE
  0
BLOCK_RECORD
  5
1A
102
{ACAD_XDICTIONARY
360
1D2
102
}
330
1
100
AcDbSymbolTableRecord
100
AcDbBlockTableRecord
  2
*PAPER_SPACE
  0
ENDTAB
  0
ENDSEC
  0
SECTION
  2
BLOCKS
  0
BLOCK
  5
1F
330
1E
100
AcDbEntity
  8
0
100
AcDbBlockBegin
  2
*MODEL_SPACE
 70
     0
 10
0.0
 20
0.0
 30
0.0
  3
*MODEL_SPACE
  1

  0
ENDBLK
  5
20
330
1E
100
AcDbEntity
  8
0
100
AcDbBlockEnd
  0
BLOCK
  5
1B
330
1A
100
AcDbEntity
 67
     1
  8
0
100
AcDbBlockBegin
  2
*PAPER_SPACE
 70
     0
 10
0.0
 20
0.0
 30
0.0
  3
*PAPER_SPACE
  1

  0
ENDBLK
  5
1C
330
1A
100
AcDbEntity
 67
     1
  8
0
100
AcDbBlockEnd
  0
ENDSEC
  0
SECTION
  2
ENTITIES
  0
LINE
  5
22
330
1E
100
AcDbEntity
  8
0
100
AcDbLine
 10
142.5
 20
2.350000000000009
 30
0.0
 11
142.5
 21
0.75000000000001
 31
0.0
  0
LINE
  5
23
330
1E
100
AcDbEntity
  8
0
100
AcDbLine
 10
142.5
 20
2.350000000000009
 30
0.0
 11
142.5
 21
6.450000000000009
 31
0.0
  0
LINE
  5
24
330
1E
100
AcDbEntity
  8
0
100
AcDbLine
 10
142.5
 20
0.75000000000001
 30
0.0
 11
142.5
 21
2.350000000000009
 31
0.0
  0
LINE
  5
25
330
1E
100
AcDbEntity
  8
0
100
AcDbLine
 10
142.5
 20
0.7500000000000091
 30
0.0
 11
143.0
 21
0.250000000000009
 31
0.0
  0
LINE
  5
26
330
1E
100
AcDbEntity
  8
0
100
AcDbLine
 10
142.5
 20
0.7500000000000091
 30
0.0
 11
142.5
 21
24.75
 31
0.0
  0
LINE
  5
27
330
1E
100
AcDbEntity
  8
0
100
AcDbLine
 10
142.5
 20
13.25
 30
0.0
 11
142.5
 21
6.450000000000009
 31
0.0
  0
LINE
  5
28
330
1E
100
AcDbEntity
  8
0
100
AcDbLine
 10
142.5
 20
13.25
 30
0.0
 11
142.5
 21
22.14999999999999
 31
0.0
  0
LINE
  5
29
330
1E
100
AcDbEntity
  8
0
100
AcDbLine
 10
142.5
 20
6.450000000000009
 30
0.0
 11
142.5
 21
2.350000000000009
 31
0.0
  0
LINE
  5
2A
330
1E
100
AcDbEntity
  8
0
100
AcDbLine
 10
142.5
 20
6.450000000000009
 30
0.0
 11
142.5
 21
13.25
 31
0.0
  0
LINE
  5
2B
330
1E
100
AcDbEntity
  8
0
100
AcDbLine
 10
142.5
 20
30.25
 30
0.0
 11
142.5
 21
27.25
 31
0.0
  0
LINE
  5
2C
330
1E
100
AcDbEntity
  8
0
100
AcDbLine
 10
142.5
 20
30.25
 30
0.0
 11
142.5
 21
34.04999999999999
 31
0.0
  0
LINE
  5
2D
330
1E
100
AcDbEntity
  8
0
100
AcDbLine
 10
142.5
 20
27.25
 30
0.0
 11
142.5
 21
25.44999999999999
 31
0.0
  0
LINE
  5
2E
330
1E
100
AcDbEntity
  8
0
100
AcDbLine
 10
142.5
 20
27.25
 30
0.0
 11
142.5
 21
30.25
 31
0.0
  0
LINE
  5
2F
330
1E
100
AcDbEntity
  8
0
100
AcDbLine
 10
142.5
 20
25.44999999999999
 30
0.0
 11
142.5
 21
24.75
 31
0.0
  0
LINE
  5
30
330
1E
100
AcDbEntity
  8
0
100
AcDbLine
 10
142.5
 20
25.44999999999999
 30
0.0
 11
142.5
 21
27.25
 31
0.0
  0
LINE
  5
31
330
1E
100
AcDbEntity
  8
0
100
AcDbLine
 10
142.5
 20
24.75
 30
0.0
 11
142.5
 21
25.44999999999999
 31
0.0
  0
LINE
  5
32
330
1E
100
AcDbEntity
  8
0
100
AcDbLine
 10
142.5
 20
24.75
 30
0.0
 11
142.5
 21
0.7500000000000111
 31
0.0
  0
LINE
  5
33
330
1E
100
AcDbEntity
  8
0
100
AcDbLine
 10
142.5
 20
38.45
 30
0.0
 11
142.5
 21
34.04999999999999
 31
0.0
  0
LINE
  5
34
330
1E
100
AcDbEntity
  8
0
100
AcDbLine
 10
142.5
 20
38.45
 30
0.0
 11
142.5
 21
43.25
 31
0.0
  0
LINE
  5
35
330
1E
100
AcDbEntity
  8
0
100
AcDbLine
 10
142.5
 20
34.04999999999999
 30
0.0
 11
142.5
 21
30.25
 31
0.0
  0
LINE
  5
36
330
1E
100
AcDbEntity
  8
0
100
AcDbLine
 10
142.5
 20
34.04999999999999
 30
0.0
 11
142.5
 21
38.45
 31
0.0
  0
LINE
  5
37
330
1E
100
AcDbEntity
  8
0
100
AcDbLine
 10
142.5
 20
43.25
 30
0.0
 11
142.5
 21
32.35
 31
0.0
  0
LINE
  5
38
330
1E
100
AcDbEntity
  8
0
100
AcDbLine
 10
142.5
 20
43.25
 30
0.0
 11
142.5
 21
38.45
 31
0.0
  0
LINE
  5
39
330
1E
100
AcDbEntity
  8
0
100
AcDbLine
 10
142.5
 20
43.25
 30
0.0
 11
142.5
 21
82.75
 31
0.0
  0
LINE
  5
3A
330
1E
100
AcDbEntity
  8
0
100
AcDbLine
 10
142.5
 20
32.35
 30
0.0
 11
142.5
 21
22.14999999999999
 31
0.0
  0
LINE
  5
3B
330
1E
100
AcDbEntity
  8
0
100
AcDbLine
 10
142.5
 20
32.35
 30
0.0
 11
142.5
 21
43.25
 31
0.0
  0
LINE
  5
3C
330
1E
100
AcDbEntity
  8
0
100
AcDbLine
 10
142.5
 20
22.14999999999999
 30
0.0
 11
142.5
 21
13.25
 31
0.0
  0
LINE
  5
3D
330
1E
100
AcDbEntity
  8
0
100
AcDbLine
 10
142.5
 20
22.14999999999999
 30
0.0
 11
142.5
 21
32.35
 31
0.0
  0
LINE
  5
3E
330
1E
100
AcDbEntity
  8
0
100
AcDbLine
 10
55.0
 20
123.2499999999999
 30
0.0
 11
62.6
 21
124.35
 31
0.0
  0
LINE
  5
3F
330
1E
100
AcDbEntity
  8
0
100
AcDbLine
 10
55.0
 20
122.75
 30
0.0
 11
62.7
 21
123.8499999999999
 31
0.0
  0
LINE
  5
40
330
1E
100
AcDbEntity
  8
0
100
AcDbLine
 10
62.7
 20
123.8499999999999
 30
0.0
 11
69.90000000000001
 21
126.75
 31
0.0
  0
LINE
  5
41
330
1E
100
AcDbEntity
  8
0
100
AcDbLine
 10
62.6
 20
124.35
 30
0.0
 11
69.7
 21
127.2499999999999
 31
0.0
  0
LINE
  5
42
330
1E
100
AcDbEntity
  8
0
100
AcDbLine
 10
69.90000000000001
 20
126.75
 30
0.0
 11
76.2
 21
131.55
 31
0.0
  0
LINE
  5
43
330
1E
100
AcDbEntity
  8
0
100
AcDbLine
 10
69.90000000000001
 20
126.75
 30
0.0
 11
76.2
 21
131.55
 31
0.0
  0
LINE
  5
44
330
1E
100
AcDbEntity
  8
0
100
AcDbLine
 10
47.4
 20
124.35
 30
0.0
 11
55.0
 21
123.2499999999999
 31
0.0
  0
LINE
  5
45
330
1E
100
AcDbEntity
  8
0
100
AcDbLine
 10
47.29999999999999
 20
123.8499999999999
 30
0.0
 11
55.0
 21
122.75
 31
0.0
  0
LINE
  5
46
330
1E
100
AcDbEntity
  8
0
100
AcDbLine
 10
40.1
 20
126.75
 30
0.0
 11
47.29999999999999
 21
123.8499999999999
 31
0.0
  0
LINE
  5
47
330
1E
100
AcDbEntity
  8
0
100
AcDbLine
 10
69.7
 20
127.2499999999999
 30
0.0
 11
75.8
 21
131.9499999999999
 31
0.0
  0
LINE
  5
48
330
1E
100
AcDbEntity
  8
0
100
AcDbLine
 10
40.3
 20
127.2499999999999
 30
0.0
 11
47.4
 21
124.35
 31
0.0
  0
LINE
  5
49
330
1E
100
AcDbEntity
  8
0
100
AcDbLine
 10
140.3
 20
127.2499999999999
 30
0.0
 11
142.5
 21
126.351408450704
 31
0.0
  0
LINE
  5
4A
330
1E
100
AcDbEntity
  8
0
100
AcDbLine
 10
140.0999999999999
 20
126.75
 30
0.0
 11
142.5
 21
125.783333333333
 31
0.0
  0
LINE
  5
4B
330
1E
100
AcDbEntity
  8
0
100
AcDbLine
 10
142.5
 20
127.0499999999999
 30
0.0
 11
142.5
 21
122.2499999999999
 31
0.0
  0
LINE
  5
4C
330
1E
100
AcDbEntity
  8
0
100
AcDbLine
 10
142.5
 20
127.0499999999999
 30
0.0
 11
142.5
 21
131.45
 31
0.0
  0
LINE
  5
4D
330
1E
100
AcDbEntity
  8
0
100
AcDbLine
 10
33.79999999999999
 20
131.55
 30
0.0
 11
40.1
 21
126.75
 31
0.0
  0
LINE
  5
4E
330
1E
100
AcDbEntity
  8
0
100
AcDbLine
 10
76.2
 20
131.55
 30
0.0
 11
81.0
 21
137.85
 31
0.0
  0
LINE
  5
4F
330
1E
100
AcDbEntity
  8
0
100
AcDbLine
 10
76.2
 20
131.55
 30
0.0
 11
81.0
 21
137.85
 31
0.0
  0
LINE
  5
50
330
1E
100
AcDbEntity
  8
0
100
AcDbLine
 10
33.79999999999999
 20
131.55
 30
0.0
 11
40.1
 21
126.75
 31
0.0
  0
LINE
  5
51
330
1E
100
AcDbEntity
  8
0
100
AcDbLine
 10
75.8
 20
131.9499999999999
 30
0.0
 11
80.5
 21
138.05
 31
0.0
  0
LINE
  5
52
330
1E
100
AcDbEntity
  8
0
100
AcDbLine
 10
34.2
 20
131.9499999999999
 30
0.0
 11
40.3
 21
127.2499999999999
 31
0.0
  0
LINE
  5
53
330
1E
100
AcDbEntity
  8
0
100
AcDbLine
 10
133.8
 20
131.55
 30
0.0
 11
140.0999999999999
 21
126.75
 31
0.0
  0
LINE
  5
54
330
1E
100
AcDbEntity
  8
0
100
AcDbLine
 10
134.1999999999999
 20
131.9499999999999
 30
0.0
 11
140.3
 21
127.2499999999999
 31
0.0
  0
LINE
  5
55
330
1E
100
AcDbEntity
  8
0
100
AcDbLine
 10
133.8
 20
131.55
 30
0.0
 11
140.0999999999999
 21
126.75
 31
0.0
  0
LINE
  5
56
330
1E
100
AcDbEntity
  8
0
100
AcDbLine
 10
142.5
 20
131.45
 30
0.0
 11
142.5
 21
127.0499999999999
 31
0.0
  0
LINE
  5
57
330
1E
100
AcDbEntity
  8
0
100
AcDbLine
 10
142.5
 20
131.45
 30
0.0
 11
142.5
 21
135.25
 31
0.0
  0
LINE
  5
58
330
1E
100
AcDbEntity
  8
0
100
AcDbLine
 10
142.5
 20
122.2499999999999
 30
0.0
 11
142.5
 21
82.75
 31
0.0
  0
LINE
  5
59
330
1E
100
AcDbEntity
  8
0
100
AcDbLine
 10
142.5
 20
122.2499999999999
 30
0.0
 11
142.5
 21
133.15
 31
0.0
  0
LINE
  5
5A
330
1E
100
AcDbEntity
  8
0
100
AcDbLine
 10
142.5
 20
122.2499999999999
 30
0.0
 11
142.5
 21
127.0499999999999
 31
0.0
  0
LINE
  5
5B
330
1E
100
AcDbEntity
  8
0
100
AcDbLine
 10
142.5
 20
133.15
 30
0.0
 11
142.5
 21
122.2499999999999
 31
0.0
  0
LINE
  5
5C
330
1E
100
AcDbEntity
  8
0
100
AcDbLine
 10
142.5
 20
133.15
 30
0.0
 11
142.5
 21
143.3499999999999
 31
0.0
  0
LINE
  5
5D
330
1E
100
AcDbEntity
  8
0
100
AcDbLine
 10
143.0
 20
122.2499999999999
 30
0.0
 11
143.0
 21
82.75
 31
0.0
  0
LINE
  5
5E
330
1E
100
AcDbEntity
  8
0
100
AcDbLine
 10
143.0
 20
122.2499999999999
 30
0.0
 11
143.0
 21
133.25
 31
0.0
  0
LINE
  5
5F
330
1E
100
AcDbEntity
  8
0
100
AcDbLine
 10
55.0
 20
134.7499999999999
 30
0.0
 11
59.6
 21
135.4499999999999
 31
0.0
  0
LINE
  5
60
330
1E
100
AcDbEntity
  8
0
100
AcDbLine
 10
59.6
 20
135.4499999999999
 30
0.0
 11
63.9
 21
137.15
 31
0.0
  0
LINE
  5
61
330
1E
100
AcDbEntity
  8
0
100
AcDbLine
 10
63.9
 20
137.15
 30
0.0
 11
67.7
 21
140.05
 31
0.0
  0
LINE
  5
62
330
1E
100
AcDbEntity
  8
0
100
AcDbLine
 10
81.0
 20
137.85
 30
0.0
 11
83.9
 21
145.05
 31
0.0
  0
LINE
  5
63
330
1E
100
AcDbEntity
  8
0
100
AcDbLine
 10
50.4
 20
135.4499999999999
 30
0.0
 11
55.0
 21
134.7499999999999
 31
0.0
  0
LINE
  5
64
330
1E
100
AcDbEntity
  8
0
100
AcDbLine
 10
46.1
 20
137.15
 30
0.0
 11
50.4
 21
135.4499999999999
 31
0.0
  0
LINE
  5
65
330
1E
100
AcDbEntity
  8
0
100
AcDbLine
 10
67.7
 20
140.05
 30
0.0
 11
70.59999999999999
 21
143.8499999999999
 31
0.0
  0
LINE
  5
66
330
1E
100
AcDbEntity
  8
0
100
AcDbLine
 10
80.5
 20
138.05
 30
0.0
 11
83.40000000000001
 21
145.15
 31
0.0
  0
LINE
  5
67
330
1E
100
AcDbEntity
  8
0
100
AcDbLine
 10
42.29999999999999
 20
140.05
 30
0.0
 11
46.1
 21
137.15
 31
0.0
  0
LINE
  5
68
330
1E
100
AcDbEntity
  8
0
100
AcDbLine
 10
29.5
 20
138.05
 30
0.0
 11
34.2
 21
131.9499999999999
 31
0.0
  0
LINE
  5
69
330
1E
100
AcDbEntity
  8
0
100
AcDbLine
 10
29.0
 20
137.85
 30
0.0
 11
33.79999999999999
 21
131.55
 31
0.0
  0
LINE
  5
6A
330
1E
100
AcDbEntity
  8
0
100
AcDbLine
 10
29.0
 20
137.85
 30
0.0
 11
33.79999999999999
 21
131.55
 31
0.0
  0
LINE
  5
6B
330
1E
100
AcDbEntity
  8
0
100
AcDbLine
 10
129.4999999999999
 20
138.05
 30
0.0
 11
134.1999999999999
 21
131.9499999999999
 31
0.0
  0
LINE
  5
6C
330
1E
100
AcDbEntity
  8
0
100
AcDbLine
 10
129.0
 20
137.85
 30
0.0
 11
133.8
 21
131.55
 31
0.0
  0
LINE
  5
6D
330
1E
100
AcDbEntity
  8
0
100
AcDbLine
 10
129.0
 20
137.85
 30
0.0
 11
133.8
 21
131.55
 31
0.0
  0
LINE
  5
6E
330
1E
100
AcDbEntity
  8
0
100
AcDbLine
 10
142.5
 20
135.25
 30
0.0
 11
142.5
 21
131.45
 31
0.0
  0
LINE
  5
6F
330
1E
100
AcDbEntity
  8
0
100
AcDbLine
 10
142.5
 20
135.25
 30
0.0
 11
142.5
 21
138.25
 31
0.0
  0
LINE
  5
70
330
1E
100
AcDbEntity
  8
0
100
AcDbLine
 10
142.5
 20
138.25
 30
0.0
 11
142.5
 21
135.25
 31
0.0
  0
LINE
  5
71
330
1E
100
AcDbEntity
  8
0
100
AcDbLine
 10
142.5
 20
138.25
 30
0.0
 11
142.5
 21
140.05
 31
0.0
  0
LINE
  5
72
330
1E
100
AcDbEntity
  8
0
100
AcDbLine
 10
142.5
 20
140.05
 30
0.0
 11
142.5
 21
138.25
 31
0.0
  0
LINE
  5
73
330
1E
100
AcDbEntity
  8
0
100
AcDbLine
 10
142.5
 20
140.05
 30
0.0
 11
142.5
 21
140.7499999999999
 31
0.0
  0
LINE
  5
74
330
1E
100
AcDbEntity
  8
0
100
AcDbLine
 10
142.5
 20
140.7499999999999
 30
0.0
 11
142.5
 21
140.05
 31
0.0
  0
LINE
  5
75
330
1E
100
AcDbEntity
  8
0
100
AcDbLine
 10
142.5
 20
140.7499999999999
 30
0.0
 11
142.5
 21
140.25
 31
0.0
  0
LINE
  5
76
330
1E
100
AcDbEntity
  8
0
100
AcDbLine
 10
0.5000000000000031
 20
148.75
 30
0.0
 11
59.5
 21
148.75
 31
0.0
  0
LINE
  5
77
330
1E
100
AcDbEntity
  8
0
100
AcDbLine
 10
0.5000000000000031
 20
148.75
 30
0.0
 11
47.0
 21
148.75
 31
0.0
  0
LINE
  5
78
330
1E
100
AcDbEntity
  8
0
100
AcDbLine
 10
0.500000000000001
 20
148.75
 30
0.0
 11
47.0
 21
148.75
 31
0.0
  0
LINE
  5
79
330
1E
100
AcDbEntity
  8
0
100
AcDbLine
 10
0.500000000000001
 20
148.75
 30
0.0
 11
59.5
 21
148.75
 31
0.0
  0
LINE
  5
7A
330
1E
100
AcDbEntity
  8
0
100
AcDbLine
 10
26.0789473684211
 20
148.75
 30
0.0
 11
26.6
 21
145.15
 31
0.0
  0
LINE
  5
7B
330
1E
100
AcDbEntity
  8
0
100
AcDbLine
 10
70.59999999999999
 20
143.8499999999999
 30
0.0
 11
72.3
 21
148.15
 31
0.0
  0
LINE
  5
7C
330
1E
100
AcDbEntity
  8
0
100
AcDbLine
 10
83.40000000000001
 20
145.15
 30
0.0
 11
84.50000000000001
 21
152.75
 31
0.0
  0
LINE
  5
7D
330
1E
100
AcDbEntity
  8
0
100
AcDbLine
 10
83.9
 20
145.05
 30
0.0
 11
85.0
 21
152.75
 31
0.0
  0
LINE
  5
7E
330
1E
100
AcDbEntity
  8
0
100
AcDbLine
 10
39.39999999999999
 20
143.8499999999999
 30
0.0
 11
42.29999999999999
 21
140.05
 31
0.0
  0
LINE
  5
7F
330
1E
100
AcDbEntity
  8
0
100
AcDbLine
 10
72.3
 20
148.15
 30
0.0
 11
73.0
 21
152.75
 31
0.0
  0
LINE
  5
80
330
1E
100
AcDbEntity
  8
0
100
AcDbLine
 10
47.0
 20
148.75
 30
0.0
 11
48.3
 21
148.75
 31
0.0
  0
LINE
  5
81
330
1E
100
AcDbEntity
  8
0
100
AcDbLine
 10
48.3
 20
148.75
 30
0.0
 11
49.4
 21
148.75
 31
0.0
  0
LINE
  5
82
330
1E
100
AcDbEntity
  8
0
100
AcDbLine
 10
49.4
 20
148.75
 30
0.0
 11
50.2
 21
148.75
 31
0.0
  0
LINE
  5
83
330
1E
100
AcDbEntity
  8
0
100
AcDbLine
 10
50.2
 20
148.75
 30
0.0
 11
50.5
 21
148.75
 31
0.0
  0
LINE
  5
84
330
1E
100
AcDbEntity
  8
0
100
AcDbLine
 10
59.5
 20
148.75
 30
0.0
 11
60.0
 21
149.2499999999999
 31
0.0
  0
LINE
  5
85
330
1E
100
AcDbEntity
  8
0
100
AcDbLine
 10
37.7
 20
148.15
 30
0.0
 11
39.39999999999999
 21
143.8499999999999
 31
0.0
  0
LINE
  5
86
330
1E
100
AcDbEntity
  8
0
100
AcDbLine
 10
37.6086956521739
 20
148.75
 30
0.0
 11
37.7
 21
148.15
 31
0.0
  0
LINE
  5
87
330
1E
100
AcDbEntity
  8
0
100
AcDbLine
 10
26.6
 20
145.15
 30
0.0
 11
29.5
 21
138.05
 31
0.0
  0
LINE
  5
88
330
1E
100
AcDbEntity
  8
0
100
AcDbLine
 10
26.1
 20
145.05
 30
0.0
 11
29.0
 21
137.85
 31
0.0
  0
LINE
  5
89
330
1E
100
AcDbEntity
  8
0
100
AcDbLine
 10
0.0
 20
149.2499999999999
 30
0.0
 11
60.0
 21
149.2499999999999
 31
0.0
  0
LINE
  5
8A
330
1E
100
AcDbEntity
  8
0
100
AcDbLine
 10
60.0
 20
149.2499999999999
 30
0.0
 11
60.0
 21
156.25
 31
0.0
  0
LINE
  5
8B
330
1E
100
AcDbEntity
  8
0
100
AcDbLine
 10
0.0000000000000028
 20
149.2499999999999
 30
0.0
 11
0.5000000000000031
 21
148.75
 31
0.0
  0
LINE
  5
8C
330
1E
100
AcDbEntity
  8
0
100
AcDbLine
 10
0.0000000000000028
 20
149.2499999999999
 30
0.0
 11
0.0000000000000028
 21
156.25
 31
0.0
  0
LINE
  5
8D
330
1E
100
AcDbEntity
  8
0
100
AcDbLine
 10
0.0000000000000028
 20
149.2499999999999
 30
0.0
 11
60.0
 21
149.2499999999999
 31
0.0
  0
LINE
  5
8E
330
1E
100
AcDbEntity
  8
0
100
AcDbLine
 10
25.5714285714286
 20
148.75
 30
0.0
 11
26.1
 21
145.05
 31
0.0
  0
LINE
  5
8F
330
1E
100
AcDbEntity
  8
0
100
AcDbLine
 10
126.6
 20
145.15
 30
0.0
 11
129.4999999999999
 21
138.05
 31
0.0
  0
LINE
  5
90
330
1E
100
AcDbEntity
  8
0
100
AcDbLine
 10
126.0999999999999
 20
145.05
 30
0.0
 11
129.0
 21
137.85
 31
0.0
  0
LINE
  5
91
330
1E
100
AcDbEntity
  8
0
100
AcDbLine
 10
142.5
 20
143.3499999999999
 30
0.0
 11
142.5
 21
133.15
 31
0.0
  0
LINE
  5
92
330
1E
100
AcDbEntity
  8
0
100
AcDbLine
 10
142.5
 20
143.3499999999999
 30
0.0
 11
142.5
 21
152.2499999999999
 31
0.0
  0
LINE
  5
93
330
1E
100
AcDbEntity
  8
0
100
AcDbLine
 10
142.5
 20
152.2499999999999
 30
0.0
 11
142.5
 21
143.3499999999999
 31
0.0
  0
LINE
  5
94
330
1E
100
AcDbEntity
  8
0
100
AcDbLine
 10
142.5
 20
152.2499999999999
 30
0.0
 11
142.5
 21
159.05
 31
0.0
  0
LINE
  5
95
330
1E
100
AcDbEntity
  8
0
100
AcDbLine
 10
143.0
 20
133.25
 30
0.0
 11
143.0
 21
122.2499999999999
 31
0.0
  0
LINE
  5
96
330
1E
100
AcDbEntity
  8
0
100
AcDbLine
 10
143.0
 20
133.25
 30
0.0
 11
143.0
 21
143.65
 31
0.0
  0
LINE
  5
97
330
1E
100
AcDbEntity
  8
0
100
AcDbLine
 10
143.0
 20
143.65
 30
0.0
 11
143.0
 21
133.25
 31
0.0
  0
LINE
  5
98
330
1E
100
AcDbEntity
  8
0
100
AcDbLine
 10
143.0
 20
143.65
 30
0.0
 11
143.0
 21
152.55
 31
0.0
  0
LINE
  5
99
330
1E
100
AcDbEntity
  8
0
100
AcDbLine
 10
0.0
 20
156.25
 30
0.0
 11
60.0
 21
156.25
 31
0.0
  0
LINE
  5
9A
330
1E
100
AcDbEntity
  8
0
100
AcDbLine
 10
0.500000000000001
 20
156.75
 30
0.0
 11
59.5
 21
156.75
 31
0.0
  0
LINE
  5
9B
330
1E
100
AcDbEntity
  8
0
100
AcDbLine
 10
0.5000000000000031
 20
156.75
 30
0.0
 11
59.5
 21
156.75
 31
0.0
  0
LINE
  5
9C
330
1E
100
AcDbEntity
  8
0
100
AcDbLine
 10
0.0000000000000028
 20
156.25
 30
0.0
 11
0.0000000000000028
 21
149.2499999999999
 31
0.0
  0
LINE
  5
9D
330
1E
100
AcDbEntity
  8
0
100
AcDbLine
 10
0.0000000000000028
 20
156.25
 30
0.0
 11
0.5000000000000031
 21
156.75
 31
0.0
  0
LINE
  5
9E
330
1E
100
AcDbEntity
  8
0
100
AcDbLine
 10
0.0000000000000028
 20
156.25
 30
0.0
 11
60.0
 21
156.25
 31
0.0
  0
LINE
  5
9F
330
1E
100
AcDbEntity
  8
0
100
AcDbLine
 10
59.5
 20
156.75
 30
0.0
 11
60.0
 21
156.25
 31
0.0
  0
LINE
  5
A0
330
1E
100
AcDbEntity
  8
0
100
AcDbLine
 10
60.0
 20
156.25
 30
0.0
 11
60.0
 21
149.2499999999999
 31
0.0
  0
LINE
  5
A1
330
1E
100
AcDbEntity
  8
0
100
AcDbLine
 10
37.6086956521739
 20
156.75
 30
0.0
 11
37.7
 21
157.3499999999999
 31
0.0
  0
LINE
  5
A2
330
1E
100
AcDbEntity
  8
0
100
AcDbLine
 10
26.0789473684211
 20
156.75
 30
0.0
 11
26.6
 21
160.3499999999999
 31
0.0
  0
LINE
  5
A3
330
1E
100
AcDbEntity
  8
0
100
AcDbLine
 10
37.7
 20
157.3499999999999
 30
0.0
 11
39.39999999999999
 21
161.65
 31
0.0
  0
LINE
  5
A4
330
1E
100
AcDbEntity
  8
0
100
AcDbLine
 10
72.3
 20
157.3499999999999
 30
0.0
 11
73.0
 21
152.75
 31
0.0
  0
LINE
  5
A5
330
1E
100
AcDbEntity
  8
0
100
AcDbLine
 10
25.5714285714286
 20
156.75
 30
0.0
 11
26.1
 21
160.4499999999999
 31
0.0
  0
LINE
  5
A6
330
1E
100
AcDbEntity
  8
0
100
AcDbLine
 10
125.5
 20
152.75
 30
0.0
 11
126.6
 21
145.15
 31
0.0
  0
LINE
  5
A7
330
1E
100
AcDbEntity
  8
0
100
AcDbLine
 10
125.5
 20
152.75
 30
0.0
 11
126.6
 21
160.3499999999999
 31
0.0
  0
LINE
  5
A8
330
1E
100
AcDbEntity
  8
0
100
AcDbLine
 10
125.0
 20
152.75
 30
0.0
 11
126.0999999999999
 21
145.05
 31
0.0
  0
LINE
  5
A9
330
1E
100
AcDbEntity
  8
0
100
AcDbLine
 10
125.0
 20
152.75
 30
0.0
 11
126.0999999999999
 21
160.4499999999999
 31
0.0
  0
LINE
  5
AA
330
1E
100
AcDbEntity
  8
0
100
AcDbLine
 10
26.6
 20
160.3499999999999
 30
0.0
 11
29.5
 21
167.4499999999999
 31
0.0
  0
LINE
  5
AB
330
1E
100
AcDbEntity
  8
0
100
AcDbLine
 10
26.1
 20
160.4499999999999
 30
0.0
 11
29.0
 21
167.65
 31
0.0
  0
LINE
  5
AC
330
1E
100
AcDbEntity
  8
0
100
AcDbLine
 10
83.40000000000001
 20
160.3499999999999
 30
0.0
 11
84.50000000000001
 21
152.75
 31
0.0
  0
LINE
  5
AD
330
1E
100
AcDbEntity
  8
0
100
AcDbLine
 10
39.39999999999999
 20
161.65
 30
0.0
 11
42.29999999999999
 21
165.4499999999999
 31
0.0
  0
LINE
  5
AE
330
1E
100
AcDbEntity
  8
0
100
AcDbLine
 10
70.59999999999999
 20
161.65
 30
0.0
 11
72.3
 21
157.3499999999999
 31
0.0
  0
LINE
  5
AF
330
1E
100
AcDbEntity
  8
0
100
AcDbLine
 10
83.9
 20
160.4499999999999
 30
0.0
 11
85.0
 21
152.75
 31
0.0
  0
LINE
  5
B0
330
1E
100
AcDbEntity
  8
0
100
AcDbLine
 10
126.6
 20
160.3499999999999
 30
0.0
 11
129.4999999999999
 21
167.4499999999999
 31
0.0
  0
LINE
  5
B1
330
1E
100
AcDbEntity
  8
0
100
AcDbLine
 10
126.0999999999999
 20
160.4499999999999
 30
0.0
 11
129.0
 21
167.65
 31
0.0
  0
LINE
  5
B2
330
1E
100
AcDbEntity
  8
0
100
AcDbLine
 10
142.5
 20
159.05
 30
0.0
 11
142.5
 21
152.2499999999999
 31
0.0
  0
LINE
  5
B3
330
1E
100
AcDbEntity
  8
0
100
AcDbLine
 10
142.5
 20
159.05
 30
0.0
 11
142.5
 21
163.15
 31
0.0
  0
LINE
  5
B4
330
1E
100
AcDbEntity
  8
0
100
AcDbLine
 10
142.5
 20
163.15
 30
0.0
 11
142.5
 21
159.05
 31
0.0
  0
LINE
  5
B5
330
1E
100
AcDbEntity
  8
0
100
AcDbLine
 10
142.5
 20
163.15
 30
0.0
 11
142.5
 21
164.7499999999999
 31
0.0
  0
LINE
  5
B6
330
1E
100
AcDbEntity
  8
0
100
AcDbLine
 10
143.0
 20
152.55
 30
0.0
 11
143.0
 21
143.65
 31
0.0
  0
LINE
  5
B7
330
1E
100
AcDbEntity
  8
0
100
AcDbLine
 10
143.0
 20
152.55
 30
0.0
 11
143.0
 21
159.45
 31
0.0
  0
LINE
  5
B8
330
1E
100
AcDbEntity
  8
0
100
AcDbLine
 10
143.0
 20
159.45
 30
0.0
 11
143.0
 21
152.55
 31
0.0
  0
LINE
  5
B9
330
1E
100
AcDbEntity
  8
0
100
AcDbLine
 10
143.0
 20
159.45
 30
0.0
 11
143.0
 21
163.65
 31
0.0
  0
LINE
  5
BA
330
1E
100
AcDbEntity
  8
0
100
AcDbLine
 10
42.29999999999999
 20
165.4499999999999
 30
0.0
 11
46.1
 21
168.3499999999999
 31
0.0
  0
LINE
  5
BB
330
1E
100
AcDbEntity
  8
0
100
AcDbLine
 10
67.7
 20
165.4499999999999
 30
0.0
 11
70.59999999999999
 21
161.65
 31
0.0
  0
LINE
  5
BC
330
1E
100
AcDbEntity
  8
0
100
AcDbLine
 10
29.5
 20
167.4499999999999
 30
0.0
 11
34.2
 21
173.55
 31
0.0
  0
LINE
  5
BD
330
1E
100
AcDbEntity
  8
0
100
AcDbLine
 10
29.0
 20
167.65
 30
0.0
 11
33.79999999999999
 21
173.9499999999999
 31
0.0
  0
LINE
  5
BE
330
1E
100
AcDbEntity
  8
0
100
AcDbLine
 10
80.5
 20
167.4499999999999
 30
0.0
 11
83.40000000000001
 21
160.3499999999999
 31
0.0
  0
LINE
  5
BF
330
1E
100
AcDbEntity
  8
0
100
AcDbLine
 10
50.4
 20
170.05
 30
0.0
 11
55.0
 21
170.75
 31
0.0
  0
LINE
  5
C0
330
1E
100
AcDbEntity
  8
0
100
AcDbLine
 10
46.1
 20
168.3499999999999
 30
0.0
 11
50.4
 21
170.05
 31
0.0
  0
LINE
  5
C1
330
1E
100
AcDbEntity
  8
0
100
AcDbLine
 10
55.0
 20
170.75
 30
0.0
 11
59.6
 21
170.05
 31
0.0
  0
LINE
  5
C2
330
1E
100
AcDbEntity
  8
0
100
AcDbLine
 10
59.6
 20
170.05
 30
0.0
 11
63.9
 21
168.3499999999999
 31
0.0
  0
LINE
  5
C3
330
1E
100
AcDbEntity
  8
0
100
AcDbLine
 10
63.9
 20
168.3499999999999
 30
0.0
 11
67.7
 21
165.4499999999999
 31
0.0
  0
LINE
  5
C4
330
1E
100
AcDbEntity
  8
0
100
AcDbLine
 10
40.3
 20
178.2499999999999
 30
0.0
 11
47.4
 21
181.15
 31
0.0
  0
LINE
  5
C5
330
1E
100
AcDbEntity
  8
0
100
AcDbLine
 10
34.2
 20
173.55
 30
0.0
 11
40.3
 21
178.2499999999999
 31
0.0
  0
LINE
  5
C6
330
1E
100
AcDbEntity
  8
0
100
AcDbLine
 10
47.4
 20
181.15
 30
0.0
 11
55.0
 21
182.2499999999999
 31
0.0
  0
LINE
  5
C7
330
1E
100
AcDbEntity
  8
0
100
AcDbLine
 10
40.1
 20
178.75
 30
0.0
 11
47.29999999999999
 21
181.6499999999999
 31
0.0
  0
LINE
  5
C8
330
1E
100
AcDbEntity
  8
0
100
AcDbLine
 10
33.79999999999999
 20
173.9499999999999
 30
0.0
 11
40.1
 21
178.75
 31
0.0
  0
LINE
  5
C9
330
1E
100
AcDbEntity
  8
0
100
AcDbLine
 10
47.29999999999999
 20
181.6499999999999
 30
0.0
 11
55.0
 21
182.75
 31
0.0
  0
LINE
  5
CA
330
1E
100
AcDbEntity
  8
0
100
AcDbLine
 10
62.6
 20
181.15
 30
0.0
 11
69.7
 21
178.2499999999999
 31
0.0
  0
LINE
  5
CB
330
1E
100
AcDbEntity
  8
0
100
AcDbLine
 10
69.7
 20
178.2499999999999
 30
0.0
 11
75.8
 21
173.55
 31
0.0
  0
LINE
  5
CC
330
1E
100
AcDbEntity
  8
0
100
AcDbLine
 10
55.0
 20
182.2499999999999
 30
0.0
 11
62.6
 21
181.15
 31
0.0
  0
LINE
  5
CD
330
1E
100
AcDbEntity
  8
0
100
AcDbLine
 10
55.0
 20
182.75
 30
0.0
 11
62.7
 21
181.6499999999999
 31
0.0
  0
LINE
  5
CE
330
1E
100
AcDbEntity
  8
0
100
AcDbLine
 10
62.7
 20
181.6499999999999
 30
0.0
 11
69.90000000000001
 21
178.75
 31
0.0
  0
LINE
  5
CF
330
1E
100
AcDbEntity
  8
0
100
AcDbLine
 10
75.8
 20
173.55
 30
0.0
 11
80.5
 21
167.4499999999999
 31
0.0
  0
LINE
  5
D0
330
1E
100
AcDbEntity
  8
0
100
AcDbLine
 10
76.2
 20
173.9499999999999
 30
0.0
 11
81.0
 21
167.65
 31
0.0
  0
LINE
  5
D1
330
1E
100
AcDbEntity
  8
0
100
AcDbLine
 10
69.90000000000001
 20
178.75
 30
0.0
 11
76.2
 21
173.9499999999999
 31
0.0
  0
LINE
  5
D2
330
1E
100
AcDbEntity
  8
0
100
AcDbLine
 10
81.0
 20
167.65
 30
0.0
 11
83.9
 21
160.4499999999999
 31
0.0
  0
LINE
  5
D3
330
1E
100
AcDbEntity
  8
0
100
AcDbLine
 10
134.1999999999999
 20
173.55
 30
0.0
 11
140.3
 21
178.2499999999999
 31
0.0
  0
LINE
  5
D4
330
1E
100
AcDbEntity
  8
0
100
AcDbLine
 10
129.4999999999999
 20
167.4499999999999
 30
0.0
 11
134.1999999999999
 21
173.55
 31
0.0
  0
LINE
  5
D5
330
1E
100
AcDbEntity
  8
0
100
AcDbLine
 10
140.3
 20
178.2499999999999
 30
0.0
 11
147.4
 21
181.15
 31
0.0
  0
LINE
  5
D6
330
1E
100
AcDbEntity
  8
0
100
AcDbLine
 10
140.0999999999999
 20
178.75
 30
0.0
 11
147.3
 21
181.6499999999999
 31
0.0
  0
LINE
  5
D7
330
1E
100
AcDbEntity
  8
0
100
AcDbLine
 10
133.8
 20
173.9499999999999
 30
0.0
 11
140.0999999999999
 21
178.75
 31
0.0
  0
LINE
  5
D8
330
1E
100
AcDbEntity
  8
0
100
AcDbLine
 10
129.0
 20
167.65
 30
0.0
 11
133.8
 21
173.9499999999999
 31
0.0
  0
LINE
  5
D9
330
1E
100
AcDbEntity
  8
0
100
AcDbLine
 10
142.5
 20
164.7499999999999
 30
0.0
 11
143.0
 21
165.25
 31
0.0
  0
LINE
  5
DA
330
1E
100
AcDbEntity
  8
0
100
AcDbLine
 10
142.5
 20
164.7499999999999
 30
0.0
 11
142.5
 21
163.15
 31
0.0
  0
LINE
  5
DB
330
1E
100
AcDbEntity
  8
0
100
AcDbLine
 10
142.5
 20
164.7499999999999
 30
0.0
 11
142.5
 21
140.7499999999999
 31
0.0
  0
LINE
  5
DC
330
1E
100
AcDbEntity
  8
0
100
AcDbLine
 10
143.0
 20
163.65
 30
0.0
 11
143.0
 21
159.45
 31
0.0
  0
LINE
  5
DD
330
1E
100
AcDbEntity
  8
0
100
AcDbLine
 10
143.0
 20
163.65
 30
0.0
 11
143.0
 21
165.25
 31
0.0
  0
LINE
  5
DE
330
1E
100
AcDbEntity
  8
0
100
AcDbLine
 10
143.0
 20
165.25
 30
0.0
 11
155.0
 21
165.25
 31
0.0
  0
LINE
  5
DF
330
1E
100
AcDbEntity
  8
0
100
AcDbLine
 10
143.0
 20
165.25
 30
0.0
 11
143.0
 21
163.65
 31
0.0
  0
LINE
  5
E0
330
1E
100
AcDbEntity
  8
0
100
AcDbLine
 10
142.5
 20
82.75
 30
0.0
 11
142.5
 21
43.25
 31
0.0
  0
LINE
  5
E1
330
1E
100
AcDbEntity
  8
0
100
AcDbLine
 10
142.5
 20
82.75
 30
0.0
 11
142.5
 21
122.2499999999999
 31
0.0
  0
LINE
  5
E2
330
1E
100
AcDbEntity
  8
0
100
AcDbLine
 10
143.0
 20
82.75
 30
0.0
 11
143.0
 21
43.25
 31
0.0
  0
LINE
  5
E3
330
1E
100
AcDbEntity
  8
0
100
AcDbLine
 10
143.0
 20
82.75
 30
0.0
 11
143.0
 21
122.2499999999999
 31
0.0
  0
LINE
  5
E4
330
1E
100
AcDbEntity
  8
0
100
AcDbLine
 10
143.0
 20
43.25
 30
0.0
 11
143.0
 21
32.25
 31
0.0
  0
LINE
  5
E5
330
1E
100
AcDbEntity
  8
0
100
AcDbLine
 10
143.0
 20
43.25
 30
0.0
 11
143.0
 21
82.75
 31
0.0
  0
LINE
  5
E6
330
1E
100
AcDbEntity
  8
0
100
AcDbLine
 10
143.0
 20
32.25
 30
0.0
 11
143.0
 21
21.85
 31
0.0
  0
LINE
  5
E7
330
1E
100
AcDbEntity
  8
0
100
AcDbLine
 10
143.0
 20
32.25
 30
0.0
 11
143.0
 21
43.25
 31
0.0
  0
LINE
  5
E8
330
1E
100
AcDbEntity
  8
0
100
AcDbLine
 10
143.0
 20
21.85
 30
0.0
 11
143.0
 21
12.94999999999999
 31
0.0
  0
LINE
  5
E9
330
1E
100
AcDbEntity
  8
0
100
AcDbLine
 10
143.0
 20
21.85
 30
0.0
 11
143.0
 21
32.25
 31
0.0
  0
LINE
  5
EA
330
1E
100
AcDbEntity
  8
0
100
AcDbLine
 10
143.0
 20
12.94999999999999
 30
0.0
 11
143.0
 21
6.050000000000009
 31
0.0
  0
LINE
  5
EB
330
1E
100
AcDbEntity
  8
0
100
AcDbLine
 10
143.0
 20
12.94999999999999
 30
0.0
 11
143.0
 21
21.85
 31
0.0
  0
LINE
  5
EC
330
1E
100
AcDbEntity
  8
0
100
AcDbLine
 10
143.0
 20
6.050000000000009
 30
0.0
 11
143.0
 21
1.85000000000001
 31
0.0
  0
LINE
  5
ED
330
1E
100
AcDbEntity
  8
0
100
AcDbLine
 10
143.0
 20
6.050000000000009
 30
0.0
 11
143.0
 21
12.94999999999999
 31
0.0
  0
LINE
  5
EE
330
1E
100
AcDbEntity
  8
0
100
AcDbLine
 10
143.0
 20
1.85000000000001
 30
0.0
 11
143.0
 21
0.25000000000001
 31
0.0
  0
LINE
  5
EF
330
1E
100
AcDbEntity
  8
0
100
AcDbLine
 10
143.0
 20
1.85000000000001
 30
0.0
 11
143.0
 21
6.050000000000009
 31
0.0
  0
LINE
  5
F0
330
1E
100
AcDbEntity
  8
0
100
AcDbLine
 10
143.0
 20
0.250000000000009
 30
0.0
 11
155.0
 21
0.250000000000009
 31
0.0
  0
LINE
  5
F1
330
1E
100
AcDbEntity
  8
0
100
AcDbLine
 10
155.0
 20
0.250000000000009
 30
0.0
 11
167.0
 21
0.250000000000009
 31
0.0
  0
LINE
  5
F2
330
1E
100
AcDbEntity
  8
0
100
AcDbLine
 10
152.0
 20
168.75
 30
0.0
 11
152.0
 21
165.7499999999999
 31
0.0
  0
LINE
  5
F3
330
1E
100
AcDbEntity
  8
0
100
AcDbLine
 10
152.0
 20
177.75
 30
0.0
 11
152.0
 21
165.7499999999999
 31
0.0
  0
LINE
  5
F4
330
1E
100
AcDbEntity
  8
0
100
AcDbLine
 10
152.0
 20
177.75
 30
0.0
 11
158.0
 21
177.75
 31
0.0
  0
LINE
  5
F5
330
1E
100
AcDbEntity
  8
0
100
AcDbLine
 10
152.0
 20
165.7499999999999
 30
0.0
 11
158.0
 21
165.7499999999999
 31
0.0
  0
LINE
  5
F6
330
1E
100
AcDbEntity
  8
0
100
AcDbLine
 10
152.0
 20
165.7499999999999
 30
0.0
 11
152.0
 21
177.75
 31
0.0
  0
LINE
  5
F7
330
1E
100
AcDbEntity
  8
0
100
AcDbLine
 10
152.0
 20
165.7499999999999
 30
0.0
 11
152.0
 21
168.75
 31
0.0
  0
LINE
  5
F8
330
1E
100
AcDbEntity
  8
0
100
AcDbLine
 10
147.4
 20
181.15
 30
0.0
 11
155.0
 21
182.2499999999999
 31
0.0
  0
LINE
  5
F9
330
1E
100
AcDbEntity
  8
0
100
AcDbLine
 10
147.3
 20
181.6499999999999
 30
0.0
 11
155.0
 21
182.75
 31
0.0
  0
LINE
  5
FA
330
1E
100
AcDbEntity
  8
0
100
AcDbLine
 10
155.0
 20
182.2499999999999
 30
0.0
 11
162.5999999999999
 21
181.15
 31
0.0
  0
LINE
  5
FB
330
1E
100
AcDbEntity
  8
0
100
AcDbLine
 10
155.0
 20
182.75
 30
0.0
 11
162.6999999999999
 21
181.6499999999999
 31
0.0
  0
LINE
  5
FC
330
1E
100
AcDbEntity
  8
0
100
AcDbLine
 10
167.0
 20
122.2499999999999
 30
0.0
 11
167.0
 21
133.25
 31
0.0
  0
LINE
  5
FD
330
1E
100
AcDbEntity
  8
0
100
AcDbLine
 10
167.0
 20
122.2499999999999
 30
0.0
 11
167.0
 21
82.75
 31
0.0
  0
LINE
  5
FE
330
1E
100
AcDbEntity
  8
0
100
AcDbLine
 10
167.0
 20
133.25
 30
0.0
 11
167.0
 21
143.65
 31
0.0
  0
LINE
  5
FF
330
1E
100
AcDbEntity
  8
0
100
AcDbLine
 10
167.0
 20
133.25
 30
0.0
 11
167.0
 21
122.2499999999999
 31
0.0
  0
LINE
  5
100
330
1E
100
AcDbEntity
  8
0
100
AcDbLine
 10
167.0
 20
143.65
 30
0.0
 11
167.0
 21
152.55
 31
0.0
  0
LINE
  5
101
330
1E
100
AcDbEntity
  8
0
100
AcDbLine
 10
167.0
 20
143.65
 30
0.0
 11
167.0
 21
133.25
 31
0.0
  0
LINE
  5
102
330
1E
100
AcDbEntity
  8
0
100
AcDbLine
 10
167.0
 20
152.55
 30
0.0
 11
167.0
 21
159.45
 31
0.0
  0
LINE
  5
103
330
1E
100
AcDbEntity
  8
0
100
AcDbLine
 10
167.0
 20
152.55
 30
0.0
 11
167.0
 21
143.65
 31
0.0
  0
LINE
  5
104
330
1E
100
AcDbEntity
  8
0
100
AcDbLine
 10
167.0
 20
159.45
 30
0.0
 11
167.0
 21
163.65
 31
0.0
  0
LINE
  5
105
330
1E
100
AcDbEntity
  8
0
100
AcDbLine
 10
167.0
 20
159.45
 30
0.0
 11
167.0
 21
152.55
 31
0.0
  0
LINE
  5
106
330
1E
100
AcDbEntity
  8
0
100
AcDbLine
 10
158.0
 20
177.75
 30
0.0
 11
158.0
 21
165.7499999999999
 31
0.0
  0
LINE
  5
107
330
1E
100
AcDbEntity
  8
0
100
AcDbLine
 10
158.0
 20
165.7499999999999
 30
0.0
 11
158.0
 21
177.75
 31
0.0
  0
LINE
  5
108
330
1E
100
AcDbEntity
  8
0
100
AcDbLine
 10
162.5999999999999
 20
181.15
 30
0.0
 11
169.6999999999999
 21
178.2499999999999
 31
0.0
  0
LINE
  5
109
330
1E
100
AcDbEntity
  8
0
100
AcDbLine
 10
162.6999999999999
 20
181.6499999999999
 30
0.0
 11
169.9
 21
178.75
 31
0.0
  0
LINE
  5
10A
330
1E
100
AcDbEntity
  8
0
100
AcDbLine
 10
167.0
 20
165.25
 30
0.0
 11
167.5
 21
164.7499999999999
 31
0.0
  0
LINE
  5
10B
330
1E
100
AcDbEntity
  8
0
100
AcDbLine
 10
167.0
 20
165.25
 30
0.0
 11
167.0
 21
163.65
 31
0.0
  0
LINE
  5
10C
330
1E
100
AcDbEntity
  8
0
100
AcDbLine
 10
167.0
 20
163.65
 30
0.0
 11
167.0
 21
165.25
 31
0.0
  0
LINE
  5
10D
330
1E
100
AcDbEntity
  8
0
100
AcDbLine
 10
167.0
 20
163.65
 30
0.0
 11
167.0
 21
159.45
 31
0.0
  0
LINE
  5
10E
330
1E
100
AcDbEntity
  8
0
100
AcDbLine
 10
155.0
 20
165.25
 30
0.0
 11
167.0
 21
165.25
 31
0.0
  0
LINE
  5
10F
330
1E
100
AcDbEntity
  8
0
100
AcDbLine
 10
167.0
 20
82.75
 30
0.0
 11
167.0
 21
43.25
 31
0.0
  0
LINE
  5
110
330
1E
100
AcDbEntity
  8
0
100
AcDbLine
 10
167.0
 20
82.75
 30
0.0
 11
167.0
 21
122.2499999999999
 31
0.0
  0
LINE
  5
111
330
1E
100
AcDbEntity
  8
0
100
AcDbLine
 10
167.0
 20
43.25
 30
0.0
 11
167.0
 21
82.75
 31
0.0
  0
LINE
  5
112
330
1E
100
AcDbEntity
  8
0
100
AcDbLine
 10
167.0
 20
43.25
 30
0.0
 11
167.0
 21
32.25
 31
0.0
  0
LINE
  5
113
330
1E
100
AcDbEntity
  8
0
100
AcDbLine
 10
167.0
 20
32.25
 30
0.0
 11
167.0
 21
43.25
 31
0.0
  0
LINE
  5
114
330
1E
100
AcDbEntity
  8
0
100
AcDbLine
 10
167.0
 20
32.25
 30
0.0
 11
167.0
 21
21.85
 31
0.0
  0
LINE
  5
115
330
1E
100
AcDbEntity
  8
0
100
AcDbLine
 10
167.0
 20
21.85
 30
0.0
 11
167.0
 21
32.25
 31
0.0
  0
LINE
  5
116
330
1E
100
AcDbEntity
  8
0
100
AcDbLine
 10
167.0
 20
21.85
 30
0.0
 11
167.0
 21
12.94999999999999
 31
0.0
  0
LINE
  5
117
330
1E
100
AcDbEntity
  8
0
100
AcDbLine
 10
167.0
 20
12.94999999999999
 30
0.0
 11
167.0
 21
21.85
 31
0.0
  0
LINE
  5
118
330
1E
100
AcDbEntity
  8
0
100
AcDbLine
 10
167.0
 20
12.94999999999999
 30
0.0
 11
167.0
 21
6.050000000000009
 31
0.0
  0
LINE
  5
119
330
1E
100
AcDbEntity
  8
0
100
AcDbLine
 10
167.0
 20
6.050000000000009
 30
0.0
 11
167.0
 21
12.94999999999999
 31
0.0
  0
LINE
  5
11A
330
1E
100
AcDbEntity
  8
0
100
AcDbLine
 10
167.0
 20
6.050000000000009
 30
0.0
 11
167.0
 21
1.85000000000001
 31
0.0
  0
LINE
  5
11B
330
1E
100
AcDbEntity
  8
0
100
AcDbLine
 10
167.0
 20
1.85000000000001
 30
0.0
 11
167.0
 21
6.050000000000009
 31
0.0
  0
LINE
  5
11C
330
1E
100
AcDbEntity
  8
0
100
AcDbLine
 10
167.0
 20
1.85000000000001
 30
0.0
 11
167.0
 21
0.25000000000001
 31
0.0
  0
LINE
  5
11D
330
1E
100
AcDbEntity
  8
0
100
AcDbLine
 10
167.5
 20
126.351408450704
 30
0.0
 11
169.6999999999999
 21
127.2499999999999
 31
0.0
  0
LINE
  5
11E
330
1E
100
AcDbEntity
  8
0
100
AcDbLine
 10
167.5
 20
125.783333333333
 30
0.0
 11
169.9
 21
126.75
 31
0.0
  0
LINE
  5
11F
330
1E
100
AcDbEntity
  8
0
100
AcDbLine
 10
167.5
 20
122.2499999999999
 30
0.0
 11
167.5
 21
133.15
 31
0.0
  0
LINE
  5
120
330
1E
100
AcDbEntity
  8
0
100
AcDbLine
 10
167.5
 20
122.2499999999999
 30
0.0
 11
167.5
 21
82.75
 31
0.0
  0
LINE
  5
121
330
1E
100
AcDbEntity
  8
0
100
AcDbLine
 10
167.5
 20
133.15
 30
0.0
 11
167.5
 21
143.3499999999999
 31
0.0
  0
LINE
  5
122
330
1E
100
AcDbEntity
  8
0
100
AcDbLine
 10
167.5
 20
133.15
 30
0.0
 11
167.5
 21
122.2499999999999
 31
0.0
  0
LINE
  5
123
330
1E
100
AcDbEntity
  8
0
100
AcDbLine
 10
167.5
 20
143.3499999999999
 30
0.0
 11
167.5
 21
152.2499999999999
 31
0.0
  0
LINE
  5
124
330
1E
100
AcDbEntity
  8
0
100
AcDbLine
 10
167.5
 20
143.3499999999999
 30
0.0
 11
167.5
 21
133.15
 31
0.0
  0
LINE
  5
125
330
1E
100
AcDbEntity
  8
0
100
AcDbLine
 10
167.5
 20
152.2499999999999
 30
0.0
 11
167.5
 21
159.05
 31
0.0
  0
LINE
  5
126
330
1E
100
AcDbEntity
  8
0
100
AcDbLine
 10
167.5
 20
152.2499999999999
 30
0.0
 11
167.5
 21
143.3499999999999
 31
0.0
  0
LINE
  5
127
330
1E
100
AcDbEntity
  8
0
100
AcDbLine
 10
167.5
 20
164.7499999999999
 30
0.0
 11
167.5
 21
163.15
 31
0.0
  0
LINE
  5
128
330
1E
100
AcDbEntity
  8
0
100
AcDbLine
 10
167.5
 20
159.05
 30
0.0
 11
167.5
 21
163.15
 31
0.0
  0
LINE
  5
129
330
1E
100
AcDbEntity
  8
0
100
AcDbLine
 10
167.5
 20
159.05
 30
0.0
 11
167.5
 21
152.2499999999999
 31
0.0
  0
LINE
  5
12A
330
1E
100
AcDbEntity
  8
0
100
AcDbLine
 10
167.5
 20
163.15
 30
0.0
 11
167.5
 21
164.7499999999999
 31
0.0
  0
LINE
  5
12B
330
1E
100
AcDbEntity
  8
0
100
AcDbLine
 10
167.5
 20
163.15
 30
0.0
 11
167.5
 21
159.05
 31
0.0
  0
LINE
  5
12C
330
1E
100
AcDbEntity
  8
0
100
AcDbLine
 10
167.5
 20
82.75
 30
0.0
 11
167.5
 21
43.25
 31
0.0
  0
LINE
  5
12D
330
1E
100
AcDbEntity
  8
0
100
AcDbLine
 10
167.5
 20
82.75
 30
0.0
 11
167.5
 21
122.2499999999999
 31
0.0
  0
LINE
  5
12E
330
1E
100
AcDbEntity
  8
0
100
AcDbLine
 10
167.5
 20
43.25
 30
0.0
 11
167.5
 21
82.75
 31
0.0
  0
LINE
  5
12F
330
1E
100
AcDbEntity
  8
0
100
AcDbLine
 10
167.5
 20
43.25
 30
0.0
 11
167.5
 21
32.35
 31
0.0
  0
LINE
  5
130
330
1E
100
AcDbEntity
  8
0
100
AcDbLine
 10
167.5
 20
32.35
 30
0.0
 11
167.5
 21
43.25
 31
0.0
  0
LINE
  5
131
330
1E
100
AcDbEntity
  8
0
100
AcDbLine
 10
167.5
 20
32.35
 30
0.0
 11
167.5
 21
22.14999999999999
 31
0.0
  0
LINE
  5
132
330
1E
100
AcDbEntity
  8
0
100
AcDbLine
 10
167.5
 20
22.14999999999999
 30
0.0
 11
167.5
 21
32.35
 31
0.0
  0
LINE
  5
133
330
1E
100
AcDbEntity
  8
0
100
AcDbLine
 10
167.5
 20
22.14999999999999
 30
0.0
 11
167.5
 21
13.25
 31
0.0
  0
LINE
  5
134
330
1E
100
AcDbEntity
  8
0
100
AcDbLine
 10
167.5
 20
13.25
 30
0.0
 11
167.5
 21
22.14999999999999
 31
0.0
  0
LINE
  5
135
330
1E
100
AcDbEntity
  8
0
100
AcDbLine
 10
167.5
 20
13.25
 30
0.0
 11
167.5
 21
6.450000000000009
 31
0.0
  0
LINE
  5
136
330
1E
100
AcDbEntity
  8
0
100
AcDbLine
 10
167.5
 20
6.450000000000009
 30
0.0
 11
167.5
 21
13.25
 31
0.0
  0
LINE
  5
137
330
1E
100
AcDbEntity
  8
0
100
AcDbLine
 10
167.5
 20
6.450000000000009
 30
0.0
 11
167.5
 21
2.350000000000009
 31
0.0
  0
LINE
  5
138
330
1E
100
AcDbEntity
  8
0
100
AcDbLine
 10
167.5
 20
2.350000000000009
 30
0.0
 11
167.5
 21
6.450000000000009
 31
0.0
  0
LINE
  5
139
330
1E
100
AcDbEntity
  8
0
100
AcDbLine
 10
167.5
 20
2.350000000000009
 30
0.0
 11
167.5
 21
0.75000000000001
 31
0.0
  0
LINE
  5
13A
330
1E
100
AcDbEntity
  8
0
100
AcDbLine
 10
169.6999999999999
 20
127.2499999999999
 30
0.0
 11
175.8
 21
131.9499999999999
 31
0.0
  0
LINE
  5
13B
330
1E
100
AcDbEntity
  8
0
100
AcDbLine
 10
175.8
 20
131.9499999999999
 30
0.0
 11
180.4999999999999
 21
138.05
 31
0.0
  0
LINE
  5
13C
330
1E
100
AcDbEntity
  8
0
100
AcDbLine
 10
176.2
 20
131.55
 30
0.0
 11
181.0
 21
137.85
 31
0.0
  0
LINE
  5
13D
330
1E
100
AcDbEntity
  8
0
100
AcDbLine
 10
169.9
 20
126.75
 30
0.0
 11
176.2
 21
131.55
 31
0.0
  0
LINE
  5
13E
330
1E
100
AcDbEntity
  8
0
100
AcDbLine
 10
169.9
 20
126.75
 30
0.0
 11
176.2
 21
131.55
 31
0.0
  0
LINE
  5
13F
330
1E
100
AcDbEntity
  8
0
100
AcDbLine
 10
247.4
 20
124.35
 30
0.0
 11
255.0
 21
123.2499999999999
 31
0.0
  0
LINE
  5
140
330
1E
100
AcDbEntity
  8
0
100
AcDbLine
 10
240.3
 20
127.2499999999999
 30
0.0
 11
247.4
 21
124.35
 31
0.0
  0
LINE
  5
141
330
1E
100
AcDbEntity
  8
0
100
AcDbLine
 10
247.3
 20
123.8499999999999
 30
0.0
 11
255.0
 21
122.75
 31
0.0
  0
LINE
  5
142
330
1E
100
AcDbEntity
  8
0
100
AcDbLine
 10
240.0999999999999
 20
126.75
 30
0.0
 11
247.3
 21
123.8499999999999
 31
0.0
  0
LINE
  5
143
330
1E
100
AcDbEntity
  8
0
100
AcDbLine
 10
234.2
 20
131.9499999999999
 30
0.0
 11
240.3
 21
127.2499999999999
 31
0.0
  0
LINE
  5
144
330
1E
100
AcDbEntity
  8
0
100
AcDbLine
 10
233.8
 20
131.55
 30
0.0
 11
240.0999999999999
 21
126.75
 31
0.0
  0
LINE
  5
145
330
1E
100
AcDbEntity
  8
0
100
AcDbLine
 10
233.8
 20
131.55
 30
0.0
 11
240.0999999999999
 21
126.75
 31
0.0
  0
LINE
  5
146
330
1E
100
AcDbEntity
  8
0
100
AcDbLine
 10
255.0
 20
123.2499999999999
 30
0.0
 11
262.6
 21
124.35
 31
0.0
  0
LINE
  5
147
330
1E
100
AcDbEntity
  8
0
100
AcDbLine
 10
255.0
 20
122.75
 30
0.0
 11
262.6999999999999
 21
123.8499999999999
 31
0.0
  0
LINE
  5
148
330
1E
100
AcDbEntity
  8
0
100
AcDbLine
 10
255.0
 20
134.7499999999999
 30
0.0
 11
259.6
 21
135.4499999999999
 31
0.0
  0
LINE
  5
149
330
1E
100
AcDbEntity
  8
0
100
AcDbLine
 10
262.6
 20
124.35
 30
0.0
 11
269.7
 21
127.2499999999999
 31
0.0
  0
LINE
  5
14A
330
1E
100
AcDbEntity
  8
0
100
AcDbLine
 10
262.6999999999999
 20
123.8499999999999
 30
0.0
 11
269.8999999999999
 21
126.75
 31
0.0
  0
LINE
  5
14B
330
1E
100
AcDbEntity
  8
0
100
AcDbLine
 10
269.7
 20
127.2499999999999
 30
0.0
 11
275.8
 21
131.9499999999999
 31
0.0
  0
LINE
  5
14C
330
1E
100
AcDbEntity
  8
0
100
AcDbLine
 10
275.8
 20
131.9499999999999
 30
0.0
 11
280.5
 21
138.05
 31
0.0
  0
LINE
  5
14D
330
1E
100
AcDbEntity
  8
0
100
AcDbLine
 10
276.2
 20
131.55
 30
0.0
 11
281.0
 21
137.85
 31
0.0
  0
LINE
  5
14E
330
1E
100
AcDbEntity
  8
0
100
AcDbLine
 10
269.8999999999999
 20
126.75
 30
0.0
 11
276.2
 21
131.55
 31
0.0
  0
LINE
  5
14F
330
1E
100
AcDbEntity
  8
0
100
AcDbLine
 10
269.8999999999999
 20
126.75
 30
0.0
 11
276.2
 21
131.55
 31
0.0
  0
LINE
  5
150
330
1E
100
AcDbEntity
  8
0
100
AcDbLine
 10
259.6
 20
135.4499999999999
 30
0.0
 11
263.8999999999999
 21
137.15
 31
0.0
  0
LINE
  5
151
330
1E
100
AcDbEntity
  8
0
100
AcDbLine
 10
263.8999999999999
 20
137.15
 30
0.0
 11
267.7
 21
140.05
 31
0.0
  0
LINE
  5
152
330
1E
100
AcDbEntity
  8
0
100
AcDbLine
 10
250.4
 20
135.4499999999999
 30
0.0
 11
255.0
 21
134.7499999999999
 31
0.0
  0
LINE
  5
153
330
1E
100
AcDbEntity
  8
0
100
AcDbLine
 10
281.0
 20
137.85
 30
0.0
 11
283.9
 21
145.05
 31
0.0
  0
LINE
  5
154
330
1E
100
AcDbEntity
  8
0
100
AcDbLine
 10
229.0
 20
137.85
 30
0.0
 11
233.8
 21
131.55
 31
0.0
  0
LINE
  5
155
330
1E
100
AcDbEntity
  8
0
100
AcDbLine
 10
246.0999999999999
 20
137.15
 30
0.0
 11
250.4
 21
135.4499999999999
 31
0.0
  0
LINE
  5
156
330
1E
100
AcDbEntity
  8
0
100
AcDbLine
 10
176.2
 20
131.55
 30
0.0
 11
181.0
 21
137.85
 31
0.0
  0
LINE
  5
157
330
1E
100
AcDbEntity
  8
0
100
AcDbLine
 10
180.4999999999999
 20
138.05
 30
0.0
 11
183.3999999999999
 21
145.15
 31
0.0
  0
LINE
  5
158
330
1E
100
AcDbEntity
  8
0
100
AcDbLine
 10
175.8
 20
173.55
 30
0.0
 11
180.4999999999999
 21
167.4499999999999
 31
0.0
  0
LINE
  5
159
330
1E
100
AcDbEntity
  8
0
100
AcDbLine
 10
180.4999999999999
 20
167.4499999999999
 30
0.0
 11
183.3999999999999
 21
160.3499999999999
 31
0.0
  0
LINE
  5
15A
330
1E
100
AcDbEntity
  8
0
100
AcDbLine
 10
169.6999999999999
 20
178.2499999999999
 30
0.0
 11
175.8
 21
173.55
 31
0.0
  0
LINE
  5
15B
330
1E
100
AcDbEntity
  8
0
100
AcDbLine
 10
169.9
 20
178.75
 30
0.0
 11
176.2
 21
173.9499999999999
 31
0.0
  0
LINE
  5
15C
330
1E
100
AcDbEntity
  8
0
100
AcDbLine
 10
176.2
 20
173.9499999999999
 30
0.0
 11
181.0
 21
167.65
 31
0.0
  0
LINE
  5
15D
330
1E
100
AcDbEntity
  8
0
100
AcDbLine
 10
183.3999999999999
 20
160.3499999999999
 30
0.0
 11
184.4999999999999
 21
152.75
 31
0.0
  0
LINE
  5
15E
330
1E
100
AcDbEntity
  8
0
100
AcDbLine
 10
183.9
 20
160.4499999999999
 30
0.0
 11
185.0
 21
152.75
 31
0.0
  0
LINE
  5
15F
330
1E
100
AcDbEntity
  8
0
100
AcDbLine
 10
181.0
 20
167.65
 30
0.0
 11
183.9
 21
160.4499999999999
 31
0.0
  0
LINE
  5
160
330
1E
100
AcDbEntity
  8
0
100
AcDbLine
 10
183.3999999999999
 20
145.15
 30
0.0
 11
184.4999999999999
 21
152.75
 31
0.0
  0
LINE
  5
161
330
1E
100
AcDbEntity
  8
0
100
AcDbLine
 10
229.4999999999999
 20
138.05
 30
0.0
 11
234.2
 21
131.9499999999999
 31
0.0
  0
LINE
  5
162
330
1E
100
AcDbEntity
  8
0
100
AcDbLine
 10
226.6
 20
145.15
 30
0.0
 11
229.4999999999999
 21
138.05
 31
0.0
  0
LINE
  5
163
330
1E
100
AcDbEntity
  8
0
100
AcDbLine
 10
226.1
 20
145.05
 30
0.0
 11
229.0
 21
137.85
 31
0.0
  0
LINE
  5
164
330
1E
100
AcDbEntity
  8
0
100
AcDbLine
 10
242.3
 20
140.05
 30
0.0
 11
246.0999999999999
 21
137.15
 31
0.0
  0
LINE
  5
165
330
1E
100
AcDbEntity
  8
0
100
AcDbLine
 10
239.4
 20
143.8499999999999
 30
0.0
 11
242.3
 21
140.05
 31
0.0
  0
LINE
  5
166
330
1E
100
AcDbEntity
  8
0
100
AcDbLine
 10
237.6999999999999
 20
148.15
 30
0.0
 11
239.4
 21
143.8499999999999
 31
0.0
  0
LINE
  5
167
330
1E
100
AcDbEntity
  8
0
100
AcDbLine
 10
225.4999999999999
 20
152.75
 30
0.0
 11
226.6
 21
145.15
 31
0.0
  0
LINE
  5
168
330
1E
100
AcDbEntity
  8
0
100
AcDbLine
 10
225.4999999999999
 20
152.75
 30
0.0
 11
226.6
 21
160.3499999999999
 31
0.0
  0
LINE
  5
169
330
1E
100
AcDbEntity
  8
0
100
AcDbLine
 10
225.0
 20
152.75
 30
0.0
 11
226.1
 21
145.05
 31
0.0
  0
LINE
  5
16A
330
1E
100
AcDbEntity
  8
0
100
AcDbLine
 10
225.0
 20
152.75
 30
0.0
 11
226.1
 21
160.4499999999999
 31
0.0
  0
LINE
  5
16B
330
1E
100
AcDbEntity
  8
0
100
AcDbLine
 10
237.0
 20
152.75
 30
0.0
 11
237.6999999999999
 21
148.15
 31
0.0
  0
LINE
  5
16C
330
1E
100
AcDbEntity
  8
0
100
AcDbLine
 10
237.0
 20
152.75
 30
0.0
 11
237.6999999999999
 21
157.3499999999999
 31
0.0
  0
LINE
  5
16D
330
1E
100
AcDbEntity
  8
0
100
AcDbLine
 10
250.0
 20
156.25
 30
0.0
 11
310.0
 21
156.25
 31
0.0
  0
LINE
  5
16E
330
1E
100
AcDbEntity
  8
0
100
AcDbLine
 10
250.0
 20
156.25
 30
0.0
 11
250.0
 21
149.2499999999999
 31
0.0
  0
LINE
  5
16F
330
1E
100
AcDbEntity
  8
0
100
AcDbLine
 10
250.0
 20
156.25
 30
0.0
 11
250.4999999999999
 21
156.75
 31
0.0
  0
LINE
  5
170
330
1E
100
AcDbEntity
  8
0
100
AcDbLine
 10
250.0
 20
149.2499999999999
 30
0.0
 11
310.0
 21
149.2499999999999
 31
0.0
  0
LINE
  5
171
330
1E
100
AcDbEntity
  8
0
100
AcDbLine
 10
250.0
 20
149.2499999999999
 30
0.0
 11
250.4999999999999
 21
148.75
 31
0.0
  0
LINE
  5
172
330
1E
100
AcDbEntity
  8
0
100
AcDbLine
 10
250.0
 20
149.2499999999999
 30
0.0
 11
250.0
 21
156.25
 31
0.0
  0
LINE
  5
173
330
1E
100
AcDbEntity
  8
0
100
AcDbLine
 10
267.7
 20
140.05
 30
0.0
 11
270.6
 21
143.8499999999999
 31
0.0
  0
LINE
  5
174
330
1E
100
AcDbEntity
  8
0
100
AcDbLine
 10
280.5
 20
138.05
 30
0.0
 11
283.3999999999999
 21
145.15
 31
0.0
  0
LINE
  5
175
330
1E
100
AcDbEntity
  8
0
100
AcDbLine
 10
283.3999999999999
 20
145.15
 30
0.0
 11
283.921052631579
 21
148.75
 31
0.0
  0
LINE
  5
176
330
1E
100
AcDbEntity
  8
0
100
AcDbLine
 10
283.9
 20
145.05
 30
0.0
 11
284.4285714285709
 21
148.75
 31
0.0
  0
LINE
  5
177
330
1E
100
AcDbEntity
  8
0
100
AcDbLine
 10
270.6
 20
143.8499999999999
 30
0.0
 11
272.3
 21
148.15
 31
0.0
  0
LINE
  5
178
330
1E
100
AcDbEntity
  8
0
100
AcDbLine
 10
272.3
 20
148.15
 30
0.0
 11
272.391304347826
 21
148.75
 31
0.0
  0
LINE
  5
179
330
1E
100
AcDbEntity
  8
0
100
AcDbLine
 10
263.0
 20
148.75
 30
0.0
 11
309.5
 21
148.75
 31
0.0
  0
LINE
  5
17A
330
1E
100
AcDbEntity
  8
0
100
AcDbLine
 10
309.5
 20
148.75
 30
0.0
 11
310.0
 21
149.2499999999999
 31
0.0
  0
LINE
  5
17B
330
1E
100
AcDbEntity
  8
0
100
AcDbLine
 10
261.6999999999999
 20
148.75
 30
0.0
 11
263.0
 21
148.75
 31
0.0
  0
LINE
  5
17C
330
1E
100
AcDbEntity
  8
0
100
AcDbLine
 10
260.6
 20
148.75
 30
0.0
 11
261.6999999999999
 21
148.75
 31
0.0
  0
LINE
  5
17D
330
1E
100
AcDbEntity
  8
0
100
AcDbLine
 10
259.8
 20
148.75
 30
0.0
 11
260.6
 21
148.75
 31
0.0
  0
LINE
  5
17E
330
1E
100
AcDbEntity
  8
0
100
AcDbLine
 10
309.5
 20
156.75
 30
0.0
 11
310.0
 21
156.25
 31
0.0
  0
LINE
  5
17F
330
1E
100
AcDbEntity
  8
0
100
AcDbLine
 10
310.0
 20
156.25
 30
0.0
 11
310.0
 21
149.2499999999999
 31
0.0
  0
LINE
  5
180
330
1E
100
AcDbEntity
  8
0
100
AcDbLine
 10
310.0
 20
149.2499999999999
 30
0.0
 11
310.0
 21
156.25
 31
0.0
  0
LINE
  5
181
330
1E
100
AcDbEntity
  8
0
100
AcDbLine
 10
259.5
 20
148.75
 30
0.0
 11
259.8
 21
148.75
 31
0.0
  0
LINE
  5
182
330
1E
100
AcDbEntity
  8
0
100
AcDbLine
 10
250.4999999999999
 20
148.75
 30
0.0
 11
309.5
 21
148.75
 31
0.0
  0
LINE
  5
183
330
1E
100
AcDbEntity
  8
0
100
AcDbLine
 10
226.6
 20
160.3499999999999
 30
0.0
 11
229.4999999999999
 21
167.4499999999999
 31
0.0
  0
LINE
  5
184
330
1E
100
AcDbEntity
  8
0
100
AcDbLine
 10
229.4999999999999
 20
167.4499999999999
 30
0.0
 11
234.2
 21
173.55
 31
0.0
  0
LINE
  5
185
330
1E
100
AcDbEntity
  8
0
100
AcDbLine
 10
229.0
 20
167.65
 30
0.0
 11
233.8
 21
173.9499999999999
 31
0.0
  0
LINE
  5
186
330
1E
100
AcDbEntity
  8
0
100
AcDbLine
 10
226.1
 20
160.4499999999999
 30
0.0
 11
229.0
 21
167.65
 31
0.0
  0
LINE
  5
187
330
1E
100
AcDbEntity
  8
0
100
AcDbLine
 10
246.0999999999999
 20
168.3499999999999
 30
0.0
 11
250.4
 21
170.05
 31
0.0
  0
LINE
  5
188
330
1E
100
AcDbEntity
  8
0
100
AcDbLine
 10
242.3
 20
165.4499999999999
 30
0.0
 11
246.0999999999999
 21
168.3499999999999
 31
0.0
  0
LINE
  5
189
330
1E
100
AcDbEntity
  8
0
100
AcDbLine
 10
239.4
 20
161.65
 30
0.0
 11
242.3
 21
165.4499999999999
 31
0.0
  0
LINE
  5
18A
330
1E
100
AcDbEntity
  8
0
100
AcDbLine
 10
237.6999999999999
 20
157.3499999999999
 30
0.0
 11
239.4
 21
161.65
 31
0.0
  0
LINE
  5
18B
330
1E
100
AcDbEntity
  8
0
100
AcDbLine
 10
250.4
 20
170.05
 30
0.0
 11
255.0
 21
170.75
 31
0.0
  0
LINE
  5
18C
330
1E
100
AcDbEntity
  8
0
100
AcDbLine
 10
255.0
 20
170.75
 30
0.0
 11
259.6
 21
170.05
 31
0.0
  0
LINE
  5
18D
330
1E
100
AcDbEntity
  8
0
100
AcDbLine
 10
259.6
 20
170.05
 30
0.0
 11
263.8999999999999
 21
168.3499999999999
 31
0.0
  0
LINE
  5
18E
330
1E
100
AcDbEntity
  8
0
100
AcDbLine
 10
263.8999999999999
 20
168.3499999999999
 30
0.0
 11
267.7
 21
165.4499999999999
 31
0.0
  0
LINE
  5
18F
330
1E
100
AcDbEntity
  8
0
100
AcDbLine
 10
267.7
 20
165.4499999999999
 30
0.0
 11
270.6
 21
161.65
 31
0.0
  0
LINE
  5
190
330
1E
100
AcDbEntity
  8
0
100
AcDbLine
 10
240.3
 20
178.2499999999999
 30
0.0
 11
247.4
 21
181.15
 31
0.0
  0
LINE
  5
191
330
1E
100
AcDbEntity
  8
0
100
AcDbLine
 10
234.2
 20
173.55
 30
0.0
 11
240.3
 21
178.2499999999999
 31
0.0
  0
LINE
  5
192
330
1E
100
AcDbEntity
  8
0
100
AcDbLine
 10
247.4
 20
181.15
 30
0.0
 11
255.0
 21
182.2499999999999
 31
0.0
  0
LINE
  5
193
330
1E
100
AcDbEntity
  8
0
100
AcDbLine
 10
240.0999999999999
 20
178.75
 30
0.0
 11
247.3
 21
181.6499999999999
 31
0.0
  0
LINE
  5
194
330
1E
100
AcDbEntity
  8
0
100
AcDbLine
 10
233.8
 20
173.9499999999999
 30
0.0
 11
240.0999999999999
 21
178.75
 31
0.0
  0
LINE
  5
195
330
1E
100
AcDbEntity
  8
0
100
AcDbLine
 10
247.3
 20
181.6499999999999
 30
0.0
 11
255.0
 21
182.75
 31
0.0
  0
LINE
  5
196
330
1E
100
AcDbEntity
  8
0
100
AcDbLine
 10
262.6
 20
181.15
 30
0.0
 11
269.7
 21
178.2499999999999
 31
0.0
  0
LINE
  5
197
330
1E
100
AcDbEntity
  8
0
100
AcDbLine
 10
269.7
 20
178.2499999999999
 30
0.0
 11
275.8
 21
173.55
 31
0.0
  0
LINE
  5
198
330
1E
100
AcDbEntity
  8
0
100
AcDbLine
 10
255.0
 20
182.2499999999999
 30
0.0
 11
262.6
 21
181.15
 31
0.0
  0
LINE
  5
199
330
1E
100
AcDbEntity
  8
0
100
AcDbLine
 10
255.0
 20
182.75
 30
0.0
 11
262.6999999999999
 21
181.6499999999999
 31
0.0
  0
LINE
  5
19A
330
1E
100
AcDbEntity
  8
0
100
AcDbLine
 10
262.6999999999999
 20
181.6499999999999
 30
0.0
 11
269.8999999999999
 21
178.75
 31
0.0
  0
LINE
  5
19B
330
1E
100
AcDbEntity
  8
0
100
AcDbLine
 10
272.3
 20
157.3499999999999
 30
0.0
 11
272.391304347826
 21
156.75
 31
0.0
  0
LINE
  5
19C
330
1E
100
AcDbEntity
  8
0
100
AcDbLine
 10
283.3999999999999
 20
160.3499999999999
 30
0.0
 11
283.921052631579
 21
156.75
 31
0.0
  0
LINE
  5
19D
330
1E
100
AcDbEntity
  8
0
100
AcDbLine
 10
270.6
 20
161.65
 30
0.0
 11
272.3
 21
157.3499999999999
 31
0.0
  0
LINE
  5
19E
330
1E
100
AcDbEntity
  8
0
100
AcDbLine
 10
275.8
 20
173.55
 30
0.0
 11
280.5
 21
167.4499999999999
 31
0.0
  0
LINE
  5
19F
330
1E
100
AcDbEntity
  8
0
100
AcDbLine
 10
280.5
 20
167.4499999999999
 30
0.0
 11
283.3999999999999
 21
160.3499999999999
 31
0.0
  0
LINE
  5
1A0
330
1E
100
AcDbEntity
  8
0
100
AcDbLine
 10
276.2
 20
173.9499999999999
 30
0.0
 11
281.0
 21
167.65
 31
0.0
  0
LINE
  5
1A1
330
1E
100
AcDbEntity
  8
0
100
AcDbLine
 10
281.0
 20
167.65
 30
0.0
 11
283.9
 21
160.4499999999999
 31
0.0
  0
LINE
  5
1A2
330
1E
100
AcDbEntity
  8
0
100
AcDbLine
 10
283.9
 20
160.4499999999999
 30
0.0
 11
284.4285714285709
 21
156.75
 31
0.0
  0
LINE
  5
1A3
330
1E
100
AcDbEntity
  8
0
100
AcDbLine
 10
269.8999999999999
 20
178.75
 30
0.0
 11
276.2
 21
173.9499999999999
 31
0.0
  0
LINE
  5
1A4
330
1E
100
AcDbEntity
  8
0
100
AcDbLine
 10
250.4999999999999
 20
156.75
 30
0.0
 11
309.5
 21
156.75
 31
0.0
  0
LINE
  5
1A5
330
1E
100
AcDbEntity
  8
0
100
AcDbLine
 10
183.9
 20
145.05
 30
0.0
 11
185.0
 21
152.75
 31
0.0
  0
LINE
  5
1A6
330
1E
100
AcDbEntity
  8
0
100
AcDbLine
 10
181.0
 20
137.85
 30
0.0
 11
183.9
 21
145.05
 31
0.0
  0
LINE
  5
1A7
330
1E
100
AcDbEntity
  8
0
100
AcDbLine
 10
167.5
 20
0.75000000000001
 30
0.0
 11
167.5
 21
2.350000000000009
 31
0.0
  0
LINE
  5
1A8
330
1E
100
AcDbEntity
  8
0
100
AcDbLine
 10
167.0
 20
0.25000000000001
 30
0.0
 11
167.0
 21
1.85000000000001
 31
0.0
  0
LINE
  5
1A9
330
1E
100
AcDbEntity
  8
0
100
AcDbLine
 10
167.0
 20
0.250000000000009
 30
0.0
 11
167.5
 21
0.7500000000000091
 31
0.0
  0
LINE
  5
1AA
330
1E
100
AcDbEntity
  8
0
100
AcDbLine
 10
143.0
 20
0.25000000000001
 30
0.0
 11
143.0
 21
1.85000000000001
 31
0.0
  0
ENDSEC
  0
SECTION
  2
OBJECTS
  0
DICTIONARY
  5
C
330
0
100
AcDbDictionary
  3
ACAD_GROUP
350
D
  3
ACAD_LAYOUT
350
19
  3
ACAD_MLINESTYLE
350
16
  3
ACAD_PLOTSETTINGS
350
18
  3
ACAD_PLOTSTYLENAME
350
E
  3
ACDBHEADERROUNDTRIPXREC
350
1B2
  3
ACDBVARIABLEDICTIONARY
350
1AF
  0
DICTIONARY
  5
1D4
330
1E
100
AcDbDictionary
280
     1
  3
ACAD_LAYOUTSELFREF
360
1D5
  0
DICTIONARY
  5
1D2
330
1A
100
AcDbDictionary
280
     1
  3
ACAD_LAYOUTSELFREF
360
1D3
  0
DICTIONARY
  5
D
102
{ACAD_REACTORS
330
C
102
}
330
C
100
AcDbDictionary
  0
DICTIONARY
  5
19
102
{ACAD_REACTORS
330
C
102
}
330
C
100
AcDbDictionary
  0
DICTIONARY
  5
16
102
{ACAD_REACTORS
330
C
102
}
330
C
100
AcDbDictionary
  3
STANDARD
350
17
  0
DICTIONARY
  5
18
102
{ACAD_REACTORS
330
C
102
}
330
C
100
AcDbDictionary
  0
ACDBDICTIONARYWDFLT
  5
E
102
{ACAD_REACTORS
330
C
102
}
330
C
100
AcDbDictionary
281
     1
  3
Normal
350
F
100
AcDbDictionaryWithDefault
340
F
  0
DICTIONARY
  5
1B2
102
{ACAD_REACTORS
330
C
102
}
330
C
100
AcDbDictionary
  3
CEPSNTYPE
350
1BC
  3
FINGERPRINTGUID
350
1BD
  3
HYPERLINKBASE
350
1B5
  3
INSUNITS
350
1BB
  3
LAYOUTDICT
350
1B7
  3
LWETCUNION
350
1BA
  3
PLOTSETDICT
350
1B8
  3
PLOTSTYLNAMDICT
350
1B9
  3
PSVPSCALE
350
1BF
  3
PUCSBASE
350
1C2
  3
PUCSORGBACK
350
1C8
  3
PUCSORGBOTTOM
350
1C4
  3
PUCSORGFRONT
350
1C7
  3
PUCSORGLEFT
350
1C5
  3
PUCSORGRIGHT
350
1C6
  3
PUCSORGTOP
350
1C3
  3
PUCSORTHOREF
350
1C0
  3
PUCSORTHOVIEW
350
1C1
  3
STYLESHEET
350
1B6
  3
TSTACKALIGN
350
1B3
  3
TSTACKSIZE
350
1B4
  3
UCSBASE
350
1CB
  3
UCSORGBACK
350
1D1
  3
UCSORGBOTTOM
350
1CD
  3
UCSORGFRONT
350
1D0
  3
UCSORGLEFT
350
1CE
  3
UCSORGRIGHT
350
1CF
  3
UCSORGTOP
350
1CC
  3
UCSORTHOREF
350
1C9
  3
UCSORTHOVIEW
350
1CA
  3
VERSIONGUID
350
1BE
  0
DICTIONARY
  5
1AF
102
{ACAD_REACTORS
330
C
102
}
330
C
100
AcDbDictionary
  3
DIMASSOC
350
1B0
  0
XRECORD
  5
1D5
102
{ACAD_REACTORS
330
1D4
102
}
330
1D4
100
AcDbXrecord
340
1E
  0
XRECORD
  5
1D3
102
{ACAD_REACTORS
330
1D2
102
}
330
1D2
100
AcDbXrecord
340
1A
  0
MLINESTYLE
  5
17
102
{ACAD_REACTORS
330
16
102
}
330
16
100
AcDbMlineStyle
  2
STANDARD
 70
     0
  3

 62
   256
 51
90.0
 52
90.0
 71
     2
 49
0.5
 62
   256
  6
BYLAYER
 49
-0.5
 62
   256
  6
BYLAYER
  0
ACDBPLACEHOLDER
  5
F
102
{ACAD_REACTORS
330
E
102
}
330
E
100
AcDbPlaceHolder
280
     0
  0
XRECORD
  5
1BC
102
{ACAD_REACTORS
330
1B2
102
}
330
1B2
100
AcDbXrecord
 90
        0
  0
XRECORD
  5
1BD
102
{ACAD_REACTORS
330
1B2
102
}
330
1B2
100
AcDbXrecord
  1
{A76D22AC-74E5-46D7-8AF1-413C41A662B8}
  0
XRECORD
  5
1B5
102
{ACAD_REACTORS
330
1B2
102
}
330
1B2
100
AcDbXrecord
  1

  0
XRECORD
  5
1BB
102
{ACAD_REACTORS
330
1B2
102
}
330
1B2
100
AcDbXrecord
 90
        0
  0
XRECORD
  5
1B7
102
{ACAD_REACTORS
330
1B2
102
}
330
1B2
100
AcDbXrecord
340
19
  0
XRECORD
  5
1BA
102
{ACAD_REACTORS
330
1B2
102
}
330
1B2
100
AcDbXrecord
 90
    10781
  0
XRECORD
  5
1B8
102
{ACAD_REACTORS
330
1B2
102
}
330
1B2
100
AcDbXrecord
340
18
  0
XRECORD
  5
1B9
102
{ACAD_REACTORS
330
1B2
102
}
330
1B2
100
AcDbXrecord
340
E
  0
XRECORD
  5
1BF
102
{ACAD_REACTORS
330
1B2
102
}
330
1B2
100
AcDbXrecord
 40
0.0
  0
XRECORD
  5
1C2
102
{ACAD_REACTORS
330
1B2
102
}
330
1B2
100
AcDbXrecord
340
0
  0
XRECORD
  5
1C8
102
{ACAD_REACTORS
330
1B2
102
}
330
1B2
100
AcDbXrecord
 10
0.0
 20
0.0
 30
0.0
  0
XRECORD
  5
1C4
102
{ACAD_REACTORS
330
1B2
102
}
330
1B2
100
AcDbXrecord
 10
0.0
 20
0.0
 30
0.0
  0
XRECORD
  5
1C7
102
{ACAD_REACTORS
330
1B2
102
}
330
1B2
100
AcDbXrecord
 10
0.0
 20
0.0
 30
0.0
  0
XRECORD
  5
1C5
102
{ACAD_REACTORS
330
1B2
102
}
330
1B2
100
AcDbXrecord
 10
0.0
 20
0.0
 30
0.0
  0
XRECORD
  5
1C6
102
{ACAD_REACTORS
330
1B2
102
}
330
1B2
100
AcDbXrecord
 10
0.0
 20
0.0
 30
0.0
  0
XRECORD
  5
1C3
102
{ACAD_REACTORS
330
1B2
102
}
330
1B2
100
AcDbXrecord
 10
0.0
 20
0.0
 30
0.0
  0
XRECORD
  5
1C0
102
{ACAD_REACTORS
330
1B2
102
}
330
1B2
100
AcDbXrecord
340
0
  0
XRECORD
  5
1C1
102
{ACAD_REACTORS
330
1B2
102
}
330
1B2
100
AcDbXrecord
 70
     0
  0
XRECORD
  5
1B6
102
{ACAD_REACTORS
330
1B2
102
}
330
1B2
100
AcDbXrecord
  1

  0
XRECORD
  5
1B3
102
{ACAD_REACTORS
330
1B2
102
}
330
1B2
100
AcDbXrecord
 90
        1
  0
XRECORD
  5
1B4
102
{ACAD_REACTORS
330
1B2
102
}
330
1B2
100
AcDbXrecord
 90
       70
  0
XRECORD
  5
1CB
102
{ACAD_REACTORS
330
1B2
102
}
330
1B2
100
AcDbXrecord
340
0
  0
XRECORD
  5
1D1
102
{ACAD_REACTORS
330
1B2
102
}
330
1B2
100
AcDbXrecord
 10
0.0
 20
0.0
 30
0.0
  0
XRECORD
  5
1CD
102
{ACAD_REACTORS
330
1B2
102
}
330
1B2
100
AcDbXrecord
 10
0.0
 20
0.0
 30
0.0
  0
XRECORD
  5
1D0
102
{ACAD_REACTORS
330
1B2
102
}
330
1B2
100
AcDbXrecord
 10
0.0
 20
0.0
 30
0.0
  0
XRECORD
  5
1CE
102
{ACAD_REACTORS
330
1B2
102
}
330
1B2
100
AcDbXrecord
 10
0.0
 20
0.0
 30
0.0
  0
XRECORD
  5
1CF
102
{ACAD_REACTORS
330
1B2
102
}
330
1B2
100
AcDbXrecord
 10
0.0
 20
0.0
 30
0.0
  0
XRECORD
  5
1CC
102
{ACAD_REACTORS
330
1B2
102
}
330
1B2
100
AcDbXrecord
 10
0.0
 20
0.0
 30
0.0
  0
XRECORD
  5
1C9
102
{ACAD_REACTORS
330
1B2
102
}
330
1B2
100
AcDbXrecord
340
0
  0
XRECORD
  5
1CA
102
{ACAD_REACTORS
330
1B2
102
}
330
1B2
100
AcDbXrecord
 70
     1
  0
XRECORD
  5
1BE
102
{ACAD_REACTORS
330
1B2
102
}
330
1B2
100
AcDbXrecord
  1
{18E6E5D8-AA8A-4F6F-92C9-624027B0EA6E}
  0
DICTIONARYVAR
  5
1B0
102
{ACAD_REACTORS
330
1AF
102
}
330
1AF
100
DictionaryVariables
280
     0
  1
1
  0
ENDSEC
  0
EOF
