  0
SECTION
  2
HEADER
  9
$ACADVER
  1
AC1014
  9
$ACADMAINTVER
 70
     9
  9
$DWGCODEPAGE
  3
ANSI_1252
  9
$INSBASE
 10
0.0
 20
0.0
 30
0.0
  9
$EXTMIN
 10
0.0000000000000047
 20
-0.0000000000000025
 30
0.0
  9
$EXTMAX
 10
168.0
 20
179.0
 30
0.0
  9
$LIMMIN
 10
0.0
 20
0.0
  9
$LIMMAX
 10
12.0
 20
9.0
  9
$ORTHOMODE
 70
     0
  9
$REGENMODE
 70
     1
  9
$FILLMODE
 70
     1
  9
$QTEXTMODE
 70
     0
  9
$MIRRTEXT
 70
     1
  9
$DRAGMODE
 70
     2
  9
$LTSCALE
 40
1.0
  9
$OSMODE
 70
    37
  9
$ATTMODE
 70
     1
  9
$TEXTSIZE
 40
0.2
  9
$TRACEWID
 40
0.05
  9
$TEXTSTYLE
  7
STANDARD
  9
$CLAYER
  8
0
  9
$CELTYPE
  6
CONTINUOUS
  9
$CECOLOR
 62
   256
  9
$CELTSCALE
 40
1.0
  9
$DELOBJ
 70
     1
  9
$DISPSILH
 70
     0
  9
$DIMSCALE
 40
1.0
  9
$DIMASZ
 40
0.18
  9
$DIMEXO
 40
0.0625
  9
$DIMDLI
 40
0.38
  9
$DIMRND
 40
0.0
  9
$DIMDLE
 40
0.0
  9
$DIMEXE
 40
0.18
  9
$DIMTP
 40
0.0
  9
$DIMTM
 40
0.0
  9
$DIMTXT
 40
0.18
  9
$DIMCEN
 40
0.09
  9
$DIMTSZ
 40
0.0
  9
$DIMTOL
 70
     0
  9
$DIMLIM
 70
     0
  9
$DIMTIH
 70
     1
  9
$DIMTOH
 70
     1
  9
$DIMSE1
 70
     0
  9
$DIMSE2
 70
     0
  9
$DIMTAD
 70
     0
  9
$DIMZIN
 70
     0
  9
$DIMBLK
  1

  9
$DIMASO
 70
     1
  9
$DIMSHO
 70
     1
  9
$DIMPOST
  1

  9
$DIMAPOST
  1

  9
$DIMALT
 70
     0
  9
$DIMALTD
 70
     2
  9
$DIMALTF
 40
25.4
  9
$DIMLFAC
 40
1.0
  9
$DIMTOFL
 70
     0
  9
$DIMTVP
 40
0.0
  9
$DIMTIX
 70
     0
  9
$DIMSOXD
 70
     0
  9
$DIMSAH
 70
     0
  9
$DIMBLK1
  1

  9
$DIMBLK2
  1

  9
$DIMSTYLE
  2
STANDARD
  9
$DIMCLRD
 70
     0
  9
$DIMCLRE
 70
     0
  9
$DIMCLRT
 70
     0
  9
$DIMTFAC
 40
1.0
  9
$DIMGAP
 40
0.09
  9
$DIMJUST
 70
     0
  9
$DIMSD1
 70
     0
  9
$DIMSD2
 70
     0
  9
$DIMTOLJ
 70
     1
  9
$DIMTZIN
 70
     0
  9
$DIMALTZ
 70
     0
  9
$DIMALTTZ
 70
     0
  9
$DIMFIT
 70
     3
  9
$DIMUPT
 70
     0
  9
$DIMUNIT
 70
     2
  9
$DIMDEC
 70
     4
  9
$DIMTDEC
 70
     4
  9
$DIMALTU
 70
     2
  9
$DIMALTTD
 70
     2
  9
$DIMTXSTY
  7
STANDARD
  9
$DIMAUNIT
 70
     0
  9
$LUNITS
 70
     2
  9
$LUPREC
 70
     4
  9
$SKETCHINC
 40
0.1
  9
$FILLETRAD
 40
0.0
  9
$AUNITS
 70
     0
  9
$AUPREC
 70
     0
  9
$MENU
  1
.
  9
$ELEVATION
 40
0.0
  9
$PELEVATION
 40
0.0
  9
$THICKNESS
 40
0.0
  9
$LIMCHECK
 70
     0
  9
$BLIPMODE
 70
     0
  9
$CHAMFERA
 40
0.0
  9
$CHAMFERB
 40
0.0
  9
$CHAMFERC
 40
0.0
  9
$CHAMFERD
 40
0.0
  9
$SKPOLY
 70
     0
  9
$TDCREATE
 40
2454687.551784571
  9
$TDUPDATE
 40
2454687.552887002
  9
$TDINDWG
 40
0.0011026157
  9
$TDUSRTIMER
 40
0.0011026157
  9
$USRTIMER
 70
     1
  9
$ANGBASE
 50
0.0
  9
$ANGDIR
 70
     0
  9
$PDMODE
 70
     0
  9
$PDSIZE
 40
0.0
  9
$PLINEWID
 40
0.0
  9
$COORDS
 70
     1
  9
$SPLFRAME
 70
     0
  9
$SPLINETYPE
 70
     6
  9
$SPLINESEGS
 70
     8
  9
$ATTDIA
 70
     0
  9
$ATTREQ
 70
     1
  9
$HANDLING
 70
 22529
  9
$HANDSEED
  5
14F
  9
$SURFTAB1
 70
     6
  9
$SURFTAB2
 70
     6
  9
$SURFTYPE
 70
     6
  9
$SURFU
 70
     6
  9
$SURFV
 70
     6
  9
$UCSNAME
  2

  9
$UCSORG
 10
0.0
 20
0.0
 30
0.0
  9
$UCSXDIR
 10
1.0
 20
0.0
 30
0.0
  9
$UCSYDIR
 10
0.0
 20
1.0
 30
0.0
  9
$PUCSNAME
  2

  9
$PUCSORG
 10
0.0
 20
0.0
 30
0.0
  9
$PUCSXDIR
 10
1.0
 20
0.0
 30
0.0
  9
$PUCSYDIR
 10
0.0
 20
1.0
 30
0.0
  9
$USERI1
 70
     0
  9
$USERI2
 70
     0
  9
$USERI3
 70
     0
  9
$USERI4
 70
     0
  9
$USERI5
 70
     0
  9
$USERR1
 40
0.0
  9
$USERR2
 40
0.0
  9
$USERR3
 40
0.0
  9
$USERR4
 40
0.0
  9
$USERR5
 40
0.0
  9
$WORLDVIEW
 70
     1
  9
$SHADEDGE
 70
     3
  9
$SHADEDIF
 70
    70
  9
$TILEMODE
 70
     1
  9
$MAXACTVP
 70
    64
  9
$PINSBASE
 10
0.0
 20
0.0
 30
0.0
  9
$PLIMCHECK
 70
     0
  9
$PEXTMIN
 10
1.000000000000000E+20
 20
1.000000000000000E+20
 30
1.000000000000000E+20
  9
$PEXTMAX
 10
-1.000000000000000E+20
 20
-1.000000000000000E+20
 30
-1.000000000000000E+20
  9
$PLIMMIN
 10
0.0
 20
0.0
  9
$PLIMMAX
 10
12.0
 20
9.0
  9
$UNITMODE
 70
     0
  9
$VISRETAIN
 70
     1
  9
$PLINEGEN
 70
     0
  9
$PSLTSCALE
 70
     1
  9
$TREEDEPTH
 70
  3020
  9
$PICKSTYLE
 70
     1
  9
$CMLSTYLE
  2
STANDARD
  9
$CMLJUST
 70
     0
  9
$CMLSCALE
 40
1.0
  9
$PROXYGRAPHICS
 70
     1
  9
$MEASUREMENT
 70
     0
  0
ENDSEC
  0
SECTION
  2
CLASSES
  0
CLASS
  1
ACDBDICTIONARYWDFLT
  2
AcDbDictionaryWithDefault
  3
AutoCAD 2000
 90
        0
280
     0
281
     0
  0
CLASS
  1
ACDBPLACEHOLDER
  2
AcDbPlaceHolder
  3
AutoCAD 2000
 90
        0
280
     0
281
     0
  0
CLASS
  1
LAYOUT
  2
AcDbLayout
  3
AutoCAD 2000
 90
        0
280
     0
281
     0
  0
CLASS
  1
DICTIONARYVAR
  2
AcDbDictionaryVar
  3
AutoCAD 2000
 90
        0
280
     0
281
     0
  0
CLASS
  1
LONG_TRANSACTION
  2
AcDbLongTransaction
  3
AutoCAD 2000
 90
        0
280
     0
281
     0
  0
CLASS
  1
LWPOLYLINE
  2
AcDbPolyline
  3
AutoCAD 2000
 90
        0
280
     0
281
     1
  0
CLASS
  1
HATCH
  2
AcDbHatch
  3
AutoCAD 2000
 90
        0
280
     0
281
     1
  0
CLASS
  1
XRECORD
  2
AcDbXrecord
  3
AutoCAD 2000
 90
        0
280
     0
281
     0
  0
ENDSEC
  0
SECTION
  2
TABLES
  0
TABLE
  2
VPORT
  5
8
330
0
100
AcDbSymbolTable
 70
     2
  0
VPORT
  5
12A
330
8
100
AcDbSymbolTableRecord
100
AcDbViewportTableRecord
  2
*ACTIVE
 70
     0
 10
0.0
 20
0.0
 11
1.0
 21
1.0
 12
84.0
 22
89.50000000000001
 13
0.0
 23
0.0
 14
1.0
 24
1.0
 15
0.0
 25
0.0
 16
0.0
 26
0.0
 36
1.0
 17
0.0
 27
0.0
 37
0.0
 40
180.3734015345268
 41
2.043533930857874
 42
50.0
 43
0.0
 44
0.0
 50
0.0
 51
0.0
 71
     0
 72
   100
 73
     1
 74
     3
 75
     0
 76
     0
 77
     0
 78
     0
  0
ENDTAB
  0
TABLE
  2
LTYPE
  5
5
330
0
100
AcDbSymbolTable
 70
     1
  0
LTYPE
  5
13
330
5
100
AcDbSymbolTableRecord
100
AcDbLinetypeTableRecord
  2
BYBLOCK
 70
     0
  3

 72
    65
 73
     0
 40
0.0
  0
LTYPE
  5
14
330
5
100
AcDbSymbolTableRecord
100
AcDbLinetypeTableRecord
  2
BYLAYER
 70
     0
  3

 72
    65
 73
     0
 40
0.0
  0
LTYPE
  5
15
330
5
100
AcDbSymbolTableRecord
100
AcDbLinetypeTableRecord
  2
CONTINUOUS
 70
     0
  3
Solid line
 72
    65
 73
     0
 40
0.0
  0
ENDTAB
  0
TABLE
  2
LAYER
  5
2
330
0
100
AcDbSymbolTable
 70
     1
  0
LAYER
  5
10
330
2
100
AcDbSymbolTableRecord
100
AcDbLayerTableRecord
  2
0
 70
     0
 62
     7
  6
CONTINUOUS
  0
ENDTAB
  0
TABLE
  2
STYLE
  5
3
330
0
100
AcDbSymbolTable
 70
     1
  0
STYLE
  5
11
330
3
100
AcDbSymbolTableRecord
100
AcDbTextStyleTableRecord
  2
STANDARD
 70
     0
 40
0.0
 41
1.0
 50
0.0
 71
     0
 42
0.2
  3
txt
  4

  0
ENDTAB
  0
TABLE
  2
VIEW
  5
6
330
0
100
AcDbSymbolTable
 70
     0
  0
ENDTAB
  0
TABLE
  2
UCS
  5
7
330
0
100
AcDbSymbolTable
 70
     0
  0
ENDTAB
  0
TABLE
  2
APPID
  5
9
330
0
100
AcDbSymbolTable
 70
     1
  0
APPID
  5
12
330
9
100
AcDbSymbolTableRecord
100
AcDbRegAppTableRecord
  2
ACAD
 70
     0
  0
ENDTAB
  0
TABLE
  2
DIMSTYLE
  5
A
330
0
100
AcDbSymbolTable
 70
     1
  0
DIMSTYLE
105
124
330
A
100
AcDbSymbolTableRecord
100
AcDbDimStyleTableRecord
  2
STANDARD
 70
     0
  3

  4

  5

  6

  7

 40
1.0
 41
0.18
 42
0.0625
 43
0.38
 44
0.18
 45
0.0
 46
0.0
 47
0.0
 48
0.0
140
0.18
141
0.09
142
0.0
143
25.4
144
1.0
145
0.0
146
1.0
147
0.09
 71
     0
 72
     0
 73
     1
 74
     1
 75
     0
 76
     0
 77
     0
 78
     0
170
     0
171
     2
172
     0
173
     0
174
     0
175
     0
176
     0
177
     0
178
     0
270
     2
271
     4
272
     4
273
     2
274
     2
340
11
275
     0
280
     0
281
     0
282
     0
283
     1
284
     0
285
     0
286
     0
287
     3
288
     0
  0
ENDTAB
  0
TABLE
  2
BLOCK_RECORD
  5
1
330
0
100
AcDbSymbolTable
 70
     0
  0
BLOCK_RECORD
  5
1E
102
{ACAD_XDICTIONARY
360
14D
102
}
330
1
100
AcDbSymbolTableRecord
100
AcDbBlockTableRecord
  2
*MODEL_SPACE
  0
BLOCK_RECORD
  5
1A
102
{ACAD_XDICTIONARY
360
14B
102
}
330
1
100
AcDbSymbolTableRecord
100
AcDbBlockTableRecord
  2
*PAPER_SPACE
  0
ENDTAB
  0
ENDSEC
  0
SECTION
  2
BLOCKS
  0
BLOCK
  5
1F
330
1E
100
AcDbEntity
  8
0
100
AcDbBlockBegin
  2
*MODEL_SPACE
 70
     0
 10
0.0
 20
0.0
 30
0.0
  3
*MODEL_SPACE
  1

  0
ENDBLK
  5
20
330
1E
100
AcDbEntity
  8
0
100
AcDbBlockEnd
  0
BLOCK
  5
1B
330
1A
100
AcDbEntity
 67
     1
  8
0
100
AcDbBlockBegin
  2
*PAPER_SPACE
 70
     0
 10
0.0
 20
0.0
 30
0.0
  3
*PAPER_SPACE
  1

  0
ENDBLK
  5
1C
330
1A
100
AcDbEntity
 67
     1
  8
0
100
AcDbBlockEnd
  0
ENDSEC
  0
SECTION
  2
ENTITIES
  0
LINE
  5
22
330
1E
100
AcDbEntity
  8
0
100
AcDbLine
 10
17.0
 20
0.4999999999999981
 30
0.0
 11
17.5
 21
-0.0000000000000025
 31
0.0
  0
LINE
  5
23
330
1E
100
AcDbEntity
  8
0
100
AcDbLine
 10
17.0
 20
0.4999999999999981
 30
0.0
 11
17.0
 21
27.5
 31
0.0
  0
LINE
  5
24
330
1E
100
AcDbEntity
  8
0
100
AcDbLine
 10
17.0
 20
0.4999999999999981
 30
0.0
 11
17.5
 21
-0.0000000000000025
 31
0.0
  0
LINE
  5
25
330
1E
100
AcDbEntity
  8
0
100
AcDbLine
 10
17.0
 20
0.4999999999999981
 30
0.0
 11
17.0
 21
2.2
 31
0.0
  0
LINE
  5
26
330
1E
100
AcDbEntity
  8
0
100
AcDbLine
 10
17.5
 20
-0.0000000000000025
 30
0.0
 11
31.0
 21
-0.0000000000000025
 31
0.0
  0
LINE
  5
27
330
1E
100
AcDbEntity
  8
0
100
AcDbLine
 10
17.5
 20
-0.0000000000000021
 30
0.0
 11
17.5
 21
1.7
 31
0.0
  0
LINE
  5
28
330
1E
100
AcDbEntity
  8
0
100
AcDbLine
 10
17.0
 20
2.2
 30
0.0
 11
17.0
 21
0.4999999999999981
 31
0.0
  0
LINE
  5
29
330
1E
100
AcDbEntity
  8
0
100
AcDbLine
 10
17.0
 20
2.2
 30
0.0
 11
17.0
 21
6.599999999999999
 31
0.0
  0
LINE
  5
2A
330
1E
100
AcDbEntity
  8
0
100
AcDbLine
 10
17.0
 20
6.599999999999999
 30
0.0
 11
17.0
 21
2.2
 31
0.0
  0
LINE
  5
2B
330
1E
100
AcDbEntity
  8
0
100
AcDbLine
 10
17.0
 20
6.599999999999999
 30
0.0
 11
17.0
 21
13.9
 31
0.0
  0
LINE
  5
2C
330
1E
100
AcDbEntity
  8
0
100
AcDbLine
 10
17.5
 20
1.7
 30
0.0
 11
17.5
 21
-0.0000000000000022
 31
0.0
  0
LINE
  5
2D
330
1E
100
AcDbEntity
  8
0
100
AcDbLine
 10
17.5
 20
1.7
 30
0.0
 11
17.5
 21
6.2
 31
0.0
  0
LINE
  5
2E
330
1E
100
AcDbEntity
  8
0
100
AcDbLine
 10
17.5
 20
6.2
 30
0.0
 11
17.5
 21
1.7
 31
0.0
  0
LINE
  5
2F
330
1E
100
AcDbEntity
  8
0
100
AcDbLine
 10
17.5
 20
6.2
 30
0.0
 11
17.5
 21
13.6
 31
0.0
  0
LINE
  5
30
330
1E
100
AcDbEntity
  8
0
100
AcDbLine
 10
17.0
 20
27.5
 30
0.0
 11
17.0
 21
0.499999999999999
 31
0.0
  0
LINE
  5
31
330
1E
100
AcDbEntity
  8
0
100
AcDbLine
 10
17.0
 20
27.5
 30
0.0
 11
17.0
 21
28.1
 31
0.0
  0
LINE
  5
32
330
1E
100
AcDbEntity
  8
0
100
AcDbLine
 10
17.0
 20
28.1
 30
0.0
 11
17.0
 21
27.5
 31
0.0
  0
LINE
  5
33
330
1E
100
AcDbEntity
  8
0
100
AcDbLine
 10
17.0
 20
28.1
 30
0.0
 11
17.0
 21
30.0
 31
0.0
  0
LINE
  5
34
330
1E
100
AcDbEntity
  8
0
100
AcDbLine
 10
17.0
 20
30.0
 30
0.0
 11
17.0
 21
28.1
 31
0.0
  0
LINE
  5
35
330
1E
100
AcDbEntity
  8
0
100
AcDbLine
 10
17.0
 20
30.0
 30
0.0
 11
17.0
 21
32.9
 31
0.0
  0
LINE
  5
36
330
1E
100
AcDbEntity
  8
0
100
AcDbLine
 10
17.0
 20
32.9
 30
0.0
 11
17.0
 21
30.0
 31
0.0
  0
LINE
  5
37
330
1E
100
AcDbEntity
  8
0
100
AcDbLine
 10
17.0
 20
32.9
 30
0.0
 11
17.0
 21
36.79999999999999
 31
0.0
  0
LINE
  5
38
330
1E
100
AcDbEntity
  8
0
100
AcDbLine
 10
17.0
 20
13.9
 30
0.0
 11
17.0
 21
6.599999999999999
 31
0.0
  0
LINE
  5
39
330
1E
100
AcDbEntity
  8
0
100
AcDbLine
 10
17.0
 20
13.9
 30
0.0
 11
17.0
 21
23.39999999999999
 31
0.0
  0
LINE
  5
3A
330
1E
100
AcDbEntity
  8
0
100
AcDbLine
 10
17.0
 20
23.39999999999999
 30
0.0
 11
17.0
 21
13.9
 31
0.0
  0
LINE
  5
3B
330
1E
100
AcDbEntity
  8
0
100
AcDbLine
 10
17.0
 20
23.39999999999999
 30
0.0
 11
17.0
 21
34.29999999999999
 31
0.0
  0
LINE
  5
3C
330
1E
100
AcDbEntity
  8
0
100
AcDbLine
 10
17.5
 20
13.6
 30
0.0
 11
17.5
 21
6.2
 31
0.0
  0
LINE
  5
3D
330
1E
100
AcDbEntity
  8
0
100
AcDbLine
 10
17.5
 20
13.6
 30
0.0
 11
17.5
 21
23.1
 31
0.0
  0
LINE
  5
3E
330
1E
100
AcDbEntity
  8
0
100
AcDbLine
 10
17.5
 20
23.1
 30
0.0
 11
17.5
 21
13.6
 31
0.0
  0
LINE
  5
3F
330
1E
100
AcDbEntity
  8
0
100
AcDbLine
 10
17.5
 20
23.1
 30
0.0
 11
17.5
 21
34.2
 31
0.0
  0
LINE
  5
40
330
1E
100
AcDbEntity
  8
0
100
AcDbLine
 10
17.0
 20
36.79999999999999
 30
0.0
 11
17.0
 21
32.9
 31
0.0
  0
LINE
  5
41
330
1E
100
AcDbEntity
  8
0
100
AcDbLine
 10
17.0
 20
36.79999999999999
 30
0.0
 11
17.0
 21
41.2
 31
0.0
  0
LINE
  5
42
330
1E
100
AcDbEntity
  8
0
100
AcDbLine
 10
17.0
 20
41.2
 30
0.0
 11
17.0
 21
36.79999999999999
 31
0.0
  0
LINE
  5
43
330
1E
100
AcDbEntity
  8
0
100
AcDbLine
 10
17.0
 20
41.2
 30
0.0
 11
17.0
 21
46.0
 31
0.0
  0
LINE
  5
44
330
1E
100
AcDbEntity
  8
0
100
AcDbLine
 10
17.0
 20
34.29999999999999
 30
0.0
 11
17.0
 21
23.39999999999999
 31
0.0
  0
LINE
  5
45
330
1E
100
AcDbEntity
  8
0
100
AcDbLine
 10
17.0
 20
34.29999999999999
 30
0.0
 11
17.0
 21
46.0
 31
0.0
  0
LINE
  5
46
330
1E
100
AcDbEntity
  8
0
100
AcDbLine
 10
17.0
 20
46.0
 30
0.0
 11
17.0
 21
34.29999999999999
 31
0.0
  0
LINE
  5
47
330
1E
100
AcDbEntity
  8
0
100
AcDbLine
 10
17.0
 20
46.0
 30
0.0
 11
17.0
 21
173.0
 31
0.0
  0
LINE
  5
48
330
1E
100
AcDbEntity
  8
0
100
AcDbLine
 10
17.0
 20
46.0
 30
0.0
 11
17.0
 21
41.2
 31
0.0
  0
LINE
  5
49
330
1E
100
AcDbEntity
  8
0
100
AcDbLine
 10
17.5
 20
34.2
 30
0.0
 11
17.5
 21
23.1
 31
0.0
  0
LINE
  5
4A
330
1E
100
AcDbEntity
  8
0
100
AcDbLine
 10
17.5
 20
34.2
 30
0.0
 11
17.5
 21
46.0
 31
0.0
  0
LINE
  5
4B
330
1E
100
AcDbEntity
  8
0
100
AcDbLine
 10
31.0
 20
-0.0000000000000025
 30
0.0
 11
44.5
 21
-0.0000000000000025
 31
0.0
  0
LINE
  5
4C
330
1E
100
AcDbEntity
  8
0
100
AcDbLine
 10
44.5
 20
-0.0000000000000021
 30
0.0
 11
44.5
 21
1.7
 31
0.0
  0
LINE
  5
4D
330
1E
100
AcDbEntity
  8
0
100
AcDbLine
 10
44.5
 20
-0.0000000000000025
 30
0.0
 11
45.0
 21
0.4999999999999981
 31
0.0
  0
LINE
  5
4E
330
1E
100
AcDbEntity
  8
0
100
AcDbLine
 10
44.5
 20
-0.0000000000000025
 30
0.0
 11
45.0
 21
0.4999999999999981
 31
0.0
  0
LINE
  5
4F
330
1E
100
AcDbEntity
  8
0
100
AcDbLine
 10
44.5
 20
1.7
 30
0.0
 11
44.5
 21
6.2
 31
0.0
  0
LINE
  5
50
330
1E
100
AcDbEntity
  8
0
100
AcDbLine
 10
44.5
 20
1.7
 30
0.0
 11
44.5
 21
-0.0000000000000022
 31
0.0
  0
LINE
  5
51
330
1E
100
AcDbEntity
  8
0
100
AcDbLine
 10
44.5
 20
6.2
 30
0.0
 11
44.5
 21
13.6
 31
0.0
  0
LINE
  5
52
330
1E
100
AcDbEntity
  8
0
100
AcDbLine
 10
44.5
 20
6.2
 30
0.0
 11
44.5
 21
1.7
 31
0.0
  0
LINE
  5
53
330
1E
100
AcDbEntity
  8
0
100
AcDbLine
 10
44.5
 20
13.6
 30
0.0
 11
44.5
 21
23.1
 31
0.0
  0
LINE
  5
54
330
1E
100
AcDbEntity
  8
0
100
AcDbLine
 10
44.5
 20
13.6
 30
0.0
 11
44.5
 21
6.2
 31
0.0
  0
LINE
  5
55
330
1E
100
AcDbEntity
  8
0
100
AcDbLine
 10
44.5
 20
23.1
 30
0.0
 11
44.5
 21
34.2
 31
0.0
  0
LINE
  5
56
330
1E
100
AcDbEntity
  8
0
100
AcDbLine
 10
44.5
 20
23.1
 30
0.0
 11
44.5
 21
13.6
 31
0.0
  0
LINE
  5
57
330
1E
100
AcDbEntity
  8
0
100
AcDbLine
 10
44.5
 20
34.2
 30
0.0
 11
44.5
 21
46.0
 31
0.0
  0
LINE
  5
58
330
1E
100
AcDbEntity
  8
0
100
AcDbLine
 10
44.5
 20
34.2
 30
0.0
 11
44.5
 21
23.1
 31
0.0
  0
LINE
  5
59
330
1E
100
AcDbEntity
  8
0
100
AcDbLine
 10
45.0
 20
0.4999999999999981
 30
0.0
 11
45.0
 21
2.2
 31
0.0
  0
LINE
  5
5A
330
1E
100
AcDbEntity
  8
0
100
AcDbLine
 10
45.0
 20
2.2
 30
0.0
 11
45.0
 21
6.599999999999999
 31
0.0
  0
LINE
  5
5B
330
1E
100
AcDbEntity
  8
0
100
AcDbLine
 10
45.0
 20
2.2
 30
0.0
 11
45.0
 21
0.4999999999999981
 31
0.0
  0
LINE
  5
5C
330
1E
100
AcDbEntity
  8
0
100
AcDbLine
 10
45.0
 20
6.599999999999999
 30
0.0
 11
45.0
 21
13.9
 31
0.0
  0
LINE
  5
5D
330
1E
100
AcDbEntity
  8
0
100
AcDbLine
 10
45.0
 20
6.599999999999999
 30
0.0
 11
45.0
 21
2.2
 31
0.0
  0
LINE
  5
5E
330
1E
100
AcDbEntity
  8
0
100
AcDbLine
 10
45.0
 20
13.9
 30
0.0
 11
45.0
 21
23.39999999999999
 31
0.0
  0
LINE
  5
5F
330
1E
100
AcDbEntity
  8
0
100
AcDbLine
 10
45.0
 20
13.9
 30
0.0
 11
45.0
 21
6.599999999999999
 31
0.0
  0
LINE
  5
60
330
1E
100
AcDbEntity
  8
0
100
AcDbLine
 10
45.0
 20
23.39999999999999
 30
0.0
 11
45.0
 21
34.29999999999999
 31
0.0
  0
LINE
  5
61
330
1E
100
AcDbEntity
  8
0
100
AcDbLine
 10
45.0
 20
23.39999999999999
 30
0.0
 11
45.0
 21
13.9
 31
0.0
  0
LINE
  5
62
330
1E
100
AcDbEntity
  8
0
100
AcDbLine
 10
45.0
 20
34.29999999999999
 30
0.0
 11
45.0
 21
46.0
 31
0.0
  0
LINE
  5
63
330
1E
100
AcDbEntity
  8
0
100
AcDbLine
 10
45.0
 20
34.29999999999999
 30
0.0
 11
45.0
 21
23.39999999999999
 31
0.0
  0
LINE
  5
64
330
1E
100
AcDbEntity
  8
0
100
AcDbLine
 10
127.0799999999999
 20
171.0
 30
0.0
 11
128.8
 21
171.0
 31
0.0
  0
LINE
  5
65
330
1E
100
AcDbEntity
  8
0
100
AcDbLine
 10
127.0799999999999
 20
171.0
 30
0.0
 11
131.8799999999999
 21
171.0
 31
0.0
  0
LINE
  5
66
330
1E
100
AcDbEntity
  8
0
100
AcDbLine
 10
122.84
 20
171.0
 30
0.0
 11
127.0799999999999
 21
171.0
 31
0.0
  0
LINE
  5
67
330
1E
100
AcDbEntity
  8
0
100
AcDbLine
 10
119.64
 20
171.0
 30
0.0
 11
122.84
 21
171.0
 31
0.0
  0
LINE
  5
68
330
1E
100
AcDbEntity
  8
0
100
AcDbLine
 10
117.72
 20
171.0
 30
0.0
 11
119.64
 21
171.0
 31
0.0
  0
LINE
  5
69
330
1E
100
AcDbEntity
  8
0
100
AcDbLine
 10
117.0
 20
171.0
 30
0.0
 11
117.72
 21
171.0
 31
0.0
  0
LINE
  5
6A
330
1E
100
AcDbEntity
  8
0
100
AcDbLine
 10
117.0
 20
171.0
 30
0.0
 11
117.0
 21
173.0
 31
0.0
  0
LINE
  5
6B
330
1E
100
AcDbEntity
  8
0
100
AcDbLine
 10
45.0
 20
46.0
 30
0.0
 11
45.0
 21
173.0
 31
0.0
  0
LINE
  5
6C
330
1E
100
AcDbEntity
  8
0
100
AcDbLine
 10
45.0
 20
46.0
 30
0.0
 11
45.0
 21
34.29999999999999
 31
0.0
  0
LINE
  5
6D
330
1E
100
AcDbEntity
  8
0
100
AcDbLine
 10
44.5
 20
46.0
 30
0.0
 11
44.5
 21
173.0
 31
0.0
  0
LINE
  5
6E
330
1E
100
AcDbEntity
  8
0
100
AcDbLine
 10
44.5
 20
46.0
 30
0.0
 11
44.5
 21
34.2
 31
0.0
  0
LINE
  5
6F
330
1E
100
AcDbEntity
  8
0
100
AcDbLine
 10
17.5
 20
46.0
 30
0.0
 11
17.5
 21
34.2
 31
0.0
  0
LINE
  5
70
330
1E
100
AcDbEntity
  8
0
100
AcDbLine
 10
17.5
 20
46.0
 30
0.0
 11
17.5
 21
173.0
 31
0.0
  0
LINE
  5
71
330
1E
100
AcDbEntity
  8
0
100
AcDbLine
 10
127.0
 20
171.0
 30
0.0
 11
127.4
 21
171.0
 31
0.0
  0
LINE
  5
72
330
1E
100
AcDbEntity
  8
0
100
AcDbLine
 10
128.8
 20
171.0
 30
0.0
 11
130.1999999999999
 21
170.1999999999999
 31
0.0
  0
LINE
  5
73
330
1E
100
AcDbEntity
  8
0
100
AcDbLine
 10
127.4
 20
171.0
 30
0.0
 11
128.3
 21
171.0
 31
0.0
  0
LINE
  5
74
330
1E
100
AcDbEntity
  8
0
100
AcDbLine
 10
128.3
 20
171.0
 30
0.0
 11
129.9
 21
171.0
 31
0.0
  0
LINE
  5
75
330
1E
100
AcDbEntity
  8
0
100
AcDbLine
 10
128.3
 20
171.0
 30
0.0
 11
128.8
 21
171.0
 31
0.0
  0
LINE
  5
76
330
1E
100
AcDbEntity
  8
0
100
AcDbLine
 10
132.4999999999999
 20
169.6999999999999
 30
0.0
 11
132.6999999999999
 21
169.6999999999999
 31
0.0
  0
LINE
  5
77
330
1E
100
AcDbEntity
  8
0
100
AcDbLine
 10
133.4
 20
81.5071
 30
0.0
 11
137.0
 21
81.5071
 31
0.0
  0
LINE
  5
78
330
1E
100
AcDbEntity
  8
0
100
AcDbLine
 10
133.4
 20
81.5071
 30
0.0
 11
133.4
 21
81.9574
 31
0.0
  0
LINE
  5
79
330
1E
100
AcDbEntity
  8
0
100
AcDbLine
 10
133.0
 20
84.3074
 30
0.0
 11
133.0
 21
82.03839999999999
 31
0.0
  0
LINE
  5
7A
330
1E
100
AcDbEntity
  8
0
100
AcDbLine
 10
133.0
 20
84.3074
 30
0.0
 11
133.0
 21
163.999
 31
0.0
  0
LINE
  5
7B
330
1E
100
AcDbEntity
  8
0
100
AcDbLine
 10
133.0
 20
82.03839999999999
 30
0.0
 11
133.0
 21
161.73
 31
0.0
  0
LINE
  5
7C
330
1E
100
AcDbEntity
  8
0
100
AcDbLine
 10
133.0
 20
82.03839999999999
 30
0.0
 11
133.4
 21
81.5071
 31
0.0
  0
LINE
  5
7D
330
1E
100
AcDbEntity
  8
0
100
AcDbLine
 10
133.0
 20
82.03839999999999
 30
0.0
 11
133.0
 21
84.3074
 31
0.0
  0
LINE
  5
7E
330
1E
100
AcDbEntity
  8
0
100
AcDbLine
 10
133.4
 20
81.9574
 30
0.0
 11
137.0
 21
81.9574
 31
0.0
  0
LINE
  5
7F
330
1E
100
AcDbEntity
  8
0
100
AcDbLine
 10
133.4
 20
81.9574
 30
0.0
 11
133.4
 21
161.6489999999999
 31
0.0
  0
LINE
  5
80
330
1E
100
AcDbEntity
  8
0
100
AcDbLine
 10
133.4
 20
81.9574
 30
0.0
 11
133.4
 21
81.5071
 31
0.0
  0
LINE
  5
81
330
1E
100
AcDbEntity
  8
0
100
AcDbLine
 10
133.0
 20
161.73
 30
0.0
 11
133.4
 21
162.2609999999999
 31
0.0
  0
LINE
  5
82
330
1E
100
AcDbEntity
  8
0
100
AcDbLine
 10
133.0
 20
161.73
 30
0.0
 11
133.0
 21
82.03839999999999
 31
0.0
  0
LINE
  5
83
330
1E
100
AcDbEntity
  8
0
100
AcDbLine
 10
133.0
 20
161.73
 30
0.0
 11
133.0
 21
163.999
 31
0.0
  0
LINE
  5
84
330
1E
100
AcDbEntity
  8
0
100
AcDbLine
 10
133.4
 20
161.6489999999999
 30
0.0
 11
137.0
 21
161.6489999999999
 31
0.0
  0
LINE
  5
85
330
1E
100
AcDbEntity
  8
0
100
AcDbLine
 10
133.4
 20
161.6489999999999
 30
0.0
 11
133.4
 21
162.2609999999999
 31
0.0
  0
LINE
  5
86
330
1E
100
AcDbEntity
  8
0
100
AcDbLine
 10
133.4
 20
161.6489999999999
 30
0.0
 11
133.4
 21
81.9574
 31
0.0
  0
LINE
  5
87
330
1E
100
AcDbEntity
  8
0
100
AcDbLine
 10
133.0
 20
163.999
 30
0.0
 11
133.0
 21
161.73
 31
0.0
  0
LINE
  5
88
330
1E
100
AcDbEntity
  8
0
100
AcDbLine
 10
133.0
 20
163.999
 30
0.0
 11
133.4
 21
164.5299999999999
 31
0.0
  0
LINE
  5
89
330
1E
100
AcDbEntity
  8
0
100
AcDbLine
 10
133.0
 20
163.999
 30
0.0
 11
133.0
 21
84.3074
 31
0.0
  0
LINE
  5
8A
330
1E
100
AcDbEntity
  8
0
100
AcDbLine
 10
133.4
 20
164.5299999999999
 30
0.0
 11
133.4
 21
162.2609999999999
 31
0.0
  0
LINE
  5
8B
330
1E
100
AcDbEntity
  8
0
100
AcDbLine
 10
133.4
 20
164.5299999999999
 30
0.0
 11
134.0
 21
164.5299999999999
 31
0.0
  0
LINE
  5
8C
330
1E
100
AcDbEntity
  8
0
100
AcDbLine
 10
133.4
 20
162.2609999999999
 30
0.0
 11
137.0
 21
162.2609999999999
 31
0.0
  0
LINE
  5
8D
330
1E
100
AcDbEntity
  8
0
100
AcDbLine
 10
133.4
 20
162.2609999999999
 30
0.0
 11
133.4
 21
161.6489999999999
 31
0.0
  0
LINE
  5
8E
330
1E
100
AcDbEntity
  8
0
100
AcDbLine
 10
133.4
 20
162.2609999999999
 30
0.0
 11
133.4
 21
164.5299999999999
 31
0.0
  0
LINE
  5
8F
330
1E
100
AcDbEntity
  8
0
100
AcDbLine
 10
132.6999999999999
 20
169.6999999999999
 30
0.0
 11
133.0999999999999
 21
169.6999999999999
 31
0.0
  0
LINE
  5
90
330
1E
100
AcDbEntity
  8
0
100
AcDbLine
 10
133.0999999999999
 20
169.6999999999999
 30
0.0
 11
133.8
 21
169.6999999999999
 31
0.0
  0
LINE
  5
91
330
1E
100
AcDbEntity
  8
0
100
AcDbLine
 10
134.0
 20
169.6999999999999
 30
0.0
 11
134.0
 21
163.396
 31
0.0
  0
LINE
  5
92
330
1E
100
AcDbEntity
  8
0
100
AcDbLine
 10
134.0
 20
163.396
 30
0.0
 11
134.0749999999999
 21
163.266
 31
0.0
  0
LINE
  5
93
330
1E
100
AcDbEntity
  8
0
100
AcDbLine
 10
134.0
 20
163.396
 30
0.0
 11
134.0
 21
169.6999999999999
 31
0.0
  0
LINE
  5
94
330
1E
100
AcDbEntity
  8
0
100
AcDbLine
 10
134.0749999999999
 20
163.266
 30
0.0
 11
134.375
 21
163.1349999999999
 31
0.0
  0
LINE
  5
95
330
1E
100
AcDbEntity
  8
0
100
AcDbLine
 10
134.375
 20
163.1349999999999
 30
0.0
 11
134.8249999999999
 21
163.018
 31
0.0
  0
LINE
  5
96
330
1E
100
AcDbEntity
  8
0
100
AcDbLine
 10
133.8
 20
169.6999999999999
 30
0.0
 11
134.0
 21
169.6999999999999
 31
0.0
  0
LINE
  5
97
330
1E
100
AcDbEntity
  8
0
100
AcDbLine
 10
131.8799999999999
 20
171.0
 30
0.0
 11
137.0
 21
171.0
 31
0.0
  0
LINE
  5
98
330
1E
100
AcDbEntity
  8
0
100
AcDbLine
 10
130.1999999999999
 20
170.1999999999999
 30
0.0
 11
132.4999999999999
 21
169.6999999999999
 31
0.0
  0
LINE
  5
99
330
1E
100
AcDbEntity
  8
0
100
AcDbLine
 10
129.9
 20
171.0
 30
0.0
 11
132.0
 21
171.0
 31
0.0
  0
LINE
  5
9A
330
1E
100
AcDbEntity
  8
0
100
AcDbLine
 10
1.116000000000009
 20
173.0
 30
0.0
 11
4.091999999999999
 21
173.0
 31
0.0
  0
LINE
  5
9B
330
1E
100
AcDbEntity
  8
0
100
AcDbLine
 10
15.624
 20
173.0
 30
0.0
 11
17.0
 21
173.0
 31
0.0
  0
LINE
  5
9C
330
1E
100
AcDbEntity
  8
0
100
AcDbLine
 10
15.624
 20
173.0
 30
0.0
 11
23.064
 21
173.0
 31
0.0
  0
LINE
  5
9D
330
1E
100
AcDbEntity
  8
0
100
AcDbLine
 10
9.051999999999999
 20
173.0
 30
0.0
 11
15.624
 21
173.0
 31
0.0
  0
LINE
  5
9E
330
1E
100
AcDbEntity
  8
0
100
AcDbLine
 10
4.091999999999999
 20
173.0
 30
0.0
 11
9.051999999999999
 21
173.0
 31
0.0
  0
LINE
  5
9F
330
1E
100
AcDbEntity
  8
0
100
AcDbLine
 10
1.115999999999999
 20
173.0
 30
0.0
 11
4.091999999999999
 21
173.0
 31
0.0
  0
LINE
  5
A0
330
1E
100
AcDbEntity
  8
0
100
AcDbLine
 10
0.0000000000000047
 20
173.0
 30
0.0
 11
1.115999999999999
 21
173.0
 31
0.0
  0
LINE
  5
A1
330
1E
100
AcDbEntity
  8
0
100
AcDbLine
 10
0.0000000000000047
 20
173.0
 30
0.0
 11
0.0000000000000047
 21
179.0
 31
0.0
  0
LINE
  5
A2
330
1E
100
AcDbEntity
  8
0
100
AcDbLine
 10
1.115999999999999
 20
179.0
 30
0.0
 11
4.091999999999999
 21
179.0
 31
0.0
  0
LINE
  5
A3
330
1E
100
AcDbEntity
  8
0
100
AcDbLine
 10
15.624
 20
179.0
 30
0.0
 11
23.064
 21
179.0
 31
0.0
  0
LINE
  5
A4
330
1E
100
AcDbEntity
  8
0
100
AcDbLine
 10
9.051999999999999
 20
179.0
 30
0.0
 11
15.624
 21
179.0
 31
0.0
  0
LINE
  5
A5
330
1E
100
AcDbEntity
  8
0
100
AcDbLine
 10
4.091999999999999
 20
179.0
 30
0.0
 11
9.051999999999999
 21
179.0
 31
0.0
  0
LINE
  5
A6
330
1E
100
AcDbEntity
  8
0
100
AcDbLine
 10
1.116000000000009
 20
179.0
 30
0.0
 11
4.091999999999999
 21
179.0
 31
0.0
  0
LINE
  5
A7
330
1E
100
AcDbEntity
  8
0
100
AcDbLine
 10
0.0000000000000047
 20
179.0
 30
0.0
 11
0.0000000000000047
 21
173.0
 31
0.0
  0
LINE
  5
A8
330
1E
100
AcDbEntity
  8
0
100
AcDbLine
 10
0.0000000000000047
 20
179.0
 30
0.0
 11
1.115999999999999
 21
179.0
 31
0.0
  0
LINE
  5
A9
330
1E
100
AcDbEntity
  8
0
100
AcDbLine
 10
17.0
 20
173.0
 30
0.0
 11
17.0
 21
46.0
 31
0.0
  0
LINE
  5
AA
330
1E
100
AcDbEntity
  8
0
100
AcDbLine
 10
17.0
 20
173.0
 30
0.0
 11
17.5
 21
173.0
 31
0.0
  0
LINE
  5
AB
330
1E
100
AcDbEntity
  8
0
100
AcDbLine
 10
23.064
 20
173.0
 30
0.0
 11
31.0
 21
173.0
 31
0.0
  0
LINE
  5
AC
330
1E
100
AcDbEntity
  8
0
100
AcDbLine
 10
38.936
 20
173.0
 30
0.0
 11
46.376
 21
173.0
 31
0.0
  0
LINE
  5
AD
330
1E
100
AcDbEntity
  8
0
100
AcDbLine
 10
46.376
 20
173.0
 30
0.0
 11
52.948
 21
173.0
 31
0.0
  0
LINE
  5
AE
330
1E
100
AcDbEntity
  8
0
100
AcDbLine
 10
52.948
 20
173.0
 30
0.0
 11
57.908
 21
173.0
 31
0.0
  0
LINE
  5
AF
330
1E
100
AcDbEntity
  8
0
100
AcDbLine
 10
57.908
 20
173.0
 30
0.0
 11
60.884
 21
173.0
 31
0.0
  0
LINE
  5
B0
330
1E
100
AcDbEntity
  8
0
100
AcDbLine
 10
115.0519999999999
 20
173.0
 30
0.0
 11
117.0
 21
173.0
 31
0.0
  0
LINE
  5
B1
330
1E
100
AcDbEntity
  8
0
100
AcDbLine
 10
115.0519999999999
 20
173.0
 30
0.0
 11
121.6239999999999
 21
173.0
 31
0.0
  0
LINE
  5
B2
330
1E
100
AcDbEntity
  8
0
100
AcDbLine
 10
110.092
 20
173.0
 30
0.0
 11
115.0519999999999
 21
173.0
 31
0.0
  0
LINE
  5
B3
330
1E
100
AcDbEntity
  8
0
100
AcDbLine
 10
107.116
 20
173.0
 30
0.0
 11
110.092
 21
173.0
 31
0.0
  0
LINE
  5
B4
330
1E
100
AcDbEntity
  8
0
100
AcDbLine
 10
106.0
 20
173.0
 30
0.0
 11
106.0
 21
179.0
 31
0.0
  0
LINE
  5
B5
330
1E
100
AcDbEntity
  8
0
100
AcDbLine
 10
106.0
 20
173.0
 30
0.0
 11
107.116
 21
173.0
 31
0.0
  0
LINE
  5
B6
330
1E
100
AcDbEntity
  8
0
100
AcDbLine
 10
60.884
 20
173.0
 30
0.0
 11
62.0
 21
173.0
 31
0.0
  0
LINE
  5
B7
330
1E
100
AcDbEntity
  8
0
100
AcDbLine
 10
62.0
 20
173.0
 30
0.0
 11
62.0
 21
179.0
 31
0.0
  0
LINE
  5
B8
330
1E
100
AcDbEntity
  8
0
100
AcDbLine
 10
121.6239999999999
 20
173.0
 30
0.0
 11
129.064
 21
173.0
 31
0.0
  0
LINE
  5
B9
330
1E
100
AcDbEntity
  8
0
100
AcDbLine
 10
129.064
 20
173.0
 30
0.0
 11
137.0
 21
173.0
 31
0.0
  0
LINE
  5
BA
330
1E
100
AcDbEntity
  8
0
100
AcDbLine
 10
131.8799999999999
 20
173.0
 30
0.0
 11
137.0
 21
173.0
 31
0.0
  0
LINE
  5
BB
330
1E
100
AcDbEntity
  8
0
100
AcDbLine
 10
127.0799999999999
 20
173.0
 30
0.0
 11
131.8799999999999
 21
173.0
 31
0.0
  0
LINE
  5
BC
330
1E
100
AcDbEntity
  8
0
100
AcDbLine
 10
122.84
 20
173.0
 30
0.0
 11
127.0799999999999
 21
173.0
 31
0.0
  0
LINE
  5
BD
330
1E
100
AcDbEntity
  8
0
100
AcDbLine
 10
119.64
 20
173.0
 30
0.0
 11
122.84
 21
173.0
 31
0.0
  0
LINE
  5
BE
330
1E
100
AcDbEntity
  8
0
100
AcDbLine
 10
117.72
 20
173.0
 30
0.0
 11
119.64
 21
173.0
 31
0.0
  0
LINE
  5
BF
330
1E
100
AcDbEntity
  8
0
100
AcDbLine
 10
117.0
 20
173.0
 30
0.0
 11
117.0
 21
171.0
 31
0.0
  0
LINE
  5
C0
330
1E
100
AcDbEntity
  8
0
100
AcDbLine
 10
117.0
 20
173.0
 30
0.0
 11
117.72
 21
173.0
 31
0.0
  0
LINE
  5
C1
330
1E
100
AcDbEntity
  8
0
100
AcDbLine
 10
45.0
 20
173.0
 30
0.0
 11
45.0
 21
46.0
 31
0.0
  0
LINE
  5
C2
330
1E
100
AcDbEntity
  8
0
100
AcDbLine
 10
45.0
 20
173.0
 30
0.0
 11
46.376
 21
173.0
 31
0.0
  0
LINE
  5
C3
330
1E
100
AcDbEntity
  8
0
100
AcDbLine
 10
44.5
 20
173.0
 30
0.0
 11
44.5
 21
46.0
 31
0.0
  0
LINE
  5
C4
330
1E
100
AcDbEntity
  8
0
100
AcDbLine
 10
44.5
 20
173.0
 30
0.0
 11
45.0
 21
173.0
 31
0.0
  0
LINE
  5
C5
330
1E
100
AcDbEntity
  8
0
100
AcDbLine
 10
23.064
 20
179.0
 30
0.0
 11
31.0
 21
179.0
 31
0.0
  0
LINE
  5
C6
330
1E
100
AcDbEntity
  8
0
100
AcDbLine
 10
31.0
 20
179.0
 30
0.0
 11
38.936
 21
179.0
 31
0.0
  0
LINE
  5
C7
330
1E
100
AcDbEntity
  8
0
100
AcDbLine
 10
38.936
 20
179.0
 30
0.0
 11
46.376
 21
179.0
 31
0.0
  0
LINE
  5
C8
330
1E
100
AcDbEntity
  8
0
100
AcDbLine
 10
46.376
 20
179.0
 30
0.0
 11
52.948
 21
179.0
 31
0.0
  0
LINE
  5
C9
330
1E
100
AcDbEntity
  8
0
100
AcDbLine
 10
52.948
 20
179.0
 30
0.0
 11
57.908
 21
179.0
 31
0.0
  0
LINE
  5
CA
330
1E
100
AcDbEntity
  8
0
100
AcDbLine
 10
57.908
 20
179.0
 30
0.0
 11
60.884
 21
179.0
 31
0.0
  0
LINE
  5
CB
330
1E
100
AcDbEntity
  8
0
100
AcDbLine
 10
129.064
 20
179.0
 30
0.0
 11
137.0
 21
179.0
 31
0.0
  0
LINE
  5
CC
330
1E
100
AcDbEntity
  8
0
100
AcDbLine
 10
121.6239999999999
 20
179.0
 30
0.0
 11
129.064
 21
179.0
 31
0.0
  0
LINE
  5
CD
330
1E
100
AcDbEntity
  8
0
100
AcDbLine
 10
115.0519999999999
 20
179.0
 30
0.0
 11
121.6239999999999
 21
179.0
 31
0.0
  0
LINE
  5
CE
330
1E
100
AcDbEntity
  8
0
100
AcDbLine
 10
110.092
 20
179.0
 30
0.0
 11
115.0519999999999
 21
179.0
 31
0.0
  0
LINE
  5
CF
330
1E
100
AcDbEntity
  8
0
100
AcDbLine
 10
107.116
 20
179.0
 30
0.0
 11
110.092
 21
179.0
 31
0.0
  0
LINE
  5
D0
330
1E
100
AcDbEntity
  8
0
100
AcDbLine
 10
106.0
 20
179.0
 30
0.0
 11
107.116
 21
179.0
 31
0.0
  0
LINE
  5
D1
330
1E
100
AcDbEntity
  8
0
100
AcDbLine
 10
106.0
 20
179.0
 30
0.0
 11
106.0
 21
173.0
 31
0.0
  0
LINE
  5
D2
330
1E
100
AcDbEntity
  8
0
100
AcDbLine
 10
62.0
 20
179.0
 30
0.0
 11
62.0
 21
173.0
 31
0.0
  0
LINE
  5
D3
330
1E
100
AcDbEntity
  8
0
100
AcDbLine
 10
60.884
 20
179.0
 30
0.0
 11
62.0
 21
179.0
 31
0.0
  0
LINE
  5
D4
330
1E
100
AcDbEntity
  8
0
100
AcDbLine
 10
31.0
 20
173.0
 30
0.0
 11
44.5
 21
173.0
 31
0.0
  0
LINE
  5
D5
330
1E
100
AcDbEntity
  8
0
100
AcDbLine
 10
31.0
 20
173.0
 30
0.0
 11
38.936
 21
173.0
 31
0.0
  0
LINE
  5
D6
330
1E
100
AcDbEntity
  8
0
100
AcDbLine
 10
17.5
 20
173.0
 30
0.0
 11
17.5
 21
46.0
 31
0.0
  0
LINE
  5
D7
330
1E
100
AcDbEntity
  8
0
100
AcDbLine
 10
17.5
 20
173.0
 30
0.0
 11
31.0
 21
173.0
 31
0.0
  0
LINE
  5
D8
330
1E
100
AcDbEntity
  8
0
100
AcDbLine
 10
132.0
 20
171.0
 30
0.0
 11
134.4
 21
171.0
 31
0.0
  0
LINE
  5
D9
330
1E
100
AcDbEntity
  8
0
100
AcDbLine
 10
137.0
 20
81.5071
 30
0.0
 11
140.5999999999999
 21
81.5071
 31
0.0
  0
LINE
  5
DA
330
1E
100
AcDbEntity
  8
0
100
AcDbLine
 10
137.0
 20
81.9574
 30
0.0
 11
140.5999999999999
 21
81.9574
 31
0.0
  0
LINE
  5
DB
330
1E
100
AcDbEntity
  8
0
100
AcDbLine
 10
137.0
 20
161.6489999999999
 30
0.0
 11
140.5999999999999
 21
161.6489999999999
 31
0.0
  0
LINE
  5
DC
330
1E
100
AcDbEntity
  8
0
100
AcDbLine
 10
137.7499999999999
 20
162.888
 30
0.0
 11
138.5
 21
162.9399999999999
 31
0.0
  0
LINE
  5
DD
330
1E
100
AcDbEntity
  8
0
100
AcDbLine
 10
137.0
 20
162.875
 30
0.0
 11
137.7499999999999
 21
162.888
 31
0.0
  0
LINE
  5
DE
330
1E
100
AcDbEntity
  8
0
100
AcDbLine
 10
134.8249999999999
 20
163.018
 30
0.0
 11
135.4999999999999
 21
162.9399999999999
 31
0.0
  0
LINE
  5
DF
330
1E
100
AcDbEntity
  8
0
100
AcDbLine
 10
140.0
 20
163.396
 30
0.0
 11
140.0
 21
169.6999999999999
 31
0.0
  0
LINE
  5
E0
330
1E
100
AcDbEntity
  8
0
100
AcDbLine
 10
139.925
 20
163.266
 30
0.0
 11
140.0
 21
163.396
 31
0.0
  0
LINE
  5
E1
330
1E
100
AcDbEntity
  8
0
100
AcDbLine
 10
139.625
 20
163.1349999999999
 30
0.0
 11
139.925
 21
163.266
 31
0.0
  0
LINE
  5
E2
330
1E
100
AcDbEntity
  8
0
100
AcDbLine
 10
139.175
 20
163.018
 30
0.0
 11
139.625
 21
163.1349999999999
 31
0.0
  0
LINE
  5
E3
330
1E
100
AcDbEntity
  8
0
100
AcDbLine
 10
138.5
 20
162.9399999999999
 30
0.0
 11
139.175
 21
163.018
 31
0.0
  0
LINE
  5
E4
330
1E
100
AcDbEntity
  8
0
100
AcDbLine
 10
135.4999999999999
 20
162.9399999999999
 30
0.0
 11
136.25
 21
162.888
 31
0.0
  0
LINE
  5
E5
330
1E
100
AcDbEntity
  8
0
100
AcDbLine
 10
136.25
 20
162.888
 30
0.0
 11
137.0
 21
162.875
 31
0.0
  0
LINE
  5
E6
330
1E
100
AcDbEntity
  8
0
100
AcDbLine
 10
140.0
 20
164.5299999999999
 30
0.0
 11
140.5999999999999
 21
164.5299999999999
 31
0.0
  0
LINE
  5
E7
330
1E
100
AcDbEntity
  8
0
100
AcDbLine
 10
137.0
 20
162.2609999999999
 30
0.0
 11
140.5999999999999
 21
162.2609999999999
 31
0.0
  0
LINE
  5
E8
330
1E
100
AcDbEntity
  8
0
100
AcDbLine
 10
140.5999999999999
 20
81.5071
 30
0.0
 11
140.5999999999999
 21
81.9574
 31
0.0
  0
LINE
  5
E9
330
1E
100
AcDbEntity
  8
0
100
AcDbLine
 10
140.5999999999999
 20
81.5071
 30
0.0
 11
141.0
 21
82.03839999999999
 31
0.0
  0
LINE
  5
EA
330
1E
100
AcDbEntity
  8
0
100
AcDbLine
 10
140.5999999999999
 20
81.9574
 30
0.0
 11
140.5999999999999
 21
161.6489999999999
 31
0.0
  0
LINE
  5
EB
330
1E
100
AcDbEntity
  8
0
100
AcDbLine
 10
140.5999999999999
 20
81.9574
 30
0.0
 11
140.5999999999999
 21
81.5071
 31
0.0
  0
LINE
  5
EC
330
1E
100
AcDbEntity
  8
0
100
AcDbLine
 10
140.5999999999999
 20
161.6489999999999
 30
0.0
 11
140.5999999999999
 21
162.2609999999999
 31
0.0
  0
LINE
  5
ED
330
1E
100
AcDbEntity
  8
0
100
AcDbLine
 10
140.5999999999999
 20
161.6489999999999
 30
0.0
 11
140.5999999999999
 21
81.9574
 31
0.0
  0
LINE
  5
EE
330
1E
100
AcDbEntity
  8
0
100
AcDbLine
 10
140.5999999999999
 20
164.5299999999999
 30
0.0
 11
140.5999999999999
 21
162.2609999999999
 31
0.0
  0
LINE
  5
EF
330
1E
100
AcDbEntity
  8
0
100
AcDbLine
 10
140.5999999999999
 20
164.5299999999999
 30
0.0
 11
141.0
 21
163.999
 31
0.0
  0
LINE
  5
F0
330
1E
100
AcDbEntity
  8
0
100
AcDbLine
 10
140.5999999999999
 20
162.2609999999999
 30
0.0
 11
140.5999999999999
 21
164.5299999999999
 31
0.0
  0
LINE
  5
F1
330
1E
100
AcDbEntity
  8
0
100
AcDbLine
 10
140.5999999999999
 20
162.2609999999999
 30
0.0
 11
141.0
 21
161.73
 31
0.0
  0
LINE
  5
F2
330
1E
100
AcDbEntity
  8
0
100
AcDbLine
 10
140.5999999999999
 20
162.2609999999999
 30
0.0
 11
140.5999999999999
 21
161.6489999999999
 31
0.0
  0
LINE
  5
F3
330
1E
100
AcDbEntity
  8
0
100
AcDbLine
 10
141.0
 20
82.03839999999999
 30
0.0
 11
141.0
 21
161.73
 31
0.0
  0
LINE
  5
F4
330
1E
100
AcDbEntity
  8
0
100
AcDbLine
 10
141.0
 20
163.999
 30
0.0
 11
141.0
 21
161.73
 31
0.0
  0
LINE
  5
F5
330
1E
100
AcDbEntity
  8
0
100
AcDbLine
 10
141.0
 20
161.73
 30
0.0
 11
141.0
 21
163.999
 31
0.0
  0
LINE
  5
F6
330
1E
100
AcDbEntity
  8
0
100
AcDbLine
 10
141.0
 20
161.73
 30
0.0
 11
141.0
 21
82.03839999999999
 31
0.0
  0
LINE
  5
F7
330
1E
100
AcDbEntity
  8
0
100
AcDbLine
 10
141.3
 20
169.6999999999999
 30
0.0
 11
141.5
 21
169.6999999999999
 31
0.0
  0
LINE
  5
F8
330
1E
100
AcDbEntity
  8
0
100
AcDbLine
 10
141.5
 20
169.6999999999999
 30
0.0
 11
143.8
 21
170.1999999999999
 31
0.0
  0
LINE
  5
F9
330
1E
100
AcDbEntity
  8
0
100
AcDbLine
 10
140.8999999999999
 20
169.6999999999999
 30
0.0
 11
141.3
 21
169.6999999999999
 31
0.0
  0
LINE
  5
FA
330
1E
100
AcDbEntity
  8
0
100
AcDbLine
 10
140.1999999999999
 20
169.6999999999999
 30
0.0
 11
140.8999999999999
 21
169.6999999999999
 31
0.0
  0
LINE
  5
FB
330
1E
100
AcDbEntity
  8
0
100
AcDbLine
 10
140.0
 20
169.6999999999999
 30
0.0
 11
140.1999999999999
 21
169.6999999999999
 31
0.0
  0
LINE
  5
FC
330
1E
100
AcDbEntity
  8
0
100
AcDbLine
 10
140.0
 20
169.6999999999999
 30
0.0
 11
140.0
 21
163.396
 31
0.0
  0
LINE
  5
FD
330
1E
100
AcDbEntity
  8
0
100
AcDbLine
 10
142.1199999999999
 20
171.0
 30
0.0
 11
146.9199999999999
 21
171.0
 31
0.0
  0
LINE
  5
FE
330
1E
100
AcDbEntity
  8
0
100
AcDbLine
 10
144.1
 20
171.0
 30
0.0
 11
145.6999999999999
 21
171.0
 31
0.0
  0
LINE
  5
FF
330
1E
100
AcDbEntity
  8
0
100
AcDbLine
 10
142.0
 20
171.0
 30
0.0
 11
144.1
 21
171.0
 31
0.0
  0
LINE
  5
100
330
1E
100
AcDbEntity
  8
0
100
AcDbLine
 10
139.5999999999999
 20
171.0
 30
0.0
 11
142.0
 21
171.0
 31
0.0
  0
LINE
  5
101
330
1E
100
AcDbEntity
  8
0
100
AcDbLine
 10
137.0
 20
171.0
 30
0.0
 11
139.5999999999999
 21
171.0
 31
0.0
  0
LINE
  5
102
330
1E
100
AcDbEntity
  8
0
100
AcDbLine
 10
137.0
 20
171.0
 30
0.0
 11
142.1199999999999
 21
171.0
 31
0.0
  0
LINE
  5
103
330
1E
100
AcDbEntity
  8
0
100
AcDbLine
 10
143.8
 20
170.1999999999999
 30
0.0
 11
145.1999999999999
 21
171.0
 31
0.0
  0
LINE
  5
104
330
1E
100
AcDbEntity
  8
0
100
AcDbLine
 10
146.9199999999999
 20
171.0
 30
0.0
 11
151.16
 21
171.0
 31
0.0
  0
LINE
  5
105
330
1E
100
AcDbEntity
  8
0
100
AcDbLine
 10
151.16
 20
171.0
 30
0.0
 11
154.36
 21
171.0
 31
0.0
  0
LINE
  5
106
330
1E
100
AcDbEntity
  8
0
100
AcDbLine
 10
154.36
 20
171.0
 30
0.0
 11
156.28
 21
171.0
 31
0.0
  0
LINE
  5
107
330
1E
100
AcDbEntity
  8
0
100
AcDbLine
 10
156.28
 20
171.0
 30
0.0
 11
157.0
 21
171.0
 31
0.0
  0
LINE
  5
108
330
1E
100
AcDbEntity
  8
0
100
AcDbLine
 10
157.0
 20
171.0
 30
0.0
 11
157.0
 21
173.0
 31
0.0
  0
LINE
  5
109
330
1E
100
AcDbEntity
  8
0
100
AcDbLine
 10
146.6
 20
171.0
 30
0.0
 11
147.0
 21
171.0
 31
0.0
  0
LINE
  5
10A
330
1E
100
AcDbEntity
  8
0
100
AcDbLine
 10
145.6999999999999
 20
171.0
 30
0.0
 11
146.6
 21
171.0
 31
0.0
  0
LINE
  5
10B
330
1E
100
AcDbEntity
  8
0
100
AcDbLine
 10
137.0
 20
173.0
 30
0.0
 11
142.1199999999999
 21
173.0
 31
0.0
  0
LINE
  5
10C
330
1E
100
AcDbEntity
  8
0
100
AcDbLine
 10
137.0
 20
173.0
 30
0.0
 11
144.936
 21
173.0
 31
0.0
  0
LINE
  5
10D
330
1E
100
AcDbEntity
  8
0
100
AcDbLine
 10
144.936
 20
173.0
 30
0.0
 11
152.376
 21
173.0
 31
0.0
  0
LINE
  5
10E
330
1E
100
AcDbEntity
  8
0
100
AcDbLine
 10
142.1199999999999
 20
173.0
 30
0.0
 11
146.9199999999999
 21
173.0
 31
0.0
  0
LINE
  5
10F
330
1E
100
AcDbEntity
  8
0
100
AcDbLine
 10
146.9199999999999
 20
173.0
 30
0.0
 11
151.16
 21
173.0
 31
0.0
  0
LINE
  5
110
330
1E
100
AcDbEntity
  8
0
100
AcDbLine
 10
152.376
 20
173.0
 30
0.0
 11
158.9479999999999
 21
173.0
 31
0.0
  0
LINE
  5
111
330
1E
100
AcDbEntity
  8
0
100
AcDbLine
 10
151.16
 20
173.0
 30
0.0
 11
154.36
 21
173.0
 31
0.0
  0
LINE
  5
112
330
1E
100
AcDbEntity
  8
0
100
AcDbLine
 10
137.0
 20
179.0
 30
0.0
 11
144.936
 21
179.0
 31
0.0
  0
LINE
  5
113
330
1E
100
AcDbEntity
  8
0
100
AcDbLine
 10
144.936
 20
179.0
 30
0.0
 11
152.376
 21
179.0
 31
0.0
  0
LINE
  5
114
330
1E
100
AcDbEntity
  8
0
100
AcDbLine
 10
152.376
 20
179.0
 30
0.0
 11
158.9479999999999
 21
179.0
 31
0.0
  0
LINE
  5
115
330
1E
100
AcDbEntity
  8
0
100
AcDbLine
 10
154.36
 20
173.0
 30
0.0
 11
156.28
 21
173.0
 31
0.0
  0
LINE
  5
116
330
1E
100
AcDbEntity
  8
0
100
AcDbLine
 10
158.9479999999999
 20
173.0
 30
0.0
 11
163.9079999999999
 21
173.0
 31
0.0
  0
LINE
  5
117
330
1E
100
AcDbEntity
  8
0
100
AcDbLine
 10
163.9079999999999
 20
173.0
 30
0.0
 11
166.884
 21
173.0
 31
0.0
  0
LINE
  5
118
330
1E
100
AcDbEntity
  8
0
100
AcDbLine
 10
168.0
 20
173.0
 30
0.0
 11
168.0
 21
179.0
 31
0.0
  0
LINE
  5
119
330
1E
100
AcDbEntity
  8
0
100
AcDbLine
 10
166.884
 20
173.0
 30
0.0
 11
168.0
 21
173.0
 31
0.0
  0
LINE
  5
11A
330
1E
100
AcDbEntity
  8
0
100
AcDbLine
 10
158.9479999999999
 20
179.0
 30
0.0
 11
163.9079999999999
 21
179.0
 31
0.0
  0
LINE
  5
11B
330
1E
100
AcDbEntity
  8
0
100
AcDbLine
 10
163.9079999999999
 20
179.0
 30
0.0
 11
166.884
 21
179.0
 31
0.0
  0
LINE
  5
11C
330
1E
100
AcDbEntity
  8
0
100
AcDbLine
 10
166.884
 20
179.0
 30
0.0
 11
168.0
 21
179.0
 31
0.0
  0
LINE
  5
11D
330
1E
100
AcDbEntity
  8
0
100
AcDbLine
 10
168.0
 20
179.0
 30
0.0
 11
168.0
 21
173.0
 31
0.0
  0
LINE
  5
11E
330
1E
100
AcDbEntity
  8
0
100
AcDbLine
 10
157.0
 20
173.0
 30
0.0
 11
157.0
 21
171.0
 31
0.0
  0
LINE
  5
11F
330
1E
100
AcDbEntity
  8
0
100
AcDbLine
 10
157.0
 20
173.0
 30
0.0
 11
158.9479999999999
 21
173.0
 31
0.0
  0
LINE
  5
120
330
1E
100
AcDbEntity
  8
0
100
AcDbLine
 10
156.28
 20
173.0
 30
0.0
 11
157.0
 21
173.0
 31
0.0
  0
LINE
  5
121
330
1E
100
AcDbEntity
  8
0
100
AcDbLine
 10
145.1999999999999
 20
171.0
 30
0.0
 11
145.6999999999999
 21
171.0
 31
0.0
  0
LINE
  5
122
330
1E
100
AcDbEntity
  8
0
100
AcDbLine
 10
145.1999999999999
 20
171.0
 30
0.0
 11
146.9199999999999
 21
171.0
 31
0.0
  0
LINE
  5
123
330
1E
100
AcDbEntity
  8
0
100
AcDbLine
 10
134.4
 20
171.0
 30
0.0
 11
137.0
 21
171.0
 31
0.0
  0
ENDSEC
  0
SECTION
  2
OBJECTS
  0
DICTIONARY
  5
C
330
0
100
AcDbDictionary
  3
ACAD_GROUP
350
D
  3
ACAD_LAYOUT
350
19
  3
ACAD_MLINESTYLE
350
16
  3
ACAD_PLOTSETTINGS
350
18
  3
ACAD_PLOTSTYLENAME
350
E
  3
ACDBHEADERROUNDTRIPXREC
350
12B
  3
ACDBVARIABLEDICTIONARY
350
128
  0
DICTIONARY
  5
14D
330
1E
100
AcDbDictionary
280
     1
  3
ACAD_LAYOUTSELFREF
360
14E
  0
DICTIONARY
  5
14B
330
1A
100
AcDbDictionary
280
     1
  3
ACAD_LAYOUTSELFREF
360
14C
  0
DICTIONARY
  5
D
102
{ACAD_REACTORS
330
C
102
}
330
C
100
AcDbDictionary
  0
DICTIONARY
  5
19
102
{ACAD_REACTORS
330
C
102
}
330
C
100
AcDbDictionary
  0
DICTIONARY
  5
16
102
{ACAD_REACTORS
330
C
102
}
330
C
100
AcDbDictionary
  3
STANDARD
350
17
  0
DICTIONARY
  5
18
102
{ACAD_REACTORS
330
C
102
}
330
C
100
AcDbDictionary
  0
ACDBDICTIONARYWDFLT
  5
E
102
{ACAD_REACTORS
330
C
102
}
330
C
100
AcDbDictionary
281
     1
  3
Normal
350
F
100
AcDbDictionaryWithDefault
340
F
  0
DICTIONARY
  5
12B
102
{ACAD_REACTORS
330
C
102
}
330
C
100
AcDbDictionary
  3
CEPSNTYPE
350
135
  3
FINGERPRINTGUID
350
136
  3
HYPERLINKBASE
350
12E
  3
INSUNITS
350
134
  3
LAYOUTDICT
350
130
  3
LWETCUNION
350
133
  3
PLOTSETDICT
350
131
  3
PLOTSTYLNAMDICT
350
132
  3
PSVPSCALE
350
138
  3
PUCSBASE
350
13B
  3
PUCSORGBACK
350
141
  3
PUCSORGBOTTOM
350
13D
  3
PUCSORGFRONT
350
140
  3
PUCSORGLEFT
350
13E
  3
PUCSORGRIGHT
350
13F
  3
PUCSORGTOP
350
13C
  3
PUCSORTHOREF
350
139
  3
PUCSORTHOVIEW
350
13A
  3
STYLESHEET
350
12F
  3
TSTACKALIGN
350
12C
  3
TSTACKSIZE
350
12D
  3
UCSBASE
350
144
  3
UCSORGBACK
350
14A
  3
UCSORGBOTTOM
350
146
  3
UCSORGFRONT
350
149
  3
UCSORGLEFT
350
147
  3
UCSORGRIGHT
350
148
  3
UCSORGTOP
350
145
  3
UCSORTHOREF
350
142
  3
UCSORTHOVIEW
350
143
  3
VERSIONGUID
350
137
  0
DICTIONARY
  5
128
102
{ACAD_REACTORS
330
C
102
}
330
C
100
AcDbDictionary
  3
DIMASSOC
350
129
  0
XRECORD
  5
14E
102
{ACAD_REACTORS
330
14D
102
}
330
14D
100
AcDbXrecord
340
1E
  0
XRECORD
  5
14C
102
{ACAD_REACTORS
330
14B
102
}
330
14B
100
AcDbXrecord
340
1A
  0
MLINESTYLE
  5
17
102
{ACAD_REACTORS
330
16
102
}
330
16
100
AcDbMlineStyle
  2
STANDARD
 70
     0
  3

 62
   256
 51
90.0
 52
90.0
 71
     2
 49
0.5
 62
   256
  6
BYLAYER
 49
-0.5
 62
   256
  6
BYLAYER
  0
ACDBPLACEHOLDER
  5
F
102
{ACAD_REACTORS
330
E
102
}
330
E
100
AcDbPlaceHolder
280
     0
  0
XRECORD
  5
135
102
{ACAD_REACTORS
330
12B
102
}
330
12B
100
AcDbXrecord
 90
        0
  0
XRECORD
  5
136
102
{ACAD_REACTORS
330
12B
102
}
330
12B
100
AcDbXrecord
  1
{531780DC-AD48-41EE-B139-53C2CA6F0BA7}
  0
XRECORD
  5
12E
102
{ACAD_REACTORS
330
12B
102
}
330
12B
100
AcDbXrecord
  1

  0
XRECORD
  5
134
102
{ACAD_REACTORS
330
12B
102
}
330
12B
100
AcDbXrecord
 90
        0
  0
XRECORD
  5
130
102
{ACAD_REACTORS
330
12B
102
}
330
12B
100
AcDbXrecord
340
19
  0
XRECORD
  5
133
102
{ACAD_REACTORS
330
12B
102
}
330
12B
100
AcDbXrecord
 90
    10781
  0
XRECORD
  5
131
102
{ACAD_REACTORS
330
12B
102
}
330
12B
100
AcDbXrecord
340
18
  0
XRECORD
  5
132
102
{ACAD_REACTORS
330
12B
102
}
330
12B
100
AcDbXrecord
340
E
  0
XRECORD
  5
138
102
{ACAD_REACTORS
330
12B
102
}
330
12B
100
AcDbXrecord
 40
0.0
  0
XRECORD
  5
13B
102
{ACAD_REACTORS
330
12B
102
}
330
12B
100
AcDbXrecord
340
0
  0
XRECORD
  5
141
102
{ACAD_REACTORS
330
12B
102
}
330
12B
100
AcDbXrecord
 10
0.0
 20
0.0
 30
0.0
  0
XRECORD
  5
13D
102
{ACAD_REACTORS
330
12B
102
}
330
12B
100
AcDbXrecord
 10
0.0
 20
0.0
 30
0.0
  0
XRECORD
  5
140
102
{ACAD_REACTORS
330
12B
102
}
330
12B
100
AcDbXrecord
 10
0.0
 20
0.0
 30
0.0
  0
XRECORD
  5
13E
102
{ACAD_REACTORS
330
12B
102
}
330
12B
100
AcDbXrecord
 10
0.0
 20
0.0
 30
0.0
  0
XRECORD
  5
13F
102
{ACAD_REACTORS
330
12B
102
}
330
12B
100
AcDbXrecord
 10
0.0
 20
0.0
 30
0.0
  0
XRECORD
  5
13C
102
{ACAD_REACTORS
330
12B
102
}
330
12B
100
AcDbXrecord
 10
0.0
 20
0.0
 30
0.0
  0
XRECORD
  5
139
102
{ACAD_REACTORS
330
12B
102
}
330
12B
100
AcDbXrecord
340
0
  0
XRECORD
  5
13A
102
{ACAD_REACTORS
330
12B
102
}
330
12B
100
AcDbXrecord
 70
     0
  0
XRECORD
  5
12F
102
{ACAD_REACTORS
330
12B
102
}
330
12B
100
AcDbXrecord
  1

  0
XRECORD
  5
12C
102
{ACAD_REACTORS
330
12B
102
}
330
12B
100
AcDbXrecord
 90
        1
  0
XRECORD
  5
12D
102
{ACAD_REACTORS
330
12B
102
}
330
12B
100
AcDbXrecord
 90
       70
  0
XRECORD
  5
144
102
{ACAD_REACTORS
330
12B
102
}
330
12B
100
AcDbXrecord
340
0
  0
XRECORD
  5
14A
102
{ACAD_REACTORS
330
12B
102
}
330
12B
100
AcDbXrecord
 10
0.0
 20
0.0
 30
0.0
  0
XRECORD
  5
146
102
{ACAD_REACTORS
330
12B
102
}
330
12B
100
AcDbXrecord
 10
0.0
 20
0.0
 30
0.0
  0
XRECORD
  5
149
102
{ACAD_REACTORS
330
12B
102
}
330
12B
100
AcDbXrecord
 10
0.0
 20
0.0
 30
0.0
  0
XRECORD
  5
147
102
{ACAD_REACTORS
330
12B
102
}
330
12B
100
AcDbXrecord
 10
0.0
 20
0.0
 30
0.0
  0
XRECORD
  5
148
102
{ACAD_REACTORS
330
12B
102
}
330
12B
100
AcDbXrecord
 10
0.0
 20
0.0
 30
0.0
  0
XRECORD
  5
145
102
{ACAD_REACTORS
330
12B
102
}
330
12B
100
AcDbXrecord
 10
0.0
 20
0.0
 30
0.0
  0
XRECORD
  5
142
102
{ACAD_REACTORS
330
12B
102
}
330
12B
100
AcDbXrecord
340
0
  0
XRECORD
  5
143
102
{ACAD_REACTORS
330
12B
102
}
330
12B
100
AcDbXrecord
 70
     1
  0
XRECORD
  5
137
102
{ACAD_REACTORS
330
12B
102
}
330
12B
100
AcDbXrecord
  1
{D32A4A37-8086-4EA0-AB8D-D017DB913444}
  0
DICTIONARYVAR
  5
129
102
{ACAD_REACTORS
330
128
102
}
330
128
100
DictionaryVariables
280
     0
  1
1
  0
ENDSEC
  0
EOF
