  0
SECTION
  2
HEADER
  9
$ACADVER
  1
AC1014
  9
$ACADMAINTVER
 70
     9
  9
$DWGCODEPAGE
  3
ANSI_1252
  9
$INSBASE
 10
0.0
 20
0.0
 30
0.0
  9
$EXTMIN
 10
-0.0000000000000037
 20
0.0000000000001106
 30
0.0
  9
$EXTMAX
 10
180.0
 20
187.0
 30
0.0
  9
$LIMMIN
 10
0.0
 20
0.0
  9
$LIMMAX
 10
12.0
 20
9.0
  9
$ORTHOMODE
 70
     0
  9
$REGENMODE
 70
     1
  9
$FILLMODE
 70
     1
  9
$QTEXTMODE
 70
     0
  9
$MIRRTEXT
 70
     1
  9
$DRAGMODE
 70
     2
  9
$LTSCALE
 40
1.0
  9
$OSMODE
 70
    37
  9
$ATTMODE
 70
     1
  9
$TEXTSIZE
 40
0.2
  9
$TRACEWID
 40
0.05
  9
$TEXTSTYLE
  7
STANDARD
  9
$CLAYER
  8
0
  9
$CELTYPE
  6
CONTINUOUS
  9
$CECOLOR
 62
   256
  9
$CELTSCALE
 40
1.0
  9
$DELOBJ
 70
     1
  9
$DISPSILH
 70
     0
  9
$DIMSCALE
 40
1.0
  9
$DIMASZ
 40
0.18
  9
$DIMEXO
 40
0.0625
  9
$DIMDLI
 40
0.38
  9
$DIMRND
 40
0.0
  9
$DIMDLE
 40
0.0
  9
$DIMEXE
 40
0.18
  9
$DIMTP
 40
0.0
  9
$DIMTM
 40
0.0
  9
$DIMTXT
 40
0.18
  9
$DIMCEN
 40
0.09
  9
$DIMTSZ
 40
0.0
  9
$DIMTOL
 70
     0
  9
$DIMLIM
 70
     0
  9
$DIMTIH
 70
     1
  9
$DIMTOH
 70
     1
  9
$DIMSE1
 70
     0
  9
$DIMSE2
 70
     0
  9
$DIMTAD
 70
     0
  9
$DIMZIN
 70
     0
  9
$DIMBLK
  1

  9
$DIMASO
 70
     1
  9
$DIMSHO
 70
     1
  9
$DIMPOST
  1

  9
$DIMAPOST
  1

  9
$DIMALT
 70
     0
  9
$DIMALTD
 70
     2
  9
$DIMALTF
 40
25.4
  9
$DIMLFAC
 40
1.0
  9
$DIMTOFL
 70
     0
  9
$DIMTVP
 40
0.0
  9
$DIMTIX
 70
     0
  9
$DIMSOXD
 70
     0
  9
$DIMSAH
 70
     0
  9
$DIMBLK1
  1

  9
$DIMBLK2
  1

  9
$DIMSTYLE
  2
STANDARD
  9
$DIMCLRD
 70
     0
  9
$DIMCLRE
 70
     0
  9
$DIMCLRT
 70
     0
  9
$DIMTFAC
 40
1.0
  9
$DIMGAP
 40
0.09
  9
$DIMJUST
 70
     0
  9
$DIMSD1
 70
     0
  9
$DIMSD2
 70
     0
  9
$DIMTOLJ
 70
     1
  9
$DIMTZIN
 70
     0
  9
$DIMALTZ
 70
     0
  9
$DIMALTTZ
 70
     0
  9
$DIMFIT
 70
     3
  9
$DIMUPT
 70
     0
  9
$DIMUNIT
 70
     2
  9
$DIMDEC
 70
     4
  9
$DIMTDEC
 70
     4
  9
$DIMALTU
 70
     2
  9
$DIMALTTD
 70
     2
  9
$DIMTXSTY
  7
STANDARD
  9
$DIMAUNIT
 70
     0
  9
$LUNITS
 70
     2
  9
$LUPREC
 70
     4
  9
$SKETCHINC
 40
0.1
  9
$FILLETRAD
 40
0.0
  9
$AUNITS
 70
     0
  9
$AUPREC
 70
     0
  9
$MENU
  1
.
  9
$ELEVATION
 40
0.0
  9
$PELEVATION
 40
0.0
  9
$THICKNESS
 40
0.0
  9
$LIMCHECK
 70
     0
  9
$BLIPMODE
 70
     0
  9
$CHAMFERA
 40
0.0
  9
$CHAMFERB
 40
0.0
  9
$CHAMFERC
 40
0.0
  9
$CHAMFERD
 40
0.0
  9
$SKPOLY
 70
     0
  9
$TDCREATE
 40
2454687.550386285
  9
$TDUPDATE
 40
2454687.550597511
  9
$TDINDWG
 40
0.0002114005
  9
$TDUSRTIMER
 40
0.0002114005
  9
$USRTIMER
 70
     1
  9
$ANGBASE
 50
0.0
  9
$ANGDIR
 70
     0
  9
$PDMODE
 70
     0
  9
$PDSIZE
 40
0.0
  9
$PLINEWID
 40
0.0
  9
$COORDS
 70
     1
  9
$SPLFRAME
 70
     0
  9
$SPLINETYPE
 70
     6
  9
$SPLINESEGS
 70
     8
  9
$ATTDIA
 70
     0
  9
$ATTREQ
 70
     1
  9
$HANDLING
 70
 22529
  9
$HANDSEED
  5
4AA
  9
$SURFTAB1
 70
     6
  9
$SURFTAB2
 70
     6
  9
$SURFTYPE
 70
     6
  9
$SURFU
 70
     6
  9
$SURFV
 70
     6
  9
$UCSNAME
  2

  9
$UCSORG
 10
0.0
 20
0.0
 30
0.0
  9
$UCSXDIR
 10
1.0
 20
0.0
 30
0.0
  9
$UCSYDIR
 10
0.0
 20
1.0
 30
0.0
  9
$PUCSNAME
  2

  9
$PUCSORG
 10
0.0
 20
0.0
 30
0.0
  9
$PUCSXDIR
 10
1.0
 20
0.0
 30
0.0
  9
$PUCSYDIR
 10
0.0
 20
1.0
 30
0.0
  9
$USERI1
 70
     0
  9
$USERI2
 70
     0
  9
$USERI3
 70
     0
  9
$USERI4
 70
     0
  9
$USERI5
 70
     0
  9
$USERR1
 40
0.0
  9
$USERR2
 40
0.0
  9
$USERR3
 40
0.0
  9
$USERR4
 40
0.0
  9
$USERR5
 40
0.0
  9
$WORLDVIEW
 70
     1
  9
$SHADEDGE
 70
     3
  9
$SHADEDIF
 70
    70
  9
$TILEMODE
 70
     1
  9
$MAXACTVP
 70
    64
  9
$PINSBASE
 10
0.0
 20
0.0
 30
0.0
  9
$PLIMCHECK
 70
     0
  9
$PEXTMIN
 10
1.000000000000000E+20
 20
1.000000000000000E+20
 30
1.000000000000000E+20
  9
$PEXTMAX
 10
-1.000000000000000E+20
 20
-1.000000000000000E+20
 30
-1.000000000000000E+20
  9
$PLIMMIN
 10
0.0
 20
0.0
  9
$PLIMMAX
 10
12.0
 20
9.0
  9
$UNITMODE
 70
     0
  9
$VISRETAIN
 70
     1
  9
$PLINEGEN
 70
     0
  9
$PSLTSCALE
 70
     1
  9
$TREEDEPTH
 70
  3020
  9
$PICKSTYLE
 70
     1
  9
$CMLSTYLE
  2
STANDARD
  9
$CMLJUST
 70
     0
  9
$CMLSCALE
 40
1.0
  9
$PROXYGRAPHICS
 70
     1
  9
$MEASUREMENT
 70
     0
  0
ENDSEC
  0
SECTION
  2
CLASSES
  0
CLASS
  1
ACDBDICTIONARYWDFLT
  2
AcDbDictionaryWithDefault
  3
AutoCAD 2000
 90
        0
280
     0
281
     0
  0
CLASS
  1
ACDBPLACEHOLDER
  2
AcDbPlaceHolder
  3
AutoCAD 2000
 90
        0
280
     0
281
     0
  0
CLASS
  1
LAYOUT
  2
AcDbLayout
  3
AutoCAD 2000
 90
        0
280
     0
281
     0
  0
CLASS
  1
DICTIONARYVAR
  2
AcDbDictionaryVar
  3
AutoCAD 2000
 90
        0
280
     0
281
     0
  0
CLASS
  1
LONG_TRANSACTION
  2
AcDbLongTransaction
  3
AutoCAD 2000
 90
        0
280
     0
281
     0
  0
CLASS
  1
LWPOLYLINE
  2
AcDbPolyline
  3
AutoCAD 2000
 90
        0
280
     0
281
     1
  0
CLASS
  1
HATCH
  2
AcDbHatch
  3
AutoCAD 2000
 90
        0
280
     0
281
     1
  0
CLASS
  1
XRECORD
  2
AcDbXrecord
  3
AutoCAD 2000
 90
        0
280
     0
281
     0
  0
ENDSEC
  0
SECTION
  2
TABLES
  0
TABLE
  2
VPORT
  5
8
330
0
100
AcDbSymbolTable
 70
     2
  0
VPORT
  5
485
330
8
100
AcDbSymbolTableRecord
100
AcDbViewportTableRecord
  2
*ACTIVE
 70
     0
 10
0.0
 20
0.0
 11
1.0
 21
1.0
 12
90.0
 22
93.50000000000006
 13
0.0
 23
0.0
 14
1.0
 24
1.0
 15
0.0
 25
0.0
 16
0.0
 26
0.0
 36
1.0
 17
0.0
 27
0.0
 37
0.0
 40
188.4347826086955
 41
2.043533930857874
 42
50.0
 43
0.0
 44
0.0
 50
0.0
 51
0.0
 71
     0
 72
   100
 73
     1
 74
     3
 75
     0
 76
     0
 77
     0
 78
     0
  0
ENDTAB
  0
TABLE
  2
LTYPE
  5
5
330
0
100
AcDbSymbolTable
 70
     1
  0
LTYPE
  5
13
330
5
100
AcDbSymbolTableRecord
100
AcDbLinetypeTableRecord
  2
BYBLOCK
 70
     0
  3

 72
    65
 73
     0
 40
0.0
  0
LTYPE
  5
14
330
5
100
AcDbSymbolTableRecord
100
AcDbLinetypeTableRecord
  2
BYLAYER
 70
     0
  3

 72
    65
 73
     0
 40
0.0
  0
LTYPE
  5
15
330
5
100
AcDbSymbolTableRecord
100
AcDbLinetypeTableRecord
  2
CONTINUOUS
 70
     0
  3
Solid line
 72
    65
 73
     0
 40
0.0
  0
ENDTAB
  0
TABLE
  2
LAYER
  5
2
330
0
100
AcDbSymbolTable
 70
     1
  0
LAYER
  5
10
330
2
100
AcDbSymbolTableRecord
100
AcDbLayerTableRecord
  2
0
 70
     0
 62
     7
  6
CONTINUOUS
  0
ENDTAB
  0
TABLE
  2
STYLE
  5
3
330
0
100
AcDbSymbolTable
 70
     1
  0
STYLE
  5
11
330
3
100
AcDbSymbolTableRecord
100
AcDbTextStyleTableRecord
  2
STANDARD
 70
     0
 40
0.0
 41
1.0
 50
0.0
 71
     0
 42
0.2
  3
txt
  4

  0
ENDTAB
  0
TABLE
  2
VIEW
  5
6
330
0
100
AcDbSymbolTable
 70
     0
  0
ENDTAB
  0
TABLE
  2
UCS
  5
7
330
0
100
AcDbSymbolTable
 70
     0
  0
ENDTAB
  0
TABLE
  2
APPID
  5
9
330
0
100
AcDbSymbolTable
 70
     1
  0
APPID
  5
12
330
9
100
AcDbSymbolTableRecord
100
AcDbRegAppTableRecord
  2
ACAD
 70
     0
  0
ENDTAB
  0
TABLE
  2
DIMSTYLE
  5
A
330
0
100
AcDbSymbolTable
 70
     1
  0
DIMSTYLE
105
47F
330
A
100
AcDbSymbolTableRecord
100
AcDbDimStyleTableRecord
  2
STANDARD
 70
     0
  3

  4

  5

  6

  7

 40
1.0
 41
0.18
 42
0.0625
 43
0.38
 44
0.18
 45
0.0
 46
0.0
 47
0.0
 48
0.0
140
0.18
141
0.09
142
0.0
143
25.4
144
1.0
145
0.0
146
1.0
147
0.09
 71
     0
 72
     0
 73
     1
 74
     1
 75
     0
 76
     0
 77
     0
 78
     0
170
     0
171
     2
172
     0
173
     0
174
     0
175
     0
176
     0
177
     0
178
     0
270
     2
271
     4
272
     4
273
     2
274
     2
340
11
275
     0
280
     0
281
     0
282
     0
283
     1
284
     0
285
     0
286
     0
287
     3
288
     0
  0
ENDTAB
  0
TABLE
  2
BLOCK_RECORD
  5
1
330
0
100
AcDbSymbolTable
 70
     0
  0
BLOCK_RECORD
  5
1E
102
{ACAD_XDICTIONARY
360
4A8
102
}
330
1
100
AcDbSymbolTableRecord
100
AcDbBlockTableRecord
  2
*MODEL_SPACE
  0
BLOCK_RECORD
  5
1A
102
{ACAD_XDICTIONARY
360
4A6
102
}
330
1
100
AcDbSymbolTableRecord
100
AcDbBlockTableRecord
  2
*PAPER_SPACE
  0
ENDTAB
  0
ENDSEC
  0
SECTION
  2
BLOCKS
  0
BLOCK
  5
1F
330
1E
100
AcDbEntity
  8
0
100
AcDbBlockBegin
  2
*MODEL_SPACE
 70
     0
 10
0.0
 20
0.0
 30
0.0
  3
*MODEL_SPACE
  1

  0
ENDBLK
  5
20
330
1E
100
AcDbEntity
  8
0
100
AcDbBlockEnd
  0
BLOCK
  5
1B
330
1A
100
AcDbEntity
 67
     1
  8
0
100
AcDbBlockBegin
  2
*PAPER_SPACE
 70
     0
 10
0.0
 20
0.0
 30
0.0
  3
*PAPER_SPACE
  1

  0
ENDBLK
  5
1C
330
1A
100
AcDbEntity
 67
     1
  8
0
100
AcDbBlockEnd
  0
ENDSEC
  0
SECTION
  2
ENTITIES
  0
LINE
  5
22
330
1E
100
AcDbEntity
  8
0
100
AcDbLine
 10
-0.0000000000000034
 20
3.00000000000012
 30
0.0
 11
0.9999999999999969
 21
2.000000000000119
 31
0.0
  0
LINE
  5
23
330
1E
100
AcDbEntity
  8
0
100
AcDbLine
 10
-0.0000000000000034
 20
3.00000000000012
 30
0.0
 11
3.299999999999999
 21
3.00000000000012
 31
0.0
  0
LINE
  5
24
330
1E
100
AcDbEntity
  8
0
100
AcDbLine
 10
-0.0000000000000034
 20
3.00000000000012
 30
0.0
 11
-0.0000000000000034
 21
12.00000000000009
 31
0.0
  0
LINE
  5
25
330
1E
100
AcDbEntity
  8
0
100
AcDbLine
 10
-0.0000000000000037
 20
53.00000000000011
 30
0.0
 11
3.299999999999999
 21
53.00000000000011
 31
0.0
  0
LINE
  5
26
330
1E
100
AcDbEntity
  8
0
100
AcDbLine
 10
-0.0000000000000034
 20
53.00000000000011
 30
0.0
 11
-0.0000000000000034
 21
14.0000000000001
 31
0.0
  0
LINE
  5
27
330
1E
100
AcDbEntity
  8
0
100
AcDbLine
 10
-0.0000000000000034
 20
53.00000000000011
 30
0.0
 11
3.299999999999999
 21
53.00000000000011
 31
0.0
  0
LINE
  5
28
330
1E
100
AcDbEntity
  8
0
100
AcDbLine
 10
-0.0000000000000034
 20
53.00000000000011
 30
0.0
 11
0.9999999999999969
 21
54.00000000000011
 31
0.0
  0
LINE
  5
29
330
1E
100
AcDbEntity
  8
0
100
AcDbLine
 10
-0.0000000000000034
 20
14.0000000000001
 30
0.0
 11
0.9999999999999969
 21
13.0000000000001
 31
0.0
  0
LINE
  5
2A
330
1E
100
AcDbEntity
  8
0
100
AcDbLine
 10
-0.0000000000000034
 20
14.0000000000001
 30
0.0
 11
3.299999999999999
 21
14.0000000000001
 31
0.0
  0
LINE
  5
2B
330
1E
100
AcDbEntity
  8
0
100
AcDbLine
 10
-0.0000000000000034
 20
14.0000000000001
 30
0.0
 11
-0.0000000000000034
 21
53.00000000000011
 31
0.0
  0
LINE
  5
2C
330
1E
100
AcDbEntity
  8
0
100
AcDbLine
 10
-0.0000000000000037
 20
14.0000000000001
 30
0.0
 11
3.299999999999999
 21
14.0000000000001
 31
0.0
  0
LINE
  5
2D
330
1E
100
AcDbEntity
  8
0
100
AcDbLine
 10
-0.0000000000000037
 20
12.00000000000009
 30
0.0
 11
3.299999999999999
 21
12.00000000000009
 31
0.0
  0
LINE
  5
2E
330
1E
100
AcDbEntity
  8
0
100
AcDbLine
 10
0.999999999999996
 20
54.00000000000011
 30
0.0
 11
4.2
 21
54.00000000000011
 31
0.0
  0
LINE
  5
2F
330
1E
100
AcDbEntity
  8
0
100
AcDbLine
 10
0.999999999999996
 20
13.0000000000001
 30
0.0
 11
4.2
 21
13.0000000000001
 31
0.0
  0
LINE
  5
30
330
1E
100
AcDbEntity
  8
0
100
AcDbLine
 10
-0.0000000000000034
 20
12.00000000000009
 30
0.0
 11
-0.0000000000000034
 21
3.00000000000012
 31
0.0
  0
LINE
  5
31
330
1E
100
AcDbEntity
  8
0
100
AcDbLine
 10
-0.0000000000000034
 20
12.00000000000009
 30
0.0
 11
3.299999999999999
 21
12.00000000000009
 31
0.0
  0
LINE
  5
32
330
1E
100
AcDbEntity
  8
0
100
AcDbLine
 10
-0.0000000000000034
 20
12.00000000000009
 30
0.0
 11
0.9999999999999969
 21
13.0000000000001
 31
0.0
  0
LINE
  5
33
330
1E
100
AcDbEntity
  8
0
100
AcDbLine
 10
-0.0000000000000037
 20
3.00000000000012
 30
0.0
 11
3.299999999999999
 21
3.00000000000012
 31
0.0
  0
LINE
  5
34
330
1E
100
AcDbEntity
  8
0
100
AcDbLine
 10
17.6199
 20
0.0000000000001133
 30
0.0
 11
18.6199
 21
0.0000000000001132
 31
0.0
  0
LINE
  5
35
330
1E
100
AcDbEntity
  8
0
100
AcDbLine
 10
16.88779999999999
 20
0.0000000000001132
 30
0.0
 11
18.6199
 21
0.0000000000001132
 31
0.0
  0
LINE
  5
36
330
1E
100
AcDbEntity
  8
0
100
AcDbLine
 10
15.8878
 20
0.0000000000001133
 30
0.0
 11
15.8878
 21
2.00000000000011
 31
0.0
  0
LINE
  5
37
330
1E
100
AcDbEntity
  8
0
100
AcDbLine
 10
15.8878
 20
0.0000000000001133
 30
0.0
 11
17.6199
 21
0.0000000000001133
 31
0.0
  0
LINE
  5
38
330
1E
100
AcDbEntity
  8
0
100
AcDbLine
 10
15.8878
 20
0.0000000000001133
 30
0.0
 11
16.88779999999999
 21
0.0000000000001132
 31
0.0
  0
LINE
  5
39
330
1E
100
AcDbEntity
  8
0
100
AcDbLine
 10
8.15512
 20
0.0000000000001144
 30
0.0
 11
10.08699999999999
 21
0.0000000000001144
 31
0.0
  0
LINE
  5
3A
330
1E
100
AcDbEntity
  8
0
100
AcDbLine
 10
9.569339999999998
 20
0.0000000000001146
 30
0.0
 11
10.08699999999999
 21
0.0000000000001144
 31
0.0
  0
LINE
  5
3B
330
1E
100
AcDbEntity
  8
0
100
AcDbLine
 10
7.637489999999999
 20
0.0000000000001145
 30
0.0
 11
7.637489999999999
 21
2.00000000000011
 31
0.0
  0
LINE
  5
3C
330
1E
100
AcDbEntity
  8
0
100
AcDbLine
 10
7.637489999999999
 20
0.0000000000001145
 30
0.0
 11
9.569339999999998
 21
0.0000000000001146
 31
0.0
  0
LINE
  5
3D
330
1E
100
AcDbEntity
  8
0
100
AcDbLine
 10
7.637489999999999
 20
0.0000000000001145
 30
0.0
 11
8.15512
 21
0.0000000000001144
 31
0.0
  0
LINE
  5
3E
330
1E
100
AcDbEntity
  8
0
100
AcDbLine
 10
28.87819999999999
 20
0.0000000000001137
 30
0.0
 11
28.87819999999999
 21
2.00000000000011
 31
0.0
  0
LINE
  5
3F
330
1E
100
AcDbEntity
  8
0
100
AcDbLine
 10
28.87819999999999
 20
0.0000000000001137
 30
0.0
 11
30.6103
 21
0.0000000000001138
 31
0.0
  0
LINE
  5
40
330
1E
100
AcDbEntity
  8
0
100
AcDbLine
 10
28.87819999999999
 20
0.0000000000001137
 30
0.0
 11
29.8782
 21
0.0000000000001136
 31
0.0
  0
LINE
  5
41
330
1E
100
AcDbEntity
  8
0
100
AcDbLine
 10
30.603
 20
0.0000000000001123
 30
0.0
 11
32.0172
 21
0.0000000000001122
 31
0.0
  0
LINE
  5
42
330
1E
100
AcDbEntity
  8
0
100
AcDbLine
 10
30.603
 20
0.0000000000001121
 30
0.0
 11
32.0172
 21
0.0000000000001122
 31
0.0
  0
LINE
  5
43
330
1E
100
AcDbEntity
  8
0
100
AcDbLine
 10
30.6103
 20
0.0000000000001138
 30
0.0
 11
31.6103
 21
0.0000000000001137
 31
0.0
  0
LINE
  5
44
330
1E
100
AcDbEntity
  8
0
100
AcDbLine
 10
29.8782
 20
0.0000000000001136
 30
0.0
 11
31.6103
 21
0.0000000000001137
 31
0.0
  0
LINE
  5
45
330
1E
100
AcDbEntity
  8
0
100
AcDbLine
 10
29.1888
 20
0.0000000000001122
 30
0.0
 11
30.603
 21
0.0000000000001123
 31
0.0
  0
LINE
  5
46
330
1E
100
AcDbEntity
  8
0
100
AcDbLine
 10
29.1888
 20
0.0000000000001122
 30
0.0
 11
30.603
 21
0.0000000000001121
 31
0.0
  0
LINE
  5
47
330
1E
100
AcDbEntity
  8
0
100
AcDbLine
 10
22.644
 20
0.0000000000001146
 30
0.0
 11
24.5759
 21
0.0000000000001147
 31
0.0
  0
LINE
  5
48
330
1E
100
AcDbEntity
  8
0
100
AcDbLine
 10
24.0582
 20
0.0000000000001148
 30
0.0
 11
24.5759
 21
0.0000000000001147
 31
0.0
  0
LINE
  5
49
330
1E
100
AcDbEntity
  8
0
100
AcDbLine
 10
22.12639999999999
 20
0.0000000000001148
 30
0.0
 11
22.12639999999999
 21
2.000000000000119
 31
0.0
  0
LINE
  5
4A
330
1E
100
AcDbEntity
  8
0
100
AcDbLine
 10
22.12639999999999
 20
0.0000000000001148
 30
0.0
 11
24.0582
 21
0.0000000000001148
 31
0.0
  0
LINE
  5
4B
330
1E
100
AcDbEntity
  8
0
100
AcDbLine
 10
22.12639999999999
 20
0.0000000000001148
 30
0.0
 11
22.644
 21
0.0000000000001146
 31
0.0
  0
LINE
  5
4C
330
1E
100
AcDbEntity
  8
0
100
AcDbLine
 10
36.61529999999999
 20
0.000000000000115
 30
0.0
 11
38.5471
 21
0.000000000000115
 31
0.0
  0
LINE
  5
4D
330
1E
100
AcDbEntity
  8
0
100
AcDbLine
 10
36.61529999999999
 20
0.000000000000115
 30
0.0
 11
37.1329
 21
0.0000000000001149
 31
0.0
  0
LINE
  5
4E
330
1E
100
AcDbEntity
  8
0
100
AcDbLine
 10
47.63399999999999
 20
0.0000000000001114
 30
0.0
 11
49.36600000000001
 21
0.0000000000001114
 31
0.0
  0
LINE
  5
4F
330
1E
100
AcDbEntity
  8
0
100
AcDbLine
 10
48.366
 20
0.0000000000001113
 30
0.0
 11
49.36600000000001
 21
0.0000000000001114
 31
0.0
  0
LINE
  5
50
330
1E
100
AcDbEntity
  8
0
100
AcDbLine
 10
46.63399999999999
 20
0.0000000000001113
 30
0.0
 11
46.63399999999999
 21
2.00000000000011
 31
0.0
  0
LINE
  5
51
330
1E
100
AcDbEntity
  8
0
100
AcDbLine
 10
46.63399999999999
 20
0.0000000000001113
 30
0.0
 11
47.63399999999999
 21
0.0000000000001114
 31
0.0
  0
LINE
  5
52
330
1E
100
AcDbEntity
  8
0
100
AcDbLine
 10
46.63399999999999
 20
0.0000000000001113
 30
0.0
 11
48.366
 21
0.0000000000001113
 31
0.0
  0
LINE
  5
53
330
1E
100
AcDbEntity
  8
0
100
AcDbLine
 10
41.8686
 20
0.0000000000001142
 30
0.0
 11
43.6007
 21
0.0000000000001142
 31
0.0
  0
LINE
  5
54
330
1E
100
AcDbEntity
  8
0
100
AcDbLine
 10
41.8686
 20
0.0000000000001142
 30
0.0
 11
42.86859999999999
 21
0.0000000000001141
 31
0.0
  0
LINE
  5
55
330
1E
100
AcDbEntity
  8
0
100
AcDbLine
 10
41.2096
 20
0.0000000000001129
 30
0.0
 11
42.6238
 21
0.0000000000001128
 31
0.0
  0
LINE
  5
56
330
1E
100
AcDbEntity
  8
0
100
AcDbLine
 10
43.6007
 20
0.0000000000001142
 30
0.0
 11
44.6007
 21
0.0000000000001141
 31
0.0
  0
LINE
  5
57
330
1E
100
AcDbEntity
  8
0
100
AcDbLine
 10
42.86859999999999
 20
0.0000000000001141
 30
0.0
 11
44.6007
 21
0.0000000000001141
 31
0.0
  0
LINE
  5
58
330
1E
100
AcDbEntity
  8
0
100
AcDbLine
 10
41.2096
 20
0.0000000000001127
 30
0.0
 11
42.6238
 21
0.0000000000001128
 31
0.0
  0
LINE
  5
59
330
1E
100
AcDbEntity
  8
0
100
AcDbLine
 10
39.7954
 20
0.0000000000001128
 30
0.0
 11
39.7954
 21
2.00000000000011
 31
0.0
  0
LINE
  5
5A
330
1E
100
AcDbEntity
  8
0
100
AcDbLine
 10
39.7954
 20
0.0000000000001128
 30
0.0
 11
41.2096
 21
0.0000000000001129
 31
0.0
  0
LINE
  5
5B
330
1E
100
AcDbEntity
  8
0
100
AcDbLine
 10
39.7954
 20
0.0000000000001128
 30
0.0
 11
41.2096
 21
0.0000000000001127
 31
0.0
  0
LINE
  5
5C
330
1E
100
AcDbEntity
  8
0
100
AcDbLine
 10
38.5471
 20
0.000000000000115
 30
0.0
 11
39.0648
 21
0.0000000000001149
 31
0.0
  0
LINE
  5
5D
330
1E
100
AcDbEntity
  8
0
100
AcDbLine
 10
37.1329
 20
0.0000000000001149
 30
0.0
 11
39.0648
 21
0.0000000000001149
 31
0.0
  0
LINE
  5
5E
330
1E
100
AcDbEntity
  8
0
100
AcDbLine
 10
50.402
 20
0.0000000000001135
 30
0.0
 11
51.8162
 21
0.0000000000001136
 31
0.0
  0
LINE
  5
5F
330
1E
100
AcDbEntity
  8
0
100
AcDbLine
 10
50.402
 20
0.0000000000001135
 30
0.0
 11
51.8162
 21
0.0000000000001134
 31
0.0
  0
LINE
  5
60
330
1E
100
AcDbEntity
  8
0
100
AcDbLine
 10
51.8162
 20
0.0000000000001136
 30
0.0
 11
53.2304
 21
0.0000000000001135
 31
0.0
  0
LINE
  5
61
330
1E
100
AcDbEntity
  8
0
100
AcDbLine
 10
51.8162
 20
0.0000000000001134
 30
0.0
 11
53.2304
 21
0.0000000000001135
 31
0.0
  0
LINE
  5
62
330
1E
100
AcDbEntity
  8
0
100
AcDbLine
 10
51.6218
 20
0.0000000000001151
 30
0.0
 11
53.55360000000001
 21
0.0000000000001152
 31
0.0
  0
LINE
  5
63
330
1E
100
AcDbEntity
  8
0
100
AcDbLine
 10
51.1041
 20
0.0000000000001152
 30
0.0
 11
53.036
 21
0.0000000000001153
 31
0.0
  0
LINE
  5
64
330
1E
100
AcDbEntity
  8
0
100
AcDbLine
 10
51.1041
 20
0.0000000000001152
 30
0.0
 11
51.6218
 21
0.0000000000001151
 31
0.0
  0
LINE
  5
65
330
1E
100
AcDbEntity
  8
0
100
AcDbLine
 10
55.866
 20
0.0000000000001121
 30
0.0
 11
56.86600000000001
 21
0.0000000000001122
 31
0.0
  0
LINE
  5
66
330
1E
100
AcDbEntity
  8
0
100
AcDbLine
 10
55.13399999999999
 20
0.0000000000001122
 30
0.0
 11
56.86600000000001
 21
0.0000000000001122
 31
0.0
  0
LINE
  5
67
330
1E
100
AcDbEntity
  8
0
100
AcDbLine
 10
61.63399999999999
 20
0.0000000000001129
 30
0.0
 11
62.63399999999999
 21
0.000000000000113
 31
0.0
  0
LINE
  5
68
330
1E
100
AcDbEntity
  8
0
100
AcDbLine
 10
61.63399999999999
 20
0.0000000000001129
 30
0.0
 11
63.366
 21
0.0000000000001129
 31
0.0
  0
LINE
  5
69
330
1E
100
AcDbEntity
  8
0
100
AcDbLine
 10
54.13399999999999
 20
0.0000000000001121
 30
0.0
 11
54.13399999999999
 21
2.00000000000011
 31
0.0
  0
LINE
  5
6A
330
1E
100
AcDbEntity
  8
0
100
AcDbLine
 10
54.13399999999999
 20
0.0000000000001121
 30
0.0
 11
55.13399999999999
 21
0.0000000000001122
 31
0.0
  0
LINE
  5
6B
330
1E
100
AcDbEntity
  8
0
100
AcDbLine
 10
54.13399999999999
 20
0.0000000000001121
 30
0.0
 11
55.866
 21
0.0000000000001121
 31
0.0
  0
LINE
  5
6C
330
1E
100
AcDbEntity
  8
0
100
AcDbLine
 10
62.63399999999999
 20
0.000000000000113
 30
0.0
 11
64.366
 21
0.000000000000113
 31
0.0
  0
LINE
  5
6D
330
1E
100
AcDbEntity
  8
0
100
AcDbLine
 10
63.366
 20
0.0000000000001129
 30
0.0
 11
64.366
 21
0.000000000000113
 31
0.0
  0
LINE
  5
6E
330
1E
100
AcDbEntity
  8
0
100
AcDbLine
 10
62.4228
 20
0.000000000000114
 30
0.0
 11
63.837
 21
0.0000000000001141
 31
0.0
  0
LINE
  5
6F
330
1E
100
AcDbEntity
  8
0
100
AcDbLine
 10
55.85899999999999
 20
0.0000000000001145
 30
0.0
 11
57.591
 21
0.0000000000001146
 31
0.0
  0
LINE
  5
70
330
1E
100
AcDbEntity
  8
0
100
AcDbLine
 10
56.591
 20
0.0000000000001147
 30
0.0
 11
57.591
 21
0.0000000000001146
 31
0.0
  0
LINE
  5
71
330
1E
100
AcDbEntity
  8
0
100
AcDbLine
 10
54.85899999999999
 20
0.0000000000001146
 30
0.0
 11
56.591
 21
0.0000000000001147
 31
0.0
  0
LINE
  5
72
330
1E
100
AcDbEntity
  8
0
100
AcDbLine
 10
54.85899999999999
 20
0.0000000000001146
 30
0.0
 11
55.85899999999999
 21
0.0000000000001145
 31
0.0
  0
LINE
  5
73
330
1E
100
AcDbEntity
  8
0
100
AcDbLine
 10
62.4228
 20
0.0000000000001142
 30
0.0
 11
63.837
 21
0.0000000000001141
 31
0.0
  0
LINE
  5
74
330
1E
100
AcDbEntity
  8
0
100
AcDbLine
 10
61.0086
 20
0.0000000000001141
 30
0.0
 11
61.0086
 21
2.00000000000011
 31
0.0
  0
LINE
  5
75
330
1E
100
AcDbEntity
  8
0
100
AcDbLine
 10
61.0086
 20
0.0000000000001141
 30
0.0
 11
62.4228
 21
0.0000000000001142
 31
0.0
  0
LINE
  5
76
330
1E
100
AcDbEntity
  8
0
100
AcDbLine
 10
61.0086
 20
0.0000000000001141
 30
0.0
 11
62.4228
 21
0.000000000000114
 31
0.0
  0
LINE
  5
77
330
1E
100
AcDbEntity
  8
0
100
AcDbLine
 10
53.036
 20
0.0000000000001153
 30
0.0
 11
53.55360000000001
 21
0.0000000000001152
 31
0.0
  0
LINE
  5
78
330
1E
100
AcDbEntity
  8
0
100
AcDbLine
 10
66.11069999999999
 20
0.0000000000001154
 30
0.0
 11
68.0425
 21
0.0000000000001154
 31
0.0
  0
LINE
  5
79
330
1E
100
AcDbEntity
  8
0
100
AcDbLine
 10
65.593
 20
0.0000000000001155
 30
0.0
 11
67.5249
 21
0.0000000000001155
 31
0.0
  0
LINE
  5
7A
330
1E
100
AcDbEntity
  8
0
100
AcDbLine
 10
65.593
 20
0.0000000000001155
 30
0.0
 11
66.11069999999999
 21
0.0000000000001154
 31
0.0
  0
LINE
  5
7B
330
1E
100
AcDbEntity
  8
0
100
AcDbLine
 10
67.55209999999999
 20
0.0000000000001109
 30
0.0
 11
69.4839
 21
0.0000000000001109
 31
0.0
  0
LINE
  5
7C
330
1E
100
AcDbEntity
  8
0
100
AcDbLine
 10
67.0345
 20
0.0000000000001108
 30
0.0
 11
67.55209999999999
 21
0.0000000000001109
 31
0.0
  0
LINE
  5
7D
330
1E
100
AcDbEntity
  8
0
100
AcDbLine
 10
67.0345
 20
0.0000000000001108
 30
0.0
 11
68.9663
 21
0.0000000000001108
 31
0.0
  0
LINE
  5
7E
330
1E
100
AcDbEntity
  8
0
100
AcDbLine
 10
68.9663
 20
0.0000000000001108
 30
0.0
 11
69.4839
 21
0.0000000000001109
 31
0.0
  0
LINE
  5
7F
330
1E
100
AcDbEntity
  8
0
100
AcDbLine
 10
71.4344
 20
0.0000000000001118
 30
0.0
 11
73.3662
 21
0.0000000000001118
 31
0.0
  0
LINE
  5
80
330
1E
100
AcDbEntity
  8
0
100
AcDbLine
 10
70.9167
 20
0.0000000000001117
 30
0.0
 11
71.4344
 21
0.0000000000001118
 31
0.0
  0
LINE
  5
81
330
1E
100
AcDbEntity
  8
0
100
AcDbLine
 10
70.9167
 20
0.0000000000001117
 30
0.0
 11
72.84860000000001
 21
0.0000000000001117
 31
0.0
  0
LINE
  5
82
330
1E
100
AcDbEntity
  8
0
100
AcDbLine
 10
70.866
 20
0.0000000000001137
 30
0.0
 11
71.866
 21
0.0000000000001138
 31
0.0
  0
LINE
  5
83
330
1E
100
AcDbEntity
  8
0
100
AcDbLine
 10
70.134
 20
0.0000000000001138
 30
0.0
 11
71.866
 21
0.0000000000001138
 31
0.0
  0
LINE
  5
84
330
1E
100
AcDbEntity
  8
0
100
AcDbLine
 10
69.134
 20
0.0000000000001137
 30
0.0
 11
70.134
 21
0.0000000000001138
 31
0.0
  0
LINE
  5
85
330
1E
100
AcDbEntity
  8
0
100
AcDbLine
 10
69.134
 20
0.0000000000001137
 30
0.0
 11
70.866
 21
0.0000000000001137
 31
0.0
  0
LINE
  5
86
330
1E
100
AcDbEntity
  8
0
100
AcDbLine
 10
72.84860000000001
 20
0.0000000000001117
 30
0.0
 11
73.3662
 21
0.0000000000001118
 31
0.0
  0
LINE
  5
87
330
1E
100
AcDbEntity
  8
0
100
AcDbLine
 10
76.73090000000001
 20
0.0000000000001125
 30
0.0
 11
77.2485
 21
0.0000000000001127
 31
0.0
  0
LINE
  5
88
330
1E
100
AcDbEntity
  8
0
100
AcDbLine
 10
75.3167
 20
0.0000000000001127
 30
0.0
 11
77.2485
 21
0.0000000000001127
 31
0.0
  0
LINE
  5
89
330
1E
100
AcDbEntity
  8
0
100
AcDbLine
 10
74.79899999999999
 20
0.0000000000001126
 30
0.0
 11
74.79899999999999
 21
2.00000000000011
 31
0.0
  0
LINE
  5
8A
330
1E
100
AcDbEntity
  8
0
100
AcDbLine
 10
74.79899999999999
 20
0.0000000000001126
 30
0.0
 11
75.3167
 21
0.0000000000001127
 31
0.0
  0
LINE
  5
8B
330
1E
100
AcDbEntity
  8
0
100
AcDbLine
 10
74.79899999999999
 20
0.0000000000001126
 30
0.0
 11
76.73090000000001
 21
0.0000000000001125
 31
0.0
  0
LINE
  5
8C
330
1E
100
AcDbEntity
  8
0
100
AcDbLine
 10
80.6132
 20
0.0000000000001134
 30
0.0
 11
81.1308
 21
0.0000000000001135
 31
0.0
  0
LINE
  5
8D
330
1E
100
AcDbEntity
  8
0
100
AcDbLine
 10
79.199
 20
0.0000000000001136
 30
0.0
 11
81.1308
 21
0.0000000000001135
 31
0.0
  0
LINE
  5
8E
330
1E
100
AcDbEntity
  8
0
100
AcDbLine
 10
76.634
 20
0.0000000000001145
 30
0.0
 11
77.634
 21
0.0000000000001146
 31
0.0
  0
LINE
  5
8F
330
1E
100
AcDbEntity
  8
0
100
AcDbLine
 10
76.634
 20
0.0000000000001145
 30
0.0
 11
78.366
 21
0.0000000000001145
 31
0.0
  0
LINE
  5
90
330
1E
100
AcDbEntity
  8
0
100
AcDbLine
 10
77.634
 20
0.0000000000001146
 30
0.0
 11
79.366
 21
0.0000000000001146
 31
0.0
  0
LINE
  5
91
330
1E
100
AcDbEntity
  8
0
100
AcDbLine
 10
78.366
 20
0.0000000000001145
 30
0.0
 11
79.366
 21
0.0000000000001146
 31
0.0
  0
LINE
  5
92
330
1E
100
AcDbEntity
  8
0
100
AcDbLine
 10
78.68129999999999
 20
0.0000000000001135
 30
0.0
 11
79.199
 21
0.0000000000001136
 31
0.0
  0
LINE
  5
93
330
1E
100
AcDbEntity
  8
0
100
AcDbLine
 10
78.68129999999999
 20
0.0000000000001135
 30
0.0
 11
80.6132
 21
0.0000000000001134
 31
0.0
  0
LINE
  5
94
330
1E
100
AcDbEntity
  8
0
100
AcDbLine
 10
73.02939999999999
 20
0.0000000000001149
 30
0.0
 11
74.4436
 21
0.0000000000001148
 31
0.0
  0
LINE
  5
95
330
1E
100
AcDbEntity
  8
0
100
AcDbLine
 10
73.02939999999999
 20
0.0000000000001147
 30
0.0
 11
74.4436
 21
0.0000000000001148
 31
0.0
  0
LINE
  5
96
330
1E
100
AcDbEntity
  8
0
100
AcDbLine
 10
71.6152
 20
0.0000000000001148
 30
0.0
 11
73.02939999999999
 21
0.0000000000001149
 31
0.0
  0
LINE
  5
97
330
1E
100
AcDbEntity
  8
0
100
AcDbLine
 10
71.6152
 20
0.0000000000001148
 30
0.0
 11
73.02939999999999
 21
0.0000000000001147
 31
0.0
  0
LINE
  5
98
330
1E
100
AcDbEntity
  8
0
100
AcDbLine
 10
69.5814
 20
0.0000000000001152
 30
0.0
 11
70.5814
 21
0.0000000000001151
 31
0.0
  0
LINE
  5
99
330
1E
100
AcDbEntity
  8
0
100
AcDbLine
 10
68.8494
 20
0.000000000000115
 30
0.0
 11
70.5814
 21
0.0000000000001151
 31
0.0
  0
LINE
  5
9A
330
1E
100
AcDbEntity
  8
0
100
AcDbLine
 10
67.8494
 20
0.0000000000001151
 30
0.0
 11
69.5814
 21
0.0000000000001152
 31
0.0
  0
LINE
  5
9B
330
1E
100
AcDbEntity
  8
0
100
AcDbLine
 10
67.8494
 20
0.0000000000001151
 30
0.0
 11
68.8494
 21
0.000000000000115
 31
0.0
  0
LINE
  5
9C
330
1E
100
AcDbEntity
  8
0
100
AcDbLine
 10
67.5249
 20
0.0000000000001155
 30
0.0
 11
68.0425
 21
0.0000000000001154
 31
0.0
  0
LINE
  5
9D
330
1E
100
AcDbEntity
  8
0
100
AcDbLine
 10
65.0
 20
0.0000000000001158
 30
0.0
 11
65.0
 21
2.000000000000119
 31
0.0
  0
LINE
  5
9E
330
1E
100
AcDbEntity
  8
0
100
AcDbLine
 10
65.0
 20
0.0000000000001158
 30
0.0
 11
67.0
 21
0.0000000000001158
 31
0.0
  0
LINE
  5
9F
330
1E
100
AcDbEntity
  8
0
100
AcDbLine
 10
65.0
 20
0.0000000000001159
 30
0.0
 11
65.0
 21
2.000000000000119
 31
0.0
  0
LINE
  5
A0
330
1E
100
AcDbEntity
  8
0
100
AcDbLine
 10
65.0
 20
0.0000000000001159
 30
0.0
 11
67.0
 21
0.0000000000001159
 31
0.0
  0
LINE
  5
A1
330
1E
100
AcDbEntity
  8
0
100
AcDbLine
 10
50.0
 20
0.0000000000001158
 30
0.0
 11
50.0
 21
2.000000000000119
 31
0.0
  0
LINE
  5
A2
330
1E
100
AcDbEntity
  8
0
100
AcDbLine
 10
50.0
 20
0.0000000000001158
 30
0.0
 11
52.0
 21
0.0000000000001158
 31
0.0
  0
LINE
  5
A3
330
1E
100
AcDbEntity
  8
0
100
AcDbLine
 10
50.0
 20
0.0000000000001159
 30
0.0
 11
50.0
 21
2.000000000000119
 31
0.0
  0
LINE
  5
A4
330
1E
100
AcDbEntity
  8
0
100
AcDbLine
 10
50.0
 20
0.0000000000001159
 30
0.0
 11
52.0
 21
0.0000000000001159
 31
0.0
  0
LINE
  5
A5
330
1E
100
AcDbEntity
  8
0
100
AcDbLine
 10
35.0
 20
0.0000000000001158
 30
0.0
 11
35.0
 21
2.000000000000119
 31
0.0
  0
LINE
  5
A6
330
1E
100
AcDbEntity
  8
0
100
AcDbLine
 10
35.0
 20
0.0000000000001158
 30
0.0
 11
37.0
 21
0.0000000000001158
 31
0.0
  0
LINE
  5
A7
330
1E
100
AcDbEntity
  8
0
100
AcDbLine
 10
35.0
 20
0.0000000000001159
 30
0.0
 11
35.0
 21
2.000000000000119
 31
0.0
  0
LINE
  5
A8
330
1E
100
AcDbEntity
  8
0
100
AcDbLine
 10
35.0
 20
0.0000000000001159
 30
0.0
 11
37.0
 21
0.0000000000001159
 31
0.0
  0
LINE
  5
A9
330
1E
100
AcDbEntity
  8
0
100
AcDbLine
 10
22.0
 20
0.0000000000001159
 30
0.0
 11
22.0
 21
2.000000000000119
 31
0.0
  0
LINE
  5
AA
330
1E
100
AcDbEntity
  8
0
100
AcDbLine
 10
20.0
 20
0.0000000000001158
 30
0.0
 11
20.0
 21
2.000000000000119
 31
0.0
  0
LINE
  5
AB
330
1E
100
AcDbEntity
  8
0
100
AcDbLine
 10
20.0
 20
0.0000000000001158
 30
0.0
 11
22.0
 21
0.0000000000001158
 31
0.0
  0
LINE
  5
AC
330
1E
100
AcDbEntity
  8
0
100
AcDbLine
 10
20.0
 20
0.0000000000001159
 30
0.0
 11
20.0
 21
2.000000000000119
 31
0.0
  0
LINE
  5
AD
330
1E
100
AcDbEntity
  8
0
100
AcDbLine
 10
20.0
 20
0.0000000000001159
 30
0.0
 11
22.0
 21
0.0000000000001159
 31
0.0
  0
LINE
  5
AE
330
1E
100
AcDbEntity
  8
0
100
AcDbLine
 10
7.0
 20
0.0000000000001159
 30
0.0
 11
7.0
 21
2.000000000000119
 31
0.0
  0
LINE
  5
AF
330
1E
100
AcDbEntity
  8
0
100
AcDbLine
 10
5.0
 20
0.0000000000001158
 30
0.0
 11
5.0
 21
2.000000000000119
 31
0.0
  0
LINE
  5
B0
330
1E
100
AcDbEntity
  8
0
100
AcDbLine
 10
5.0
 20
0.0000000000001158
 30
0.0
 11
7.0
 21
0.0000000000001158
 31
0.0
  0
LINE
  5
B1
330
1E
100
AcDbEntity
  8
0
100
AcDbLine
 10
9.569339999999998
 20
0.0000000000001171
 30
0.0
 11
10.08699999999999
 21
0.0000000000001172
 31
0.0
  0
LINE
  5
B2
330
1E
100
AcDbEntity
  8
0
100
AcDbLine
 10
7.637489999999999
 20
0.0000000000001171
 30
0.0
 11
7.637489999999999
 21
2.000000000000119
 31
0.0
  0
LINE
  5
B3
330
1E
100
AcDbEntity
  8
0
100
AcDbLine
 10
7.637489999999999
 20
0.0000000000001171
 30
0.0
 11
9.569339999999998
 21
0.0000000000001171
 31
0.0
  0
LINE
  5
B4
330
1E
100
AcDbEntity
  8
0
100
AcDbLine
 10
7.637489999999999
 20
0.0000000000001171
 30
0.0
 11
8.15512
 21
0.0000000000001172
 31
0.0
  0
LINE
  5
B5
330
1E
100
AcDbEntity
  8
0
100
AcDbLine
 10
36.61529999999999
 20
0.0000000000001166
 30
0.0
 11
36.61529999999999
 21
2.000000000000119
 31
0.0
  0
LINE
  5
B6
330
1E
100
AcDbEntity
  8
0
100
AcDbLine
 10
36.61529999999999
 20
0.0000000000001166
 30
0.0
 11
38.5471
 21
0.0000000000001166
 31
0.0
  0
LINE
  5
B7
330
1E
100
AcDbEntity
  8
0
100
AcDbLine
 10
36.61529999999999
 20
0.0000000000001166
 30
0.0
 11
37.1329
 21
0.0000000000001167
 31
0.0
  0
LINE
  5
B8
330
1E
100
AcDbEntity
  8
0
100
AcDbLine
 10
24.0582
 20
0.0000000000001168
 30
0.0
 11
24.5759
 21
0.0000000000001169
 31
0.0
  0
LINE
  5
B9
330
1E
100
AcDbEntity
  8
0
100
AcDbLine
 10
24.5759
 20
0.0000000000001169
 30
0.0
 11
24.5759
 21
2.000000000000119
 31
0.0
  0
LINE
  5
BA
330
1E
100
AcDbEntity
  8
0
100
AcDbLine
 10
22.644
 20
0.000000000000117
 30
0.0
 11
22.644
 21
2.000000000000119
 31
0.0
  0
LINE
  5
BB
330
1E
100
AcDbEntity
  8
0
100
AcDbLine
 10
22.644
 20
0.000000000000117
 30
0.0
 11
24.5759
 21
0.0000000000001169
 31
0.0
  0
LINE
  5
BC
330
1E
100
AcDbEntity
  8
0
100
AcDbLine
 10
22.12639999999999
 20
0.0000000000001169
 30
0.0
 11
22.12639999999999
 21
2.000000000000119
 31
0.0
  0
LINE
  5
BD
330
1E
100
AcDbEntity
  8
0
100
AcDbLine
 10
22.12639999999999
 20
0.0000000000001169
 30
0.0
 11
24.0582
 21
0.0000000000001168
 31
0.0
  0
LINE
  5
BE
330
1E
100
AcDbEntity
  8
0
100
AcDbLine
 10
22.12639999999999
 20
0.0000000000001169
 30
0.0
 11
22.644
 21
0.000000000000117
 31
0.0
  0
LINE
  5
BF
330
1E
100
AcDbEntity
  8
0
100
AcDbLine
 10
10.08699999999999
 20
0.0000000000001172
 30
0.0
 11
10.08699999999999
 21
2.000000000000119
 31
0.0
  0
LINE
  5
C0
330
1E
100
AcDbEntity
  8
0
100
AcDbLine
 10
8.15512
 20
0.0000000000001172
 30
0.0
 11
8.15512
 21
2.000000000000119
 31
0.0
  0
LINE
  5
C1
330
1E
100
AcDbEntity
  8
0
100
AcDbLine
 10
8.15512
 20
0.0000000000001172
 30
0.0
 11
10.08699999999999
 21
0.0000000000001172
 31
0.0
  0
LINE
  5
C2
330
1E
100
AcDbEntity
  8
0
100
AcDbLine
 10
17.6199
 20
0.0000000000001183
 30
0.0
 11
18.6199
 21
0.0000000000001184
 31
0.0
  0
LINE
  5
C3
330
1E
100
AcDbEntity
  8
0
100
AcDbLine
 10
30.6103
 20
0.0000000000001178
 30
0.0
 11
31.6103
 21
0.0000000000001179
 31
0.0
  0
LINE
  5
C4
330
1E
100
AcDbEntity
  8
0
100
AcDbLine
 10
29.8782
 20
0.000000000000118
 30
0.0
 11
31.6103
 21
0.0000000000001179
 31
0.0
  0
LINE
  5
C5
330
1E
100
AcDbEntity
  8
0
100
AcDbLine
 10
28.87819999999999
 20
0.0000000000001179
 30
0.0
 11
28.87819999999999
 21
2.000000000000119
 31
0.0
  0
LINE
  5
C6
330
1E
100
AcDbEntity
  8
0
100
AcDbLine
 10
28.87819999999999
 20
0.0000000000001179
 30
0.0
 11
30.6103
 21
0.0000000000001178
 31
0.0
  0
LINE
  5
C7
330
1E
100
AcDbEntity
  8
0
100
AcDbLine
 10
28.87819999999999
 20
0.0000000000001179
 30
0.0
 11
29.8782
 21
0.000000000000118
 31
0.0
  0
LINE
  5
C8
330
1E
100
AcDbEntity
  8
0
100
AcDbLine
 10
18.6199
 20
0.0000000000001184
 30
0.0
 11
18.6199
 21
2.000000000000119
 31
0.0
  0
LINE
  5
C9
330
1E
100
AcDbEntity
  8
0
100
AcDbLine
 10
16.88779999999999
 20
0.0000000000001185
 30
0.0
 11
16.88779999999999
 21
2.000000000000119
 31
0.0
  0
LINE
  5
CA
330
1E
100
AcDbEntity
  8
0
100
AcDbLine
 10
16.88779999999999
 20
0.0000000000001185
 30
0.0
 11
18.6199
 21
0.0000000000001184
 31
0.0
  0
LINE
  5
CB
330
1E
100
AcDbEntity
  8
0
100
AcDbLine
 10
15.8878
 20
0.0000000000001184
 30
0.0
 11
15.8878
 21
2.000000000000119
 31
0.0
  0
LINE
  5
CC
330
1E
100
AcDbEntity
  8
0
100
AcDbLine
 10
15.8878
 20
0.0000000000001184
 30
0.0
 11
17.6199
 21
0.0000000000001183
 31
0.0
  0
LINE
  5
CD
330
1E
100
AcDbEntity
  8
0
100
AcDbLine
 10
15.8878
 20
0.0000000000001184
 30
0.0
 11
16.88779999999999
 21
0.0000000000001185
 31
0.0
  0
LINE
  5
CE
330
1E
100
AcDbEntity
  8
0
100
AcDbLine
 10
30.603
 20
0.0000000000001194
 30
0.0
 11
32.0172
 21
0.0000000000001194
 31
0.0
  0
LINE
  5
CF
330
1E
100
AcDbEntity
  8
0
100
AcDbLine
 10
32.0172
 20
0.0000000000001194
 30
0.0
 11
32.0172
 21
2.000000000000119
 31
0.0
  0
LINE
  5
D0
330
1E
100
AcDbEntity
  8
0
100
AcDbLine
 10
30.603
 20
0.0000000000001195
 30
0.0
 11
30.603
 21
2.000000000000119
 31
0.0
  0
LINE
  5
D1
330
1E
100
AcDbEntity
  8
0
100
AcDbLine
 10
30.603
 20
0.0000000000001195
 30
0.0
 11
32.0172
 21
0.0000000000001194
 31
0.0
  0
LINE
  5
D2
330
1E
100
AcDbEntity
  8
0
100
AcDbLine
 10
29.1888
 20
0.0000000000001194
 30
0.0
 11
29.1888
 21
2.000000000000119
 31
0.0
  0
LINE
  5
D3
330
1E
100
AcDbEntity
  8
0
100
AcDbLine
 10
29.1888
 20
0.0000000000001194
 30
0.0
 11
30.603
 21
0.0000000000001194
 31
0.0
  0
LINE
  5
D4
330
1E
100
AcDbEntity
  8
0
100
AcDbLine
 10
29.1888
 20
0.0000000000001194
 30
0.0
 11
30.603
 21
0.0000000000001195
 31
0.0
  0
LINE
  5
D5
330
1E
100
AcDbEntity
  8
0
100
AcDbLine
 10
53.036
 20
0.0000000000001164
 30
0.0
 11
53.55360000000001
 21
0.0000000000001165
 31
0.0
  0
LINE
  5
D6
330
1E
100
AcDbEntity
  8
0
100
AcDbLine
 10
51.1041
 20
0.0000000000001164
 30
0.0
 11
53.036
 21
0.0000000000001164
 31
0.0
  0
LINE
  5
D7
330
1E
100
AcDbEntity
  8
0
100
AcDbLine
 10
51.1041
 20
0.0000000000001164
 30
0.0
 11
51.6218
 21
0.0000000000001165
 31
0.0
  0
LINE
  5
D8
330
1E
100
AcDbEntity
  8
0
100
AcDbLine
 10
67.5249
 20
0.0000000000001161
 30
0.0
 11
68.0425
 21
0.0000000000001162
 31
0.0
  0
LINE
  5
D9
330
1E
100
AcDbEntity
  8
0
100
AcDbLine
 10
65.593
 20
0.0000000000001161
 30
0.0
 11
65.593
 21
2.000000000000119
 31
0.0
  0
LINE
  5
DA
330
1E
100
AcDbEntity
  8
0
100
AcDbLine
 10
65.593
 20
0.0000000000001161
 30
0.0
 11
67.5249
 21
0.0000000000001161
 31
0.0
  0
LINE
  5
DB
330
1E
100
AcDbEntity
  8
0
100
AcDbLine
 10
65.593
 20
0.0000000000001161
 30
0.0
 11
66.11069999999999
 21
0.0000000000001163
 31
0.0
  0
LINE
  5
DC
330
1E
100
AcDbEntity
  8
0
100
AcDbLine
 10
53.55360000000001
 20
0.0000000000001165
 30
0.0
 11
53.55360000000001
 21
2.000000000000119
 31
0.0
  0
LINE
  5
DD
330
1E
100
AcDbEntity
  8
0
100
AcDbLine
 10
66.11069999999999
 20
0.0000000000001163
 30
0.0
 11
66.11069999999999
 21
2.000000000000119
 31
0.0
  0
LINE
  5
DE
330
1E
100
AcDbEntity
  8
0
100
AcDbLine
 10
66.11069999999999
 20
0.0000000000001163
 30
0.0
 11
68.0425
 21
0.0000000000001162
 31
0.0
  0
LINE
  5
DF
330
1E
100
AcDbEntity
  8
0
100
AcDbLine
 10
69.5814
 20
0.0000000000001165
 30
0.0
 11
70.5814
 21
0.0000000000001166
 31
0.0
  0
LINE
  5
E0
330
1E
100
AcDbEntity
  8
0
100
AcDbLine
 10
38.5471
 20
0.0000000000001166
 30
0.0
 11
39.0648
 21
0.0000000000001167
 31
0.0
  0
LINE
  5
E1
330
1E
100
AcDbEntity
  8
0
100
AcDbLine
 10
37.1329
 20
0.0000000000001167
 30
0.0
 11
37.1329
 21
2.000000000000119
 31
0.0
  0
LINE
  5
E2
330
1E
100
AcDbEntity
  8
0
100
AcDbLine
 10
37.1329
 20
0.0000000000001167
 30
0.0
 11
39.0648
 21
0.0000000000001167
 31
0.0
  0
LINE
  5
E3
330
1E
100
AcDbEntity
  8
0
100
AcDbLine
 10
51.6218
 20
0.0000000000001165
 30
0.0
 11
53.55360000000001
 21
0.0000000000001165
 31
0.0
  0
LINE
  5
E4
330
1E
100
AcDbEntity
  8
0
100
AcDbLine
 10
67.8494
 20
0.0000000000001165
 30
0.0
 11
69.5814
 21
0.0000000000001165
 31
0.0
  0
LINE
  5
E5
330
1E
100
AcDbEntity
  8
0
100
AcDbLine
 10
67.8494
 20
0.0000000000001165
 30
0.0
 11
68.8494
 21
0.0000000000001166
 31
0.0
  0
LINE
  5
E6
330
1E
100
AcDbEntity
  8
0
100
AcDbLine
 10
39.0648
 20
0.0000000000001167
 30
0.0
 11
39.0648
 21
2.000000000000119
 31
0.0
  0
LINE
  5
E7
330
1E
100
AcDbEntity
  8
0
100
AcDbLine
 10
41.2096
 20
0.0000000000001187
 30
0.0
 11
42.6238
 21
0.0000000000001188
 31
0.0
  0
LINE
  5
E8
330
1E
100
AcDbEntity
  8
0
100
AcDbLine
 10
41.2096
 20
0.0000000000001189
 30
0.0
 11
41.2096
 21
2.000000000000119
 31
0.0
  0
LINE
  5
E9
330
1E
100
AcDbEntity
  8
0
100
AcDbLine
 10
41.2096
 20
0.0000000000001189
 30
0.0
 11
42.6238
 21
0.0000000000001188
 31
0.0
  0
LINE
  5
EA
330
1E
100
AcDbEntity
  8
0
100
AcDbLine
 10
39.7954
 20
0.0000000000001188
 30
0.0
 11
39.7954
 21
2.000000000000119
 31
0.0
  0
LINE
  5
EB
330
1E
100
AcDbEntity
  8
0
100
AcDbLine
 10
39.7954
 20
0.0000000000001188
 30
0.0
 11
41.2096
 21
0.0000000000001187
 31
0.0
  0
LINE
  5
EC
330
1E
100
AcDbEntity
  8
0
100
AcDbLine
 10
39.7954
 20
0.0000000000001188
 30
0.0
 11
41.2096
 21
0.0000000000001189
 31
0.0
  0
LINE
  5
ED
330
1E
100
AcDbEntity
  8
0
100
AcDbLine
 10
56.591
 20
0.0000000000001169
 30
0.0
 11
57.591
 21
0.000000000000117
 31
0.0
  0
LINE
  5
EE
330
1E
100
AcDbEntity
  8
0
100
AcDbLine
 10
55.85899999999999
 20
0.0000000000001171
 30
0.0
 11
57.591
 21
0.000000000000117
 31
0.0
  0
LINE
  5
EF
330
1E
100
AcDbEntity
  8
0
100
AcDbLine
 10
54.85899999999999
 20
0.000000000000117
 30
0.0
 11
56.591
 21
0.0000000000001169
 31
0.0
  0
LINE
  5
F0
330
1E
100
AcDbEntity
  8
0
100
AcDbLine
 10
54.85899999999999
 20
0.000000000000117
 30
0.0
 11
55.85899999999999
 21
0.0000000000001171
 31
0.0
  0
LINE
  5
F1
330
1E
100
AcDbEntity
  8
0
100
AcDbLine
 10
57.591
 20
0.000000000000117
 30
0.0
 11
57.591
 21
2.000000000000119
 31
0.0
  0
LINE
  5
F2
330
1E
100
AcDbEntity
  8
0
100
AcDbLine
 10
43.6007
 20
0.0000000000001174
 30
0.0
 11
44.6007
 21
0.0000000000001175
 31
0.0
  0
LINE
  5
F3
330
1E
100
AcDbEntity
  8
0
100
AcDbLine
 10
44.6007
 20
0.0000000000001175
 30
0.0
 11
44.6007
 21
2.000000000000119
 31
0.0
  0
LINE
  5
F4
330
1E
100
AcDbEntity
  8
0
100
AcDbLine
 10
41.8686
 20
0.0000000000001174
 30
0.0
 11
43.6007
 21
0.0000000000001174
 31
0.0
  0
LINE
  5
F5
330
1E
100
AcDbEntity
  8
0
100
AcDbLine
 10
41.8686
 20
0.0000000000001174
 30
0.0
 11
42.86859999999999
 21
0.0000000000001175
 31
0.0
  0
LINE
  5
F6
330
1E
100
AcDbEntity
  8
0
100
AcDbLine
 10
62.4228
 20
0.0000000000001174
 30
0.0
 11
63.837
 21
0.0000000000001175
 31
0.0
  0
LINE
  5
F7
330
1E
100
AcDbEntity
  8
0
100
AcDbLine
 10
61.0086
 20
0.0000000000001175
 30
0.0
 11
61.0086
 21
2.000000000000119
 31
0.0
  0
LINE
  5
F8
330
1E
100
AcDbEntity
  8
0
100
AcDbLine
 10
61.0086
 20
0.0000000000001175
 30
0.0
 11
62.4228
 21
0.0000000000001174
 31
0.0
  0
LINE
  5
F9
330
1E
100
AcDbEntity
  8
0
100
AcDbLine
 10
61.0086
 20
0.0000000000001175
 30
0.0
 11
62.4228
 21
0.0000000000001176
 31
0.0
  0
LINE
  5
FA
330
1E
100
AcDbEntity
  8
0
100
AcDbLine
 10
73.02939999999999
 20
0.0000000000001168
 30
0.0
 11
74.4436
 21
0.0000000000001169
 31
0.0
  0
LINE
  5
FB
330
1E
100
AcDbEntity
  8
0
100
AcDbLine
 10
68.8494
 20
0.0000000000001166
 30
0.0
 11
70.5814
 21
0.0000000000001166
 31
0.0
  0
LINE
  5
FC
330
1E
100
AcDbEntity
  8
0
100
AcDbLine
 10
74.4436
 20
0.0000000000001169
 30
0.0
 11
74.4436
 21
2.000000000000119
 31
0.0
  0
LINE
  5
FD
330
1E
100
AcDbEntity
  8
0
100
AcDbLine
 10
73.02939999999999
 20
0.0000000000001169
 30
0.0
 11
74.4436
 21
0.0000000000001169
 31
0.0
  0
LINE
  5
FE
330
1E
100
AcDbEntity
  8
0
100
AcDbLine
 10
71.6152
 20
0.0000000000001169
 30
0.0
 11
73.02939999999999
 21
0.0000000000001168
 31
0.0
  0
LINE
  5
FF
330
1E
100
AcDbEntity
  8
0
100
AcDbLine
 10
71.6152
 20
0.0000000000001169
 30
0.0
 11
73.02939999999999
 21
0.0000000000001169
 31
0.0
  0
LINE
  5
100
330
1E
100
AcDbEntity
  8
0
100
AcDbLine
 10
77.634
 20
0.000000000000117
 30
0.0
 11
79.366
 21
0.0000000000001171
 31
0.0
  0
LINE
  5
101
330
1E
100
AcDbEntity
  8
0
100
AcDbLine
 10
76.634
 20
0.0000000000001171
 30
0.0
 11
77.634
 21
0.000000000000117
 31
0.0
  0
LINE
  5
102
330
1E
100
AcDbEntity
  8
0
100
AcDbLine
 10
76.634
 20
0.0000000000001171
 30
0.0
 11
78.366
 21
0.0000000000001172
 31
0.0
  0
LINE
  5
103
330
1E
100
AcDbEntity
  8
0
100
AcDbLine
 10
78.366
 20
0.0000000000001172
 30
0.0
 11
78.366
 21
2.000000000000119
 31
0.0
  0
LINE
  5
104
330
1E
100
AcDbEntity
  8
0
100
AcDbLine
 10
78.366
 20
0.0000000000001172
 30
0.0
 11
79.366
 21
0.0000000000001171
 31
0.0
  0
LINE
  5
105
330
1E
100
AcDbEntity
  8
0
100
AcDbLine
 10
42.86859999999999
 20
0.0000000000001175
 30
0.0
 11
42.86859999999999
 21
2.000000000000119
 31
0.0
  0
LINE
  5
106
330
1E
100
AcDbEntity
  8
0
100
AcDbLine
 10
42.86859999999999
 20
0.0000000000001175
 30
0.0
 11
44.6007
 21
0.0000000000001175
 31
0.0
  0
LINE
  5
107
330
1E
100
AcDbEntity
  8
0
100
AcDbLine
 10
62.4228
 20
0.0000000000001176
 30
0.0
 11
63.837
 21
0.0000000000001175
 31
0.0
  0
LINE
  5
108
330
1E
100
AcDbEntity
  8
0
100
AcDbLine
 10
51.8162
 20
0.0000000000001181
 30
0.0
 11
53.2304
 21
0.0000000000001182
 31
0.0
  0
LINE
  5
109
330
1E
100
AcDbEntity
  8
0
100
AcDbLine
 10
53.2304
 20
0.0000000000001182
 30
0.0
 11
53.2304
 21
2.000000000000119
 31
0.0
  0
LINE
  5
10A
330
1E
100
AcDbEntity
  8
0
100
AcDbLine
 10
51.8162
 20
0.0000000000001182
 30
0.0
 11
51.8162
 21
2.000000000000119
 31
0.0
  0
LINE
  5
10B
330
1E
100
AcDbEntity
  8
0
100
AcDbLine
 10
51.8162
 20
0.0000000000001182
 30
0.0
 11
53.2304
 21
0.0000000000001182
 31
0.0
  0
LINE
  5
10C
330
1E
100
AcDbEntity
  8
0
100
AcDbLine
 10
50.402
 20
0.0000000000001182
 30
0.0
 11
50.402
 21
2.000000000000119
 31
0.0
  0
LINE
  5
10D
330
1E
100
AcDbEntity
  8
0
100
AcDbLine
 10
50.402
 20
0.0000000000001182
 30
0.0
 11
51.8162
 21
0.0000000000001181
 31
0.0
  0
LINE
  5
10E
330
1E
100
AcDbEntity
  8
0
100
AcDbLine
 10
50.402
 20
0.0000000000001182
 30
0.0
 11
51.8162
 21
0.0000000000001182
 31
0.0
  0
LINE
  5
10F
330
1E
100
AcDbEntity
  8
0
100
AcDbLine
 10
42.6238
 20
0.0000000000001188
 30
0.0
 11
42.6238
 21
2.000000000000119
 31
0.0
  0
LINE
  5
110
330
1E
100
AcDbEntity
  8
0
100
AcDbLine
 10
62.63399999999999
 20
0.0000000000001186
 30
0.0
 11
64.366
 21
0.0000000000001187
 31
0.0
  0
LINE
  5
111
330
1E
100
AcDbEntity
  8
0
100
AcDbLine
 10
64.366
 20
0.0000000000001187
 30
0.0
 11
64.366
 21
2.000000000000119
 31
0.0
  0
LINE
  5
112
330
1E
100
AcDbEntity
  8
0
100
AcDbLine
 10
63.366
 20
0.0000000000001188
 30
0.0
 11
63.366
 21
2.000000000000119
 31
0.0
  0
LINE
  5
113
330
1E
100
AcDbEntity
  8
0
100
AcDbLine
 10
63.366
 20
0.0000000000001188
 30
0.0
 11
64.366
 21
0.0000000000001187
 31
0.0
  0
LINE
  5
114
330
1E
100
AcDbEntity
  8
0
100
AcDbLine
 10
61.63399999999999
 20
0.0000000000001187
 30
0.0
 11
61.63399999999999
 21
2.000000000000119
 31
0.0
  0
LINE
  5
115
330
1E
100
AcDbEntity
  8
0
100
AcDbLine
 10
61.63399999999999
 20
0.0000000000001187
 30
0.0
 11
62.63399999999999
 21
0.0000000000001186
 31
0.0
  0
LINE
  5
116
330
1E
100
AcDbEntity
  8
0
100
AcDbLine
 10
61.63399999999999
 20
0.0000000000001187
 30
0.0
 11
63.366
 21
0.0000000000001188
 31
0.0
  0
LINE
  5
117
330
1E
100
AcDbEntity
  8
0
100
AcDbLine
 10
70.134
 20
0.0000000000001178
 30
0.0
 11
71.866
 21
0.0000000000001179
 31
0.0
  0
LINE
  5
118
330
1E
100
AcDbEntity
  8
0
100
AcDbLine
 10
70.866
 20
0.000000000000118
 30
0.0
 11
70.866
 21
2.000000000000119
 31
0.0
  0
LINE
  5
119
330
1E
100
AcDbEntity
  8
0
100
AcDbLine
 10
70.866
 20
0.000000000000118
 30
0.0
 11
71.866
 21
0.0000000000001179
 31
0.0
  0
LINE
  5
11A
330
1E
100
AcDbEntity
  8
0
100
AcDbLine
 10
69.134
 20
0.0000000000001179
 30
0.0
 11
70.134
 21
0.0000000000001178
 31
0.0
  0
LINE
  5
11B
330
1E
100
AcDbEntity
  8
0
100
AcDbLine
 10
69.134
 20
0.0000000000001179
 30
0.0
 11
70.866
 21
0.000000000000118
 31
0.0
  0
LINE
  5
11C
330
1E
100
AcDbEntity
  8
0
100
AcDbLine
 10
47.63399999999999
 20
0.0000000000001202
 30
0.0
 11
49.36600000000001
 21
0.0000000000001202
 31
0.0
  0
LINE
  5
11D
330
1E
100
AcDbEntity
  8
0
100
AcDbLine
 10
49.36600000000001
 20
0.0000000000001202
 30
0.0
 11
49.36600000000001
 21
2.000000000000119
 31
0.0
  0
LINE
  5
11E
330
1E
100
AcDbEntity
  8
0
100
AcDbLine
 10
54.13399999999999
 20
0.0000000000001195
 30
0.0
 11
54.13399999999999
 21
2.000000000000119
 31
0.0
  0
LINE
  5
11F
330
1E
100
AcDbEntity
  8
0
100
AcDbLine
 10
54.13399999999999
 20
0.0000000000001195
 30
0.0
 11
55.13399999999999
 21
0.0000000000001194
 31
0.0
  0
LINE
  5
120
330
1E
100
AcDbEntity
  8
0
100
AcDbLine
 10
54.13399999999999
 20
0.0000000000001195
 30
0.0
 11
55.866
 21
0.0000000000001196
 31
0.0
  0
LINE
  5
121
330
1E
100
AcDbEntity
  8
0
100
AcDbLine
 10
48.366
 20
0.0000000000001204
 30
0.0
 11
48.366
 21
2.000000000000119
 31
0.0
  0
LINE
  5
122
330
1E
100
AcDbEntity
  8
0
100
AcDbLine
 10
48.366
 20
0.0000000000001204
 30
0.0
 11
49.36600000000001
 21
0.0000000000001202
 31
0.0
  0
LINE
  5
123
330
1E
100
AcDbEntity
  8
0
100
AcDbLine
 10
46.63399999999999
 20
0.0000000000001203
 30
0.0
 11
46.63399999999999
 21
2.000000000000119
 31
0.0
  0
LINE
  5
124
330
1E
100
AcDbEntity
  8
0
100
AcDbLine
 10
46.63399999999999
 20
0.0000000000001203
 30
0.0
 11
47.63399999999999
 21
0.0000000000001202
 31
0.0
  0
LINE
  5
125
330
1E
100
AcDbEntity
  8
0
100
AcDbLine
 10
46.63399999999999
 20
0.0000000000001203
 30
0.0
 11
48.366
 21
0.0000000000001204
 31
0.0
  0
LINE
  5
126
330
1E
100
AcDbEntity
  8
0
100
AcDbLine
 10
55.13399999999999
 20
0.0000000000001194
 30
0.0
 11
56.86600000000001
 21
0.0000000000001194
 31
0.0
  0
LINE
  5
127
330
1E
100
AcDbEntity
  8
0
100
AcDbLine
 10
56.86600000000001
 20
0.0000000000001194
 30
0.0
 11
56.86600000000001
 21
2.000000000000119
 31
0.0
  0
LINE
  5
128
330
1E
100
AcDbEntity
  8
0
100
AcDbLine
 10
67.55209999999999
 20
0.0000000000001207
 30
0.0
 11
69.4839
 21
0.0000000000001207
 31
0.0
  0
LINE
  5
129
330
1E
100
AcDbEntity
  8
0
100
AcDbLine
 10
67.0345
 20
0.0000000000001208
 30
0.0
 11
67.55209999999999
 21
0.0000000000001207
 31
0.0
  0
LINE
  5
12A
330
1E
100
AcDbEntity
  8
0
100
AcDbLine
 10
67.0345
 20
0.0000000000001208
 30
0.0
 11
67.0345
 21
2.000000000000119
 31
0.0
  0
LINE
  5
12B
330
1E
100
AcDbEntity
  8
0
100
AcDbLine
 10
67.0345
 20
0.0000000000001208
 30
0.0
 11
68.9663
 21
0.0000000000001209
 31
0.0
  0
LINE
  5
12C
330
1E
100
AcDbEntity
  8
0
100
AcDbLine
 10
71.4344
 20
0.0000000000001198
 30
0.0
 11
73.3662
 21
0.0000000000001198
 31
0.0
  0
LINE
  5
12D
330
1E
100
AcDbEntity
  8
0
100
AcDbLine
 10
70.9167
 20
0.0000000000001199
 30
0.0
 11
71.4344
 21
0.0000000000001198
 31
0.0
  0
LINE
  5
12E
330
1E
100
AcDbEntity
  8
0
100
AcDbLine
 10
70.9167
 20
0.0000000000001199
 30
0.0
 11
70.9167
 21
2.000000000000119
 31
0.0
  0
LINE
  5
12F
330
1E
100
AcDbEntity
  8
0
100
AcDbLine
 10
70.9167
 20
0.0000000000001199
 30
0.0
 11
72.84860000000001
 21
0.00000000000012
 31
0.0
  0
LINE
  5
130
330
1E
100
AcDbEntity
  8
0
100
AcDbLine
 10
69.4839
 20
0.0000000000001207
 30
0.0
 11
69.4839
 21
2.000000000000119
 31
0.0
  0
LINE
  5
131
330
1E
100
AcDbEntity
  8
0
100
AcDbLine
 10
68.9663
 20
0.0000000000001209
 30
0.0
 11
68.9663
 21
2.000000000000119
 31
0.0
  0
LINE
  5
132
330
1E
100
AcDbEntity
  8
0
100
AcDbLine
 10
68.9663
 20
0.0000000000001209
 30
0.0
 11
69.4839
 21
0.0000000000001207
 31
0.0
  0
LINE
  5
133
330
1E
100
AcDbEntity
  8
0
100
AcDbLine
 10
55.866
 20
0.0000000000001196
 30
0.0
 11
55.866
 21
2.000000000000119
 31
0.0
  0
LINE
  5
134
330
1E
100
AcDbEntity
  8
0
100
AcDbLine
 10
55.866
 20
0.0000000000001196
 30
0.0
 11
56.86600000000001
 21
0.0000000000001194
 31
0.0
  0
LINE
  5
135
330
1E
100
AcDbEntity
  8
0
100
AcDbLine
 10
75.3167
 20
0.0000000000001189
 30
0.0
 11
77.2485
 21
0.000000000000119
 31
0.0
  0
LINE
  5
136
330
1E
100
AcDbEntity
  8
0
100
AcDbLine
 10
73.3662
 20
0.0000000000001198
 30
0.0
 11
73.3662
 21
2.000000000000119
 31
0.0
  0
LINE
  5
137
330
1E
100
AcDbEntity
  8
0
100
AcDbLine
 10
72.84860000000001
 20
0.00000000000012
 30
0.0
 11
72.84860000000001
 21
2.000000000000119
 31
0.0
  0
LINE
  5
138
330
1E
100
AcDbEntity
  8
0
100
AcDbLine
 10
72.84860000000001
 20
0.00000000000012
 30
0.0
 11
73.3662
 21
0.0000000000001198
 31
0.0
  0
LINE
  5
139
330
1E
100
AcDbEntity
  8
0
100
AcDbLine
 10
74.79899999999999
 20
0.000000000000119
 30
0.0
 11
75.3167
 21
0.0000000000001189
 31
0.0
  0
LINE
  5
13A
330
1E
100
AcDbEntity
  8
0
100
AcDbLine
 10
74.79899999999999
 20
0.000000000000119
 30
0.0
 11
74.79899999999999
 21
2.000000000000119
 31
0.0
  0
LINE
  5
13B
330
1E
100
AcDbEntity
  8
0
100
AcDbLine
 10
74.79899999999999
 20
0.000000000000119
 30
0.0
 11
76.73090000000001
 21
0.0000000000001191
 31
0.0
  0
LINE
  5
13C
330
1E
100
AcDbEntity
  8
0
100
AcDbLine
 10
79.199
 20
0.000000000000118
 30
0.0
 11
81.1308
 21
0.0000000000001181
 31
0.0
  0
LINE
  5
13D
330
1E
100
AcDbEntity
  8
0
100
AcDbLine
 10
81.1308
 20
0.0000000000001181
 30
0.0
 11
81.1308
 21
2.000000000000119
 31
0.0
  0
LINE
  5
13E
330
1E
100
AcDbEntity
  8
0
100
AcDbLine
 10
80.6132
 20
0.0000000000001182
 30
0.0
 11
80.6132
 21
2.000000000000119
 31
0.0
  0
LINE
  5
13F
330
1E
100
AcDbEntity
  8
0
100
AcDbLine
 10
80.6132
 20
0.0000000000001182
 30
0.0
 11
81.1308
 21
0.0000000000001181
 31
0.0
  0
LINE
  5
140
330
1E
100
AcDbEntity
  8
0
100
AcDbLine
 10
78.68129999999999
 20
0.0000000000001182
 30
0.0
 11
79.199
 21
0.000000000000118
 31
0.0
  0
LINE
  5
141
330
1E
100
AcDbEntity
  8
0
100
AcDbLine
 10
78.68129999999999
 20
0.0000000000001182
 30
0.0
 11
78.68129999999999
 21
2.000000000000119
 31
0.0
  0
LINE
  5
142
330
1E
100
AcDbEntity
  8
0
100
AcDbLine
 10
78.68129999999999
 20
0.0000000000001182
 30
0.0
 11
80.6132
 21
0.0000000000001182
 31
0.0
  0
LINE
  5
143
330
1E
100
AcDbEntity
  8
0
100
AcDbLine
 10
77.2485
 20
0.000000000000119
 30
0.0
 11
77.2485
 21
2.000000000000119
 31
0.0
  0
LINE
  5
144
330
1E
100
AcDbEntity
  8
0
100
AcDbLine
 10
76.73090000000001
 20
0.0000000000001191
 30
0.0
 11
76.73090000000001
 21
2.000000000000119
 31
0.0
  0
LINE
  5
145
330
1E
100
AcDbEntity
  8
0
100
AcDbLine
 10
76.73090000000001
 20
0.0000000000001191
 30
0.0
 11
77.2485
 21
0.000000000000119
 31
0.0
  0
LINE
  5
146
330
1E
100
AcDbEntity
  8
0
100
AcDbLine
 10
5.0
 20
0.0000000000001159
 30
0.0
 11
5.0
 21
2.000000000000119
 31
0.0
  0
LINE
  5
147
330
1E
100
AcDbEntity
  8
0
100
AcDbLine
 10
5.0
 20
0.0000000000001159
 30
0.0
 11
7.0
 21
0.0000000000001159
 31
0.0
  0
LINE
  5
148
330
1E
100
AcDbEntity
  8
0
100
AcDbLine
 10
89.0
 20
0.0000000000001116
 30
0.0
 11
91.0
 21
0.0000000000001116
 31
0.0
  0
LINE
  5
149
330
1E
100
AcDbEntity
  8
0
100
AcDbLine
 10
89.0
 20
0.0000000000001116
 30
0.0
 11
89.0
 21
2.00000000000011
 31
0.0
  0
LINE
  5
14A
330
1E
100
AcDbEntity
  8
0
100
AcDbLine
 10
89.0
 20
0.0000000000001115
 30
0.0
 11
89.0
 21
2.00000000000011
 31
0.0
  0
LINE
  5
14B
330
1E
100
AcDbEntity
  8
0
100
AcDbLine
 10
89.0
 20
0.0000000000001115
 30
0.0
 11
91.0
 21
0.0000000000001115
 31
0.0
  0
LINE
  5
14C
330
1E
100
AcDbEntity
  8
0
100
AcDbLine
 10
89.0
 20
0.0000000000001107
 30
0.0
 11
91.0
 21
0.0000000000001107
 31
0.0
  0
LINE
  5
14D
330
1E
100
AcDbEntity
  8
0
100
AcDbLine
 10
89.0
 20
0.0000000000001107
 30
0.0
 11
89.0
 21
2.00000000000011
 31
0.0
  0
LINE
  5
14E
330
1E
100
AcDbEntity
  8
0
100
AcDbLine
 10
89.0
 20
0.0000000000001106
 30
0.0
 11
89.0
 21
2.00000000000011
 31
0.0
  0
LINE
  5
14F
330
1E
100
AcDbEntity
  8
0
100
AcDbLine
 10
89.0
 20
0.0000000000001106
 30
0.0
 11
91.0
 21
0.0000000000001106
 31
0.0
  0
LINE
  5
150
330
1E
100
AcDbEntity
  8
0
100
AcDbLine
 10
89.0
 20
0.0000000000001143
 30
0.0
 11
89.0
 21
2.00000000000011
 31
0.0
  0
LINE
  5
151
330
1E
100
AcDbEntity
  8
0
100
AcDbLine
 10
89.0
 20
0.0000000000001143
 30
0.0
 11
91.0
 21
0.0000000000001143
 31
0.0
  0
LINE
  5
152
330
1E
100
AcDbEntity
  8
0
100
AcDbLine
 10
89.0
 20
0.0000000000001135
 30
0.0
 11
91.0
 21
0.0000000000001135
 31
0.0
  0
LINE
  5
153
330
1E
100
AcDbEntity
  8
0
100
AcDbLine
 10
89.0
 20
0.0000000000001135
 30
0.0
 11
89.0
 21
2.00000000000011
 31
0.0
  0
LINE
  5
154
330
1E
100
AcDbEntity
  8
0
100
AcDbLine
 10
89.0
 20
0.0000000000001134
 30
0.0
 11
89.0
 21
2.00000000000011
 31
0.0
  0
LINE
  5
155
330
1E
100
AcDbEntity
  8
0
100
AcDbLine
 10
89.0
 20
0.0000000000001134
 30
0.0
 11
91.0
 21
0.0000000000001134
 31
0.0
  0
LINE
  5
156
330
1E
100
AcDbEntity
  8
0
100
AcDbLine
 10
95.50449999999999
 20
0.0000000000001143
 30
0.0
 11
97.4364
 21
0.0000000000001143
 31
0.0
  0
LINE
  5
157
330
1E
100
AcDbEntity
  8
0
100
AcDbLine
 10
89.0
 20
0.0000000000001126
 30
0.0
 11
91.0
 21
0.0000000000001126
 31
0.0
  0
LINE
  5
158
330
1E
100
AcDbEntity
  8
0
100
AcDbLine
 10
89.0
 20
0.0000000000001126
 30
0.0
 11
89.0
 21
2.00000000000011
 31
0.0
  0
LINE
  5
159
330
1E
100
AcDbEntity
  8
0
100
AcDbLine
 10
89.0
 20
0.0000000000001124
 30
0.0
 11
89.0
 21
2.00000000000011
 31
0.0
  0
LINE
  5
15A
330
1E
100
AcDbEntity
  8
0
100
AcDbLine
 10
89.0
 20
0.0000000000001124
 30
0.0
 11
91.0
 21
0.0000000000001124
 31
0.0
  0
LINE
  5
15B
330
1E
100
AcDbEntity
  8
0
100
AcDbLine
 10
84.4955
 20
0.0000000000001143
 30
0.0
 11
85.0131
 21
0.0000000000001144
 31
0.0
  0
LINE
  5
15C
330
1E
100
AcDbEntity
  8
0
100
AcDbLine
 10
83.0812
 20
0.0000000000001172
 30
0.0
 11
85.0131
 21
0.0000000000001172
 31
0.0
  0
LINE
  5
15D
330
1E
100
AcDbEntity
  8
0
100
AcDbLine
 10
82.56359999999999
 20
0.0000000000001173
 30
0.0
 11
83.0812
 21
0.0000000000001172
 31
0.0
  0
LINE
  5
15E
330
1E
100
AcDbEntity
  8
0
100
AcDbLine
 10
82.56359999999999
 20
0.0000000000001173
 30
0.0
 11
82.56359999999999
 21
2.000000000000119
 31
0.0
  0
LINE
  5
15F
330
1E
100
AcDbEntity
  8
0
100
AcDbLine
 10
82.56359999999999
 20
0.0000000000001173
 30
0.0
 11
84.4955
 21
0.0000000000001173
 31
0.0
  0
LINE
  5
160
330
1E
100
AcDbEntity
  8
0
100
AcDbLine
 10
83.0812
 20
0.0000000000001145
 30
0.0
 11
85.0131
 21
0.0000000000001144
 31
0.0
  0
LINE
  5
161
330
1E
100
AcDbEntity
  8
0
100
AcDbLine
 10
94.98690000000001
 20
0.0000000000001144
 30
0.0
 11
95.50449999999999
 21
0.0000000000001143
 31
0.0
  0
LINE
  5
162
330
1E
100
AcDbEntity
  8
0
100
AcDbLine
 10
94.98690000000001
 20
0.0000000000001144
 30
0.0
 11
94.98690000000001
 21
2.00000000000011
 31
0.0
  0
LINE
  5
163
330
1E
100
AcDbEntity
  8
0
100
AcDbLine
 10
94.98690000000001
 20
0.0000000000001144
 30
0.0
 11
96.91880000000001
 21
0.0000000000001145
 31
0.0
  0
LINE
  5
164
330
1E
100
AcDbEntity
  8
0
100
AcDbLine
 10
89.0
 20
0.0000000000001144
 30
0.0
 11
91.0
 21
0.0000000000001144
 31
0.0
  0
LINE
  5
165
330
1E
100
AcDbEntity
  8
0
100
AcDbLine
 10
89.0
 20
0.0000000000001144
 30
0.0
 11
89.0
 21
2.00000000000011
 31
0.0
  0
LINE
  5
166
330
1E
100
AcDbEntity
  8
0
100
AcDbLine
 10
85.0131
 20
0.0000000000001172
 30
0.0
 11
85.0131
 21
2.000000000000119
 31
0.0
  0
LINE
  5
167
330
1E
100
AcDbEntity
  8
0
100
AcDbLine
 10
84.4955
 20
0.0000000000001173
 30
0.0
 11
84.4955
 21
2.000000000000119
 31
0.0
  0
LINE
  5
168
330
1E
100
AcDbEntity
  8
0
100
AcDbLine
 10
84.4955
 20
0.0000000000001173
 30
0.0
 11
85.0131
 21
0.0000000000001172
 31
0.0
  0
LINE
  5
169
330
1E
100
AcDbEntity
  8
0
100
AcDbLine
 10
96.91880000000001
 20
0.0000000000001172
 30
0.0
 11
97.4364
 21
0.0000000000001173
 31
0.0
  0
LINE
  5
16A
330
1E
100
AcDbEntity
  8
0
100
AcDbLine
 10
96.91880000000001
 20
0.0000000000001145
 30
0.0
 11
97.4364
 21
0.0000000000001143
 31
0.0
  0
LINE
  5
16B
330
1E
100
AcDbEntity
  8
0
100
AcDbLine
 10
89.0
 20
0.0000000000001172
 30
0.0
 11
91.0
 21
0.0000000000001172
 31
0.0
  0
LINE
  5
16C
330
1E
100
AcDbEntity
  8
0
100
AcDbLine
 10
89.0
 20
0.0000000000001172
 30
0.0
 11
89.0
 21
2.000000000000119
 31
0.0
  0
LINE
  5
16D
330
1E
100
AcDbEntity
  8
0
100
AcDbLine
 10
94.98690000000001
 20
0.0000000000001172
 30
0.0
 11
94.98690000000001
 21
2.000000000000119
 31
0.0
  0
LINE
  5
16E
330
1E
100
AcDbEntity
  8
0
100
AcDbLine
 10
94.98690000000001
 20
0.0000000000001172
 30
0.0
 11
95.50449999999999
 21
0.0000000000001173
 31
0.0
  0
LINE
  5
16F
330
1E
100
AcDbEntity
  8
0
100
AcDbLine
 10
94.98690000000001
 20
0.0000000000001172
 30
0.0
 11
96.91880000000001
 21
0.0000000000001172
 31
0.0
  0
LINE
  5
170
330
1E
100
AcDbEntity
  8
0
100
AcDbLine
 10
89.0
 20
0.000000000000121
 30
0.0
 11
89.0
 21
2.000000000000119
 31
0.0
  0
LINE
  5
171
330
1E
100
AcDbEntity
  8
0
100
AcDbLine
 10
89.0
 20
0.000000000000121
 30
0.0
 11
91.0
 21
0.000000000000121
 31
0.0
  0
LINE
  5
172
330
1E
100
AcDbEntity
  8
0
100
AcDbLine
 10
89.0
 20
0.0000000000001209
 30
0.0
 11
91.0
 21
0.0000000000001209
 31
0.0
  0
LINE
  5
173
330
1E
100
AcDbEntity
  8
0
100
AcDbLine
 10
89.0
 20
0.0000000000001209
 30
0.0
 11
89.0
 21
2.000000000000119
 31
0.0
  0
LINE
  5
174
330
1E
100
AcDbEntity
  8
0
100
AcDbLine
 10
89.0
 20
0.0000000000001201
 30
0.0
 11
89.0
 21
2.000000000000119
 31
0.0
  0
LINE
  5
175
330
1E
100
AcDbEntity
  8
0
100
AcDbLine
 10
89.0
 20
0.0000000000001201
 30
0.0
 11
91.0
 21
0.0000000000001201
 31
0.0
  0
LINE
  5
176
330
1E
100
AcDbEntity
  8
0
100
AcDbLine
 10
89.0
 20
0.00000000000012
 30
0.0
 11
91.0
 21
0.00000000000012
 31
0.0
  0
LINE
  5
177
330
1E
100
AcDbEntity
  8
0
100
AcDbLine
 10
89.0
 20
0.00000000000012
 30
0.0
 11
89.0
 21
2.000000000000119
 31
0.0
  0
LINE
  5
178
330
1E
100
AcDbEntity
  8
0
100
AcDbLine
 10
89.0
 20
0.0000000000001192
 30
0.0
 11
89.0
 21
2.000000000000119
 31
0.0
  0
LINE
  5
179
330
1E
100
AcDbEntity
  8
0
100
AcDbLine
 10
89.0
 20
0.0000000000001192
 30
0.0
 11
91.0
 21
0.0000000000001192
 31
0.0
  0
LINE
  5
17A
330
1E
100
AcDbEntity
  8
0
100
AcDbLine
 10
89.0
 20
0.0000000000001191
 30
0.0
 11
91.0
 21
0.0000000000001191
 31
0.0
  0
LINE
  5
17B
330
1E
100
AcDbEntity
  8
0
100
AcDbLine
 10
89.0
 20
0.0000000000001191
 30
0.0
 11
89.0
 21
2.000000000000119
 31
0.0
  0
LINE
  5
17C
330
1E
100
AcDbEntity
  8
0
100
AcDbLine
 10
89.0
 20
0.0000000000001183
 30
0.0
 11
89.0
 21
2.000000000000119
 31
0.0
  0
LINE
  5
17D
330
1E
100
AcDbEntity
  8
0
100
AcDbLine
 10
89.0
 20
0.0000000000001183
 30
0.0
 11
91.0
 21
0.0000000000001183
 31
0.0
  0
LINE
  5
17E
330
1E
100
AcDbEntity
  8
0
100
AcDbLine
 10
89.0
 20
0.0000000000001181
 30
0.0
 11
91.0
 21
0.0000000000001181
 31
0.0
  0
LINE
  5
17F
330
1E
100
AcDbEntity
  8
0
100
AcDbLine
 10
89.0
 20
0.0000000000001181
 30
0.0
 11
89.0
 21
2.000000000000119
 31
0.0
  0
LINE
  5
180
330
1E
100
AcDbEntity
  8
0
100
AcDbLine
 10
91.0
 20
0.000000000000121
 30
0.0
 11
91.0
 21
2.000000000000119
 31
0.0
  0
LINE
  5
181
330
1E
100
AcDbEntity
  8
0
100
AcDbLine
 10
89.0
 20
0.0000000000001173
 30
0.0
 11
89.0
 21
2.000000000000119
 31
0.0
  0
LINE
  5
182
330
1E
100
AcDbEntity
  8
0
100
AcDbLine
 10
89.0
 20
0.0000000000001173
 30
0.0
 11
91.0
 21
0.0000000000001173
 31
0.0
  0
LINE
  5
183
330
1E
100
AcDbEntity
  8
0
100
AcDbLine
 10
95.50449999999999
 20
0.0000000000001173
 30
0.0
 11
95.50449999999999
 21
2.000000000000119
 31
0.0
  0
LINE
  5
184
330
1E
100
AcDbEntity
  8
0
100
AcDbLine
 10
95.50449999999999
 20
0.0000000000001173
 30
0.0
 11
97.4364
 21
0.0000000000001173
 31
0.0
  0
LINE
  5
185
330
1E
100
AcDbEntity
  8
0
100
AcDbLine
 10
97.4364
 20
0.0000000000001173
 30
0.0
 11
97.4364
 21
2.000000000000119
 31
0.0
  0
LINE
  5
186
330
1E
100
AcDbEntity
  8
0
100
AcDbLine
 10
82.56359999999999
 20
0.0000000000001143
 30
0.0
 11
82.56359999999999
 21
2.00000000000011
 31
0.0
  0
LINE
  5
187
330
1E
100
AcDbEntity
  8
0
100
AcDbLine
 10
82.56359999999999
 20
0.0000000000001143
 30
0.0
 11
83.0812
 21
0.0000000000001145
 31
0.0
  0
LINE
  5
188
330
1E
100
AcDbEntity
  8
0
100
AcDbLine
 10
82.56359999999999
 20
0.0000000000001143
 30
0.0
 11
84.4955
 21
0.0000000000001143
 31
0.0
  0
LINE
  5
189
330
1E
100
AcDbEntity
  8
0
100
AcDbLine
 10
81.1308
 20
2.00000000000011
 30
0.0
 11
82.56359999999999
 21
2.00000000000011
 31
0.0
  0
LINE
  5
18A
330
1E
100
AcDbEntity
  8
0
100
AcDbLine
 10
85.0131
 20
2.00000000000011
 30
0.0
 11
89.0
 21
2.00000000000011
 31
0.0
  0
LINE
  5
18B
330
1E
100
AcDbEntity
  8
0
100
AcDbLine
 10
98.86920000000001
 20
0.0000000000001135
 30
0.0
 11
99.38679999999999
 21
0.0000000000001134
 31
0.0
  0
LINE
  5
18C
330
1E
100
AcDbEntity
  8
0
100
AcDbLine
 10
98.86920000000001
 20
0.0000000000001135
 30
0.0
 11
98.86920000000001
 21
2.00000000000011
 31
0.0
  0
LINE
  5
18D
330
1E
100
AcDbEntity
  8
0
100
AcDbLine
 10
98.86920000000001
 20
0.0000000000001135
 30
0.0
 11
100.801
 21
0.0000000000001136
 31
0.0
  0
LINE
  5
18E
330
1E
100
AcDbEntity
  8
0
100
AcDbLine
 10
99.38679999999999
 20
0.0000000000001134
 30
0.0
 11
101.319
 21
0.0000000000001135
 31
0.0
  0
LINE
  5
18F
330
1E
100
AcDbEntity
  8
0
100
AcDbLine
 10
100.801
 20
0.0000000000001136
 30
0.0
 11
101.319
 21
0.0000000000001135
 31
0.0
  0
LINE
  5
190
330
1E
100
AcDbEntity
  8
0
100
AcDbLine
 10
100.634
 20
0.0000000000001146
 30
0.0
 11
101.634
 21
0.0000000000001145
 31
0.0
  0
LINE
  5
191
330
1E
100
AcDbEntity
  8
0
100
AcDbLine
 10
100.634
 20
0.0000000000001146
 30
0.0
 11
102.366
 21
0.0000000000001146
 31
0.0
  0
LINE
  5
192
330
1E
100
AcDbEntity
  8
0
100
AcDbLine
 10
101.634
 20
0.0000000000001145
 30
0.0
 11
103.366
 21
0.0000000000001145
 31
0.0
  0
LINE
  5
193
330
1E
100
AcDbEntity
  8
0
100
AcDbLine
 10
102.751
 20
0.0000000000001127
 30
0.0
 11
103.2689999999999
 21
0.0000000000001125
 31
0.0
  0
LINE
  5
194
330
1E
100
AcDbEntity
  8
0
100
AcDbLine
 10
102.751
 20
0.0000000000001127
 30
0.0
 11
104.6829999999999
 21
0.0000000000001127
 31
0.0
  0
LINE
  5
195
330
1E
100
AcDbEntity
  8
0
100
AcDbLine
 10
103.2689999999999
 20
0.0000000000001125
 30
0.0
 11
105.201
 21
0.0000000000001126
 31
0.0
  0
LINE
  5
196
330
1E
100
AcDbEntity
  8
0
100
AcDbLine
 10
104.6829999999999
 20
0.0000000000001127
 30
0.0
 11
105.201
 21
0.0000000000001126
 31
0.0
  0
LINE
  5
197
330
1E
100
AcDbEntity
  8
0
100
AcDbLine
 10
106.634
 20
0.0000000000001118
 30
0.0
 11
107.151
 21
0.0000000000001117
 31
0.0
  0
LINE
  5
198
330
1E
100
AcDbEntity
  8
0
100
AcDbLine
 10
106.634
 20
0.0000000000001118
 30
0.0
 11
108.566
 21
0.0000000000001118
 31
0.0
  0
LINE
  5
199
330
1E
100
AcDbEntity
  8
0
100
AcDbLine
 10
107.151
 20
0.0000000000001117
 30
0.0
 11
109.0829999999999
 21
0.0000000000001117
 31
0.0
  0
LINE
  5
19A
330
1E
100
AcDbEntity
  8
0
100
AcDbLine
 10
108.566
 20
0.0000000000001118
 30
0.0
 11
109.0829999999999
 21
0.0000000000001117
 31
0.0
  0
LINE
  5
19B
330
1E
100
AcDbEntity
  8
0
100
AcDbLine
 10
110.516
 20
0.0000000000001109
 30
0.0
 11
111.0339999999999
 21
0.0000000000001108
 31
0.0
  0
LINE
  5
19C
330
1E
100
AcDbEntity
  8
0
100
AcDbLine
 10
110.516
 20
0.0000000000001109
 30
0.0
 11
112.4479999999999
 21
0.0000000000001109
 31
0.0
  0
LINE
  5
19D
330
1E
100
AcDbEntity
  8
0
100
AcDbLine
 10
108.1339999999999
 20
0.0000000000001138
 30
0.0
 11
109.1339999999999
 21
0.0000000000001137
 31
0.0
  0
LINE
  5
19E
330
1E
100
AcDbEntity
  8
0
100
AcDbLine
 10
108.1339999999999
 20
0.0000000000001138
 30
0.0
 11
109.8659999999999
 21
0.0000000000001138
 31
0.0
  0
LINE
  5
19F
330
1E
100
AcDbEntity
  8
0
100
AcDbLine
 10
109.1339999999999
 20
0.0000000000001137
 30
0.0
 11
110.8659999999999
 21
0.0000000000001137
 31
0.0
  0
LINE
  5
1A0
330
1E
100
AcDbEntity
  8
0
100
AcDbLine
 10
111.0339999999999
 20
0.0000000000001108
 30
0.0
 11
112.966
 21
0.0000000000001108
 31
0.0
  0
LINE
  5
1A1
330
1E
100
AcDbEntity
  8
0
100
AcDbLine
 10
109.8659999999999
 20
0.0000000000001138
 30
0.0
 11
110.8659999999999
 21
0.0000000000001137
 31
0.0
  0
LINE
  5
1A2
330
1E
100
AcDbEntity
  8
0
100
AcDbLine
 10
106.971
 20
0.0000000000001147
 30
0.0
 11
108.3849999999999
 21
0.0000000000001148
 31
0.0
  0
LINE
  5
1A3
330
1E
100
AcDbEntity
  8
0
100
AcDbLine
 10
105.556
 20
0.0000000000001148
 30
0.0
 11
105.556
 21
2.000000000000119
 31
0.0
  0
LINE
  5
1A4
330
1E
100
AcDbEntity
  8
0
100
AcDbLine
 10
105.556
 20
0.0000000000001148
 30
0.0
 11
106.971
 21
0.0000000000001147
 31
0.0
  0
LINE
  5
1A5
330
1E
100
AcDbEntity
  8
0
100
AcDbLine
 10
105.556
 20
0.0000000000001148
 30
0.0
 11
106.971
 21
0.0000000000001149
 31
0.0
  0
LINE
  5
1A6
330
1E
100
AcDbEntity
  8
0
100
AcDbLine
 10
106.971
 20
0.0000000000001149
 30
0.0
 11
108.3849999999999
 21
0.0000000000001148
 31
0.0
  0
LINE
  5
1A7
330
1E
100
AcDbEntity
  8
0
100
AcDbLine
 10
102.366
 20
0.0000000000001146
 30
0.0
 11
103.366
 21
0.0000000000001145
 31
0.0
  0
LINE
  5
1A8
330
1E
100
AcDbEntity
  8
0
100
AcDbLine
 10
109.419
 20
0.0000000000001151
 30
0.0
 11
111.151
 21
0.000000000000115
 31
0.0
  0
LINE
  5
1A9
330
1E
100
AcDbEntity
  8
0
100
AcDbLine
 10
109.419
 20
0.0000000000001151
 30
0.0
 11
110.419
 21
0.0000000000001152
 31
0.0
  0
LINE
  5
1AA
330
1E
100
AcDbEntity
  8
0
100
AcDbLine
 10
112.4479999999999
 20
0.0000000000001109
 30
0.0
 11
112.966
 21
0.0000000000001108
 31
0.0
  0
LINE
  5
1AB
330
1E
100
AcDbEntity
  8
0
100
AcDbLine
 10
115.6339999999999
 20
0.000000000000113
 30
0.0
 11
115.6339999999999
 21
2.00000000000011
 31
0.0
  0
LINE
  5
1AC
330
1E
100
AcDbEntity
  8
0
100
AcDbLine
 10
115.6339999999999
 20
0.000000000000113
 30
0.0
 11
116.6339999999999
 21
0.0000000000001129
 31
0.0
  0
LINE
  5
1AD
330
1E
100
AcDbEntity
  8
0
100
AcDbLine
 10
115.6339999999999
 20
0.000000000000113
 30
0.0
 11
117.3659999999999
 21
0.000000000000113
 31
0.0
  0
LINE
  5
1AE
330
1E
100
AcDbEntity
  8
0
100
AcDbLine
 10
116.6339999999999
 20
0.0000000000001129
 30
0.0
 11
118.3659999999999
 21
0.0000000000001129
 31
0.0
  0
LINE
  5
1AF
330
1E
100
AcDbEntity
  8
0
100
AcDbLine
 10
116.1629999999999
 20
0.0000000000001141
 30
0.0
 11
117.577
 21
0.000000000000114
 31
0.0
  0
LINE
  5
1B0
330
1E
100
AcDbEntity
  8
0
100
AcDbLine
 10
116.1629999999999
 20
0.0000000000001141
 30
0.0
 11
117.577
 21
0.0000000000001142
 31
0.0
  0
LINE
  5
1B1
330
1E
100
AcDbEntity
  8
0
100
AcDbLine
 10
117.577
 20
0.000000000000114
 30
0.0
 11
118.991
 21
0.0000000000001141
 31
0.0
  0
LINE
  5
1B2
330
1E
100
AcDbEntity
  8
0
100
AcDbLine
 10
117.577
 20
0.0000000000001142
 30
0.0
 11
118.991
 21
0.0000000000001141
 31
0.0
  0
LINE
  5
1B3
330
1E
100
AcDbEntity
  8
0
100
AcDbLine
 10
117.3659999999999
 20
0.000000000000113
 30
0.0
 11
118.3659999999999
 21
0.0000000000001129
 31
0.0
  0
LINE
  5
1B4
330
1E
100
AcDbEntity
  8
0
100
AcDbLine
 10
111.151
 20
0.000000000000115
 30
0.0
 11
112.151
 21
0.0000000000001151
 31
0.0
  0
LINE
  5
1B5
330
1E
100
AcDbEntity
  8
0
100
AcDbLine
 10
100.634
 20
0.0000000000001171
 30
0.0
 11
101.634
 21
0.0000000000001172
 31
0.0
  0
LINE
  5
1B6
330
1E
100
AcDbEntity
  8
0
100
AcDbLine
 10
100.634
 20
0.0000000000001171
 30
0.0
 11
102.366
 21
0.000000000000117
 31
0.0
  0
LINE
  5
1B7
330
1E
100
AcDbEntity
  8
0
100
AcDbLine
 10
101.634
 20
0.0000000000001172
 30
0.0
 11
101.634
 21
2.000000000000119
 31
0.0
  0
LINE
  5
1B8
330
1E
100
AcDbEntity
  8
0
100
AcDbLine
 10
101.634
 20
0.0000000000001172
 30
0.0
 11
103.366
 21
0.0000000000001171
 31
0.0
  0
LINE
  5
1B9
330
1E
100
AcDbEntity
  8
0
100
AcDbLine
 10
102.366
 20
0.000000000000117
 30
0.0
 11
103.366
 21
0.0000000000001171
 31
0.0
  0
LINE
  5
1BA
330
1E
100
AcDbEntity
  8
0
100
AcDbLine
 10
105.556
 20
0.0000000000001169
 30
0.0
 11
105.556
 21
2.000000000000119
 31
0.0
  0
LINE
  5
1BB
330
1E
100
AcDbEntity
  8
0
100
AcDbLine
 10
105.556
 20
0.0000000000001169
 30
0.0
 11
106.971
 21
0.0000000000001169
 31
0.0
  0
LINE
  5
1BC
330
1E
100
AcDbEntity
  8
0
100
AcDbLine
 10
105.556
 20
0.0000000000001169
 30
0.0
 11
106.971
 21
0.0000000000001168
 31
0.0
  0
LINE
  5
1BD
330
1E
100
AcDbEntity
  8
0
100
AcDbLine
 10
106.971
 20
0.0000000000001169
 30
0.0
 11
108.3849999999999
 21
0.0000000000001169
 31
0.0
  0
LINE
  5
1BE
330
1E
100
AcDbEntity
  8
0
100
AcDbLine
 10
106.971
 20
0.0000000000001168
 30
0.0
 11
108.3849999999999
 21
0.0000000000001169
 31
0.0
  0
LINE
  5
1BF
330
1E
100
AcDbEntity
  8
0
100
AcDbLine
 10
109.419
 20
0.0000000000001166
 30
0.0
 11
111.151
 21
0.0000000000001166
 31
0.0
  0
LINE
  5
1C0
330
1E
100
AcDbEntity
  8
0
100
AcDbLine
 10
109.419
 20
0.0000000000001166
 30
0.0
 11
110.419
 21
0.0000000000001165
 31
0.0
  0
LINE
  5
1C1
330
1E
100
AcDbEntity
  8
0
100
AcDbLine
 10
110.419
 20
0.0000000000001165
 30
0.0
 11
112.151
 21
0.0000000000001165
 31
0.0
  0
LINE
  5
1C2
330
1E
100
AcDbEntity
  8
0
100
AcDbLine
 10
109.8659999999999
 20
0.0000000000001178
 30
0.0
 11
110.8659999999999
 21
0.0000000000001179
 31
0.0
  0
LINE
  5
1C3
330
1E
100
AcDbEntity
  8
0
100
AcDbLine
 10
98.86920000000001
 20
0.0000000000001181
 30
0.0
 11
98.86920000000001
 21
2.000000000000119
 31
0.0
  0
LINE
  5
1C4
330
1E
100
AcDbEntity
  8
0
100
AcDbLine
 10
98.86920000000001
 20
0.0000000000001181
 30
0.0
 11
99.38679999999999
 21
0.0000000000001182
 31
0.0
  0
LINE
  5
1C5
330
1E
100
AcDbEntity
  8
0
100
AcDbLine
 10
98.86920000000001
 20
0.0000000000001181
 30
0.0
 11
100.801
 21
0.000000000000118
 31
0.0
  0
LINE
  5
1C6
330
1E
100
AcDbEntity
  8
0
100
AcDbLine
 10
99.38679999999999
 20
0.0000000000001182
 30
0.0
 11
99.38679999999999
 21
2.000000000000119
 31
0.0
  0
LINE
  5
1C7
330
1E
100
AcDbEntity
  8
0
100
AcDbLine
 10
99.38679999999999
 20
0.0000000000001182
 30
0.0
 11
101.319
 21
0.0000000000001182
 31
0.0
  0
LINE
  5
1C8
330
1E
100
AcDbEntity
  8
0
100
AcDbLine
 10
102.751
 20
0.000000000000119
 30
0.0
 11
102.751
 21
2.000000000000119
 31
0.0
  0
LINE
  5
1C9
330
1E
100
AcDbEntity
  8
0
100
AcDbLine
 10
102.751
 20
0.000000000000119
 30
0.0
 11
103.2689999999999
 21
0.0000000000001191
 31
0.0
  0
LINE
  5
1CA
330
1E
100
AcDbEntity
  8
0
100
AcDbLine
 10
102.751
 20
0.000000000000119
 30
0.0
 11
104.6829999999999
 21
0.0000000000001189
 31
0.0
  0
LINE
  5
1CB
330
1E
100
AcDbEntity
  8
0
100
AcDbLine
 10
104.6829999999999
 20
0.0000000000001189
 30
0.0
 11
105.201
 21
0.000000000000119
 31
0.0
  0
LINE
  5
1CC
330
1E
100
AcDbEntity
  8
0
100
AcDbLine
 10
101.319
 20
0.0000000000001182
 30
0.0
 11
101.319
 21
2.000000000000119
 31
0.0
  0
LINE
  5
1CD
330
1E
100
AcDbEntity
  8
0
100
AcDbLine
 10
100.801
 20
0.000000000000118
 30
0.0
 11
101.319
 21
0.0000000000001182
 31
0.0
  0
LINE
  5
1CE
330
1E
100
AcDbEntity
  8
0
100
AcDbLine
 10
108.1339999999999
 20
0.0000000000001179
 30
0.0
 11
109.1339999999999
 21
0.000000000000118
 31
0.0
  0
LINE
  5
1CF
330
1E
100
AcDbEntity
  8
0
100
AcDbLine
 10
108.1339999999999
 20
0.0000000000001179
 30
0.0
 11
109.8659999999999
 21
0.0000000000001178
 31
0.0
  0
LINE
  5
1D0
330
1E
100
AcDbEntity
  8
0
100
AcDbLine
 10
109.1339999999999
 20
0.000000000000118
 30
0.0
 11
109.1339999999999
 21
2.000000000000119
 31
0.0
  0
LINE
  5
1D1
330
1E
100
AcDbEntity
  8
0
100
AcDbLine
 10
109.1339999999999
 20
0.000000000000118
 30
0.0
 11
110.8659999999999
 21
0.0000000000001179
 31
0.0
  0
LINE
  5
1D2
330
1E
100
AcDbEntity
  8
0
100
AcDbLine
 10
106.634
 20
0.0000000000001198
 30
0.0
 11
106.634
 21
2.000000000000119
 31
0.0
  0
LINE
  5
1D3
330
1E
100
AcDbEntity
  8
0
100
AcDbLine
 10
106.634
 20
0.0000000000001198
 30
0.0
 11
107.151
 21
0.00000000000012
 31
0.0
  0
LINE
  5
1D4
330
1E
100
AcDbEntity
  8
0
100
AcDbLine
 10
106.634
 20
0.0000000000001198
 30
0.0
 11
108.566
 21
0.0000000000001198
 31
0.0
  0
LINE
  5
1D5
330
1E
100
AcDbEntity
  8
0
100
AcDbLine
 10
103.2689999999999
 20
0.0000000000001191
 30
0.0
 11
103.2689999999999
 21
2.000000000000119
 31
0.0
  0
LINE
  5
1D6
330
1E
100
AcDbEntity
  8
0
100
AcDbLine
 10
103.2689999999999
 20
0.0000000000001191
 30
0.0
 11
105.201
 21
0.000000000000119
 31
0.0
  0
LINE
  5
1D7
330
1E
100
AcDbEntity
  8
0
100
AcDbLine
 10
105.201
 20
0.000000000000119
 30
0.0
 11
105.201
 21
2.000000000000119
 31
0.0
  0
LINE
  5
1D8
330
1E
100
AcDbEntity
  8
0
100
AcDbLine
 10
107.151
 20
0.00000000000012
 30
0.0
 11
107.151
 21
2.000000000000119
 31
0.0
  0
LINE
  5
1D9
330
1E
100
AcDbEntity
  8
0
100
AcDbLine
 10
107.151
 20
0.00000000000012
 30
0.0
 11
109.0829999999999
 21
0.0000000000001199
 31
0.0
  0
LINE
  5
1DA
330
1E
100
AcDbEntity
  8
0
100
AcDbLine
 10
109.0829999999999
 20
0.0000000000001199
 30
0.0
 11
109.0829999999999
 21
2.000000000000119
 31
0.0
  0
LINE
  5
1DB
330
1E
100
AcDbEntity
  8
0
100
AcDbLine
 10
108.566
 20
0.0000000000001198
 30
0.0
 11
109.0829999999999
 21
0.0000000000001199
 31
0.0
  0
LINE
  5
1DC
330
1E
100
AcDbEntity
  8
0
100
AcDbLine
 10
111.957
 20
0.0000000000001154
 30
0.0
 11
113.8889999999999
 21
0.0000000000001154
 31
0.0
  0
LINE
  5
1DD
330
1E
100
AcDbEntity
  8
0
100
AcDbLine
 10
111.957
 20
0.0000000000001154
 30
0.0
 11
112.4749999999999
 21
0.0000000000001155
 31
0.0
  0
LINE
  5
1DE
330
1E
100
AcDbEntity
  8
0
100
AcDbLine
 10
113.8889999999999
 20
0.0000000000001154
 30
0.0
 11
114.407
 21
0.0000000000001155
 31
0.0
  0
LINE
  5
1DF
330
1E
100
AcDbEntity
  8
0
100
AcDbLine
 10
111.957
 20
0.0000000000001162
 30
0.0
 11
113.8889999999999
 21
0.0000000000001163
 31
0.0
  0
LINE
  5
1E0
330
1E
100
AcDbEntity
  8
0
100
AcDbLine
 10
111.957
 20
0.0000000000001162
 30
0.0
 11
112.4749999999999
 21
0.0000000000001161
 31
0.0
  0
LINE
  5
1E1
330
1E
100
AcDbEntity
  8
0
100
AcDbLine
 10
112.4749999999999
 20
0.0000000000001161
 30
0.0
 11
114.407
 21
0.0000000000001161
 31
0.0
  0
LINE
  5
1E2
330
1E
100
AcDbEntity
  8
0
100
AcDbLine
 10
110.516
 20
0.0000000000001207
 30
0.0
 11
110.516
 21
2.000000000000119
 31
0.0
  0
LINE
  5
1E3
330
1E
100
AcDbEntity
  8
0
100
AcDbLine
 10
110.516
 20
0.0000000000001207
 30
0.0
 11
111.0339999999999
 21
0.0000000000001209
 31
0.0
  0
LINE
  5
1E4
330
1E
100
AcDbEntity
  8
0
100
AcDbLine
 10
110.516
 20
0.0000000000001207
 30
0.0
 11
112.4479999999999
 21
0.0000000000001207
 31
0.0
  0
LINE
  5
1E5
330
1E
100
AcDbEntity
  8
0
100
AcDbLine
 10
111.0339999999999
 20
0.0000000000001209
 30
0.0
 11
111.0339999999999
 21
2.000000000000119
 31
0.0
  0
LINE
  5
1E6
330
1E
100
AcDbEntity
  8
0
100
AcDbLine
 10
111.0339999999999
 20
0.0000000000001209
 30
0.0
 11
112.966
 21
0.0000000000001208
 31
0.0
  0
LINE
  5
1E7
330
1E
100
AcDbEntity
  8
0
100
AcDbLine
 10
112.4479999999999
 20
0.0000000000001207
 30
0.0
 11
112.966
 21
0.0000000000001208
 31
0.0
  0
LINE
  5
1E8
330
1E
100
AcDbEntity
  8
0
100
AcDbLine
 10
111.151
 20
0.0000000000001166
 30
0.0
 11
112.151
 21
0.0000000000001165
 31
0.0
  0
LINE
  5
1E9
330
1E
100
AcDbEntity
  8
0
100
AcDbLine
 10
113.0
 20
0.0000000000001158
 30
0.0
 11
115.0
 21
0.0000000000001158
 31
0.0
  0
LINE
  5
1EA
330
1E
100
AcDbEntity
  8
0
100
AcDbLine
 10
115.0
 20
0.0000000000001159
 30
0.0
 11
115.0
 21
2.000000000000119
 31
0.0
  0
LINE
  5
1EB
330
1E
100
AcDbEntity
  8
0
100
AcDbLine
 10
113.8889999999999
 20
0.0000000000001163
 30
0.0
 11
114.407
 21
0.0000000000001161
 31
0.0
  0
LINE
  5
1EC
330
1E
100
AcDbEntity
  8
0
100
AcDbLine
 10
113.8889999999999
 20
0.0000000000001163
 30
0.0
 11
113.8889999999999
 21
2.000000000000119
 31
0.0
  0
LINE
  5
1ED
330
1E
100
AcDbEntity
  8
0
100
AcDbLine
 10
116.1629999999999
 20
0.0000000000001175
 30
0.0
 11
117.577
 21
0.0000000000001176
 31
0.0
  0
LINE
  5
1EE
330
1E
100
AcDbEntity
  8
0
100
AcDbLine
 10
116.1629999999999
 20
0.0000000000001175
 30
0.0
 11
117.577
 21
0.0000000000001174
 31
0.0
  0
LINE
  5
1EF
330
1E
100
AcDbEntity
  8
0
100
AcDbLine
 10
118.991
 20
0.0000000000001175
 30
0.0
 11
118.991
 21
2.000000000000119
 31
0.0
  0
LINE
  5
1F0
330
1E
100
AcDbEntity
  8
0
100
AcDbLine
 10
117.577
 20
0.0000000000001174
 30
0.0
 11
118.991
 21
0.0000000000001175
 31
0.0
  0
LINE
  5
1F1
330
1E
100
AcDbEntity
  8
0
100
AcDbLine
 10
114.407
 20
0.0000000000001161
 30
0.0
 11
114.407
 21
2.000000000000119
 31
0.0
  0
LINE
  5
1F2
330
1E
100
AcDbEntity
  8
0
100
AcDbLine
 10
113.0
 20
0.0000000000001159
 30
0.0
 11
115.0
 21
0.0000000000001159
 31
0.0
  0
LINE
  5
1F3
330
1E
100
AcDbEntity
  8
0
100
AcDbLine
 10
112.966
 20
0.0000000000001208
 30
0.0
 11
112.966
 21
2.000000000000119
 31
0.0
  0
LINE
  5
1F4
330
1E
100
AcDbEntity
  8
0
100
AcDbLine
 10
115.6339999999999
 20
0.0000000000001187
 30
0.0
 11
115.6339999999999
 21
2.000000000000119
 31
0.0
  0
LINE
  5
1F5
330
1E
100
AcDbEntity
  8
0
100
AcDbLine
 10
115.6339999999999
 20
0.0000000000001187
 30
0.0
 11
116.6339999999999
 21
0.0000000000001188
 31
0.0
  0
LINE
  5
1F6
330
1E
100
AcDbEntity
  8
0
100
AcDbLine
 10
115.6339999999999
 20
0.0000000000001187
 30
0.0
 11
117.3659999999999
 21
0.0000000000001186
 31
0.0
  0
LINE
  5
1F7
330
1E
100
AcDbEntity
  8
0
100
AcDbLine
 10
116.6339999999999
 20
0.0000000000001188
 30
0.0
 11
116.6339999999999
 21
2.000000000000119
 31
0.0
  0
LINE
  5
1F8
330
1E
100
AcDbEntity
  8
0
100
AcDbLine
 10
116.6339999999999
 20
0.0000000000001188
 30
0.0
 11
118.3659999999999
 21
0.0000000000001187
 31
0.0
  0
LINE
  5
1F9
330
1E
100
AcDbEntity
  8
0
100
AcDbLine
 10
117.3659999999999
 20
0.0000000000001186
 30
0.0
 11
118.3659999999999
 21
0.0000000000001187
 31
0.0
  0
LINE
  5
1FA
330
1E
100
AcDbEntity
  8
0
100
AcDbLine
 10
118.3659999999999
 20
0.0000000000001187
 30
0.0
 11
118.3659999999999
 21
2.000000000000119
 31
0.0
  0
LINE
  5
1FB
330
1E
100
AcDbEntity
  8
0
100
AcDbLine
 10
117.577
 20
0.0000000000001176
 30
0.0
 11
118.991
 21
0.0000000000001175
 31
0.0
  0
LINE
  5
1FC
330
1E
100
AcDbEntity
  8
0
100
AcDbLine
 10
112.4749999999999
 20
0.0000000000001155
 30
0.0
 11
114.407
 21
0.0000000000001155
 31
0.0
  0
LINE
  5
1FD
330
1E
100
AcDbEntity
  8
0
100
AcDbLine
 10
110.419
 20
0.0000000000001152
 30
0.0
 11
112.151
 21
0.0000000000001151
 31
0.0
  0
LINE
  5
1FE
330
1E
100
AcDbEntity
  8
0
100
AcDbLine
 10
97.4364
 20
2.00000000000011
 30
0.0
 11
98.86920000000001
 21
2.00000000000011
 31
0.0
  0
LINE
  5
1FF
330
1E
100
AcDbEntity
  8
0
100
AcDbLine
 10
89.0
 20
2.00000000000011
 30
0.0
 11
89.0
 21
0.0000000000001106
 31
0.0
  0
LINE
  5
200
330
1E
100
AcDbEntity
  8
0
100
AcDbLine
 10
74.4436
 20
2.00000000000011
 30
0.0
 11
74.79899999999999
 21
2.00000000000011
 31
0.0
  0
LINE
  5
201
330
1E
100
AcDbEntity
  8
0
100
AcDbLine
 10
57.591
 20
2.00000000000011
 30
0.0
 11
61.0086
 21
2.00000000000011
 31
0.0
  0
LINE
  5
202
330
1E
100
AcDbEntity
  8
0
100
AcDbLine
 10
64.366
 20
2.00000000000011
 30
0.0
 11
65.0
 21
2.00000000000011
 31
0.0
  0
LINE
  5
203
330
1E
100
AcDbEntity
  8
0
100
AcDbLine
 10
105.201
 20
2.00000000000011
 30
0.0
 11
105.556
 21
2.00000000000011
 31
0.0
  0
LINE
  5
204
330
1E
100
AcDbEntity
  8
0
100
AcDbLine
 10
91.0
 20
2.00000000000011
 30
0.0
 11
94.98690000000001
 21
2.00000000000011
 31
0.0
  0
LINE
  5
205
330
1E
100
AcDbEntity
  8
0
100
AcDbLine
 10
123.134
 20
0.0000000000001122
 30
0.0
 11
124.134
 21
0.0000000000001121
 31
0.0
  0
LINE
  5
206
330
1E
100
AcDbEntity
  8
0
100
AcDbLine
 10
123.134
 20
0.0000000000001122
 30
0.0
 11
124.866
 21
0.0000000000001122
 31
0.0
  0
LINE
  5
207
330
1E
100
AcDbEntity
  8
0
100
AcDbLine
 10
124.134
 20
0.0000000000001121
 30
0.0
 11
125.866
 21
0.0000000000001121
 31
0.0
  0
LINE
  5
208
330
1E
100
AcDbEntity
  8
0
100
AcDbLine
 10
130.6339999999999
 20
0.0000000000001114
 30
0.0
 11
130.6339999999999
 21
2.00000000000011
 31
0.0
  0
LINE
  5
209
330
1E
100
AcDbEntity
  8
0
100
AcDbLine
 10
130.6339999999999
 20
0.0000000000001114
 30
0.0
 11
131.6339999999999
 21
0.0000000000001113
 31
0.0
  0
LINE
  5
20A
330
1E
100
AcDbEntity
  8
0
100
AcDbLine
 10
130.6339999999999
 20
0.0000000000001114
 30
0.0
 11
132.366
 21
0.0000000000001114
 31
0.0
  0
LINE
  5
20B
330
1E
100
AcDbEntity
  8
0
100
AcDbLine
 10
131.6339999999999
 20
0.0000000000001113
 30
0.0
 11
133.366
 21
0.0000000000001113
 31
0.0
  0
LINE
  5
20C
330
1E
100
AcDbEntity
  8
0
100
AcDbLine
 10
132.366
 20
0.0000000000001114
 30
0.0
 11
133.366
 21
0.0000000000001113
 31
0.0
  0
LINE
  5
20D
330
1E
100
AcDbEntity
  8
0
100
AcDbLine
 10
122.4089999999999
 20
0.0000000000001146
 30
0.0
 11
122.4089999999999
 21
2.00000000000011
 31
0.0
  0
LINE
  5
20E
330
1E
100
AcDbEntity
  8
0
100
AcDbLine
 10
122.4089999999999
 20
0.0000000000001146
 30
0.0
 11
124.141
 21
0.0000000000001145
 31
0.0
  0
LINE
  5
20F
330
1E
100
AcDbEntity
  8
0
100
AcDbLine
 10
122.4089999999999
 20
0.0000000000001146
 30
0.0
 11
123.4089999999999
 21
0.0000000000001147
 31
0.0
  0
LINE
  5
210
330
1E
100
AcDbEntity
  8
0
100
AcDbLine
 10
122.4089999999999
 20
0.000000000000117
 30
0.0
 11
122.4089999999999
 21
2.000000000000119
 31
0.0
  0
LINE
  5
211
330
1E
100
AcDbEntity
  8
0
100
AcDbLine
 10
122.4089999999999
 20
0.000000000000117
 30
0.0
 11
124.141
 21
0.0000000000001171
 31
0.0
  0
LINE
  5
212
330
1E
100
AcDbEntity
  8
0
100
AcDbLine
 10
122.4089999999999
 20
0.000000000000117
 30
0.0
 11
123.4089999999999
 21
0.0000000000001169
 31
0.0
  0
LINE
  5
213
330
1E
100
AcDbEntity
  8
0
100
AcDbLine
 10
123.4089999999999
 20
0.0000000000001169
 30
0.0
 11
125.141
 21
0.000000000000117
 31
0.0
  0
LINE
  5
214
330
1E
100
AcDbEntity
  8
0
100
AcDbLine
 10
123.134
 20
0.0000000000001194
 30
0.0
 11
123.134
 21
2.000000000000119
 31
0.0
  0
LINE
  5
215
330
1E
100
AcDbEntity
  8
0
100
AcDbLine
 10
123.134
 20
0.0000000000001194
 30
0.0
 11
124.134
 21
0.0000000000001196
 31
0.0
  0
LINE
  5
216
330
1E
100
AcDbEntity
  8
0
100
AcDbLine
 10
123.134
 20
0.0000000000001194
 30
0.0
 11
124.866
 21
0.0000000000001194
 31
0.0
  0
LINE
  5
217
330
1E
100
AcDbEntity
  8
0
100
AcDbLine
 10
124.141
 20
0.0000000000001171
 30
0.0
 11
125.141
 21
0.000000000000117
 31
0.0
  0
LINE
  5
218
330
1E
100
AcDbEntity
  8
0
100
AcDbLine
 10
124.134
 20
0.0000000000001196
 30
0.0
 11
124.134
 21
2.000000000000119
 31
0.0
  0
LINE
  5
219
330
1E
100
AcDbEntity
  8
0
100
AcDbLine
 10
124.134
 20
0.0000000000001196
 30
0.0
 11
125.866
 21
0.0000000000001195
 31
0.0
  0
LINE
  5
21A
330
1E
100
AcDbEntity
  8
0
100
AcDbLine
 10
124.866
 20
0.0000000000001194
 30
0.0
 11
125.866
 21
0.0000000000001195
 31
0.0
  0
LINE
  5
21B
330
1E
100
AcDbEntity
  8
0
100
AcDbLine
 10
124.141
 20
0.0000000000001145
 30
0.0
 11
125.141
 21
0.0000000000001146
 31
0.0
  0
LINE
  5
21C
330
1E
100
AcDbEntity
  8
0
100
AcDbLine
 10
123.4089999999999
 20
0.0000000000001147
 30
0.0
 11
125.141
 21
0.0000000000001146
 31
0.0
  0
LINE
  5
21D
330
1E
100
AcDbEntity
  8
0
100
AcDbLine
 10
126.77
 20
0.0000000000001135
 30
0.0
 11
128.184
 21
0.0000000000001134
 31
0.0
  0
LINE
  5
21E
330
1E
100
AcDbEntity
  8
0
100
AcDbLine
 10
126.77
 20
0.0000000000001135
 30
0.0
 11
128.184
 21
0.0000000000001136
 31
0.0
  0
LINE
  5
21F
330
1E
100
AcDbEntity
  8
0
100
AcDbLine
 10
126.4459999999999
 20
0.0000000000001152
 30
0.0
 11
126.4459999999999
 21
2.000000000000119
 31
0.0
  0
LINE
  5
220
330
1E
100
AcDbEntity
  8
0
100
AcDbLine
 10
126.4459999999999
 20
0.0000000000001152
 30
0.0
 11
128.3779999999999
 21
0.0000000000001151
 31
0.0
  0
LINE
  5
221
330
1E
100
AcDbEntity
  8
0
100
AcDbLine
 10
126.4459999999999
 20
0.0000000000001152
 30
0.0
 11
126.964
 21
0.0000000000001153
 31
0.0
  0
LINE
  5
222
330
1E
100
AcDbEntity
  8
0
100
AcDbLine
 10
126.77
 20
0.0000000000001182
 30
0.0
 11
126.77
 21
2.000000000000119
 31
0.0
  0
LINE
  5
223
330
1E
100
AcDbEntity
  8
0
100
AcDbLine
 10
126.77
 20
0.0000000000001182
 30
0.0
 11
128.184
 21
0.0000000000001182
 31
0.0
  0
LINE
  5
224
330
1E
100
AcDbEntity
  8
0
100
AcDbLine
 10
126.77
 20
0.0000000000001182
 30
0.0
 11
128.184
 21
0.0000000000001181
 31
0.0
  0
LINE
  5
225
330
1E
100
AcDbEntity
  8
0
100
AcDbLine
 10
126.4459999999999
 20
0.0000000000001165
 30
0.0
 11
126.4459999999999
 21
2.000000000000119
 31
0.0
  0
LINE
  5
226
330
1E
100
AcDbEntity
  8
0
100
AcDbLine
 10
126.4459999999999
 20
0.0000000000001165
 30
0.0
 11
128.3779999999999
 21
0.0000000000001165
 31
0.0
  0
LINE
  5
227
330
1E
100
AcDbEntity
  8
0
100
AcDbLine
 10
126.4459999999999
 20
0.0000000000001165
 30
0.0
 11
126.964
 21
0.0000000000001164
 31
0.0
  0
LINE
  5
228
330
1E
100
AcDbEntity
  8
0
100
AcDbLine
 10
126.964
 20
0.0000000000001164
 30
0.0
 11
128.896
 21
0.0000000000001164
 31
0.0
  0
LINE
  5
229
330
1E
100
AcDbEntity
  8
0
100
AcDbLine
 10
125.866
 20
0.0000000000001195
 30
0.0
 11
125.866
 21
2.000000000000119
 31
0.0
  0
LINE
  5
22A
330
1E
100
AcDbEntity
  8
0
100
AcDbLine
 10
128.184
 20
0.0000000000001134
 30
0.0
 11
129.5979999999999
 21
0.0000000000001135
 31
0.0
  0
LINE
  5
22B
330
1E
100
AcDbEntity
  8
0
100
AcDbLine
 10
128.184
 20
0.0000000000001136
 30
0.0
 11
129.5979999999999
 21
0.0000000000001135
 31
0.0
  0
LINE
  5
22C
330
1E
100
AcDbEntity
  8
0
100
AcDbLine
 10
128.3779999999999
 20
0.0000000000001151
 30
0.0
 11
128.896
 21
0.0000000000001152
 31
0.0
  0
LINE
  5
22D
330
1E
100
AcDbEntity
  8
0
100
AcDbLine
 10
128.0
 20
0.0000000000001158
 30
0.0
 11
130.0
 21
0.0000000000001158
 31
0.0
  0
LINE
  5
22E
330
1E
100
AcDbEntity
  8
0
100
AcDbLine
 10
128.184
 20
0.0000000000001182
 30
0.0
 11
128.184
 21
2.000000000000119
 31
0.0
  0
LINE
  5
22F
330
1E
100
AcDbEntity
  8
0
100
AcDbLine
 10
128.184
 20
0.0000000000001182
 30
0.0
 11
129.5979999999999
 21
0.0000000000001182
 31
0.0
  0
LINE
  5
230
330
1E
100
AcDbEntity
  8
0
100
AcDbLine
 10
128.184
 20
0.0000000000001181
 30
0.0
 11
129.5979999999999
 21
0.0000000000001182
 31
0.0
  0
LINE
  5
231
330
1E
100
AcDbEntity
  8
0
100
AcDbLine
 10
128.3779999999999
 20
0.0000000000001165
 30
0.0
 11
128.896
 21
0.0000000000001164
 31
0.0
  0
LINE
  5
232
330
1E
100
AcDbEntity
  8
0
100
AcDbLine
 10
128.0
 20
0.0000000000001159
 30
0.0
 11
130.0
 21
0.0000000000001159
 31
0.0
  0
LINE
  5
233
330
1E
100
AcDbEntity
  8
0
100
AcDbLine
 10
129.5979999999999
 20
0.0000000000001182
 30
0.0
 11
129.5979999999999
 21
2.000000000000119
 31
0.0
  0
LINE
  5
234
330
1E
100
AcDbEntity
  8
0
100
AcDbLine
 10
130.0
 20
0.0000000000001159
 30
0.0
 11
130.0
 21
2.000000000000119
 31
0.0
  0
LINE
  5
235
330
1E
100
AcDbEntity
  8
0
100
AcDbLine
 10
126.964
 20
0.0000000000001153
 30
0.0
 11
128.896
 21
0.0000000000001152
 31
0.0
  0
LINE
  5
236
330
1E
100
AcDbEntity
  8
0
100
AcDbLine
 10
130.6339999999999
 20
0.0000000000001202
 30
0.0
 11
130.6339999999999
 21
2.000000000000119
 31
0.0
  0
LINE
  5
237
330
1E
100
AcDbEntity
  8
0
100
AcDbLine
 10
130.6339999999999
 20
0.0000000000001202
 30
0.0
 11
131.6339999999999
 21
0.0000000000001204
 31
0.0
  0
LINE
  5
238
330
1E
100
AcDbEntity
  8
0
100
AcDbLine
 10
130.6339999999999
 20
0.0000000000001202
 30
0.0
 11
132.366
 21
0.0000000000001202
 31
0.0
  0
LINE
  5
239
330
1E
100
AcDbEntity
  8
0
100
AcDbLine
 10
131.6339999999999
 20
0.0000000000001204
 30
0.0
 11
131.6339999999999
 21
2.000000000000119
 31
0.0
  0
LINE
  5
23A
330
1E
100
AcDbEntity
  8
0
100
AcDbLine
 10
131.6339999999999
 20
0.0000000000001204
 30
0.0
 11
133.366
 21
0.0000000000001203
 31
0.0
  0
LINE
  5
23B
330
1E
100
AcDbEntity
  8
0
100
AcDbLine
 10
132.366
 20
0.0000000000001202
 30
0.0
 11
133.366
 21
0.0000000000001203
 31
0.0
  0
LINE
  5
23C
330
1E
100
AcDbEntity
  8
0
100
AcDbLine
 10
133.366
 20
0.0000000000001203
 30
0.0
 11
133.366
 21
2.000000000000119
 31
0.0
  0
LINE
  5
23D
330
1E
100
AcDbEntity
  8
0
100
AcDbLine
 10
124.866
 20
0.0000000000001122
 30
0.0
 11
125.866
 21
0.0000000000001121
 31
0.0
  0
LINE
  5
23E
330
1E
100
AcDbEntity
  8
0
100
AcDbLine
 10
118.991
 20
2.00000000000011
 30
0.0
 11
122.4089999999999
 21
2.00000000000011
 31
0.0
  0
LINE
  5
23F
330
1E
100
AcDbEntity
  8
0
100
AcDbLine
 10
32.0172
 20
2.00000000000011
 30
0.0
 11
35.0
 21
2.00000000000011
 31
0.0
  0
LINE
  5
240
330
1E
100
AcDbEntity
  8
0
100
AcDbLine
 10
49.36600000000001
 20
2.00000000000011
 30
0.0
 11
50.0
 21
2.00000000000011
 31
0.0
  0
LINE
  5
241
330
1E
100
AcDbEntity
  8
0
100
AcDbLine
 10
53.55360000000001
 20
2.00000000000011
 30
0.0
 11
54.13399999999999
 21
2.00000000000011
 31
0.0
  0
LINE
  5
242
330
1E
100
AcDbEntity
  8
0
100
AcDbLine
 10
45.8
 20
2.00000000000011
 30
0.0
 11
46.63399999999999
 21
2.00000000000011
 31
0.0
  0
LINE
  5
243
330
1E
100
AcDbEntity
  8
0
100
AcDbLine
 10
89.0
 20
2.00000000000011
 30
0.0
 11
89.0
 21
0.0000000000001116
 31
0.0
  0
LINE
  5
244
330
1E
100
AcDbEntity
  8
0
100
AcDbLine
 10
46.63399999999999
 20
2.00000000000011
 30
0.0
 11
46.63399999999999
 21
0.0000000000001113
 31
0.0
  0
LINE
  5
245
330
1E
100
AcDbEntity
  8
0
100
AcDbLine
 10
44.6007
 20
2.00000000000011
 30
0.0
 11
45.8
 21
2.00000000000011
 31
0.0
  0
LINE
  5
246
330
1E
100
AcDbEntity
  8
0
100
AcDbLine
 10
39.0648
 20
2.00000000000011
 30
0.0
 11
39.7954
 21
2.00000000000011
 31
0.0
  0
LINE
  5
247
330
1E
100
AcDbEntity
  8
0
100
AcDbLine
 10
27.2
 20
2.00000000000011
 30
0.0
 11
28.87819999999999
 21
2.00000000000011
 31
0.0
  0
LINE
  5
248
330
1E
100
AcDbEntity
  8
0
100
AcDbLine
 10
133.366
 20
2.00000000000011
 30
0.0
 11
134.1999999999999
 21
2.00000000000011
 31
0.0
  0
LINE
  5
249
330
1E
100
AcDbEntity
  8
0
100
AcDbLine
 10
130.6339999999999
 20
2.00000000000011
 30
0.0
 11
130.6339999999999
 21
0.0000000000001113
 31
0.0
  0
LINE
  5
24A
330
1E
100
AcDbEntity
  8
0
100
AcDbLine
 10
130.0
 20
2.00000000000011
 30
0.0
 11
130.6339999999999
 21
2.00000000000011
 31
0.0
  0
LINE
  5
24B
330
1E
100
AcDbEntity
  8
0
100
AcDbLine
 10
125.866
 20
2.00000000000011
 30
0.0
 11
126.4459999999999
 21
2.00000000000011
 31
0.0
  0
LINE
  5
24C
330
1E
100
AcDbEntity
  8
0
100
AcDbLine
 10
115.0
 20
2.00000000000011
 30
0.0
 11
115.6339999999999
 21
2.00000000000011
 31
0.0
  0
LINE
  5
24D
330
1E
100
AcDbEntity
  8
0
100
AcDbLine
 10
137.376
 20
0.0000000000001128
 30
0.0
 11
138.7899999999999
 21
0.0000000000001127
 31
0.0
  0
LINE
  5
24E
330
1E
100
AcDbEntity
  8
0
100
AcDbLine
 10
137.376
 20
0.0000000000001128
 30
0.0
 11
138.7899999999999
 21
0.0000000000001129
 31
0.0
  0
LINE
  5
24F
330
1E
100
AcDbEntity
  8
0
100
AcDbLine
 10
135.399
 20
0.0000000000001141
 30
0.0
 11
135.399
 21
2.00000000000011
 31
0.0
  0
LINE
  5
250
330
1E
100
AcDbEntity
  8
0
100
AcDbLine
 10
135.399
 20
0.0000000000001141
 30
0.0
 11
137.131
 21
0.0000000000001141
 31
0.0
  0
LINE
  5
251
330
1E
100
AcDbEntity
  8
0
100
AcDbLine
 10
135.399
 20
0.0000000000001141
 30
0.0
 11
136.399
 21
0.0000000000001142
 31
0.0
  0
LINE
  5
252
330
1E
100
AcDbEntity
  8
0
100
AcDbLine
 10
137.131
 20
0.0000000000001141
 30
0.0
 11
138.131
 21
0.0000000000001142
 31
0.0
  0
LINE
  5
253
330
1E
100
AcDbEntity
  8
0
100
AcDbLine
 10
138.7899999999999
 20
0.0000000000001127
 30
0.0
 11
140.205
 21
0.0000000000001128
 31
0.0
  0
LINE
  5
254
330
1E
100
AcDbEntity
  8
0
100
AcDbLine
 10
138.7899999999999
 20
0.0000000000001129
 30
0.0
 11
140.205
 21
0.0000000000001128
 31
0.0
  0
LINE
  5
255
330
1E
100
AcDbEntity
  8
0
100
AcDbLine
 10
135.399
 20
0.0000000000001175
 30
0.0
 11
135.399
 21
2.000000000000119
 31
0.0
  0
LINE
  5
256
330
1E
100
AcDbEntity
  8
0
100
AcDbLine
 10
135.399
 20
0.0000000000001175
 30
0.0
 11
137.131
 21
0.0000000000001175
 31
0.0
  0
LINE
  5
257
330
1E
100
AcDbEntity
  8
0
100
AcDbLine
 10
135.399
 20
0.0000000000001175
 30
0.0
 11
136.399
 21
0.0000000000001174
 31
0.0
  0
LINE
  5
258
330
1E
100
AcDbEntity
  8
0
100
AcDbLine
 10
136.399
 20
0.0000000000001174
 30
0.0
 11
138.131
 21
0.0000000000001174
 31
0.0
  0
LINE
  5
259
330
1E
100
AcDbEntity
  8
0
100
AcDbLine
 10
137.131
 20
0.0000000000001175
 30
0.0
 11
137.131
 21
2.000000000000119
 31
0.0
  0
LINE
  5
25A
330
1E
100
AcDbEntity
  8
0
100
AcDbLine
 10
137.131
 20
0.0000000000001175
 30
0.0
 11
138.131
 21
0.0000000000001174
 31
0.0
  0
LINE
  5
25B
330
1E
100
AcDbEntity
  8
0
100
AcDbLine
 10
137.376
 20
0.0000000000001188
 30
0.0
 11
137.376
 21
2.000000000000119
 31
0.0
  0
LINE
  5
25C
330
1E
100
AcDbEntity
  8
0
100
AcDbLine
 10
137.376
 20
0.0000000000001188
 30
0.0
 11
138.7899999999999
 21
0.0000000000001189
 31
0.0
  0
LINE
  5
25D
330
1E
100
AcDbEntity
  8
0
100
AcDbLine
 10
137.376
 20
0.0000000000001188
 30
0.0
 11
138.7899999999999
 21
0.0000000000001187
 31
0.0
  0
LINE
  5
25E
330
1E
100
AcDbEntity
  8
0
100
AcDbLine
 10
138.7899999999999
 20
0.0000000000001189
 30
0.0
 11
138.7899999999999
 21
2.000000000000119
 31
0.0
  0
LINE
  5
25F
330
1E
100
AcDbEntity
  8
0
100
AcDbLine
 10
138.7899999999999
 20
0.0000000000001189
 30
0.0
 11
140.205
 21
0.0000000000001188
 31
0.0
  0
LINE
  5
260
330
1E
100
AcDbEntity
  8
0
100
AcDbLine
 10
138.7899999999999
 20
0.0000000000001187
 30
0.0
 11
140.205
 21
0.0000000000001188
 31
0.0
  0
LINE
  5
261
330
1E
100
AcDbEntity
  8
0
100
AcDbLine
 10
140.205
 20
0.0000000000001188
 30
0.0
 11
140.205
 21
2.000000000000119
 31
0.0
  0
LINE
  5
262
330
1E
100
AcDbEntity
  8
0
100
AcDbLine
 10
136.399
 20
0.0000000000001142
 30
0.0
 11
138.131
 21
0.0000000000001142
 31
0.0
  0
LINE
  5
263
330
1E
100
AcDbEntity
  8
0
100
AcDbLine
 10
147.9829999999999
 20
0.0000000000001122
 30
0.0
 11
147.9829999999999
 21
2.00000000000011
 31
0.0
  0
LINE
  5
264
330
1E
100
AcDbEntity
  8
0
100
AcDbLine
 10
147.9829999999999
 20
0.0000000000001122
 30
0.0
 11
149.397
 21
0.0000000000001121
 31
0.0
  0
LINE
  5
265
330
1E
100
AcDbEntity
  8
0
100
AcDbLine
 10
147.9829999999999
 20
0.0000000000001122
 30
0.0
 11
149.397
 21
0.0000000000001123
 31
0.0
  0
LINE
  5
266
330
1E
100
AcDbEntity
  8
0
100
AcDbLine
 10
149.397
 20
0.0000000000001121
 30
0.0
 11
150.811
 21
0.0000000000001122
 31
0.0
  0
LINE
  5
267
330
1E
100
AcDbEntity
  8
0
100
AcDbLine
 10
140.935
 20
0.0000000000001149
 30
0.0
 11
140.935
 21
2.000000000000119
 31
0.0
  0
LINE
  5
268
330
1E
100
AcDbEntity
  8
0
100
AcDbLine
 10
140.935
 20
0.0000000000001149
 30
0.0
 11
142.867
 21
0.0000000000001149
 31
0.0
  0
LINE
  5
269
330
1E
100
AcDbEntity
  8
0
100
AcDbLine
 10
140.935
 20
0.0000000000001149
 30
0.0
 11
141.453
 21
0.000000000000115
 31
0.0
  0
LINE
  5
26A
330
1E
100
AcDbEntity
  8
0
100
AcDbLine
 10
142.867
 20
0.0000000000001149
 30
0.0
 11
143.3849999999999
 21
0.000000000000115
 31
0.0
  0
LINE
  5
26B
330
1E
100
AcDbEntity
  8
0
100
AcDbLine
 10
140.935
 20
0.0000000000001167
 30
0.0
 11
140.935
 21
2.000000000000119
 31
0.0
  0
LINE
  5
26C
330
1E
100
AcDbEntity
  8
0
100
AcDbLine
 10
140.935
 20
0.0000000000001167
 30
0.0
 11
142.867
 21
0.0000000000001167
 31
0.0
  0
LINE
  5
26D
330
1E
100
AcDbEntity
  8
0
100
AcDbLine
 10
140.935
 20
0.0000000000001167
 30
0.0
 11
141.453
 21
0.0000000000001166
 31
0.0
  0
LINE
  5
26E
330
1E
100
AcDbEntity
  8
0
100
AcDbLine
 10
141.453
 20
0.0000000000001166
 30
0.0
 11
143.3849999999999
 21
0.0000000000001166
 31
0.0
  0
LINE
  5
26F
330
1E
100
AcDbEntity
  8
0
100
AcDbLine
 10
143.0
 20
0.0000000000001158
 30
0.0
 11
145.0
 21
0.0000000000001158
 31
0.0
  0
LINE
  5
270
330
1E
100
AcDbEntity
  8
0
100
AcDbLine
 10
142.867
 20
0.0000000000001167
 30
0.0
 11
143.3849999999999
 21
0.0000000000001166
 31
0.0
  0
LINE
  5
271
330
1E
100
AcDbEntity
  8
0
100
AcDbLine
 10
142.867
 20
0.0000000000001167
 30
0.0
 11
142.867
 21
2.000000000000119
 31
0.0
  0
LINE
  5
272
330
1E
100
AcDbEntity
  8
0
100
AcDbLine
 10
143.3849999999999
 20
0.0000000000001166
 30
0.0
 11
143.3849999999999
 21
2.000000000000119
 31
0.0
  0
LINE
  5
273
330
1E
100
AcDbEntity
  8
0
100
AcDbLine
 10
145.0
 20
0.0000000000001159
 30
0.0
 11
145.0
 21
2.000000000000119
 31
0.0
  0
LINE
  5
274
330
1E
100
AcDbEntity
  8
0
100
AcDbLine
 10
143.0
 20
0.0000000000001159
 30
0.0
 11
145.0
 21
0.0000000000001159
 31
0.0
  0
LINE
  5
275
330
1E
100
AcDbEntity
  8
0
100
AcDbLine
 10
141.453
 20
0.000000000000115
 30
0.0
 11
143.3849999999999
 21
0.000000000000115
 31
0.0
  0
LINE
  5
276
330
1E
100
AcDbEntity
  8
0
100
AcDbLine
 10
149.39
 20
0.0000000000001178
 30
0.0
 11
151.122
 21
0.0000000000001179
 31
0.0
  0
LINE
  5
277
330
1E
100
AcDbEntity
  8
0
100
AcDbLine
 10
148.39
 20
0.0000000000001137
 30
0.0
 11
150.122
 21
0.0000000000001136
 31
0.0
  0
LINE
  5
278
330
1E
100
AcDbEntity
  8
0
100
AcDbLine
 10
148.39
 20
0.0000000000001137
 30
0.0
 11
149.39
 21
0.0000000000001138
 31
0.0
  0
LINE
  5
279
330
1E
100
AcDbEntity
  8
0
100
AcDbLine
 10
148.39
 20
0.0000000000001179
 30
0.0
 11
150.122
 21
0.000000000000118
 31
0.0
  0
LINE
  5
27A
330
1E
100
AcDbEntity
  8
0
100
AcDbLine
 10
148.39
 20
0.0000000000001179
 30
0.0
 11
149.39
 21
0.0000000000001178
 31
0.0
  0
LINE
  5
27B
330
1E
100
AcDbEntity
  8
0
100
AcDbLine
 10
147.9829999999999
 20
0.0000000000001194
 30
0.0
 11
147.9829999999999
 21
2.000000000000119
 31
0.0
  0
LINE
  5
27C
330
1E
100
AcDbEntity
  8
0
100
AcDbLine
 10
147.9829999999999
 20
0.0000000000001194
 30
0.0
 11
149.397
 21
0.0000000000001195
 31
0.0
  0
LINE
  5
27D
330
1E
100
AcDbEntity
  8
0
100
AcDbLine
 10
147.9829999999999
 20
0.0000000000001194
 30
0.0
 11
149.397
 21
0.0000000000001194
 31
0.0
  0
LINE
  5
27E
330
1E
100
AcDbEntity
  8
0
100
AcDbLine
 10
149.397
 20
0.0000000000001195
 30
0.0
 11
149.397
 21
2.000000000000119
 31
0.0
  0
LINE
  5
27F
330
1E
100
AcDbEntity
  8
0
100
AcDbLine
 10
149.397
 20
0.0000000000001195
 30
0.0
 11
150.811
 21
0.0000000000001194
 31
0.0
  0
LINE
  5
280
330
1E
100
AcDbEntity
  8
0
100
AcDbLine
 10
149.397
 20
0.0000000000001194
 30
0.0
 11
150.811
 21
0.0000000000001194
 31
0.0
  0
LINE
  5
281
330
1E
100
AcDbEntity
  8
0
100
AcDbLine
 10
149.39
 20
0.0000000000001138
 30
0.0
 11
151.122
 21
0.0000000000001137
 31
0.0
  0
LINE
  5
282
330
1E
100
AcDbEntity
  8
0
100
AcDbLine
 10
150.122
 20
0.000000000000118
 30
0.0
 11
151.122
 21
0.0000000000001179
 31
0.0
  0
LINE
  5
283
330
1E
100
AcDbEntity
  8
0
100
AcDbLine
 10
150.811
 20
0.0000000000001194
 30
0.0
 11
150.811
 21
2.000000000000119
 31
0.0
  0
LINE
  5
284
330
1E
100
AcDbEntity
  8
0
100
AcDbLine
 10
150.122
 20
0.0000000000001136
 30
0.0
 11
151.122
 21
0.0000000000001137
 31
0.0
  0
LINE
  5
285
330
1E
100
AcDbEntity
  8
0
100
AcDbLine
 10
161.3799999999999
 20
0.0000000000001132
 30
0.0
 11
161.3799999999999
 21
2.00000000000011
 31
0.0
  0
LINE
  5
286
330
1E
100
AcDbEntity
  8
0
100
AcDbLine
 10
161.3799999999999
 20
0.0000000000001132
 30
0.0
 11
163.1119999999999
 21
0.0000000000001132
 31
0.0
  0
LINE
  5
287
330
1E
100
AcDbEntity
  8
0
100
AcDbLine
 10
161.3799999999999
 20
0.0000000000001132
 30
0.0
 11
162.3799999999999
 21
0.0000000000001133
 31
0.0
  0
LINE
  5
288
330
1E
100
AcDbEntity
  8
0
100
AcDbLine
 10
163.1119999999999
 20
0.0000000000001132
 30
0.0
 11
164.1119999999999
 21
0.0000000000001133
 31
0.0
  0
LINE
  5
289
330
1E
100
AcDbEntity
  8
0
100
AcDbLine
 10
155.424
 20
0.0000000000001147
 30
0.0
 11
155.424
 21
2.000000000000119
 31
0.0
  0
LINE
  5
28A
330
1E
100
AcDbEntity
  8
0
100
AcDbLine
 10
155.424
 20
0.0000000000001147
 30
0.0
 11
157.356
 21
0.0000000000001146
 31
0.0
  0
LINE
  5
28B
330
1E
100
AcDbEntity
  8
0
100
AcDbLine
 10
155.424
 20
0.0000000000001147
 30
0.0
 11
155.942
 21
0.0000000000001148
 31
0.0
  0
LINE
  5
28C
330
1E
100
AcDbEntity
  8
0
100
AcDbLine
 10
157.356
 20
0.0000000000001146
 30
0.0
 11
157.8739999999999
 21
0.0000000000001148
 31
0.0
  0
LINE
  5
28D
330
1E
100
AcDbEntity
  8
0
100
AcDbLine
 10
155.424
 20
0.0000000000001169
 30
0.0
 11
155.424
 21
2.000000000000119
 31
0.0
  0
LINE
  5
28E
330
1E
100
AcDbEntity
  8
0
100
AcDbLine
 10
155.424
 20
0.0000000000001169
 30
0.0
 11
157.356
 21
0.000000000000117
 31
0.0
  0
LINE
  5
28F
330
1E
100
AcDbEntity
  8
0
100
AcDbLine
 10
155.424
 20
0.0000000000001169
 30
0.0
 11
155.942
 21
0.0000000000001168
 31
0.0
  0
LINE
  5
290
330
1E
100
AcDbEntity
  8
0
100
AcDbLine
 10
155.942
 20
0.0000000000001168
 30
0.0
 11
157.8739999999999
 21
0.0000000000001169
 31
0.0
  0
LINE
  5
291
330
1E
100
AcDbEntity
  8
0
100
AcDbLine
 10
151.122
 20
0.0000000000001179
 30
0.0
 11
151.122
 21
2.000000000000119
 31
0.0
  0
LINE
  5
292
330
1E
100
AcDbEntity
  8
0
100
AcDbLine
 10
158.0
 20
0.0000000000001158
 30
0.0
 11
158.0
 21
2.000000000000119
 31
0.0
  0
LINE
  5
293
330
1E
100
AcDbEntity
  8
0
100
AcDbLine
 10
158.0
 20
0.0000000000001158
 30
0.0
 11
160.0
 21
0.0000000000001158
 31
0.0
  0
LINE
  5
294
330
1E
100
AcDbEntity
  8
0
100
AcDbLine
 10
160.0
 20
0.0000000000001159
 30
0.0
 11
160.0
 21
2.000000000000119
 31
0.0
  0
LINE
  5
295
330
1E
100
AcDbEntity
  8
0
100
AcDbLine
 10
158.0
 20
0.0000000000001159
 30
0.0
 11
160.0
 21
0.0000000000001159
 31
0.0
  0
LINE
  5
296
330
1E
100
AcDbEntity
  8
0
100
AcDbLine
 10
158.0
 20
0.0000000000001159
 30
0.0
 11
158.0
 21
2.000000000000119
 31
0.0
  0
LINE
  5
297
330
1E
100
AcDbEntity
  8
0
100
AcDbLine
 10
157.356
 20
0.000000000000117
 30
0.0
 11
157.8739999999999
 21
0.0000000000001169
 31
0.0
  0
LINE
  5
298
330
1E
100
AcDbEntity
  8
0
100
AcDbLine
 10
157.356
 20
0.000000000000117
 30
0.0
 11
157.356
 21
2.000000000000119
 31
0.0
  0
LINE
  5
299
330
1E
100
AcDbEntity
  8
0
100
AcDbLine
 10
161.3799999999999
 20
0.0000000000001184
 30
0.0
 11
161.3799999999999
 21
2.000000000000119
 31
0.0
  0
LINE
  5
29A
330
1E
100
AcDbEntity
  8
0
100
AcDbLine
 10
161.3799999999999
 20
0.0000000000001184
 30
0.0
 11
163.1119999999999
 21
0.0000000000001185
 31
0.0
  0
LINE
  5
29B
330
1E
100
AcDbEntity
  8
0
100
AcDbLine
 10
161.3799999999999
 20
0.0000000000001184
 30
0.0
 11
162.3799999999999
 21
0.0000000000001183
 31
0.0
  0
LINE
  5
29C
330
1E
100
AcDbEntity
  8
0
100
AcDbLine
 10
162.3799999999999
 20
0.0000000000001183
 30
0.0
 11
164.1119999999999
 21
0.0000000000001184
 31
0.0
  0
LINE
  5
29D
330
1E
100
AcDbEntity
  8
0
100
AcDbLine
 10
157.8739999999999
 20
0.0000000000001169
 30
0.0
 11
157.8739999999999
 21
2.000000000000119
 31
0.0
  0
LINE
  5
29E
330
1E
100
AcDbEntity
  8
0
100
AcDbLine
 10
155.942
 20
0.0000000000001148
 30
0.0
 11
157.8739999999999
 21
0.0000000000001148
 31
0.0
  0
LINE
  5
29F
330
1E
100
AcDbEntity
  8
0
100
AcDbLine
 10
163.1119999999999
 20
0.0000000000001185
 30
0.0
 11
163.1119999999999
 21
2.000000000000119
 31
0.0
  0
LINE
  5
2A0
330
1E
100
AcDbEntity
  8
0
100
AcDbLine
 10
163.1119999999999
 20
0.0000000000001185
 30
0.0
 11
164.1119999999999
 21
0.0000000000001184
 31
0.0
  0
LINE
  5
2A1
330
1E
100
AcDbEntity
  8
0
100
AcDbLine
 10
164.1119999999999
 20
0.0000000000001184
 30
0.0
 11
164.1119999999999
 21
2.000000000000119
 31
0.0
  0
LINE
  5
2A2
330
1E
100
AcDbEntity
  8
0
100
AcDbLine
 10
162.3799999999999
 20
0.0000000000001133
 30
0.0
 11
164.1119999999999
 21
0.0000000000001133
 31
0.0
  0
LINE
  5
2A3
330
1E
100
AcDbEntity
  8
0
100
AcDbLine
 10
149.397
 20
0.0000000000001123
 30
0.0
 11
150.811
 21
0.0000000000001122
 31
0.0
  0
LINE
  5
2A4
330
1E
100
AcDbEntity
  8
0
100
AcDbLine
 10
145.0
 20
2.00000000000011
 30
0.0
 11
147.9829999999999
 21
2.00000000000011
 31
0.0
  0
LINE
  5
2A5
330
1E
100
AcDbEntity
  8
0
100
AcDbLine
 10
140.205
 20
2.00000000000011
 30
0.0
 11
140.935
 21
2.00000000000011
 31
0.0
  0
LINE
  5
2A6
330
1E
100
AcDbEntity
  8
0
100
AcDbLine
 10
151.122
 20
2.00000000000011
 30
0.0
 11
152.8
 21
2.00000000000011
 31
0.0
  0
LINE
  5
2A7
330
1E
100
AcDbEntity
  8
0
100
AcDbLine
 10
134.1999999999999
 20
2.00000000000011
 30
0.0
 11
135.399
 21
2.00000000000011
 31
0.0
  0
LINE
  5
2A8
330
1E
100
AcDbEntity
  8
0
100
AcDbLine
 10
147.9829999999999
 20
2.00000000000011
 30
0.0
 11
147.9829999999999
 21
0.0000000000001122
 31
0.0
  0
LINE
  5
2A9
330
1E
100
AcDbEntity
  8
0
100
AcDbLine
 10
54.13399999999999
 20
2.00000000000011
 30
0.0
 11
54.13399999999999
 21
0.0000000000001122
 31
0.0
  0
LINE
  5
2AA
330
1E
100
AcDbEntity
  8
0
100
AcDbLine
 10
24.5759
 20
2.00000000000011
 30
0.0
 11
27.2
 21
2.00000000000011
 31
0.0
  0
LINE
  5
2AB
330
1E
100
AcDbEntity
  8
0
100
AcDbLine
 10
22.0
 20
2.00000000000011
 30
0.0
 11
22.12639999999999
 21
2.00000000000011
 31
0.0
  0
LINE
  5
2AC
330
1E
100
AcDbEntity
  8
0
100
AcDbLine
 10
89.0
 20
2.00000000000011
 30
0.0
 11
89.0
 21
0.0000000000001126
 31
0.0
  0
LINE
  5
2AD
330
1E
100
AcDbEntity
  8
0
100
AcDbLine
 10
74.79899999999999
 20
2.00000000000011
 30
0.0
 11
74.79899999999999
 21
0.0000000000001126
 31
0.0
  0
LINE
  5
2AE
330
1E
100
AcDbEntity
  8
0
100
AcDbLine
 10
15.8878
 20
2.00000000000011
 30
0.0
 11
15.8878
 21
0.0000000000001132
 31
0.0
  0
LINE
  5
2AF
330
1E
100
AcDbEntity
  8
0
100
AcDbLine
 10
115.6339999999999
 20
2.00000000000011
 30
0.0
 11
115.6339999999999
 21
0.0000000000001129
 31
0.0
  0
LINE
  5
2B0
330
1E
100
AcDbEntity
  8
0
100
AcDbLine
 10
98.86920000000001
 20
2.00000000000011
 30
0.0
 11
98.86920000000001
 21
0.0000000000001135
 31
0.0
  0
LINE
  5
2B1
330
1E
100
AcDbEntity
  8
0
100
AcDbLine
 10
89.0
 20
2.00000000000011
 30
0.0
 11
89.0
 21
0.0000000000001132
 31
0.0
  0
LINE
  5
2B2
330
1E
100
AcDbEntity
  8
0
100
AcDbLine
 10
89.0
 20
2.00000000000011
 30
0.0
 11
89.0
 21
0.0000000000001135
 31
0.0
  0
LINE
  5
2B3
330
1E
100
AcDbEntity
  8
0
100
AcDbLine
 10
39.7954
 20
2.00000000000011
 30
0.0
 11
39.7954
 21
0.0000000000001129
 31
0.0
  0
LINE
  5
2B4
330
1E
100
AcDbEntity
  8
0
100
AcDbLine
 10
18.6199
 20
2.00000000000011
 30
0.0
 11
20.0
 21
2.00000000000011
 31
0.0
  0
LINE
  5
2B5
330
1E
100
AcDbEntity
  8
0
100
AcDbLine
 10
12.9
 20
2.00000000000011
 30
0.0
 11
15.8878
 21
2.00000000000011
 31
0.0
  0
LINE
  5
2B6
330
1E
100
AcDbEntity
  8
0
100
AcDbLine
 10
135.399
 20
2.00000000000011
 30
0.0
 11
135.399
 21
0.0000000000001142
 31
0.0
  0
LINE
  5
2B7
330
1E
100
AcDbEntity
  8
0
100
AcDbLine
 10
89.0
 20
2.00000000000011
 30
0.0
 11
89.0
 21
0.0000000000001142
 31
0.0
  0
LINE
  5
2B8
330
1E
100
AcDbEntity
  8
0
100
AcDbLine
 10
28.87819999999999
 20
2.00000000000011
 30
0.0
 11
28.87819999999999
 21
0.0000000000001139
 31
0.0
  0
LINE
  5
2B9
330
1E
100
AcDbEntity
  8
0
100
AcDbLine
 10
94.98690000000001
 20
2.00000000000011
 30
0.0
 11
94.98690000000001
 21
0.0000000000001145
 31
0.0
  0
LINE
  5
2BA
330
1E
100
AcDbEntity
  8
0
100
AcDbLine
 10
122.4089999999999
 20
2.00000000000011
 30
0.0
 11
122.4089999999999
 21
0.0000000000001145
 31
0.0
  0
LINE
  5
2BB
330
1E
100
AcDbEntity
  8
0
100
AcDbLine
 10
89.0
 20
2.00000000000011
 30
0.0
 11
89.0
 21
0.0000000000001145
 31
0.0
  0
LINE
  5
2BC
330
1E
100
AcDbEntity
  8
0
100
AcDbLine
 10
82.56359999999999
 20
2.00000000000011
 30
0.0
 11
82.56359999999999
 21
0.0000000000001145
 31
0.0
  0
LINE
  5
2BD
330
1E
100
AcDbEntity
  8
0
100
AcDbLine
 10
61.0086
 20
2.00000000000011
 30
0.0
 11
61.0086
 21
0.0000000000001142
 31
0.0
  0
LINE
  5
2BE
330
1E
100
AcDbEntity
  8
0
100
AcDbLine
 10
7.637489999999999
 20
2.00000000000011
 30
0.0
 11
7.637489999999999
 21
0.0000000000001145
 31
0.0
  0
LINE
  5
2BF
330
1E
100
AcDbEntity
  8
0
100
AcDbLine
 10
10.08699999999999
 20
2.00000000000011
 30
0.0
 11
12.9
 21
2.00000000000011
 31
0.0
  0
LINE
  5
2C0
330
1E
100
AcDbEntity
  8
0
100
AcDbLine
 10
7.0
 20
2.00000000000011
 30
0.0
 11
7.637489999999999
 21
2.00000000000011
 31
0.0
  0
LINE
  5
2C1
330
1E
100
AcDbEntity
  8
0
100
AcDbLine
 10
4.2
 20
2.00000000000011
 30
0.0
 11
5.0
 21
2.00000000000011
 31
0.0
  0
LINE
  5
2C2
330
1E
100
AcDbEntity
  8
0
100
AcDbLine
 10
4.2
 20
2.00000000000011
 30
0.0
 11
5.0
 21
2.00000000000011
 31
0.0
  0
LINE
  5
2C3
330
1E
100
AcDbEntity
  8
0
100
AcDbLine
 10
161.3799999999999
 20
2.00000000000011
 30
0.0
 11
161.3799999999999
 21
0.0000000000001132
 31
0.0
  0
LINE
  5
2C4
330
1E
100
AcDbEntity
  8
0
100
AcDbLine
 10
160.0
 20
2.00000000000011
 30
0.0
 11
161.3799999999999
 21
2.00000000000011
 31
0.0
  0
LINE
  5
2C5
330
1E
100
AcDbEntity
  8
0
100
AcDbLine
 10
157.8739999999999
 20
2.00000000000011
 30
0.0
 11
158.0
 21
2.00000000000011
 31
0.0
  0
LINE
  5
2C6
330
1E
100
AcDbEntity
  8
0
100
AcDbLine
 10
164.1119999999999
 20
2.00000000000011
 30
0.0
 11
167.1
 21
2.00000000000011
 31
0.0
  0
LINE
  5
2C7
330
1E
100
AcDbEntity
  8
0
100
AcDbLine
 10
152.8
 20
2.00000000000011
 30
0.0
 11
155.424
 21
2.00000000000011
 31
0.0
  0
LINE
  5
2C8
330
1E
100
AcDbEntity
  8
0
100
AcDbLine
 10
170.4309999999999
 20
0.0000000000001171
 30
0.0
 11
172.3629999999999
 21
0.0000000000001171
 31
0.0
  0
LINE
  5
2C9
330
1E
100
AcDbEntity
  8
0
100
AcDbLine
 10
169.9129999999999
 20
0.0000000000001144
 30
0.0
 11
169.9129999999999
 21
2.00000000000011
 31
0.0
  0
LINE
  5
2CA
330
1E
100
AcDbEntity
  8
0
100
AcDbLine
 10
169.9129999999999
 20
0.0000000000001144
 30
0.0
 11
171.8449999999999
 21
0.0000000000001144
 31
0.0
  0
LINE
  5
2CB
330
1E
100
AcDbEntity
  8
0
100
AcDbLine
 10
169.9129999999999
 20
0.0000000000001144
 30
0.0
 11
170.4309999999999
 21
0.0000000000001146
 31
0.0
  0
LINE
  5
2CC
330
1E
100
AcDbEntity
  8
0
100
AcDbLine
 10
169.9129999999999
 20
0.0000000000001172
 30
0.0
 11
169.9129999999999
 21
2.000000000000119
 31
0.0
  0
LINE
  5
2CD
330
1E
100
AcDbEntity
  8
0
100
AcDbLine
 10
169.9129999999999
 20
0.0000000000001172
 30
0.0
 11
171.8449999999999
 21
0.0000000000001172
 31
0.0
  0
LINE
  5
2CE
330
1E
100
AcDbEntity
  8
0
100
AcDbLine
 10
169.9129999999999
 20
0.0000000000001172
 30
0.0
 11
170.4309999999999
 21
0.0000000000001171
 31
0.0
  0
LINE
  5
2CF
330
1E
100
AcDbEntity
  8
0
100
AcDbLine
 10
171.8449999999999
 20
0.0000000000001144
 30
0.0
 11
172.3629999999999
 21
0.0000000000001145
 31
0.0
  0
LINE
  5
2D0
330
1E
100
AcDbEntity
  8
0
100
AcDbLine
 10
171.8449999999999
 20
0.0000000000001172
 30
0.0
 11
172.3629999999999
 21
0.0000000000001171
 31
0.0
  0
LINE
  5
2D1
330
1E
100
AcDbEntity
  8
0
100
AcDbLine
 10
171.8449999999999
 20
0.0000000000001172
 30
0.0
 11
171.8449999999999
 21
2.000000000000119
 31
0.0
  0
LINE
  5
2D2
330
1E
100
AcDbEntity
  8
0
100
AcDbLine
 10
172.3629999999999
 20
0.0000000000001171
 30
0.0
 11
172.3629999999999
 21
2.000000000000119
 31
0.0
  0
LINE
  5
2D3
330
1E
100
AcDbEntity
  8
0
100
AcDbLine
 10
173.0
 20
0.0000000000001158
 30
0.0
 11
173.0
 21
2.000000000000119
 31
0.0
  0
LINE
  5
2D4
330
1E
100
AcDbEntity
  8
0
100
AcDbLine
 10
173.0
 20
0.0000000000001158
 30
0.0
 11
175.0
 21
0.0000000000001158
 31
0.0
  0
LINE
  5
2D5
330
1E
100
AcDbEntity
  8
0
100
AcDbLine
 10
175.0
 20
0.0000000000001159
 30
0.0
 11
175.0
 21
2.000000000000119
 31
0.0
  0
LINE
  5
2D6
330
1E
100
AcDbEntity
  8
0
100
AcDbLine
 10
173.0
 20
0.0000000000001159
 30
0.0
 11
175.0
 21
0.0000000000001159
 31
0.0
  0
LINE
  5
2D7
330
1E
100
AcDbEntity
  8
0
100
AcDbLine
 10
173.0
 20
0.0000000000001159
 30
0.0
 11
173.0
 21
2.000000000000119
 31
0.0
  0
LINE
  5
2D8
330
1E
100
AcDbEntity
  8
0
100
AcDbLine
 10
170.4309999999999
 20
0.0000000000001146
 30
0.0
 11
172.3629999999999
 21
0.0000000000001145
 31
0.0
  0
LINE
  5
2D9
330
1E
100
AcDbEntity
  8
0
100
AcDbLine
 10
169.9129999999999
 20
2.00000000000011
 30
0.0
 11
169.9129999999999
 21
0.0000000000001145
 31
0.0
  0
LINE
  5
2DA
330
1E
100
AcDbEntity
  8
0
100
AcDbLine
 10
175.0
 20
2.00000000000011
 30
0.0
 11
175.8
 21
2.00000000000011
 31
0.0
  0
LINE
  5
2DB
330
1E
100
AcDbEntity
  8
0
100
AcDbLine
 10
172.3629999999999
 20
2.00000000000011
 30
0.0
 11
173.0
 21
2.00000000000011
 31
0.0
  0
LINE
  5
2DC
330
1E
100
AcDbEntity
  8
0
100
AcDbLine
 10
167.1
 20
2.00000000000011
 30
0.0
 11
169.9129999999999
 21
2.00000000000011
 31
0.0
  0
LINE
  5
2DD
330
1E
100
AcDbEntity
  8
0
100
AcDbLine
 10
22.12639999999999
 20
2.000000000000119
 30
0.0
 11
22.12639999999999
 21
0.0000000000001148
 31
0.0
  0
LINE
  5
2DE
330
1E
100
AcDbEntity
  8
0
100
AcDbLine
 10
140.935
 20
2.000000000000119
 30
0.0
 11
140.935
 21
0.0000000000001148
 31
0.0
  0
LINE
  5
2DF
330
1E
100
AcDbEntity
  8
0
100
AcDbLine
 10
105.556
 20
2.000000000000119
 30
0.0
 11
105.556
 21
0.0000000000001148
 31
0.0
  0
LINE
  5
2E0
330
1E
100
AcDbEntity
  8
0
100
AcDbLine
 10
115.0
 20
2.000000000000119
 30
0.0
 11
115.0
 21
0.0000000000001158
 31
0.0
  0
LINE
  5
2E1
330
1E
100
AcDbEntity
  8
0
100
AcDbLine
 10
114.407
 20
2.000000000000119
 30
0.0
 11
115.0
 21
2.000000000000119
 31
0.0
  0
LINE
  5
2E2
330
1E
100
AcDbEntity
  8
0
100
AcDbLine
 10
145.0
 20
2.000000000000119
 30
0.0
 11
145.0
 21
0.0000000000001158
 31
0.0
  0
LINE
  5
2E3
330
1E
100
AcDbEntity
  8
0
100
AcDbLine
 10
143.3849999999999
 20
2.000000000000119
 30
0.0
 11
145.0
 21
2.000000000000119
 31
0.0
  0
LINE
  5
2E4
330
1E
100
AcDbEntity
  8
0
100
AcDbLine
 10
130.0
 20
2.000000000000119
 30
0.0
 11
130.0
 21
0.0000000000001158
 31
0.0
  0
LINE
  5
2E5
330
1E
100
AcDbEntity
  8
0
100
AcDbLine
 10
129.5979999999999
 20
2.000000000000119
 30
0.0
 11
130.0
 21
2.000000000000119
 31
0.0
  0
LINE
  5
2E6
330
1E
100
AcDbEntity
  8
0
100
AcDbLine
 10
175.0
 20
2.000000000000119
 30
0.0
 11
175.0
 21
0.0000000000001158
 31
0.0
  0
LINE
  5
2E7
330
1E
100
AcDbEntity
  8
0
100
AcDbLine
 10
173.0
 20
2.000000000000119
 30
0.0
 11
173.0
 21
0.0000000000001158
 31
0.0
  0
LINE
  5
2E8
330
1E
100
AcDbEntity
  8
0
100
AcDbLine
 10
173.0
 20
2.000000000000119
 30
0.0
 11
175.0
 21
2.000000000000119
 31
0.0
  0
LINE
  5
2E9
330
1E
100
AcDbEntity
  8
0
100
AcDbLine
 10
160.0
 20
2.000000000000119
 30
0.0
 11
160.0
 21
0.0000000000001158
 31
0.0
  0
LINE
  5
2EA
330
1E
100
AcDbEntity
  8
0
100
AcDbLine
 10
158.0
 20
2.000000000000119
 30
0.0
 11
158.0
 21
0.0000000000001158
 31
0.0
  0
LINE
  5
2EB
330
1E
100
AcDbEntity
  8
0
100
AcDbLine
 10
158.0
 20
2.000000000000119
 30
0.0
 11
160.0
 21
2.000000000000119
 31
0.0
  0
LINE
  5
2EC
330
1E
100
AcDbEntity
  8
0
100
AcDbLine
 10
126.4459999999999
 20
2.000000000000119
 30
0.0
 11
126.4459999999999
 21
0.0000000000001152
 31
0.0
  0
LINE
  5
2ED
330
1E
100
AcDbEntity
  8
0
100
AcDbLine
 10
155.424
 20
2.000000000000119
 30
0.0
 11
155.424
 21
0.0000000000001148
 31
0.0
  0
LINE
  5
2EE
330
1E
100
AcDbEntity
  8
0
100
AcDbLine
 10
65.0
 20
2.000000000000119
 30
0.0
 11
65.593
 21
2.000000000000119
 31
0.0
  0
LINE
  5
2EF
330
1E
100
AcDbEntity
  8
0
100
AcDbLine
 10
65.0
 20
2.000000000000119
 30
0.0
 11
65.0
 21
0.0000000000001158
 31
0.0
  0
LINE
  5
2F0
330
1E
100
AcDbEntity
  8
0
100
AcDbLine
 10
50.0
 20
2.000000000000119
 30
0.0
 11
50.402
 21
2.000000000000119
 31
0.0
  0
LINE
  5
2F1
330
1E
100
AcDbEntity
  8
0
100
AcDbLine
 10
50.0
 20
2.000000000000119
 30
0.0
 11
50.0
 21
0.0000000000001158
 31
0.0
  0
LINE
  5
2F2
330
1E
100
AcDbEntity
  8
0
100
AcDbLine
 10
35.0
 20
2.000000000000119
 30
0.0
 11
36.61529999999999
 21
2.000000000000119
 31
0.0
  0
LINE
  5
2F3
330
1E
100
AcDbEntity
  8
0
100
AcDbLine
 10
35.0
 20
2.000000000000119
 30
0.0
 11
35.0
 21
0.0000000000001158
 31
0.0
  0
LINE
  5
2F4
330
1E
100
AcDbEntity
  8
0
100
AcDbLine
 10
22.0
 20
2.000000000000119
 30
0.0
 11
22.0
 21
0.0000000000001158
 31
0.0
  0
LINE
  5
2F5
330
1E
100
AcDbEntity
  8
0
100
AcDbLine
 10
20.0
 20
2.000000000000119
 30
0.0
 11
22.0
 21
2.000000000000119
 31
0.0
  0
LINE
  5
2F6
330
1E
100
AcDbEntity
  8
0
100
AcDbLine
 10
20.0
 20
2.000000000000119
 30
0.0
 11
20.0
 21
0.0000000000001158
 31
0.0
  0
LINE
  5
2F7
330
1E
100
AcDbEntity
  8
0
100
AcDbLine
 10
10.08699999999999
 20
2.000000000000119
 30
0.0
 11
10.08699999999999
 21
0.0000000000001171
 31
0.0
  0
LINE
  5
2F8
330
1E
100
AcDbEntity
  8
0
100
AcDbLine
 10
8.15512
 20
2.000000000000119
 30
0.0
 11
8.15512
 21
0.0000000000001171
 31
0.0
  0
LINE
  5
2F9
330
1E
100
AcDbEntity
  8
0
100
AcDbLine
 10
8.15512
 20
2.000000000000119
 30
0.0
 11
10.08699999999999
 21
2.000000000000119
 31
0.0
  0
LINE
  5
2FA
330
1E
100
AcDbEntity
  8
0
100
AcDbLine
 10
7.637489999999999
 20
2.000000000000119
 30
0.0
 11
7.637489999999999
 21
0.0000000000001171
 31
0.0
  0
LINE
  5
2FB
330
1E
100
AcDbEntity
  8
0
100
AcDbLine
 10
7.637489999999999
 20
2.000000000000119
 30
0.0
 11
8.15512
 21
2.000000000000119
 31
0.0
  0
LINE
  5
2FC
330
1E
100
AcDbEntity
  8
0
100
AcDbLine
 10
66.11069999999999
 20
2.000000000000119
 30
0.0
 11
66.11069999999999
 21
0.0000000000001161
 31
0.0
  0
LINE
  5
2FD
330
1E
100
AcDbEntity
  8
0
100
AcDbLine
 10
66.11069999999999
 20
2.000000000000119
 30
0.0
 11
67.0345
 21
2.000000000000119
 31
0.0
  0
LINE
  5
2FE
330
1E
100
AcDbEntity
  8
0
100
AcDbLine
 10
65.593
 20
2.000000000000119
 30
0.0
 11
65.593
 21
0.0000000000001161
 31
0.0
  0
LINE
  5
2FF
330
1E
100
AcDbEntity
  8
0
100
AcDbLine
 10
65.593
 20
2.000000000000119
 30
0.0
 11
66.11069999999999
 21
2.000000000000119
 31
0.0
  0
LINE
  5
300
330
1E
100
AcDbEntity
  8
0
100
AcDbLine
 10
112.966
 20
2.000000000000119
 30
0.0
 11
113.8889999999999
 21
2.000000000000119
 31
0.0
  0
LINE
  5
301
330
1E
100
AcDbEntity
  8
0
100
AcDbLine
 10
53.55360000000001
 20
2.000000000000119
 30
0.0
 11
53.55360000000001
 21
0.0000000000001165
 31
0.0
  0
LINE
  5
302
330
1E
100
AcDbEntity
  8
0
100
AcDbLine
 10
53.2304
 20
2.000000000000119
 30
0.0
 11
53.55360000000001
 21
2.000000000000119
 31
0.0
  0
LINE
  5
303
330
1E
100
AcDbEntity
  8
0
100
AcDbLine
 10
113.8889999999999
 20
2.000000000000119
 30
0.0
 11
114.407
 21
2.000000000000119
 31
0.0
  0
LINE
  5
304
330
1E
100
AcDbEntity
  8
0
100
AcDbLine
 10
113.8889999999999
 20
2.000000000000119
 30
0.0
 11
113.8889999999999
 21
0.0000000000001161
 31
0.0
  0
LINE
  5
305
330
1E
100
AcDbEntity
  8
0
100
AcDbLine
 10
114.407
 20
2.000000000000119
 30
0.0
 11
114.407
 21
0.0000000000001161
 31
0.0
  0
LINE
  5
306
330
1E
100
AcDbEntity
  8
0
100
AcDbLine
 10
39.0648
 20
2.000000000000119
 30
0.0
 11
39.0648
 21
0.0000000000001168
 31
0.0
  0
LINE
  5
307
330
1E
100
AcDbEntity
  8
0
100
AcDbLine
 10
37.1329
 20
2.000000000000119
 30
0.0
 11
37.1329
 21
0.0000000000001168
 31
0.0
  0
LINE
  5
308
330
1E
100
AcDbEntity
  8
0
100
AcDbLine
 10
37.1329
 20
2.000000000000119
 30
0.0
 11
39.0648
 21
2.000000000000119
 31
0.0
  0
LINE
  5
309
330
1E
100
AcDbEntity
  8
0
100
AcDbLine
 10
36.61529999999999
 20
2.000000000000119
 30
0.0
 11
36.61529999999999
 21
0.0000000000001168
 31
0.0
  0
LINE
  5
30A
330
1E
100
AcDbEntity
  8
0
100
AcDbLine
 10
36.61529999999999
 20
2.000000000000119
 30
0.0
 11
37.1329
 21
2.000000000000119
 31
0.0
  0
LINE
  5
30B
330
1E
100
AcDbEntity
  8
0
100
AcDbLine
 10
74.4436
 20
2.000000000000119
 30
0.0
 11
74.4436
 21
0.0000000000001168
 31
0.0
  0
LINE
  5
30C
330
1E
100
AcDbEntity
  8
0
100
AcDbLine
 10
73.3662
 20
2.000000000000119
 30
0.0
 11
74.4436
 21
2.000000000000119
 31
0.0
  0
LINE
  5
30D
330
1E
100
AcDbEntity
  8
0
100
AcDbLine
 10
57.591
 20
2.000000000000119
 30
0.0
 11
57.591
 21
0.0000000000001171
 31
0.0
  0
LINE
  5
30E
330
1E
100
AcDbEntity
  8
0
100
AcDbLine
 10
56.86600000000001
 20
2.000000000000119
 30
0.0
 11
57.591
 21
2.000000000000119
 31
0.0
  0
LINE
  5
30F
330
1E
100
AcDbEntity
  8
0
100
AcDbLine
 10
85.0131
 20
2.000000000000119
 30
0.0
 11
85.0131
 21
0.0000000000001171
 31
0.0
  0
LINE
  5
310
330
1E
100
AcDbEntity
  8
0
100
AcDbLine
 10
78.366
 20
2.000000000000119
 30
0.0
 11
78.366
 21
0.0000000000001171
 31
0.0
  0
LINE
  5
311
330
1E
100
AcDbEntity
  8
0
100
AcDbLine
 10
78.366
 20
2.000000000000119
 30
0.0
 11
78.68129999999999
 21
2.000000000000119
 31
0.0
  0
LINE
  5
312
330
1E
100
AcDbEntity
  8
0
100
AcDbLine
 10
77.2485
 20
2.000000000000119
 30
0.0
 11
78.366
 21
2.000000000000119
 31
0.0
  0
LINE
  5
313
330
1E
100
AcDbEntity
  8
0
100
AcDbLine
 10
89.0
 20
2.000000000000119
 30
0.0
 11
89.0
 21
0.0000000000001171
 31
0.0
  0
LINE
  5
314
330
1E
100
AcDbEntity
  8
0
100
AcDbLine
 10
105.556
 20
2.000000000000119
 30
0.0
 11
106.634
 21
2.000000000000119
 31
0.0
  0
LINE
  5
315
330
1E
100
AcDbEntity
  8
0
100
AcDbLine
 10
105.556
 20
2.000000000000119
 30
0.0
 11
105.556
 21
0.0000000000001168
 31
0.0
  0
LINE
  5
316
330
1E
100
AcDbEntity
  8
0
100
AcDbLine
 10
140.935
 20
2.000000000000119
 30
0.0
 11
142.867
 21
2.000000000000119
 31
0.0
  0
LINE
  5
317
330
1E
100
AcDbEntity
  8
0
100
AcDbLine
 10
140.935
 20
2.000000000000119
 30
0.0
 11
140.935
 21
0.0000000000001168
 31
0.0
  0
LINE
  5
318
330
1E
100
AcDbEntity
  8
0
100
AcDbLine
 10
157.8739999999999
 20
2.000000000000119
 30
0.0
 11
157.8739999999999
 21
0.0000000000001168
 31
0.0
  0
LINE
  5
319
330
1E
100
AcDbEntity
  8
0
100
AcDbLine
 10
142.867
 20
2.000000000000119
 30
0.0
 11
143.3849999999999
 21
2.000000000000119
 31
0.0
  0
LINE
  5
31A
330
1E
100
AcDbEntity
  8
0
100
AcDbLine
 10
142.867
 20
2.000000000000119
 30
0.0
 11
142.867
 21
0.0000000000001168
 31
0.0
  0
LINE
  5
31B
330
1E
100
AcDbEntity
  8
0
100
AcDbLine
 10
101.319
 20
2.000000000000119
 30
0.0
 11
101.634
 21
2.000000000000119
 31
0.0
  0
LINE
  5
31C
330
1E
100
AcDbEntity
  8
0
100
AcDbLine
 10
101.634
 20
2.000000000000119
 30
0.0
 11
102.751
 21
2.000000000000119
 31
0.0
  0
LINE
  5
31D
330
1E
100
AcDbEntity
  8
0
100
AcDbLine
 10
101.634
 20
2.000000000000119
 30
0.0
 11
101.634
 21
0.0000000000001171
 31
0.0
  0
LINE
  5
31E
330
1E
100
AcDbEntity
  8
0
100
AcDbLine
 10
169.9129999999999
 20
2.000000000000119
 30
0.0
 11
171.8449999999999
 21
2.000000000000119
 31
0.0
  0
LINE
  5
31F
330
1E
100
AcDbEntity
  8
0
100
AcDbLine
 10
169.9129999999999
 20
2.000000000000119
 30
0.0
 11
169.9129999999999
 21
0.0000000000001171
 31
0.0
  0
LINE
  5
320
330
1E
100
AcDbEntity
  8
0
100
AcDbLine
 10
171.8449999999999
 20
2.000000000000119
 30
0.0
 11
172.3629999999999
 21
2.000000000000119
 31
0.0
  0
LINE
  5
321
330
1E
100
AcDbEntity
  8
0
100
AcDbLine
 10
171.8449999999999
 20
2.000000000000119
 30
0.0
 11
171.8449999999999
 21
0.0000000000001171
 31
0.0
  0
LINE
  5
322
330
1E
100
AcDbEntity
  8
0
100
AcDbLine
 10
172.3629999999999
 20
2.000000000000119
 30
0.0
 11
172.3629999999999
 21
0.0000000000001171
 31
0.0
  0
LINE
  5
323
330
1E
100
AcDbEntity
  8
0
100
AcDbLine
 10
155.424
 20
2.000000000000119
 30
0.0
 11
157.356
 21
2.000000000000119
 31
0.0
  0
LINE
  5
324
330
1E
100
AcDbEntity
  8
0
100
AcDbLine
 10
155.424
 20
2.000000000000119
 30
0.0
 11
155.424
 21
0.0000000000001171
 31
0.0
  0
LINE
  5
325
330
1E
100
AcDbEntity
  8
0
100
AcDbLine
 10
157.356
 20
2.000000000000119
 30
0.0
 11
157.8739999999999
 21
2.000000000000119
 31
0.0
  0
LINE
  5
326
330
1E
100
AcDbEntity
  8
0
100
AcDbLine
 10
157.356
 20
2.000000000000119
 30
0.0
 11
157.356
 21
0.0000000000001171
 31
0.0
  0
LINE
  5
327
330
1E
100
AcDbEntity
  8
0
100
AcDbLine
 10
122.4089999999999
 20
2.000000000000119
 30
0.0
 11
123.134
 21
2.000000000000119
 31
0.0
  0
LINE
  5
328
330
1E
100
AcDbEntity
  8
0
100
AcDbLine
 10
122.4089999999999
 20
2.000000000000119
 30
0.0
 11
122.4089999999999
 21
0.0000000000001171
 31
0.0
  0
LINE
  5
329
330
1E
100
AcDbEntity
  8
0
100
AcDbLine
 10
143.3849999999999
 20
2.000000000000119
 30
0.0
 11
143.3849999999999
 21
0.0000000000001168
 31
0.0
  0
LINE
  5
32A
330
1E
100
AcDbEntity
  8
0
100
AcDbLine
 10
94.98690000000001
 20
2.000000000000119
 30
0.0
 11
95.50449999999999
 21
2.000000000000119
 31
0.0
  0
LINE
  5
32B
330
1E
100
AcDbEntity
  8
0
100
AcDbLine
 10
94.98690000000001
 20
2.000000000000119
 30
0.0
 11
94.98690000000001
 21
0.0000000000001171
 31
0.0
  0
LINE
  5
32C
330
1E
100
AcDbEntity
  8
0
100
AcDbLine
 10
126.4459999999999
 20
2.000000000000119
 30
0.0
 11
126.77
 21
2.000000000000119
 31
0.0
  0
LINE
  5
32D
330
1E
100
AcDbEntity
  8
0
100
AcDbLine
 10
126.4459999999999
 20
2.000000000000119
 30
0.0
 11
126.4459999999999
 21
0.0000000000001165
 31
0.0
  0
LINE
  5
32E
330
1E
100
AcDbEntity
  8
0
100
AcDbLine
 10
24.5759
 20
2.000000000000119
 30
0.0
 11
24.5759
 21
0.0000000000001171
 31
0.0
  0
LINE
  5
32F
330
1E
100
AcDbEntity
  8
0
100
AcDbLine
 10
22.644
 20
2.000000000000119
 30
0.0
 11
22.644
 21
0.0000000000001171
 31
0.0
  0
LINE
  5
330
330
1E
100
AcDbEntity
  8
0
100
AcDbLine
 10
22.644
 20
2.000000000000119
 30
0.0
 11
24.5759
 21
2.000000000000119
 31
0.0
  0
LINE
  5
331
330
1E
100
AcDbEntity
  8
0
100
AcDbLine
 10
22.12639999999999
 20
2.000000000000119
 30
0.0
 11
22.12639999999999
 21
0.0000000000001168
 31
0.0
  0
LINE
  5
332
330
1E
100
AcDbEntity
  8
0
100
AcDbLine
 10
22.12639999999999
 20
2.000000000000119
 30
0.0
 11
22.644
 21
2.000000000000119
 31
0.0
  0
LINE
  5
333
330
1E
100
AcDbEntity
  8
0
100
AcDbLine
 10
7.0
 20
2.000000000000119
 30
0.0
 11
7.0
 21
0.0000000000001158
 31
0.0
  0
LINE
  5
334
330
1E
100
AcDbEntity
  8
0
100
AcDbLine
 10
5.0
 20
2.000000000000119
 30
0.0
 11
7.0
 21
2.000000000000119
 31
0.0
  0
LINE
  5
335
330
1E
100
AcDbEntity
  8
0
100
AcDbLine
 10
5.0
 20
2.000000000000119
 30
0.0
 11
5.0
 21
0.0000000000001158
 31
0.0
  0
LINE
  5
336
330
1E
100
AcDbEntity
  8
0
100
AcDbLine
 10
175.8
 20
2.00000000000011
 30
0.0
 11
179.0
 21
2.000000000000119
 31
0.0
  0
LINE
  5
337
330
1E
100
AcDbEntity
  8
0
100
AcDbLine
 10
179.0
 20
2.000000000000119
 30
0.0
 11
180.0
 21
3.00000000000012
 31
0.0
  0
LINE
  5
338
330
1E
100
AcDbEntity
  8
0
100
AcDbLine
 10
175.8
 20
2.000000000000119
 30
0.0
 11
179.0
 21
2.000000000000119
 31
0.0
  0
LINE
  5
339
330
1E
100
AcDbEntity
  8
0
100
AcDbLine
 10
0.9999999999999969
 20
2.000000000000119
 30
0.0
 11
4.2
 21
2.000000000000119
 31
0.0
  0
LINE
  5
33A
330
1E
100
AcDbEntity
  8
0
100
AcDbLine
 10
0.9999999999999969
 20
2.000000000000119
 30
0.0
 11
4.2
 21
2.00000000000011
 31
0.0
  0
LINE
  5
33B
330
1E
100
AcDbEntity
  8
0
100
AcDbLine
 10
0.9999999999999969
 20
13.0000000000001
 30
0.0
 11
4.2
 21
13.0000000000001
 31
0.0
  0
LINE
  5
33C
330
1E
100
AcDbEntity
  8
0
100
AcDbLine
 10
0.9999999999999969
 20
54.00000000000011
 30
0.0
 11
4.2
 21
54.00000000000011
 31
0.0
  0
LINE
  5
33D
330
1E
100
AcDbEntity
  8
0
100
AcDbLine
 10
3.299999999999999
 20
53.00000000000011
 30
0.0
 11
12.09999999999999
 21
53.00000000000011
 31
0.0
  0
LINE
  5
33E
330
1E
100
AcDbEntity
  8
0
100
AcDbLine
 10
6.0
 20
54.00000000000011
 30
0.0
 11
6.0
 21
102.0
 31
0.0
  0
LINE
  5
33F
330
1E
100
AcDbEntity
  8
0
100
AcDbLine
 10
5.0
 20
54.00000000000011
 30
0.0
 11
5.0
 21
102.0
 31
0.0
  0
LINE
  5
340
330
1E
100
AcDbEntity
  8
0
100
AcDbLine
 10
4.99999999999999
 20
187.0
 30
0.0
 11
90.0
 21
187.0
 31
0.0
  0
LINE
  5
341
330
1E
100
AcDbEntity
  8
0
100
AcDbLine
 10
5.0
 20
187.0
 30
0.0
 11
5.0
 21
102.0
 31
0.0
  0
LINE
  5
342
330
1E
100
AcDbEntity
  8
0
100
AcDbLine
 10
5.0
 20
187.0
 30
0.0
 11
90.0
 21
187.0
 31
0.0
  0
LINE
  5
343
330
1E
100
AcDbEntity
  8
0
100
AcDbLine
 10
5.0
 20
187.0
 30
0.0
 11
6.0
 21
186.0
 31
0.0
  0
LINE
  5
344
330
1E
100
AcDbEntity
  8
0
100
AcDbLine
 10
6.0
 20
186.0
 30
0.0
 11
90.0
 21
186.0
 31
0.0
  0
LINE
  5
345
330
1E
100
AcDbEntity
  8
0
100
AcDbLine
 10
6.0
 20
186.0
 30
0.0
 11
90.0
 21
186.0
 31
0.0
  0
LINE
  5
346
330
1E
100
AcDbEntity
  8
0
100
AcDbLine
 10
6.0
 20
186.0
 30
0.0
 11
6.0
 21
102.0
 31
0.0
  0
LINE
  5
347
330
1E
100
AcDbEntity
  8
0
100
AcDbLine
 10
6.0
 20
102.0
 30
0.0
 11
6.0
 21
54.00000000000011
 31
0.0
  0
LINE
  5
348
330
1E
100
AcDbEntity
  8
0
100
AcDbLine
 10
6.0
 20
102.0
 30
0.0
 11
6.0
 21
186.0
 31
0.0
  0
LINE
  5
349
330
1E
100
AcDbEntity
  8
0
100
AcDbLine
 10
5.0
 20
102.0
 30
0.0
 11
5.0
 21
54.00000000000011
 31
0.0
  0
LINE
  5
34A
330
1E
100
AcDbEntity
  8
0
100
AcDbLine
 10
5.0
 20
102.0
 30
0.0
 11
5.0
 21
187.0
 31
0.0
  0
LINE
  5
34B
330
1E
100
AcDbEntity
  8
0
100
AcDbLine
 10
4.2
 20
54.00000000000011
 30
0.0
 11
12.9
 21
54.00000000000011
 31
0.0
  0
LINE
  5
34C
330
1E
100
AcDbEntity
  8
0
100
AcDbLine
 10
12.09999999999999
 20
53.00000000000011
 30
0.0
 11
26.4
 21
53.00000000000011
 31
0.0
  0
LINE
  5
34D
330
1E
100
AcDbEntity
  8
0
100
AcDbLine
 10
12.09999999999999
 20
14.0000000000001
 30
0.0
 11
26.4
 21
14.0000000000001
 31
0.0
  0
LINE
  5
34E
330
1E
100
AcDbEntity
  8
0
100
AcDbLine
 10
3.299999999999999
 20
14.0000000000001
 30
0.0
 11
12.09999999999999
 21
14.0000000000001
 31
0.0
  0
LINE
  5
34F
330
1E
100
AcDbEntity
  8
0
100
AcDbLine
 10
4.2
 20
13.0000000000001
 30
0.0
 11
12.9
 21
13.0000000000001
 31
0.0
  0
LINE
  5
350
330
1E
100
AcDbEntity
  8
0
100
AcDbLine
 10
12.09999999999999
 20
12.00000000000009
 30
0.0
 11
26.4
 21
12.00000000000009
 31
0.0
  0
LINE
  5
351
330
1E
100
AcDbEntity
  8
0
100
AcDbLine
 10
3.299999999999999
 20
12.00000000000009
 30
0.0
 11
12.09999999999999
 21
12.00000000000009
 31
0.0
  0
LINE
  5
352
330
1E
100
AcDbEntity
  8
0
100
AcDbLine
 10
12.9
 20
54.00000000000011
 30
0.0
 11
27.2
 21
54.00000000000011
 31
0.0
  0
LINE
  5
353
330
1E
100
AcDbEntity
  8
0
100
AcDbLine
 10
12.9
 20
13.0000000000001
 30
0.0
 11
27.2
 21
13.0000000000001
 31
0.0
  0
LINE
  5
354
330
1E
100
AcDbEntity
  8
0
100
AcDbLine
 10
12.09999999999999
 20
3.00000000000012
 30
0.0
 11
26.4
 21
3.00000000000012
 31
0.0
  0
LINE
  5
355
330
1E
100
AcDbEntity
  8
0
100
AcDbLine
 10
3.299999999999999
 20
3.00000000000012
 30
0.0
 11
12.09999999999999
 21
3.00000000000012
 31
0.0
  0
LINE
  5
356
330
1E
100
AcDbEntity
  8
0
100
AcDbLine
 10
28.87819999999999
 20
2.000000000000119
 30
0.0
 11
28.87819999999999
 21
0.0000000000001178
 31
0.0
  0
LINE
  5
357
330
1E
100
AcDbEntity
  8
0
100
AcDbLine
 10
28.87819999999999
 20
2.000000000000119
 30
0.0
 11
29.1888
 21
2.000000000000119
 31
0.0
  0
LINE
  5
358
330
1E
100
AcDbEntity
  8
0
100
AcDbLine
 10
18.6199
 20
2.000000000000119
 30
0.0
 11
18.6199
 21
0.0000000000001184
 31
0.0
  0
LINE
  5
359
330
1E
100
AcDbEntity
  8
0
100
AcDbLine
 10
16.88779999999999
 20
2.000000000000119
 30
0.0
 11
16.88779999999999
 21
0.0000000000001184
 31
0.0
  0
LINE
  5
35A
330
1E
100
AcDbEntity
  8
0
100
AcDbLine
 10
16.88779999999999
 20
2.000000000000119
 30
0.0
 11
18.6199
 21
2.000000000000119
 31
0.0
  0
LINE
  5
35B
330
1E
100
AcDbEntity
  8
0
100
AcDbLine
 10
15.8878
 20
2.000000000000119
 30
0.0
 11
15.8878
 21
0.0000000000001184
 31
0.0
  0
LINE
  5
35C
330
1E
100
AcDbEntity
  8
0
100
AcDbLine
 10
15.8878
 20
2.000000000000119
 30
0.0
 11
16.88779999999999
 21
2.000000000000119
 31
0.0
  0
LINE
  5
35D
330
1E
100
AcDbEntity
  8
0
100
AcDbLine
 10
42.6238
 20
2.000000000000119
 30
0.0
 11
42.6238
 21
0.0000000000001187
 31
0.0
  0
LINE
  5
35E
330
1E
100
AcDbEntity
  8
0
100
AcDbLine
 10
41.2096
 20
2.000000000000119
 30
0.0
 11
41.2096
 21
0.0000000000001187
 31
0.0
  0
LINE
  5
35F
330
1E
100
AcDbEntity
  8
0
100
AcDbLine
 10
41.2096
 20
2.000000000000119
 30
0.0
 11
42.6238
 21
2.000000000000119
 31
0.0
  0
LINE
  5
360
330
1E
100
AcDbEntity
  8
0
100
AcDbLine
 10
39.7954
 20
2.000000000000119
 30
0.0
 11
39.7954
 21
0.0000000000001187
 31
0.0
  0
LINE
  5
361
330
1E
100
AcDbEntity
  8
0
100
AcDbLine
 10
39.7954
 20
2.000000000000119
 30
0.0
 11
41.2096
 21
2.000000000000119
 31
0.0
  0
LINE
  5
362
330
1E
100
AcDbEntity
  8
0
100
AcDbLine
 10
44.6007
 20
2.000000000000119
 30
0.0
 11
44.6007
 21
0.0000000000001174
 31
0.0
  0
LINE
  5
363
330
1E
100
AcDbEntity
  8
0
100
AcDbLine
 10
53.2304
 20
2.000000000000119
 30
0.0
 11
53.2304
 21
0.0000000000001181
 31
0.0
  0
LINE
  5
364
330
1E
100
AcDbEntity
  8
0
100
AcDbLine
 10
51.8162
 20
2.000000000000119
 30
0.0
 11
51.8162
 21
0.0000000000001181
 31
0.0
  0
LINE
  5
365
330
1E
100
AcDbEntity
  8
0
100
AcDbLine
 10
51.8162
 20
2.000000000000119
 30
0.0
 11
53.2304
 21
2.000000000000119
 31
0.0
  0
LINE
  5
366
330
1E
100
AcDbEntity
  8
0
100
AcDbLine
 10
50.402
 20
2.000000000000119
 30
0.0
 11
50.402
 21
0.0000000000001181
 31
0.0
  0
LINE
  5
367
330
1E
100
AcDbEntity
  8
0
100
AcDbLine
 10
50.402
 20
2.000000000000119
 30
0.0
 11
51.8162
 21
2.000000000000119
 31
0.0
  0
LINE
  5
368
330
1E
100
AcDbEntity
  8
0
100
AcDbLine
 10
42.86859999999999
 20
2.000000000000119
 30
0.0
 11
42.86859999999999
 21
0.0000000000001174
 31
0.0
  0
LINE
  5
369
330
1E
100
AcDbEntity
  8
0
100
AcDbLine
 10
42.86859999999999
 20
2.000000000000119
 30
0.0
 11
44.6007
 21
2.000000000000119
 31
0.0
  0
LINE
  5
36A
330
1E
100
AcDbEntity
  8
0
100
AcDbLine
 10
42.6238
 20
2.000000000000119
 30
0.0
 11
42.86859999999999
 21
2.000000000000119
 31
0.0
  0
LINE
  5
36B
330
1E
100
AcDbEntity
  8
0
100
AcDbLine
 10
32.0172
 20
2.000000000000119
 30
0.0
 11
32.0172
 21
0.0000000000001194
 31
0.0
  0
LINE
  5
36C
330
1E
100
AcDbEntity
  8
0
100
AcDbLine
 10
30.603
 20
2.000000000000119
 30
0.0
 11
30.603
 21
0.0000000000001194
 31
0.0
  0
LINE
  5
36D
330
1E
100
AcDbEntity
  8
0
100
AcDbLine
 10
30.603
 20
2.000000000000119
 30
0.0
 11
32.0172
 21
2.000000000000119
 31
0.0
  0
LINE
  5
36E
330
1E
100
AcDbEntity
  8
0
100
AcDbLine
 10
29.1888
 20
2.000000000000119
 30
0.0
 11
29.1888
 21
0.0000000000001194
 31
0.0
  0
LINE
  5
36F
330
1E
100
AcDbEntity
  8
0
100
AcDbLine
 10
29.1888
 20
2.000000000000119
 30
0.0
 11
30.603
 21
2.000000000000119
 31
0.0
  0
LINE
  5
370
330
1E
100
AcDbEntity
  8
0
100
AcDbLine
 10
61.0086
 20
2.000000000000119
 30
0.0
 11
61.0086
 21
0.0000000000001174
 31
0.0
  0
LINE
  5
371
330
1E
100
AcDbEntity
  8
0
100
AcDbLine
 10
61.0086
 20
2.000000000000119
 30
0.0
 11
61.63399999999999
 21
2.000000000000119
 31
0.0
  0
LINE
  5
372
330
1E
100
AcDbEntity
  8
0
100
AcDbLine
 10
84.4955
 20
2.000000000000119
 30
0.0
 11
84.4955
 21
0.0000000000001174
 31
0.0
  0
LINE
  5
373
330
1E
100
AcDbEntity
  8
0
100
AcDbLine
 10
84.4955
 20
2.000000000000119
 30
0.0
 11
85.0131
 21
2.000000000000119
 31
0.0
  0
LINE
  5
374
330
1E
100
AcDbEntity
  8
0
100
AcDbLine
 10
82.56359999999999
 20
2.000000000000119
 30
0.0
 11
82.56359999999999
 21
0.0000000000001174
 31
0.0
  0
LINE
  5
375
330
1E
100
AcDbEntity
  8
0
100
AcDbLine
 10
82.56359999999999
 20
2.000000000000119
 30
0.0
 11
84.4955
 21
2.000000000000119
 31
0.0
  0
LINE
  5
376
330
1E
100
AcDbEntity
  8
0
100
AcDbLine
 10
70.866
 20
2.000000000000119
 30
0.0
 11
70.866
 21
0.0000000000001181
 31
0.0
  0
LINE
  5
377
330
1E
100
AcDbEntity
  8
0
100
AcDbLine
 10
70.866
 20
2.000000000000119
 30
0.0
 11
70.9167
 21
2.000000000000119
 31
0.0
  0
LINE
  5
378
330
1E
100
AcDbEntity
  8
0
100
AcDbLine
 10
69.4839
 20
2.000000000000119
 30
0.0
 11
70.866
 21
2.000000000000119
 31
0.0
  0
LINE
  5
379
330
1E
100
AcDbEntity
  8
0
100
AcDbLine
 10
81.1308
 20
2.000000000000119
 30
0.0
 11
81.1308
 21
0.0000000000001181
 31
0.0
  0
LINE
  5
37A
330
1E
100
AcDbEntity
  8
0
100
AcDbLine
 10
80.6132
 20
2.000000000000119
 30
0.0
 11
80.6132
 21
0.0000000000001181
 31
0.0
  0
LINE
  5
37B
330
1E
100
AcDbEntity
  8
0
100
AcDbLine
 10
80.6132
 20
2.000000000000119
 30
0.0
 11
81.1308
 21
2.000000000000119
 31
0.0
  0
LINE
  5
37C
330
1E
100
AcDbEntity
  8
0
100
AcDbLine
 10
78.68129999999999
 20
2.000000000000119
 30
0.0
 11
78.68129999999999
 21
0.0000000000001181
 31
0.0
  0
LINE
  5
37D
330
1E
100
AcDbEntity
  8
0
100
AcDbLine
 10
78.68129999999999
 20
2.000000000000119
 30
0.0
 11
80.6132
 21
2.000000000000119
 31
0.0
  0
LINE
  5
37E
330
1E
100
AcDbEntity
  8
0
100
AcDbLine
 10
64.366
 20
2.000000000000119
 30
0.0
 11
64.366
 21
0.0000000000001187
 31
0.0
  0
LINE
  5
37F
330
1E
100
AcDbEntity
  8
0
100
AcDbLine
 10
63.366
 20
2.000000000000119
 30
0.0
 11
63.366
 21
0.0000000000001187
 31
0.0
  0
LINE
  5
380
330
1E
100
AcDbEntity
  8
0
100
AcDbLine
 10
63.366
 20
2.000000000000119
 30
0.0
 11
64.366
 21
2.000000000000119
 31
0.0
  0
LINE
  5
381
330
1E
100
AcDbEntity
  8
0
100
AcDbLine
 10
61.63399999999999
 20
2.000000000000119
 30
0.0
 11
61.63399999999999
 21
0.0000000000001187
 31
0.0
  0
LINE
  5
382
330
1E
100
AcDbEntity
  8
0
100
AcDbLine
 10
61.63399999999999
 20
2.000000000000119
 30
0.0
 11
63.366
 21
2.000000000000119
 31
0.0
  0
LINE
  5
383
330
1E
100
AcDbEntity
  8
0
100
AcDbLine
 10
77.2485
 20
2.000000000000119
 30
0.0
 11
77.2485
 21
0.0000000000001191
 31
0.0
  0
LINE
  5
384
330
1E
100
AcDbEntity
  8
0
100
AcDbLine
 10
76.73090000000001
 20
2.000000000000119
 30
0.0
 11
76.73090000000001
 21
0.0000000000001191
 31
0.0
  0
LINE
  5
385
330
1E
100
AcDbEntity
  8
0
100
AcDbLine
 10
76.73090000000001
 20
2.000000000000119
 30
0.0
 11
77.2485
 21
2.000000000000119
 31
0.0
  0
LINE
  5
386
330
1E
100
AcDbEntity
  8
0
100
AcDbLine
 10
74.79899999999999
 20
2.000000000000119
 30
0.0
 11
74.79899999999999
 21
0.0000000000001191
 31
0.0
  0
LINE
  5
387
330
1E
100
AcDbEntity
  8
0
100
AcDbLine
 10
74.79899999999999
 20
2.000000000000119
 30
0.0
 11
76.73090000000001
 21
2.000000000000119
 31
0.0
  0
LINE
  5
388
330
1E
100
AcDbEntity
  8
0
100
AcDbLine
 10
89.0
 20
2.000000000000119
 30
0.0
 11
89.0
 21
0.0000000000001191
 31
0.0
  0
LINE
  5
389
330
1E
100
AcDbEntity
  8
0
100
AcDbLine
 10
89.0
 20
2.000000000000119
 30
0.0
 11
89.0
 21
0.0000000000001184
 31
0.0
  0
LINE
  5
38A
330
1E
100
AcDbEntity
  8
0
100
AcDbLine
 10
89.0
 20
2.000000000000119
 30
0.0
 11
89.0
 21
0.0000000000001181
 31
0.0
  0
LINE
  5
38B
330
1E
100
AcDbEntity
  8
0
100
AcDbLine
 10
89.0
 20
2.000000000000119
 30
0.0
 11
89.0
 21
0.0000000000001174
 31
0.0
  0
LINE
  5
38C
330
1E
100
AcDbEntity
  8
0
100
AcDbLine
 10
118.991
 20
2.000000000000119
 30
0.0
 11
118.991
 21
0.0000000000001174
 31
0.0
  0
LINE
  5
38D
330
1E
100
AcDbEntity
  8
0
100
AcDbLine
 10
118.3659999999999
 20
2.000000000000119
 30
0.0
 11
118.991
 21
2.000000000000119
 31
0.0
  0
LINE
  5
38E
330
1E
100
AcDbEntity
  8
0
100
AcDbLine
 10
98.86920000000001
 20
2.000000000000119
 30
0.0
 11
99.38679999999999
 21
2.000000000000119
 31
0.0
  0
LINE
  5
38F
330
1E
100
AcDbEntity
  8
0
100
AcDbLine
 10
98.86920000000001
 20
2.000000000000119
 30
0.0
 11
98.86920000000001
 21
0.0000000000001181
 31
0.0
  0
LINE
  5
390
330
1E
100
AcDbEntity
  8
0
100
AcDbLine
 10
101.319
 20
2.000000000000119
 30
0.0
 11
101.319
 21
0.0000000000001181
 31
0.0
  0
LINE
  5
391
330
1E
100
AcDbEntity
  8
0
100
AcDbLine
 10
99.38679999999999
 20
2.000000000000119
 30
0.0
 11
101.319
 21
2.000000000000119
 31
0.0
  0
LINE
  5
392
330
1E
100
AcDbEntity
  8
0
100
AcDbLine
 10
99.38679999999999
 20
2.000000000000119
 30
0.0
 11
99.38679999999999
 21
0.0000000000001181
 31
0.0
  0
LINE
  5
393
330
1E
100
AcDbEntity
  8
0
100
AcDbLine
 10
102.751
 20
2.000000000000119
 30
0.0
 11
103.2689999999999
 21
2.000000000000119
 31
0.0
  0
LINE
  5
394
330
1E
100
AcDbEntity
  8
0
100
AcDbLine
 10
102.751
 20
2.000000000000119
 30
0.0
 11
102.751
 21
0.0000000000001191
 31
0.0
  0
LINE
  5
395
330
1E
100
AcDbEntity
  8
0
100
AcDbLine
 10
105.201
 20
2.000000000000119
 30
0.0
 11
105.201
 21
0.0000000000001191
 31
0.0
  0
LINE
  5
396
330
1E
100
AcDbEntity
  8
0
100
AcDbLine
 10
103.2689999999999
 20
2.000000000000119
 30
0.0
 11
105.201
 21
2.000000000000119
 31
0.0
  0
LINE
  5
397
330
1E
100
AcDbEntity
  8
0
100
AcDbLine
 10
103.2689999999999
 20
2.000000000000119
 30
0.0
 11
103.2689999999999
 21
0.0000000000001191
 31
0.0
  0
LINE
  5
398
330
1E
100
AcDbEntity
  8
0
100
AcDbLine
 10
109.0829999999999
 20
2.000000000000119
 30
0.0
 11
109.1339999999999
 21
2.000000000000119
 31
0.0
  0
LINE
  5
399
330
1E
100
AcDbEntity
  8
0
100
AcDbLine
 10
115.6339999999999
 20
2.000000000000119
 30
0.0
 11
116.6339999999999
 21
2.000000000000119
 31
0.0
  0
LINE
  5
39A
330
1E
100
AcDbEntity
  8
0
100
AcDbLine
 10
115.6339999999999
 20
2.000000000000119
 30
0.0
 11
115.6339999999999
 21
0.0000000000001187
 31
0.0
  0
LINE
  5
39B
330
1E
100
AcDbEntity
  8
0
100
AcDbLine
 10
118.3659999999999
 20
2.000000000000119
 30
0.0
 11
118.3659999999999
 21
0.0000000000001187
 31
0.0
  0
LINE
  5
39C
330
1E
100
AcDbEntity
  8
0
100
AcDbLine
 10
116.6339999999999
 20
2.000000000000119
 30
0.0
 11
118.3659999999999
 21
2.000000000000119
 31
0.0
  0
LINE
  5
39D
330
1E
100
AcDbEntity
  8
0
100
AcDbLine
 10
116.6339999999999
 20
2.000000000000119
 30
0.0
 11
116.6339999999999
 21
0.0000000000001187
 31
0.0
  0
LINE
  5
39E
330
1E
100
AcDbEntity
  8
0
100
AcDbLine
 10
109.1339999999999
 20
2.000000000000119
 30
0.0
 11
110.516
 21
2.000000000000119
 31
0.0
  0
LINE
  5
39F
330
1E
100
AcDbEntity
  8
0
100
AcDbLine
 10
109.1339999999999
 20
2.000000000000119
 30
0.0
 11
109.1339999999999
 21
0.0000000000001181
 31
0.0
  0
LINE
  5
3A0
330
1E
100
AcDbEntity
  8
0
100
AcDbLine
 10
97.4364
 20
2.000000000000119
 30
0.0
 11
97.4364
 21
0.0000000000001174
 31
0.0
  0
LINE
  5
3A1
330
1E
100
AcDbEntity
  8
0
100
AcDbLine
 10
95.50449999999999
 20
2.000000000000119
 30
0.0
 11
97.4364
 21
2.000000000000119
 31
0.0
  0
LINE
  5
3A2
330
1E
100
AcDbEntity
  8
0
100
AcDbLine
 10
95.50449999999999
 20
2.000000000000119
 30
0.0
 11
95.50449999999999
 21
0.0000000000001174
 31
0.0
  0
LINE
  5
3A3
330
1E
100
AcDbEntity
  8
0
100
AcDbLine
 10
56.86600000000001
 20
2.000000000000119
 30
0.0
 11
56.86600000000001
 21
0.0000000000001194
 31
0.0
  0
LINE
  5
3A4
330
1E
100
AcDbEntity
  8
0
100
AcDbLine
 10
54.13399999999999
 20
2.000000000000119
 30
0.0
 11
54.13399999999999
 21
0.0000000000001194
 31
0.0
  0
LINE
  5
3A5
330
1E
100
AcDbEntity
  8
0
100
AcDbLine
 10
54.13399999999999
 20
2.000000000000119
 30
0.0
 11
55.866
 21
2.000000000000119
 31
0.0
  0
LINE
  5
3A6
330
1E
100
AcDbEntity
  8
0
100
AcDbLine
 10
123.134
 20
2.000000000000119
 30
0.0
 11
124.134
 21
2.000000000000119
 31
0.0
  0
LINE
  5
3A7
330
1E
100
AcDbEntity
  8
0
100
AcDbLine
 10
123.134
 20
2.000000000000119
 30
0.0
 11
123.134
 21
0.0000000000001194
 31
0.0
  0
LINE
  5
3A8
330
1E
100
AcDbEntity
  8
0
100
AcDbLine
 10
126.77
 20
2.000000000000119
 30
0.0
 11
128.184
 21
2.000000000000119
 31
0.0
  0
LINE
  5
3A9
330
1E
100
AcDbEntity
  8
0
100
AcDbLine
 10
126.77
 20
2.000000000000119
 30
0.0
 11
126.77
 21
0.0000000000001181
 31
0.0
  0
LINE
  5
3AA
330
1E
100
AcDbEntity
  8
0
100
AcDbLine
 10
135.399
 20
2.000000000000119
 30
0.0
 11
137.131
 21
2.000000000000119
 31
0.0
  0
LINE
  5
3AB
330
1E
100
AcDbEntity
  8
0
100
AcDbLine
 10
135.399
 20
2.000000000000119
 30
0.0
 11
135.399
 21
0.0000000000001174
 31
0.0
  0
LINE
  5
3AC
330
1E
100
AcDbEntity
  8
0
100
AcDbLine
 10
137.131
 20
2.000000000000119
 30
0.0
 11
137.376
 21
2.000000000000119
 31
0.0
  0
LINE
  5
3AD
330
1E
100
AcDbEntity
  8
0
100
AcDbLine
 10
137.131
 20
2.000000000000119
 30
0.0
 11
137.131
 21
0.0000000000001174
 31
0.0
  0
LINE
  5
3AE
330
1E
100
AcDbEntity
  8
0
100
AcDbLine
 10
129.5979999999999
 20
2.000000000000119
 30
0.0
 11
129.5979999999999
 21
0.0000000000001181
 31
0.0
  0
LINE
  5
3AF
330
1E
100
AcDbEntity
  8
0
100
AcDbLine
 10
128.184
 20
2.000000000000119
 30
0.0
 11
129.5979999999999
 21
2.000000000000119
 31
0.0
  0
LINE
  5
3B0
330
1E
100
AcDbEntity
  8
0
100
AcDbLine
 10
128.184
 20
2.000000000000119
 30
0.0
 11
128.184
 21
0.0000000000001181
 31
0.0
  0
LINE
  5
3B1
330
1E
100
AcDbEntity
  8
0
100
AcDbLine
 10
137.376
 20
2.000000000000119
 30
0.0
 11
138.7899999999999
 21
2.000000000000119
 31
0.0
  0
LINE
  5
3B2
330
1E
100
AcDbEntity
  8
0
100
AcDbLine
 10
137.376
 20
2.000000000000119
 30
0.0
 11
137.376
 21
0.0000000000001187
 31
0.0
  0
LINE
  5
3B3
330
1E
100
AcDbEntity
  8
0
100
AcDbLine
 10
140.205
 20
2.000000000000119
 30
0.0
 11
140.205
 21
0.0000000000001187
 31
0.0
  0
LINE
  5
3B4
330
1E
100
AcDbEntity
  8
0
100
AcDbLine
 10
138.7899999999999
 20
2.000000000000119
 30
0.0
 11
140.205
 21
2.000000000000119
 31
0.0
  0
LINE
  5
3B5
330
1E
100
AcDbEntity
  8
0
100
AcDbLine
 10
138.7899999999999
 20
2.000000000000119
 30
0.0
 11
138.7899999999999
 21
0.0000000000001187
 31
0.0
  0
LINE
  5
3B6
330
1E
100
AcDbEntity
  8
0
100
AcDbLine
 10
125.866
 20
2.000000000000119
 30
0.0
 11
125.866
 21
0.0000000000001194
 31
0.0
  0
LINE
  5
3B7
330
1E
100
AcDbEntity
  8
0
100
AcDbLine
 10
73.3662
 20
2.000000000000119
 30
0.0
 11
73.3662
 21
0.0000000000001197
 31
0.0
  0
LINE
  5
3B8
330
1E
100
AcDbEntity
  8
0
100
AcDbLine
 10
106.634
 20
2.000000000000119
 30
0.0
 11
107.151
 21
2.000000000000119
 31
0.0
  0
LINE
  5
3B9
330
1E
100
AcDbEntity
  8
0
100
AcDbLine
 10
106.634
 20
2.000000000000119
 30
0.0
 11
106.634
 21
0.0000000000001197
 31
0.0
  0
LINE
  5
3BA
330
1E
100
AcDbEntity
  8
0
100
AcDbLine
 10
55.866
 20
2.000000000000119
 30
0.0
 11
55.866
 21
0.0000000000001197
 31
0.0
  0
LINE
  5
3BB
330
1E
100
AcDbEntity
  8
0
100
AcDbLine
 10
55.866
 20
2.000000000000119
 30
0.0
 11
56.86600000000001
 21
2.000000000000119
 31
0.0
  0
LINE
  5
3BC
330
1E
100
AcDbEntity
  8
0
100
AcDbLine
 10
124.134
 20
2.000000000000119
 30
0.0
 11
125.866
 21
2.000000000000119
 31
0.0
  0
LINE
  5
3BD
330
1E
100
AcDbEntity
  8
0
100
AcDbLine
 10
124.134
 20
2.000000000000119
 30
0.0
 11
124.134
 21
0.0000000000001197
 31
0.0
  0
LINE
  5
3BE
330
1E
100
AcDbEntity
  8
0
100
AcDbLine
 10
147.9829999999999
 20
2.000000000000119
 30
0.0
 11
149.397
 21
2.000000000000119
 31
0.0
  0
LINE
  5
3BF
330
1E
100
AcDbEntity
  8
0
100
AcDbLine
 10
147.9829999999999
 20
2.000000000000119
 30
0.0
 11
147.9829999999999
 21
0.0000000000001194
 31
0.0
  0
LINE
  5
3C0
330
1E
100
AcDbEntity
  8
0
100
AcDbLine
 10
161.3799999999999
 20
2.000000000000119
 30
0.0
 11
163.1119999999999
 21
2.000000000000119
 31
0.0
  0
LINE
  5
3C1
330
1E
100
AcDbEntity
  8
0
100
AcDbLine
 10
161.3799999999999
 20
2.000000000000119
 30
0.0
 11
161.3799999999999
 21
0.0000000000001184
 31
0.0
  0
LINE
  5
3C2
330
1E
100
AcDbEntity
  8
0
100
AcDbLine
 10
164.1119999999999
 20
2.000000000000119
 30
0.0
 11
164.1119999999999
 21
0.0000000000001184
 31
0.0
  0
LINE
  5
3C3
330
1E
100
AcDbEntity
  8
0
100
AcDbLine
 10
163.1119999999999
 20
2.000000000000119
 30
0.0
 11
164.1119999999999
 21
2.000000000000119
 31
0.0
  0
LINE
  5
3C4
330
1E
100
AcDbEntity
  8
0
100
AcDbLine
 10
163.1119999999999
 20
2.000000000000119
 30
0.0
 11
163.1119999999999
 21
0.0000000000001184
 31
0.0
  0
LINE
  5
3C5
330
1E
100
AcDbEntity
  8
0
100
AcDbLine
 10
151.122
 20
2.000000000000119
 30
0.0
 11
151.122
 21
0.0000000000001178
 31
0.0
  0
LINE
  5
3C6
330
1E
100
AcDbEntity
  8
0
100
AcDbLine
 10
150.811
 20
2.000000000000119
 30
0.0
 11
151.122
 21
2.000000000000119
 31
0.0
  0
LINE
  5
3C7
330
1E
100
AcDbEntity
  8
0
100
AcDbLine
 10
150.811
 20
2.000000000000119
 30
0.0
 11
150.811
 21
0.0000000000001194
 31
0.0
  0
LINE
  5
3C8
330
1E
100
AcDbEntity
  8
0
100
AcDbLine
 10
149.397
 20
2.000000000000119
 30
0.0
 11
150.811
 21
2.000000000000119
 31
0.0
  0
LINE
  5
3C9
330
1E
100
AcDbEntity
  8
0
100
AcDbLine
 10
149.397
 20
2.000000000000119
 30
0.0
 11
149.397
 21
0.0000000000001194
 31
0.0
  0
LINE
  5
3CA
330
1E
100
AcDbEntity
  8
0
100
AcDbLine
 10
152.8
 20
2.000000000000119
 30
0.0
 11
167.1
 21
2.000000000000119
 31
0.0
  0
LINE
  5
3CB
330
1E
100
AcDbEntity
  8
0
100
AcDbLine
 10
167.1
 20
2.000000000000119
 30
0.0
 11
175.8
 21
2.000000000000119
 31
0.0
  0
LINE
  5
3CC
330
1E
100
AcDbEntity
  8
0
100
AcDbLine
 10
45.3
 20
12.00000000000009
 30
0.0
 11
66.90000000000001
 21
12.00000000000009
 31
0.0
  0
LINE
  5
3CD
330
1E
100
AcDbEntity
  8
0
100
AcDbLine
 10
27.2
 20
54.00000000000011
 30
0.0
 11
45.8
 21
54.00000000000011
 31
0.0
  0
LINE
  5
3CE
330
1E
100
AcDbEntity
  8
0
100
AcDbLine
 10
26.4
 20
53.00000000000011
 30
0.0
 11
45.3
 21
53.00000000000011
 31
0.0
  0
LINE
  5
3CF
330
1E
100
AcDbEntity
  8
0
100
AcDbLine
 10
26.4
 20
14.0000000000001
 30
0.0
 11
45.3
 21
14.0000000000001
 31
0.0
  0
LINE
  5
3D0
330
1E
100
AcDbEntity
  8
0
100
AcDbLine
 10
45.3
 20
53.00000000000011
 30
0.0
 11
66.90000000000001
 21
53.00000000000011
 31
0.0
  0
LINE
  5
3D1
330
1E
100
AcDbEntity
  8
0
100
AcDbLine
 10
45.3
 20
14.0000000000001
 30
0.0
 11
66.90000000000001
 21
14.0000000000001
 31
0.0
  0
LINE
  5
3D2
330
1E
100
AcDbEntity
  8
0
100
AcDbLine
 10
27.2
 20
13.0000000000001
 30
0.0
 11
45.8
 21
13.0000000000001
 31
0.0
  0
LINE
  5
3D3
330
1E
100
AcDbEntity
  8
0
100
AcDbLine
 10
26.4
 20
12.00000000000009
 30
0.0
 11
45.3
 21
12.00000000000009
 31
0.0
  0
LINE
  5
3D4
330
1E
100
AcDbEntity
  8
0
100
AcDbLine
 10
45.8
 20
54.00000000000011
 30
0.0
 11
67.09999999999999
 21
54.00000000000011
 31
0.0
  0
LINE
  5
3D5
330
1E
100
AcDbEntity
  8
0
100
AcDbLine
 10
45.8
 20
13.0000000000001
 30
0.0
 11
67.09999999999999
 21
13.0000000000001
 31
0.0
  0
LINE
  5
3D6
330
1E
100
AcDbEntity
  8
0
100
AcDbLine
 10
45.3
 20
3.00000000000012
 30
0.0
 11
66.90000000000001
 21
3.00000000000012
 31
0.0
  0
LINE
  5
3D7
330
1E
100
AcDbEntity
  8
0
100
AcDbLine
 10
26.4
 20
3.00000000000012
 30
0.0
 11
45.3
 21
3.00000000000012
 31
0.0
  0
LINE
  5
3D8
330
1E
100
AcDbEntity
  8
0
100
AcDbLine
 10
72.84860000000001
 20
2.000000000000119
 30
0.0
 11
72.84860000000001
 21
0.00000000000012
 31
0.0
  0
LINE
  5
3D9
330
1E
100
AcDbEntity
  8
0
100
AcDbLine
 10
72.84860000000001
 20
2.000000000000119
 30
0.0
 11
73.3662
 21
2.000000000000119
 31
0.0
  0
LINE
  5
3DA
330
1E
100
AcDbEntity
  8
0
100
AcDbLine
 10
70.9167
 20
2.000000000000119
 30
0.0
 11
70.9167
 21
0.00000000000012
 31
0.0
  0
LINE
  5
3DB
330
1E
100
AcDbEntity
  8
0
100
AcDbLine
 10
70.9167
 20
2.000000000000119
 30
0.0
 11
72.84860000000001
 21
2.000000000000119
 31
0.0
  0
LINE
  5
3DC
330
1E
100
AcDbEntity
  8
0
100
AcDbLine
 10
49.36600000000001
 20
2.000000000000119
 30
0.0
 11
49.36600000000001
 21
0.0000000000001203
 31
0.0
  0
LINE
  5
3DD
330
1E
100
AcDbEntity
  8
0
100
AcDbLine
 10
48.366
 20
2.000000000000119
 30
0.0
 11
48.366
 21
0.0000000000001203
 31
0.0
  0
LINE
  5
3DE
330
1E
100
AcDbEntity
  8
0
100
AcDbLine
 10
48.366
 20
2.000000000000119
 30
0.0
 11
49.36600000000001
 21
2.000000000000119
 31
0.0
  0
LINE
  5
3DF
330
1E
100
AcDbEntity
  8
0
100
AcDbLine
 10
46.63399999999999
 20
2.000000000000119
 30
0.0
 11
46.63399999999999
 21
0.0000000000001203
 31
0.0
  0
LINE
  5
3E0
330
1E
100
AcDbEntity
  8
0
100
AcDbLine
 10
46.63399999999999
 20
2.000000000000119
 30
0.0
 11
48.366
 21
2.000000000000119
 31
0.0
  0
LINE
  5
3E1
330
1E
100
AcDbEntity
  8
0
100
AcDbLine
 10
89.0
 20
2.000000000000119
 30
0.0
 11
89.0
 21
0.00000000000012
 31
0.0
  0
LINE
  5
3E2
330
1E
100
AcDbEntity
  8
0
100
AcDbLine
 10
109.0829999999999
 20
2.000000000000119
 30
0.0
 11
109.0829999999999
 21
0.00000000000012
 31
0.0
  0
LINE
  5
3E3
330
1E
100
AcDbEntity
  8
0
100
AcDbLine
 10
107.151
 20
2.000000000000119
 30
0.0
 11
109.0829999999999
 21
2.000000000000119
 31
0.0
  0
LINE
  5
3E4
330
1E
100
AcDbEntity
  8
0
100
AcDbLine
 10
107.151
 20
2.000000000000119
 30
0.0
 11
107.151
 21
0.00000000000012
 31
0.0
  0
LINE
  5
3E5
330
1E
100
AcDbEntity
  8
0
100
AcDbLine
 10
69.4839
 20
2.000000000000119
 30
0.0
 11
69.4839
 21
0.0000000000001207
 31
0.0
  0
LINE
  5
3E6
330
1E
100
AcDbEntity
  8
0
100
AcDbLine
 10
67.0345
 20
2.000000000000119
 30
0.0
 11
67.0345
 21
0.0000000000001207
 31
0.0
  0
LINE
  5
3E7
330
1E
100
AcDbEntity
  8
0
100
AcDbLine
 10
67.0345
 20
2.000000000000119
 30
0.0
 11
68.9663
 21
2.000000000000119
 31
0.0
  0
LINE
  5
3E8
330
1E
100
AcDbEntity
  8
0
100
AcDbLine
 10
68.9663
 20
2.000000000000119
 30
0.0
 11
68.9663
 21
0.000000000000121
 31
0.0
  0
LINE
  5
3E9
330
1E
100
AcDbEntity
  8
0
100
AcDbLine
 10
68.9663
 20
2.000000000000119
 30
0.0
 11
69.4839
 21
2.000000000000119
 31
0.0
  0
LINE
  5
3EA
330
1E
100
AcDbEntity
  8
0
100
AcDbLine
 10
91.0
 20
2.000000000000119
 30
0.0
 11
91.0
 21
0.000000000000121
 31
0.0
  0
LINE
  5
3EB
330
1E
100
AcDbEntity
  8
0
100
AcDbLine
 10
89.0
 20
2.000000000000119
 30
0.0
 11
89.0
 21
0.000000000000121
 31
0.0
  0
LINE
  5
3EC
330
1E
100
AcDbEntity
  8
0
100
AcDbLine
 10
89.0
 20
2.000000000000119
 30
0.0
 11
91.0
 21
2.000000000000119
 31
0.0
  0
LINE
  5
3ED
330
1E
100
AcDbEntity
  8
0
100
AcDbLine
 10
110.516
 20
2.000000000000119
 30
0.0
 11
111.0339999999999
 21
2.000000000000119
 31
0.0
  0
LINE
  5
3EE
330
1E
100
AcDbEntity
  8
0
100
AcDbLine
 10
110.516
 20
2.000000000000119
 30
0.0
 11
110.516
 21
0.0000000000001207
 31
0.0
  0
LINE
  5
3EF
330
1E
100
AcDbEntity
  8
0
100
AcDbLine
 10
112.966
 20
2.000000000000119
 30
0.0
 11
112.966
 21
0.0000000000001207
 31
0.0
  0
LINE
  5
3F0
330
1E
100
AcDbEntity
  8
0
100
AcDbLine
 10
111.0339999999999
 20
2.000000000000119
 30
0.0
 11
112.966
 21
2.000000000000119
 31
0.0
  0
LINE
  5
3F1
330
1E
100
AcDbEntity
  8
0
100
AcDbLine
 10
111.0339999999999
 20
2.000000000000119
 30
0.0
 11
111.0339999999999
 21
0.000000000000121
 31
0.0
  0
LINE
  5
3F2
330
1E
100
AcDbEntity
  8
0
100
AcDbLine
 10
130.6339999999999
 20
2.000000000000119
 30
0.0
 11
131.6339999999999
 21
2.000000000000119
 31
0.0
  0
LINE
  5
3F3
330
1E
100
AcDbEntity
  8
0
100
AcDbLine
 10
130.6339999999999
 20
2.000000000000119
 30
0.0
 11
130.6339999999999
 21
0.0000000000001203
 31
0.0
  0
LINE
  5
3F4
330
1E
100
AcDbEntity
  8
0
100
AcDbLine
 10
133.366
 20
2.000000000000119
 30
0.0
 11
133.366
 21
0.0000000000001203
 31
0.0
  0
LINE
  5
3F5
330
1E
100
AcDbEntity
  8
0
100
AcDbLine
 10
131.6339999999999
 20
2.000000000000119
 30
0.0
 11
133.366
 21
2.000000000000119
 31
0.0
  0
LINE
  5
3F6
330
1E
100
AcDbEntity
  8
0
100
AcDbLine
 10
131.6339999999999
 20
2.000000000000119
 30
0.0
 11
131.6339999999999
 21
0.0000000000001203
 31
0.0
  0
LINE
  5
3F7
330
1E
100
AcDbEntity
  8
0
100
AcDbLine
 10
112.9
 20
2.000000000000119
 30
0.0
 11
134.1999999999999
 21
2.000000000000119
 31
0.0
  0
LINE
  5
3F8
330
1E
100
AcDbEntity
  8
0
100
AcDbLine
 10
134.1999999999999
 20
2.000000000000119
 30
0.0
 11
152.8
 21
2.000000000000119
 31
0.0
  0
LINE
  5
3F9
330
1E
100
AcDbEntity
  8
0
100
AcDbLine
 10
63.13333
 20
86.54920000000009
 30
0.0
 11
68.15238
 21
80.15240000000011
 31
0.0
  0
LINE
  5
3FA
330
1E
100
AcDbEntity
  8
0
100
AcDbLine
 10
60.08254
 20
94.02860000000009
 30
0.0
 11
63.13333
 21
86.54920000000009
 31
0.0
  0
LINE
  5
3FB
330
1E
100
AcDbEntity
  8
0
100
AcDbLine
 10
63.13333
 20
117.4508
 30
0.0
 11
68.15238
 21
123.8476
 31
0.0
  0
LINE
  5
3FC
330
1E
100
AcDbEntity
  8
0
100
AcDbLine
 10
60.08254
 20
109.9714
 30
0.0
 11
63.13333
 21
117.4508
 31
0.0
  0
LINE
  5
3FD
330
1E
100
AcDbEntity
  8
0
100
AcDbLine
 10
59.0
 20
102.0
 30
0.0
 11
60.08254
 21
109.9714
 31
0.0
  0
LINE
  5
3FE
330
1E
100
AcDbEntity
  8
0
100
AcDbLine
 10
59.0
 20
102.0
 30
0.0
 11
60.08254
 21
94.02860000000009
 31
0.0
  0
LINE
  5
3FF
330
1E
100
AcDbEntity
  8
0
100
AcDbLine
 10
66.90000000000001
 20
53.00000000000011
 30
0.0
 11
90.0
 21
53.00000000000011
 31
0.0
  0
LINE
  5
400
330
1E
100
AcDbEntity
  8
0
100
AcDbLine
 10
66.90000000000001
 20
14.0000000000001
 30
0.0
 11
90.0
 21
14.0000000000001
 31
0.0
  0
LINE
  5
401
330
1E
100
AcDbEntity
  8
0
100
AcDbLine
 10
66.90000000000001
 20
12.00000000000009
 30
0.0
 11
90.0
 21
12.00000000000009
 31
0.0
  0
LINE
  5
402
330
1E
100
AcDbEntity
  8
0
100
AcDbLine
 10
90.0
 20
13.0000000000001
 30
0.0
 11
112.9
 21
13.0000000000001
 31
0.0
  0
LINE
  5
403
330
1E
100
AcDbEntity
  8
0
100
AcDbLine
 10
90.0
 20
12.00000000000009
 30
0.0
 11
113.1
 21
12.00000000000009
 31
0.0
  0
LINE
  5
404
330
1E
100
AcDbEntity
  8
0
100
AcDbLine
 10
90.0
 20
3.00000000000012
 30
0.0
 11
113.1
 21
3.00000000000012
 31
0.0
  0
LINE
  5
405
330
1E
100
AcDbEntity
  8
0
100
AcDbLine
 10
180.0
 20
3.00000000000012
 30
0.0
 11
180.0
 21
12.00000000000009
 31
0.0
  0
LINE
  5
406
330
1E
100
AcDbEntity
  8
0
100
AcDbLine
 10
112.9
 20
13.0000000000001
 30
0.0
 11
134.1999999999999
 21
13.0000000000001
 31
0.0
  0
LINE
  5
407
330
1E
100
AcDbEntity
  8
0
100
AcDbLine
 10
134.1999999999999
 20
13.0000000000001
 30
0.0
 11
152.8
 21
13.0000000000001
 31
0.0
  0
LINE
  5
408
330
1E
100
AcDbEntity
  8
0
100
AcDbLine
 10
113.1
 20
12.00000000000009
 30
0.0
 11
134.6999999999999
 21
12.00000000000009
 31
0.0
  0
LINE
  5
409
330
1E
100
AcDbEntity
  8
0
100
AcDbLine
 10
134.6999999999999
 20
12.00000000000009
 30
0.0
 11
153.6
 21
12.00000000000009
 31
0.0
  0
LINE
  5
40A
330
1E
100
AcDbEntity
  8
0
100
AcDbLine
 10
113.1
 20
3.00000000000012
 30
0.0
 11
134.6999999999999
 21
3.00000000000012
 31
0.0
  0
LINE
  5
40B
330
1E
100
AcDbEntity
  8
0
100
AcDbLine
 10
153.6
 20
12.00000000000009
 30
0.0
 11
167.9
 21
12.00000000000009
 31
0.0
  0
LINE
  5
40C
330
1E
100
AcDbEntity
  8
0
100
AcDbLine
 10
152.8
 20
13.0000000000001
 30
0.0
 11
167.1
 21
13.0000000000001
 31
0.0
  0
LINE
  5
40D
330
1E
100
AcDbEntity
  8
0
100
AcDbLine
 10
167.1
 20
13.0000000000001
 30
0.0
 11
175.8
 21
13.0000000000001
 31
0.0
  0
LINE
  5
40E
330
1E
100
AcDbEntity
  8
0
100
AcDbLine
 10
167.9
 20
12.00000000000009
 30
0.0
 11
176.6999999999999
 21
12.00000000000009
 31
0.0
  0
LINE
  5
40F
330
1E
100
AcDbEntity
  8
0
100
AcDbLine
 10
134.6999999999999
 20
3.00000000000012
 30
0.0
 11
153.6
 21
3.00000000000012
 31
0.0
  0
LINE
  5
410
330
1E
100
AcDbEntity
  8
0
100
AcDbLine
 10
153.6
 20
3.00000000000012
 30
0.0
 11
167.9
 21
3.00000000000012
 31
0.0
  0
LINE
  5
411
330
1E
100
AcDbEntity
  8
0
100
AcDbLine
 10
180.0
 20
12.00000000000009
 30
0.0
 11
180.0
 21
3.00000000000012
 31
0.0
  0
LINE
  5
412
330
1E
100
AcDbEntity
  8
0
100
AcDbLine
 10
179.0
 20
13.0000000000001
 30
0.0
 11
180.0
 21
12.00000000000009
 31
0.0
  0
LINE
  5
413
330
1E
100
AcDbEntity
  8
0
100
AcDbLine
 10
179.0
 20
13.0000000000001
 30
0.0
 11
180.0
 21
14.0000000000001
 31
0.0
  0
LINE
  5
414
330
1E
100
AcDbEntity
  8
0
100
AcDbLine
 10
175.8
 20
13.0000000000001
 30
0.0
 11
179.0
 21
13.0000000000001
 31
0.0
  0
LINE
  5
415
330
1E
100
AcDbEntity
  8
0
100
AcDbLine
 10
176.6999999999999
 20
12.00000000000009
 30
0.0
 11
180.0
 21
12.00000000000009
 31
0.0
  0
LINE
  5
416
330
1E
100
AcDbEntity
  8
0
100
AcDbLine
 10
167.9
 20
3.00000000000012
 30
0.0
 11
176.6999999999999
 21
3.00000000000012
 31
0.0
  0
LINE
  5
417
330
1E
100
AcDbEntity
  8
0
100
AcDbLine
 10
176.6999999999999
 20
3.00000000000012
 30
0.0
 11
180.0
 21
3.00000000000012
 31
0.0
  0
LINE
  5
418
330
1E
100
AcDbEntity
  8
0
100
AcDbLine
 10
90.0
 20
2.000000000000119
 30
0.0
 11
112.9
 21
2.000000000000119
 31
0.0
  0
LINE
  5
419
330
1E
100
AcDbEntity
  8
0
100
AcDbLine
 10
180.0
 20
14.0000000000001
 30
0.0
 11
180.0
 21
53.00000000000011
 31
0.0
  0
LINE
  5
41A
330
1E
100
AcDbEntity
  8
0
100
AcDbLine
 10
134.6999999999999
 20
14.0000000000001
 30
0.0
 11
153.6
 21
14.0000000000001
 31
0.0
  0
LINE
  5
41B
330
1E
100
AcDbEntity
  8
0
100
AcDbLine
 10
78.0
 20
54.00000000000011
 30
0.0
 11
78.0
 21
70.0000000000001
 31
0.0
  0
LINE
  5
41C
330
1E
100
AcDbEntity
  8
0
100
AcDbLine
 10
102.0
 20
54.00000000000011
 30
0.0
 11
102.0
 21
70.0000000000001
 31
0.0
  0
LINE
  5
41D
330
1E
100
AcDbEntity
  8
0
100
AcDbLine
 10
68.15238
 20
80.15240000000011
 30
0.0
 11
74.5492
 21
75.13330000000009
 31
0.0
  0
LINE
  5
41E
330
1E
100
AcDbEntity
  8
0
100
AcDbLine
 10
78.0
 20
74.0000000000001
 30
0.0
 11
78.0
 21
70.0000000000001
 31
0.0
  0
LINE
  5
41F
330
1E
100
AcDbEntity
  8
0
100
AcDbLine
 10
78.0
 20
74.0000000000001
 30
0.0
 11
78.0
 21
81.20000000000009
 31
0.0
  0
LINE
  5
420
330
1E
100
AcDbEntity
  8
0
100
AcDbLine
 10
102.0
 20
74.0000000000001
 30
0.0
 11
102.0
 21
70.0000000000001
 31
0.0
  0
LINE
  5
421
330
1E
100
AcDbEntity
  8
0
100
AcDbLine
 10
102.0
 20
74.0000000000001
 30
0.0
 11
102.0
 21
81.20000000000009
 31
0.0
  0
LINE
  5
422
330
1E
100
AcDbEntity
  8
0
100
AcDbLine
 10
102.0
 20
70.0000000000001
 30
0.0
 11
102.0
 21
54.00000000000011
 31
0.0
  0
LINE
  5
423
330
1E
100
AcDbEntity
  8
0
100
AcDbLine
 10
102.0
 20
70.0000000000001
 30
0.0
 11
102.0
 21
74.0000000000001
 31
0.0
  0
LINE
  5
424
330
1E
100
AcDbEntity
  8
0
100
AcDbLine
 10
78.0
 20
70.0000000000001
 30
0.0
 11
78.0
 21
54.00000000000011
 31
0.0
  0
LINE
  5
425
330
1E
100
AcDbEntity
  8
0
100
AcDbLine
 10
78.0
 20
70.0000000000001
 30
0.0
 11
78.0
 21
74.0000000000001
 31
0.0
  0
LINE
  5
426
330
1E
100
AcDbEntity
  8
0
100
AcDbLine
 10
74.5492
 20
75.13330000000009
 30
0.0
 11
78.0
 21
73.7257404845309
 31
0.0
  0
LINE
  5
427
330
1E
100
AcDbEntity
  8
0
100
AcDbLine
 10
102.0
 20
73.7257404845309
 30
0.0
 11
105.4508
 21
75.13330000000009
 31
0.0
  0
LINE
  5
428
330
1E
100
AcDbEntity
  8
0
100
AcDbLine
 10
78.0
 20
98.3000000000001
 30
0.0
 11
78.0
 21
101.0
 31
0.0
  0
LINE
  5
429
330
1E
100
AcDbEntity
  8
0
100
AcDbLine
 10
78.0
 20
98.3000000000001
 30
0.0
 11
78.0
 21
93.80000000000009
 31
0.0
  0
LINE
  5
42A
330
1E
100
AcDbEntity
  8
0
100
AcDbLine
 10
78.0
 20
101.0
 30
0.0
 11
78.0
 21
102.0
 31
0.0
  0
LINE
  5
42B
330
1E
100
AcDbEntity
  8
0
100
AcDbLine
 10
78.0
 20
101.0
 30
0.0
 11
78.0
 21
98.3000000000001
 31
0.0
  0
LINE
  5
42C
330
1E
100
AcDbEntity
  8
0
100
AcDbLine
 10
78.0
 20
102.0
 30
0.0
 11
78.4
 21
105.0999999999999
 31
0.0
  0
LINE
  5
42D
330
1E
100
AcDbEntity
  8
0
100
AcDbLine
 10
78.0
 20
102.0
 30
0.0
 11
78.0
 21
101.0
 31
0.0
  0
LINE
  5
42E
330
1E
100
AcDbEntity
  8
0
100
AcDbLine
 10
78.0
 20
93.80000000000009
 30
0.0
 11
78.0
 21
88.00000000000009
 31
0.0
  0
LINE
  5
42F
330
1E
100
AcDbEntity
  8
0
100
AcDbLine
 10
78.0
 20
93.80000000000009
 30
0.0
 11
78.0
 21
98.3000000000001
 31
0.0
  0
LINE
  5
430
330
1E
100
AcDbEntity
  8
0
100
AcDbLine
 10
78.0
 20
88.00000000000009
 30
0.0
 11
78.0
 21
81.20000000000009
 31
0.0
  0
LINE
  5
431
330
1E
100
AcDbEntity
  8
0
100
AcDbLine
 10
78.0
 20
88.00000000000009
 30
0.0
 11
78.0
 21
93.80000000000009
 31
0.0
  0
LINE
  5
432
330
1E
100
AcDbEntity
  8
0
100
AcDbLine
 10
78.4
 20
105.0999999999999
 30
0.0
 11
79.59999999999999
 21
108.0
 31
0.0
  0
LINE
  5
433
330
1E
100
AcDbEntity
  8
0
100
AcDbLine
 10
79.59999999999999
 20
108.0
 30
0.0
 11
81.5
 21
110.4999999999999
 31
0.0
  0
LINE
  5
434
330
1E
100
AcDbEntity
  8
0
100
AcDbLine
 10
81.5
 20
110.4999999999999
 30
0.0
 11
84.0
 21
112.4
 31
0.0
  0
LINE
  5
435
330
1E
100
AcDbEntity
  8
0
100
AcDbLine
 10
102.0
 20
88.00000000000009
 30
0.0
 11
102.0
 21
81.20000000000009
 31
0.0
  0
LINE
  5
436
330
1E
100
AcDbEntity
  8
0
100
AcDbLine
 10
102.0
 20
88.00000000000009
 30
0.0
 11
102.0
 21
93.80000000000009
 31
0.0
  0
LINE
  5
437
330
1E
100
AcDbEntity
  8
0
100
AcDbLine
 10
102.0
 20
81.20000000000009
 30
0.0
 11
102.0
 21
74.0000000000001
 31
0.0
  0
LINE
  5
438
330
1E
100
AcDbEntity
  8
0
100
AcDbLine
 10
102.0
 20
81.20000000000009
 30
0.0
 11
102.0
 21
88.00000000000009
 31
0.0
  0
LINE
  5
439
330
1E
100
AcDbEntity
  8
0
100
AcDbLine
 10
102.0
 20
93.80000000000009
 30
0.0
 11
102.0
 21
98.3000000000001
 31
0.0
  0
LINE
  5
43A
330
1E
100
AcDbEntity
  8
0
100
AcDbLine
 10
102.0
 20
93.80000000000009
 30
0.0
 11
102.0
 21
88.00000000000009
 31
0.0
  0
LINE
  5
43B
330
1E
100
AcDbEntity
  8
0
100
AcDbLine
 10
102.0
 20
98.3000000000001
 30
0.0
 11
102.0
 21
101.0
 31
0.0
  0
LINE
  5
43C
330
1E
100
AcDbEntity
  8
0
100
AcDbLine
 10
102.0
 20
98.3000000000001
 30
0.0
 11
102.0
 21
93.80000000000009
 31
0.0
  0
LINE
  5
43D
330
1E
100
AcDbEntity
  8
0
100
AcDbLine
 10
102.0
 20
102.0
 30
0.0
 11
102.0
 21
101.0
 31
0.0
  0
LINE
  5
43E
330
1E
100
AcDbEntity
  8
0
100
AcDbLine
 10
102.0
 20
101.0
 30
0.0
 11
102.0
 21
102.0
 31
0.0
  0
LINE
  5
43F
330
1E
100
AcDbEntity
  8
0
100
AcDbLine
 10
102.0
 20
101.0
 30
0.0
 11
102.0
 21
98.3000000000001
 31
0.0
  0
LINE
  5
440
330
1E
100
AcDbEntity
  8
0
100
AcDbLine
 10
101.6
 20
105.0999999999999
 30
0.0
 11
102.0
 21
102.0
 31
0.0
  0
LINE
  5
441
330
1E
100
AcDbEntity
  8
0
100
AcDbLine
 10
100.4
 20
108.0
 30
0.0
 11
101.6
 21
105.0999999999999
 31
0.0
  0
LINE
  5
442
330
1E
100
AcDbEntity
  8
0
100
AcDbLine
 10
98.50000000000001
 20
110.4999999999999
 30
0.0
 11
100.4
 21
108.0
 31
0.0
  0
LINE
  5
443
330
1E
100
AcDbEntity
  8
0
100
AcDbLine
 10
96.0
 20
112.4
 30
0.0
 11
98.50000000000001
 21
110.4999999999999
 31
0.0
  0
LINE
  5
444
330
1E
100
AcDbEntity
  8
0
100
AcDbLine
 10
93.1
 20
113.5999999999999
 30
0.0
 11
96.0
 21
112.4
 31
0.0
  0
LINE
  5
445
330
1E
100
AcDbEntity
  8
0
100
AcDbLine
 10
84.0
 20
112.4
 30
0.0
 11
86.90000000000001
 21
113.5999999999999
 31
0.0
  0
LINE
  5
446
330
1E
100
AcDbEntity
  8
0
100
AcDbLine
 10
90.0
 20
114.0
 30
0.0
 11
93.1
 21
113.5999999999999
 31
0.0
  0
LINE
  5
447
330
1E
100
AcDbEntity
  8
0
100
AcDbLine
 10
86.90000000000001
 20
113.5999999999999
 30
0.0
 11
90.0
 21
114.0
 31
0.0
  0
LINE
  5
448
330
1E
100
AcDbEntity
  8
0
100
AcDbLine
 10
78.0
 20
81.20000000000009
 30
0.0
 11
78.0
 21
74.0000000000001
 31
0.0
  0
LINE
  5
449
330
1E
100
AcDbEntity
  8
0
100
AcDbLine
 10
78.0
 20
81.20000000000009
 30
0.0
 11
78.0
 21
88.00000000000009
 31
0.0
  0
LINE
  5
44A
330
1E
100
AcDbEntity
  8
0
100
AcDbLine
 10
105.4508
 20
75.13330000000009
 30
0.0
 11
111.8476
 21
80.15240000000011
 31
0.0
  0
LINE
  5
44B
330
1E
100
AcDbEntity
  8
0
100
AcDbLine
 10
111.8476
 20
80.15240000000011
 30
0.0
 11
116.8666999999999
 21
86.54920000000009
 31
0.0
  0
LINE
  5
44C
330
1E
100
AcDbEntity
  8
0
100
AcDbLine
 10
105.4508
 20
128.8667
 30
0.0
 11
111.8476
 21
123.8476
 31
0.0
  0
LINE
  5
44D
330
1E
100
AcDbEntity
  8
0
100
AcDbLine
 10
111.8476
 20
123.8476
 30
0.0
 11
116.8666999999999
 21
117.4508
 31
0.0
  0
LINE
  5
44E
330
1E
100
AcDbEntity
  8
0
100
AcDbLine
 10
90.0
 20
186.0
 30
0.0
 11
174.0
 21
186.0
 31
0.0
  0
LINE
  5
44F
330
1E
100
AcDbEntity
  8
0
100
AcDbLine
 10
90.0
 20
187.0
 30
0.0
 11
175.0
 21
187.0
 31
0.0
  0
LINE
  5
450
330
1E
100
AcDbEntity
  8
0
100
AcDbLine
 10
90.0
 20
133.0
 30
0.0
 11
97.9714
 21
131.9174999999999
 31
0.0
  0
LINE
  5
451
330
1E
100
AcDbEntity
  8
0
100
AcDbLine
 10
97.9714
 20
131.9174999999999
 30
0.0
 11
105.4508
 21
128.8667
 31
0.0
  0
LINE
  5
452
330
1E
100
AcDbEntity
  8
0
100
AcDbLine
 10
82.02859999999999
 20
131.9174999999999
 30
0.0
 11
90.0
 21
133.0
 31
0.0
  0
LINE
  5
453
330
1E
100
AcDbEntity
  8
0
100
AcDbLine
 10
74.5492
 20
128.8667
 30
0.0
 11
82.02859999999999
 21
131.9174999999999
 31
0.0
  0
LINE
  5
454
330
1E
100
AcDbEntity
  8
0
100
AcDbLine
 10
68.15238
 20
123.8476
 30
0.0
 11
74.5492
 21
128.8667
 31
0.0
  0
LINE
  5
455
330
1E
100
AcDbEntity
  8
0
100
AcDbLine
 10
90.0
 20
54.00000000000011
 30
0.0
 11
112.9
 21
54.00000000000011
 31
0.0
  0
LINE
  5
456
330
1E
100
AcDbEntity
  8
0
100
AcDbLine
 10
112.9
 20
54.00000000000011
 30
0.0
 11
134.1999999999999
 21
54.00000000000011
 31
0.0
  0
LINE
  5
457
330
1E
100
AcDbEntity
  8
0
100
AcDbLine
 10
90.0
 20
53.00000000000011
 30
0.0
 11
113.1
 21
53.00000000000011
 31
0.0
  0
LINE
  5
458
330
1E
100
AcDbEntity
  8
0
100
AcDbLine
 10
113.1
 20
53.00000000000011
 30
0.0
 11
134.6999999999999
 21
53.00000000000011
 31
0.0
  0
LINE
  5
459
330
1E
100
AcDbEntity
  8
0
100
AcDbLine
 10
90.0
 20
14.0000000000001
 30
0.0
 11
113.1
 21
14.0000000000001
 31
0.0
  0
LINE
  5
45A
330
1E
100
AcDbEntity
  8
0
100
AcDbLine
 10
134.6999999999999
 20
53.00000000000011
 30
0.0
 11
153.6
 21
53.00000000000011
 31
0.0
  0
LINE
  5
45B
330
1E
100
AcDbEntity
  8
0
100
AcDbLine
 10
153.6
 20
53.00000000000011
 30
0.0
 11
167.9
 21
53.00000000000011
 31
0.0
  0
LINE
  5
45C
330
1E
100
AcDbEntity
  8
0
100
AcDbLine
 10
134.1999999999999
 20
54.00000000000011
 30
0.0
 11
152.8
 21
54.00000000000011
 31
0.0
  0
LINE
  5
45D
330
1E
100
AcDbEntity
  8
0
100
AcDbLine
 10
116.8666999999999
 20
86.54920000000009
 30
0.0
 11
119.9175
 21
94.02860000000009
 31
0.0
  0
LINE
  5
45E
330
1E
100
AcDbEntity
  8
0
100
AcDbLine
 10
119.9175
 20
94.02860000000009
 30
0.0
 11
121.0
 21
102.0
 31
0.0
  0
LINE
  5
45F
330
1E
100
AcDbEntity
  8
0
100
AcDbLine
 10
116.8666999999999
 20
117.4508
 30
0.0
 11
119.9175
 21
109.9714
 31
0.0
  0
LINE
  5
460
330
1E
100
AcDbEntity
  8
0
100
AcDbLine
 10
119.9175
 20
109.9714
 30
0.0
 11
121.0
 21
102.0
 31
0.0
  0
LINE
  5
461
330
1E
100
AcDbEntity
  8
0
100
AcDbLine
 10
152.8
 20
54.00000000000011
 30
0.0
 11
167.1
 21
54.00000000000011
 31
0.0
  0
LINE
  5
462
330
1E
100
AcDbEntity
  8
0
100
AcDbLine
 10
167.1
 20
54.00000000000011
 30
0.0
 11
175.8
 21
54.00000000000011
 31
0.0
  0
LINE
  5
463
330
1E
100
AcDbEntity
  8
0
100
AcDbLine
 10
167.9
 20
53.00000000000011
 30
0.0
 11
176.6999999999999
 21
53.00000000000011
 31
0.0
  0
LINE
  5
464
330
1E
100
AcDbEntity
  8
0
100
AcDbLine
 10
113.1
 20
14.0000000000001
 30
0.0
 11
134.6999999999999
 21
14.0000000000001
 31
0.0
  0
LINE
  5
465
330
1E
100
AcDbEntity
  8
0
100
AcDbLine
 10
153.6
 20
14.0000000000001
 30
0.0
 11
167.9
 21
14.0000000000001
 31
0.0
  0
LINE
  5
466
330
1E
100
AcDbEntity
  8
0
100
AcDbLine
 10
180.0
 20
53.00000000000011
 30
0.0
 11
180.0
 21
14.0000000000001
 31
0.0
  0
LINE
  5
467
330
1E
100
AcDbEntity
  8
0
100
AcDbLine
 10
174.0
 20
54.00000000000011
 30
0.0
 11
174.0
 21
102.0
 31
0.0
  0
LINE
  5
468
330
1E
100
AcDbEntity
  8
0
100
AcDbLine
 10
175.0
 20
54.00000000000011
 30
0.0
 11
175.0
 21
102.0
 31
0.0
  0
LINE
  5
469
330
1E
100
AcDbEntity
  8
0
100
AcDbLine
 10
174.0
 20
102.0
 30
0.0
 11
174.0
 21
54.00000000000011
 31
0.0
  0
LINE
  5
46A
330
1E
100
AcDbEntity
  8
0
100
AcDbLine
 10
174.0
 20
102.0
 30
0.0
 11
174.0
 21
186.0
 31
0.0
  0
LINE
  5
46B
330
1E
100
AcDbEntity
  8
0
100
AcDbLine
 10
174.0
 20
186.0
 30
0.0
 11
174.0
 21
102.0
 31
0.0
  0
LINE
  5
46C
330
1E
100
AcDbEntity
  8
0
100
AcDbLine
 10
174.0
 20
186.0
 30
0.0
 11
175.0
 21
187.0
 31
0.0
  0
LINE
  5
46D
330
1E
100
AcDbEntity
  8
0
100
AcDbLine
 10
175.0
 20
187.0
 30
0.0
 11
175.0
 21
102.0
 31
0.0
  0
LINE
  5
46E
330
1E
100
AcDbEntity
  8
0
100
AcDbLine
 10
175.0
 20
102.0
 30
0.0
 11
175.0
 21
54.00000000000011
 31
0.0
  0
LINE
  5
46F
330
1E
100
AcDbEntity
  8
0
100
AcDbLine
 10
175.0
 20
102.0
 30
0.0
 11
175.0
 21
187.0
 31
0.0
  0
LINE
  5
470
330
1E
100
AcDbEntity
  8
0
100
AcDbLine
 10
179.0
 20
54.00000000000011
 30
0.0
 11
180.0
 21
53.00000000000011
 31
0.0
  0
LINE
  5
471
330
1E
100
AcDbEntity
  8
0
100
AcDbLine
 10
175.8
 20
54.00000000000011
 30
0.0
 11
179.0
 21
54.00000000000011
 31
0.0
  0
LINE
  5
472
330
1E
100
AcDbEntity
  8
0
100
AcDbLine
 10
176.6999999999999
 20
53.00000000000011
 30
0.0
 11
180.0
 21
53.00000000000011
 31
0.0
  0
LINE
  5
473
330
1E
100
AcDbEntity
  8
0
100
AcDbLine
 10
167.9
 20
14.0000000000001
 30
0.0
 11
176.6999999999999
 21
14.0000000000001
 31
0.0
  0
LINE
  5
474
330
1E
100
AcDbEntity
  8
0
100
AcDbLine
 10
176.6999999999999
 20
14.0000000000001
 30
0.0
 11
180.0
 21
14.0000000000001
 31
0.0
  0
LINE
  5
475
330
1E
100
AcDbEntity
  8
0
100
AcDbLine
 10
67.09999999999999
 20
54.00000000000011
 30
0.0
 11
90.0
 21
54.00000000000011
 31
0.0
  0
LINE
  5
476
330
1E
100
AcDbEntity
  8
0
100
AcDbLine
 10
67.09999999999999
 20
13.0000000000001
 30
0.0
 11
90.0
 21
13.0000000000001
 31
0.0
  0
LINE
  5
477
330
1E
100
AcDbEntity
  8
0
100
AcDbLine
 10
66.90000000000001
 20
3.00000000000012
 30
0.0
 11
90.0
 21
3.00000000000012
 31
0.0
  0
LINE
  5
478
330
1E
100
AcDbEntity
  8
0
100
AcDbLine
 10
67.09999999999999
 20
2.000000000000119
 30
0.0
 11
90.0
 21
2.000000000000119
 31
0.0
  0
LINE
  5
479
330
1E
100
AcDbEntity
  8
0
100
AcDbLine
 10
45.8
 20
2.000000000000119
 30
0.0
 11
67.09999999999999
 21
2.000000000000119
 31
0.0
  0
LINE
  5
47A
330
1E
100
AcDbEntity
  8
0
100
AcDbLine
 10
27.2
 20
2.000000000000119
 30
0.0
 11
45.8
 21
2.000000000000119
 31
0.0
  0
LINE
  5
47B
330
1E
100
AcDbEntity
  8
0
100
AcDbLine
 10
12.9
 20
2.000000000000119
 30
0.0
 11
27.2
 21
2.000000000000119
 31
0.0
  0
LINE
  5
47C
330
1E
100
AcDbEntity
  8
0
100
AcDbLine
 10
4.2
 20
2.000000000000119
 30
0.0
 11
12.9
 21
2.000000000000119
 31
0.0
  0
LINE
  5
47D
330
1E
100
AcDbEntity
  8
0
100
AcDbLine
 10
0.999999999999996
 20
2.000000000000119
 30
0.0
 11
4.2
 21
2.000000000000119
 31
0.0
  0
LINE
  5
47E
330
1E
100
AcDbEntity
  8
0
100
AcDbLine
 10
0.999999999999996
 20
2.000000000000119
 30
0.0
 11
4.2
 21
2.00000000000011
 31
0.0
  0
ENDSEC
  0
SECTION
  2
OBJECTS
  0
DICTIONARY
  5
C
330
0
100
AcDbDictionary
  3
ACAD_GROUP
350
D
  3
ACAD_LAYOUT
350
19
  3
ACAD_MLINESTYLE
350
16
  3
ACAD_PLOTSETTINGS
350
18
  3
ACAD_PLOTSTYLENAME
350
E
  3
ACDBHEADERROUNDTRIPXREC
350
486
  3
ACDBVARIABLEDICTIONARY
350
483
  0
DICTIONARY
  5
4A8
330
1E
100
AcDbDictionary
280
     1
  3
ACAD_LAYOUTSELFREF
360
4A9
  0
DICTIONARY
  5
4A6
330
1A
100
AcDbDictionary
280
     1
  3
ACAD_LAYOUTSELFREF
360
4A7
  0
DICTIONARY
  5
D
102
{ACAD_REACTORS
330
C
102
}
330
C
100
AcDbDictionary
  0
DICTIONARY
  5
19
102
{ACAD_REACTORS
330
C
102
}
330
C
100
AcDbDictionary
  0
DICTIONARY
  5
16
102
{ACAD_REACTORS
330
C
102
}
330
C
100
AcDbDictionary
  3
STANDARD
350
17
  0
DICTIONARY
  5
18
102
{ACAD_REACTORS
330
C
102
}
330
C
100
AcDbDictionary
  0
ACDBDICTIONARYWDFLT
  5
E
102
{ACAD_REACTORS
330
C
102
}
330
C
100
AcDbDictionary
281
     1
  3
Normal
350
F
100
AcDbDictionaryWithDefault
340
F
  0
DICTIONARY
  5
486
102
{ACAD_REACTORS
330
C
102
}
330
C
100
AcDbDictionary
  3
CEPSNTYPE
350
490
  3
FINGERPRINTGUID
350
491
  3
HYPERLINKBASE
350
489
  3
INSUNITS
350
48F
  3
LAYOUTDICT
350
48B
  3
LWETCUNION
350
48E
  3
PLOTSETDICT
350
48C
  3
PLOTSTYLNAMDICT
350
48D
  3
PSVPSCALE
350
493
  3
PUCSBASE
350
496
  3
PUCSORGBACK
350
49C
  3
PUCSORGBOTTOM
350
498
  3
PUCSORGFRONT
350
49B
  3
PUCSORGLEFT
350
499
  3
PUCSORGRIGHT
350
49A
  3
PUCSORGTOP
350
497
  3
PUCSORTHOREF
350
494
  3
PUCSORTHOVIEW
350
495
  3
STYLESHEET
350
48A
  3
TSTACKALIGN
350
487
  3
TSTACKSIZE
350
488
  3
UCSBASE
350
49F
  3
UCSORGBACK
350
4A5
  3
UCSORGBOTTOM
350
4A1
  3
UCSORGFRONT
350
4A4
  3
UCSORGLEFT
350
4A2
  3
UCSORGRIGHT
350
4A3
  3
UCSORGTOP
350
4A0
  3
UCSORTHOREF
350
49D
  3
UCSORTHOVIEW
350
49E
  3
VERSIONGUID
350
492
  0
DICTIONARY
  5
483
102
{ACAD_REACTORS
330
C
102
}
330
C
100
AcDbDictionary
  3
DIMASSOC
350
484
  0
XRECORD
  5
4A9
102
{ACAD_REACTORS
330
4A8
102
}
330
4A8
100
AcDbXrecord
340
1E
  0
XRECORD
  5
4A7
102
{ACAD_REACTORS
330
4A6
102
}
330
4A6
100
AcDbXrecord
340
1A
  0
MLINESTYLE
  5
17
102
{ACAD_REACTORS
330
16
102
}
330
16
100
AcDbMlineStyle
  2
STANDARD
 70
     0
  3

 62
   256
 51
90.0
 52
90.0
 71
     2
 49
0.5
 62
   256
  6
BYLAYER
 49
-0.5
 62
   256
  6
BYLAYER
  0
ACDBPLACEHOLDER
  5
F
102
{ACAD_REACTORS
330
E
102
}
330
E
100
AcDbPlaceHolder
280
     0
  0
XRECORD
  5
490
102
{ACAD_REACTORS
330
486
102
}
330
486
100
AcDbXrecord
 90
        0
  0
XRECORD
  5
491
102
{ACAD_REACTORS
330
486
102
}
330
486
100
AcDbXrecord
  1
{590FCDBF-EF01-4BAA-8509-5592697E96FC}
  0
XRECORD
  5
489
102
{ACAD_REACTORS
330
486
102
}
330
486
100
AcDbXrecord
  1

  0
XRECORD
  5
48F
102
{ACAD_REACTORS
330
486
102
}
330
486
100
AcDbXrecord
 90
        0
  0
XRECORD
  5
48B
102
{ACAD_REACTORS
330
486
102
}
330
486
100
AcDbXrecord
340
19
  0
XRECORD
  5
48E
102
{ACAD_REACTORS
330
486
102
}
330
486
100
AcDbXrecord
 90
    10781
  0
XRECORD
  5
48C
102
{ACAD_REACTORS
330
486
102
}
330
486
100
AcDbXrecord
340
18
  0
XRECORD
  5
48D
102
{ACAD_REACTORS
330
486
102
}
330
486
100
AcDbXrecord
340
E
  0
XRECORD
  5
493
102
{ACAD_REACTORS
330
486
102
}
330
486
100
AcDbXrecord
 40
0.0
  0
XRECORD
  5
496
102
{ACAD_REACTORS
330
486
102
}
330
486
100
AcDbXrecord
340
0
  0
XRECORD
  5
49C
102
{ACAD_REACTORS
330
486
102
}
330
486
100
AcDbXrecord
 10
0.0
 20
0.0
 30
0.0
  0
XRECORD
  5
498
102
{ACAD_REACTORS
330
486
102
}
330
486
100
AcDbXrecord
 10
0.0
 20
0.0
 30
0.0
  0
XRECORD
  5
49B
102
{ACAD_REACTORS
330
486
102
}
330
486
100
AcDbXrecord
 10
0.0
 20
0.0
 30
0.0
  0
XRECORD
  5
499
102
{ACAD_REACTORS
330
486
102
}
330
486
100
AcDbXrecord
 10
0.0
 20
0.0
 30
0.0
  0
XRECORD
  5
49A
102
{ACAD_REACTORS
330
486
102
}
330
486
100
AcDbXrecord
 10
0.0
 20
0.0
 30
0.0
  0
XRECORD
  5
497
102
{ACAD_REACTORS
330
486
102
}
330
486
100
AcDbXrecord
 10
0.0
 20
0.0
 30
0.0
  0
XRECORD
  5
494
102
{ACAD_REACTORS
330
486
102
}
330
486
100
AcDbXrecord
340
0
  0
XRECORD
  5
495
102
{ACAD_REACTORS
330
486
102
}
330
486
100
AcDbXrecord
 70
     0
  0
XRECORD
  5
48A
102
{ACAD_REACTORS
330
486
102
}
330
486
100
AcDbXrecord
  1

  0
XRECORD
  5
487
102
{ACAD_REACTORS
330
486
102
}
330
486
100
AcDbXrecord
 90
        1
  0
XRECORD
  5
488
102
{ACAD_REACTORS
330
486
102
}
330
486
100
AcDbXrecord
 90
       70
  0
XRECORD
  5
49F
102
{ACAD_REACTORS
330
486
102
}
330
486
100
AcDbXrecord
340
0
  0
XRECORD
  5
4A5
102
{ACAD_REACTORS
330
486
102
}
330
486
100
AcDbXrecord
 10
0.0
 20
0.0
 30
0.0
  0
XRECORD
  5
4A1
102
{ACAD_REACTORS
330
486
102
}
330
486
100
AcDbXrecord
 10
0.0
 20
0.0
 30
0.0
  0
XRECORD
  5
4A4
102
{ACAD_REACTORS
330
486
102
}
330
486
100
AcDbXrecord
 10
0.0
 20
0.0
 30
0.0
  0
XRECORD
  5
4A2
102
{ACAD_REACTORS
330
486
102
}
330
486
100
AcDbXrecord
 10
0.0
 20
0.0
 30
0.0
  0
XRECORD
  5
4A3
102
{ACAD_REACTORS
330
486
102
}
330
486
100
AcDbXrecord
 10
0.0
 20
0.0
 30
0.0
  0
XRECORD
  5
4A0
102
{ACAD_REACTORS
330
486
102
}
330
486
100
AcDbXrecord
 10
0.0
 20
0.0
 30
0.0
  0
XRECORD
  5
49D
102
{ACAD_REACTORS
330
486
102
}
330
486
100
AcDbXrecord
340
0
  0
XRECORD
  5
49E
102
{ACAD_REACTORS
330
486
102
}
330
486
100
AcDbXrecord
 70
     1
  0
XRECORD
  5
492
102
{ACAD_REACTORS
330
486
102
}
330
486
100
AcDbXrecord
  1
{5B1F9189-8376-4AFE-ADE6-9F1869F91175}
  0
DICTIONARYVAR
  5
484
102
{ACAD_REACTORS
330
483
102
}
330
483
100
DictionaryVariables
280
     0
  1
1
  0
ENDSEC
  0
EOF
