  0
SECTION
  2
HEADER
  9
$ACADVER
  1
AC1014
  9
$ACADMAINTVER
 70
     9
  9
$DWGCODEPAGE
  3
ANSI_1252
  9
$INSBASE
 10
0.0
 20
0.0
 30
0.0
  9
$EXTMIN
 10
-0.0000000000000037
 20
0.0210855230426189
 30
0.0
  9
$EXTMAX
 10
180.0
 20
203.978914476958
 30
0.0
  9
$LIMMIN
 10
0.0
 20
0.0
  9
$LIMMAX
 10
12.0
 20
9.0
  9
$ORTHOMODE
 70
     0
  9
$REGENMODE
 70
     1
  9
$FILLMODE
 70
     1
  9
$QTEXTMODE
 70
     0
  9
$MIRRTEXT
 70
     1
  9
$DRAGMODE
 70
     2
  9
$LTSCALE
 40
1.0
  9
$OSMODE
 70
    37
  9
$ATTMODE
 70
     1
  9
$TEXTSIZE
 40
0.2
  9
$TRACEWID
 40
0.05
  9
$TEXTSTYLE
  7
STANDARD
  9
$CLAYER
  8
0
  9
$CELTYPE
  6
CONTINUOUS
  9
$CECOLOR
 62
   256
  9
$CELTSCALE
 40
1.0
  9
$DELOBJ
 70
     1
  9
$DISPSILH
 70
     0
  9
$DIMSCALE
 40
1.0
  9
$DIMASZ
 40
0.18
  9
$DIMEXO
 40
0.0625
  9
$DIMDLI
 40
0.38
  9
$DIMRND
 40
0.0
  9
$DIMDLE
 40
0.0
  9
$DIMEXE
 40
0.18
  9
$DIMTP
 40
0.0
  9
$DIMTM
 40
0.0
  9
$DIMTXT
 40
0.18
  9
$DIMCEN
 40
0.09
  9
$DIMTSZ
 40
0.0
  9
$DIMTOL
 70
     0
  9
$DIMLIM
 70
     0
  9
$DIMTIH
 70
     1
  9
$DIMTOH
 70
     1
  9
$DIMSE1
 70
     0
  9
$DIMSE2
 70
     0
  9
$DIMTAD
 70
     0
  9
$DIMZIN
 70
     0
  9
$DIMBLK
  1

  9
$DIMASO
 70
     1
  9
$DIMSHO
 70
     1
  9
$DIMPOST
  1

  9
$DIMAPOST
  1

  9
$DIMALT
 70
     0
  9
$DIMALTD
 70
     2
  9
$DIMALTF
 40
25.4
  9
$DIMLFAC
 40
1.0
  9
$DIMTOFL
 70
     0
  9
$DIMTVP
 40
0.0
  9
$DIMTIX
 70
     0
  9
$DIMSOXD
 70
     0
  9
$DIMSAH
 70
     0
  9
$DIMBLK1
  1

  9
$DIMBLK2
  1

  9
$DIMSTYLE
  2
STANDARD
  9
$DIMCLRD
 70
     0
  9
$DIMCLRE
 70
     0
  9
$DIMCLRT
 70
     0
  9
$DIMTFAC
 40
1.0
  9
$DIMGAP
 40
0.09
  9
$DIMJUST
 70
     0
  9
$DIMSD1
 70
     0
  9
$DIMSD2
 70
     0
  9
$DIMTOLJ
 70
     1
  9
$DIMTZIN
 70
     0
  9
$DIMALTZ
 70
     0
  9
$DIMALTTZ
 70
     0
  9
$DIMFIT
 70
     3
  9
$DIMUPT
 70
     0
  9
$DIMUNIT
 70
     2
  9
$DIMDEC
 70
     4
  9
$DIMTDEC
 70
     4
  9
$DIMALTU
 70
     2
  9
$DIMALTTD
 70
     2
  9
$DIMTXSTY
  7
STANDARD
  9
$DIMAUNIT
 70
     0
  9
$LUNITS
 70
     2
  9
$LUPREC
 70
     4
  9
$SKETCHINC
 40
0.1
  9
$FILLETRAD
 40
0.0
  9
$AUNITS
 70
     0
  9
$AUPREC
 70
     0
  9
$MENU
  1
.
  9
$ELEVATION
 40
0.0
  9
$PELEVATION
 40
0.0
  9
$THICKNESS
 40
0.0
  9
$LIMCHECK
 70
     0
  9
$BLIPMODE
 70
     0
  9
$CHAMFERA
 40
0.0
  9
$CHAMFERB
 40
0.0
  9
$CHAMFERC
 40
0.0
  9
$CHAMFERD
 40
0.0
  9
$SKPOLY
 70
     0
  9
$TDCREATE
 40
2454687.550371817
  9
$TDUPDATE
 40
2454687.550788298
  9
$TDINDWG
 40
0.0004168519
  9
$TDUSRTIMER
 40
0.0004168519
  9
$USRTIMER
 70
     1
  9
$ANGBASE
 50
0.0
  9
$ANGDIR
 70
     0
  9
$PDMODE
 70
     0
  9
$PDSIZE
 40
0.0
  9
$PLINEWID
 40
0.0
  9
$COORDS
 70
     1
  9
$SPLFRAME
 70
     0
  9
$SPLINETYPE
 70
     6
  9
$SPLINESEGS
 70
     8
  9
$ATTDIA
 70
     0
  9
$ATTREQ
 70
     1
  9
$HANDLING
 70
 22529
  9
$HANDSEED
  5
6EF
  9
$SURFTAB1
 70
     6
  9
$SURFTAB2
 70
     6
  9
$SURFTYPE
 70
     6
  9
$SURFU
 70
     6
  9
$SURFV
 70
     6
  9
$UCSNAME
  2

  9
$UCSORG
 10
0.0
 20
0.0
 30
0.0
  9
$UCSXDIR
 10
1.0
 20
0.0
 30
0.0
  9
$UCSYDIR
 10
0.0
 20
1.0
 30
0.0
  9
$PUCSNAME
  2

  9
$PUCSORG
 10
0.0
 20
0.0
 30
0.0
  9
$PUCSXDIR
 10
1.0
 20
0.0
 30
0.0
  9
$PUCSYDIR
 10
0.0
 20
1.0
 30
0.0
  9
$USERI1
 70
     0
  9
$USERI2
 70
     0
  9
$USERI3
 70
     0
  9
$USERI4
 70
     0
  9
$USERI5
 70
     0
  9
$USERR1
 40
0.0
  9
$USERR2
 40
0.0
  9
$USERR3
 40
0.0
  9
$USERR4
 40
0.0
  9
$USERR5
 40
0.0
  9
$WORLDVIEW
 70
     1
  9
$SHADEDGE
 70
     3
  9
$SHADEDIF
 70
    70
  9
$TILEMODE
 70
     1
  9
$MAXACTVP
 70
    64
  9
$PINSBASE
 10
0.0
 20
0.0
 30
0.0
  9
$PLIMCHECK
 70
     0
  9
$PEXTMIN
 10
1.000000000000000E+20
 20
1.000000000000000E+20
 30
1.000000000000000E+20
  9
$PEXTMAX
 10
-1.000000000000000E+20
 20
-1.000000000000000E+20
 30
-1.000000000000000E+20
  9
$PLIMMIN
 10
0.0
 20
0.0
  9
$PLIMMAX
 10
12.0
 20
9.0
  9
$UNITMODE
 70
     0
  9
$VISRETAIN
 70
     1
  9
$PLINEGEN
 70
     0
  9
$PSLTSCALE
 70
     1
  9
$TREEDEPTH
 70
  3020
  9
$PICKSTYLE
 70
     1
  9
$CMLSTYLE
  2
STANDARD
  9
$CMLJUST
 70
     0
  9
$CMLSCALE
 40
1.0
  9
$PROXYGRAPHICS
 70
     1
  9
$MEASUREMENT
 70
     0
  0
ENDSEC
  0
SECTION
  2
CLASSES
  0
CLASS
  1
ACDBDICTIONARYWDFLT
  2
AcDbDictionaryWithDefault
  3
AutoCAD 2000
 90
        0
280
     0
281
     0
  0
CLASS
  1
ACDBPLACEHOLDER
  2
AcDbPlaceHolder
  3
AutoCAD 2000
 90
        0
280
     0
281
     0
  0
CLASS
  1
LAYOUT
  2
AcDbLayout
  3
AutoCAD 2000
 90
        0
280
     0
281
     0
  0
CLASS
  1
DICTIONARYVAR
  2
AcDbDictionaryVar
  3
AutoCAD 2000
 90
        0
280
     0
281
     0
  0
CLASS
  1
LONG_TRANSACTION
  2
AcDbLongTransaction
  3
AutoCAD 2000
 90
        0
280
     0
281
     0
  0
CLASS
  1
LWPOLYLINE
  2
AcDbPolyline
  3
AutoCAD 2000
 90
        0
280
     0
281
     1
  0
CLASS
  1
HATCH
  2
AcDbHatch
  3
AutoCAD 2000
 90
        0
280
     0
281
     1
  0
CLASS
  1
XRECORD
  2
AcDbXrecord
  3
AutoCAD 2000
 90
        0
280
     0
281
     0
  0
ENDSEC
  0
SECTION
  2
TABLES
  0
TABLE
  2
VPORT
  5
8
330
0
100
AcDbSymbolTable
 70
     2
  0
VPORT
  5
6CA
330
8
100
AcDbSymbolTableRecord
100
AcDbViewportTableRecord
  2
*ACTIVE
 70
     0
 10
0.0
 20
0.0
 11
1.0
 21
1.0
 12
90.0
 22
102.0000000000003
 13
0.0
 23
0.0
 14
1.0
 24
1.0
 15
0.0
 25
0.0
 16
0.0
 26
0.0
 36
1.0
 17
0.0
 27
0.0
 37
0.0
 40
205.5227227822062
 41
2.043533930857874
 42
50.0
 43
0.0
 44
0.0
 50
0.0
 51
0.0
 71
     0
 72
   100
 73
     1
 74
     3
 75
     0
 76
     0
 77
     0
 78
     0
  0
ENDTAB
  0
TABLE
  2
LTYPE
  5
5
330
0
100
AcDbSymbolTable
 70
     1
  0
LTYPE
  5
13
330
5
100
AcDbSymbolTableRecord
100
AcDbLinetypeTableRecord
  2
BYBLOCK
 70
     0
  3

 72
    65
 73
     0
 40
0.0
  0
LTYPE
  5
14
330
5
100
AcDbSymbolTableRecord
100
AcDbLinetypeTableRecord
  2
BYLAYER
 70
     0
  3

 72
    65
 73
     0
 40
0.0
  0
LTYPE
  5
15
330
5
100
AcDbSymbolTableRecord
100
AcDbLinetypeTableRecord
  2
CONTINUOUS
 70
     0
  3
Solid line
 72
    65
 73
     0
 40
0.0
  0
ENDTAB
  0
TABLE
  2
LAYER
  5
2
330
0
100
AcDbSymbolTable
 70
     1
  0
LAYER
  5
10
330
2
100
AcDbSymbolTableRecord
100
AcDbLayerTableRecord
  2
0
 70
     0
 62
     7
  6
CONTINUOUS
  0
ENDTAB
  0
TABLE
  2
STYLE
  5
3
330
0
100
AcDbSymbolTable
 70
     1
  0
STYLE
  5
11
330
3
100
AcDbSymbolTableRecord
100
AcDbTextStyleTableRecord
  2
STANDARD
 70
     0
 40
0.0
 41
1.0
 50
0.0
 71
     0
 42
0.2
  3
txt
  4

  0
ENDTAB
  0
TABLE
  2
VIEW
  5
6
330
0
100
AcDbSymbolTable
 70
     0
  0
ENDTAB
  0
TABLE
  2
UCS
  5
7
330
0
100
AcDbSymbolTable
 70
     0
  0
ENDTAB
  0
TABLE
  2
APPID
  5
9
330
0
100
AcDbSymbolTable
 70
     1
  0
APPID
  5
12
330
9
100
AcDbSymbolTableRecord
100
AcDbRegAppTableRecord
  2
ACAD
 70
     0
  0
ENDTAB
  0
TABLE
  2
DIMSTYLE
  5
A
330
0
100
AcDbSymbolTable
 70
     1
  0
DIMSTYLE
105
6C4
330
A
100
AcDbSymbolTableRecord
100
AcDbDimStyleTableRecord
  2
STANDARD
 70
     0
  3

  4

  5

  6

  7

 40
1.0
 41
0.18
 42
0.0625
 43
0.38
 44
0.18
 45
0.0
 46
0.0
 47
0.0
 48
0.0
140
0.18
141
0.09
142
0.0
143
25.4
144
1.0
145
0.0
146
1.0
147
0.09
 71
     0
 72
     0
 73
     1
 74
     1
 75
     0
 76
     0
 77
     0
 78
     0
170
     0
171
     2
172
     0
173
     0
174
     0
175
     0
176
     0
177
     0
178
     0
270
     2
271
     4
272
     4
273
     2
274
     2
340
11
275
     0
280
     0
281
     0
282
     0
283
     1
284
     0
285
     0
286
     0
287
     3
288
     0
  0
ENDTAB
  0
TABLE
  2
BLOCK_RECORD
  5
1
330
0
100
AcDbSymbolTable
 70
     0
  0
BLOCK_RECORD
  5
1E
102
{ACAD_XDICTIONARY
360
6ED
102
}
330
1
100
AcDbSymbolTableRecord
100
AcDbBlockTableRecord
  2
*MODEL_SPACE
  0
BLOCK_RECORD
  5
1A
102
{ACAD_XDICTIONARY
360
6EB
102
}
330
1
100
AcDbSymbolTableRecord
100
AcDbBlockTableRecord
  2
*PAPER_SPACE
  0
ENDTAB
  0
ENDSEC
  0
SECTION
  2
BLOCKS
  0
BLOCK
  5
1F
330
1E
100
AcDbEntity
  8
0
100
AcDbBlockBegin
  2
*MODEL_SPACE
 70
     0
 10
0.0
 20
0.0
 30
0.0
  3
*MODEL_SPACE
  1

  0
ENDBLK
  5
20
330
1E
100
AcDbEntity
  8
0
100
AcDbBlockEnd
  0
BLOCK
  5
1B
330
1A
100
AcDbEntity
 67
     1
  8
0
100
AcDbBlockBegin
  2
*PAPER_SPACE
 70
     0
 10
0.0
 20
0.0
 30
0.0
  3
*PAPER_SPACE
  1

  0
ENDBLK
  5
1C
330
1A
100
AcDbEntity
 67
     1
  8
0
100
AcDbBlockEnd
  0
ENDSEC
  0
SECTION
  2
ENTITIES
  0
LINE
  5
22
330
1E
100
AcDbEntity
  8
0
100
AcDbLine
 10
-0.0000000000000034
 20
38.6623858800217
 30
0.0
 11
3.299999999999999
 21
48.4248193019385
 31
0.0
  0
LINE
  5
23
330
1E
100
AcDbEntity
  8
0
100
AcDbLine
 10
-0.0000000000000034
 20
38.6623858800217
 30
0.0
 11
3.299999999999999
 21
28.899952458105
 31
0.0
  0
LINE
  5
24
330
1E
100
AcDbEntity
  8
0
100
AcDbLine
 10
-0.0000000000000034
 20
38.6623858800217
 30
0.0
 11
-0.0000000000000034
 21
46.8191647609687
 31
0.0
  0
LINE
  5
25
330
1E
100
AcDbEntity
  8
0
100
AcDbLine
 10
-0.0000000000000037
 20
83.97782410750499
 30
0.0
 11
3.299999999999999
 21
93.74025752942181
 31
0.0
  0
LINE
  5
26
330
1E
100
AcDbEntity
  8
0
100
AcDbLine
 10
-0.0000000000000034
 20
83.97782410750499
 30
0.0
 11
-0.0000000000000034
 21
48.63178229006799
 31
0.0
  0
LINE
  5
27
330
1E
100
AcDbEntity
  8
0
100
AcDbLine
 10
-0.0000000000000034
 20
83.97782410750499
 30
0.0
 11
3.299999999999999
 21
93.74025752942181
 31
0.0
  0
LINE
  5
28
330
1E
100
AcDbEntity
  8
0
100
AcDbLine
 10
-0.0000000000000034
 20
48.63178229006799
 30
0.0
 11
3.299999999999999
 21
58.3942157119848
 31
0.0
  0
LINE
  5
29
330
1E
100
AcDbEntity
  8
0
100
AcDbLine
 10
-0.0000000000000034
 20
48.63178229006799
 30
0.0
 11
0.306359981549215
 21
47.72547352551839
 31
0.0
  0
LINE
  5
2A
330
1E
100
AcDbEntity
  8
0
100
AcDbLine
 10
-0.0000000000000034
 20
48.63178229006799
 30
0.0
 11
-0.0000000000000034
 21
83.97782410750499
 31
0.0
  0
LINE
  5
2B
330
1E
100
AcDbEntity
  8
0
100
AcDbLine
 10
-0.0000000000000037
 20
48.63178229006799
 30
0.0
 11
3.299999999999999
 21
58.3942157119848
 31
0.0
  0
LINE
  5
2C
330
1E
100
AcDbEntity
  8
0
100
AcDbLine
 10
-0.0000000000000037
 20
48.63178229006799
 30
0.0
 11
0.306359981549215
 21
47.72547352551839
 31
0.0
  0
LINE
  5
2D
330
1E
100
AcDbEntity
  8
0
100
AcDbLine
 10
-0.0000000000000037
 20
46.8191647609687
 30
0.0
 11
3.299999999999999
 21
56.58159818288551
 31
0.0
  0
LINE
  5
2E
330
1E
100
AcDbEntity
  8
0
100
AcDbLine
 10
-0.0000000000000034
 20
46.8191647609687
 30
0.0
 11
-0.0000000000000034
 21
38.6623858800217
 31
0.0
  0
LINE
  5
2F
330
1E
100
AcDbEntity
  8
0
100
AcDbLine
 10
-0.0000000000000034
 20
46.8191647609687
 30
0.0
 11
3.299999999999999
 21
56.58159818288551
 31
0.0
  0
LINE
  5
30
330
1E
100
AcDbEntity
  8
0
100
AcDbLine
 10
-0.0000000000000037
 20
38.6623858800217
 30
0.0
 11
3.299999999999999
 21
48.4248193019385
 31
0.0
  0
LINE
  5
31
330
1E
100
AcDbEntity
  8
0
100
AcDbLine
 10
-0.0000000000000037
 20
38.6623858800217
 30
0.0
 11
3.299999999999999
 21
28.899952458105
 31
0.0
  0
LINE
  5
32
330
1E
100
AcDbEntity
  8
0
100
AcDbLine
 10
91.0
 20
0.021085523042619
 30
0.0
 11
91.0
 21
0.866317853944504
 31
0.0
  0
LINE
  5
33
330
1E
100
AcDbEntity
  8
0
100
AcDbLine
 10
89.0
 20
0.021085523042619
 30
0.0
 11
89.0
 21
1.833703052141949
 31
0.0
  0
LINE
  5
34
330
1E
100
AcDbEntity
  8
0
100
AcDbLine
 10
89.0
 20
0.021085523042619
 30
0.0
 11
91.0
 21
0.021085523042619
 31
0.0
  0
LINE
  5
35
330
1E
100
AcDbEntity
  8
0
100
AcDbLine
 10
89.0
 20
0.021085523042619
 30
0.0
 11
89.0
 21
0.866317853944504
 31
0.0
  0
LINE
  5
36
330
1E
100
AcDbEntity
  8
0
100
AcDbLine
 10
68.9663
 20
1.135524351336749
 30
0.0
 11
69.4839
 21
1.95201878298797
 31
0.0
  0
LINE
  5
37
330
1E
100
AcDbEntity
  8
0
100
AcDbLine
 10
67.0345
 20
1.35443952504034
 30
0.0
 11
67.0345
 21
3.16705705413967
 31
0.0
  0
LINE
  5
38
330
1E
100
AcDbEntity
  8
0
100
AcDbLine
 10
67.0345
 20
1.35443952504034
 30
0.0
 11
67.55209999999999
 21
2.17093395669157
 31
0.0
  0
LINE
  5
39
330
1E
100
AcDbEntity
  8
0
100
AcDbLine
 10
67.0345
 20
1.35443952504034
 30
0.0
 11
68.9663
 21
1.135524351336749
 31
0.0
  0
LINE
  5
3A
330
1E
100
AcDbEntity
  8
0
100
AcDbLine
 10
91.0
 20
0.866317853944504
 30
0.0
 11
91.0
 21
2.678935383043839
 31
0.0
  0
LINE
  5
3B
330
1E
100
AcDbEntity
  8
0
100
AcDbLine
 10
91.0
 20
0.866317853944504
 30
0.0
 11
91.0
 21
0.0210855230426189
 31
0.0
  0
LINE
  5
3C
330
1E
100
AcDbEntity
  8
0
100
AcDbLine
 10
89.0
 20
0.866317853944504
 30
0.0
 11
89.0
 21
0.0210855230426189
 31
0.0
  0
LINE
  5
3D
330
1E
100
AcDbEntity
  8
0
100
AcDbLine
 10
89.0
 20
0.866317853944504
 30
0.0
 11
91.0
 21
0.866317853944504
 31
0.0
  0
LINE
  5
3E
330
1E
100
AcDbEntity
  8
0
100
AcDbLine
 10
89.0
 20
0.866317853944504
 30
0.0
 11
89.0
 21
2.678935383043839
 31
0.0
  0
LINE
  5
3F
330
1E
100
AcDbEntity
  8
0
100
AcDbLine
 10
69.11898421537999
 20
1.376377928730029
 30
0.0
 11
89.0
 21
0.202293924374994
 31
0.0
  0
LINE
  5
40
330
1E
100
AcDbEntity
  8
0
100
AcDbLine
 10
69.11898421537999
 20
1.376377928730029
 30
0.0
 11
89.0
 21
0.202293924374993
 31
0.0
  0
LINE
  5
41
330
1E
100
AcDbEntity
  8
0
100
AcDbLine
 10
91.0
 20
0.202293924374994
 30
0.0
 11
110.881191217857
 21
1.376388289033549
 31
0.0
  0
LINE
  5
42
330
1E
100
AcDbEntity
  8
0
100
AcDbLine
 10
111.0339999999999
 20
1.135524351336749
 30
0.0
 11
112.966
 21
1.35443952504034
 31
0.0
  0
LINE
  5
43
330
1E
100
AcDbEntity
  8
0
100
AcDbLine
 10
112.966
 20
1.35443952504034
 30
0.0
 11
112.966
 21
3.16705705413967
 31
0.0
  0
LINE
  5
44
330
1E
100
AcDbEntity
  8
0
100
AcDbLine
 10
112.966
 20
1.50700289922729
 30
0.0
 11
131.515821508831
 21
4.70903358429753
 31
0.0
  0
LINE
  5
45
330
1E
100
AcDbEntity
  8
0
100
AcDbLine
 10
91.0
 20
0.202293924374993
 30
0.0
 11
110.881191217857
 21
1.376388289033549
 31
0.0
  0
LINE
  5
46
330
1E
100
AcDbEntity
  8
0
100
AcDbLine
 10
48.366
 20
4.62253033247248
 30
0.0
 11
49.36600000000001
 21
5.354501531033499
 31
0.0
  0
LINE
  5
47
330
1E
100
AcDbEntity
  8
0
100
AcDbLine
 10
110.516
 20
1.95201878298797
 30
0.0
 11
111.0339999999999
 21
1.135524351336749
 31
0.0
  0
LINE
  5
48
330
1E
100
AcDbEntity
  8
0
100
AcDbLine
 10
110.516
 20
1.95201878298797
 30
0.0
 11
110.516
 21
3.764636312087299
 31
0.0
  0
LINE
  5
49
330
1E
100
AcDbEntity
  8
0
100
AcDbLine
 10
110.516
 20
1.95201878298797
 30
0.0
 11
112.4479999999999
 21
2.17093395669157
 31
0.0
  0
LINE
  5
4A
330
1E
100
AcDbEntity
  8
0
100
AcDbLine
 10
89.0
 20
1.833703052141949
 30
0.0
 11
89.0
 21
2.678935383043839
 31
0.0
  0
LINE
  5
4B
330
1E
100
AcDbEntity
  8
0
100
AcDbLine
 10
89.0
 20
1.833703052141949
 30
0.0
 11
89.0
 21
0.0210855230426189
 31
0.0
  0
LINE
  5
4C
330
1E
100
AcDbEntity
  8
0
100
AcDbLine
 10
112.4479999999999
 20
2.17093395669157
 30
0.0
 11
112.966
 21
1.35443952504034
 31
0.0
  0
LINE
  5
4D
330
1E
100
AcDbEntity
  8
0
100
AcDbLine
 10
112.4479999999999
 20
2.17093395669157
 30
0.0
 11
112.4479999999999
 21
3.983551485790899
 31
0.0
  0
LINE
  5
4E
330
1E
100
AcDbEntity
  8
0
100
AcDbLine
 10
110.516
 20
3.764636312087299
 30
0.0
 11
110.516
 21
1.95201878298797
 31
0.0
  0
LINE
  5
4F
330
1E
100
AcDbEntity
  8
0
100
AcDbLine
 10
110.516
 20
3.764636312087299
 30
0.0
 11
112.4479999999999
 21
3.983551485790899
 31
0.0
  0
LINE
  5
50
330
1E
100
AcDbEntity
  8
0
100
AcDbLine
 10
112.966
 20
3.16705705413967
 30
0.0
 11
112.966
 21
1.35443952504034
 31
0.0
  0
LINE
  5
51
330
1E
100
AcDbEntity
  8
0
100
AcDbLine
 10
91.0
 20
2.678935383043839
 30
0.0
 11
91.0
 21
0.866317853944504
 31
0.0
  0
LINE
  5
52
330
1E
100
AcDbEntity
  8
0
100
AcDbLine
 10
89.0
 20
2.678935383043839
 30
0.0
 11
89.0
 21
0.866317853944504
 31
0.0
  0
LINE
  5
53
330
1E
100
AcDbEntity
  8
0
100
AcDbLine
 10
89.0
 20
2.678935383043839
 30
0.0
 11
91.0
 21
2.678935383043839
 31
0.0
  0
LINE
  5
54
330
1E
100
AcDbEntity
  8
0
100
AcDbLine
 10
89.0
 20
2.678935383043839
 30
0.0
 11
89.0
 21
1.833703052141949
 31
0.0
  0
LINE
  5
55
330
1E
100
AcDbEntity
  8
0
100
AcDbLine
 10
112.4479999999999
 20
3.983551485790899
 30
0.0
 11
112.4479999999999
 21
2.17093395669157
 31
0.0
  0
LINE
  5
56
330
1E
100
AcDbEntity
  8
0
100
AcDbLine
 10
112.4479999999999
 20
3.983551485790899
 30
0.0
 11
112.966
 21
3.16705705413967
 31
0.0
  0
LINE
  5
57
330
1E
100
AcDbEntity
  8
0
100
AcDbLine
 10
69.4839
 20
3.764636312087299
 30
0.0
 11
69.4839
 21
1.95201878298797
 31
0.0
  0
LINE
  5
58
330
1E
100
AcDbEntity
  8
0
100
AcDbLine
 10
67.55209999999999
 20
2.17093395669157
 30
0.0
 11
69.4839
 21
1.95201878298797
 31
0.0
  0
LINE
  5
59
330
1E
100
AcDbEntity
  8
0
100
AcDbLine
 10
67.55209999999999
 20
2.17093395669157
 30
0.0
 11
67.55209999999999
 21
3.983551485790899
 31
0.0
  0
LINE
  5
5A
330
1E
100
AcDbEntity
  8
0
100
AcDbLine
 10
69.4839
 20
1.95201878298797
 30
0.0
 11
69.4839
 21
3.764636312087299
 31
0.0
  0
LINE
  5
5B
330
1E
100
AcDbEntity
  8
0
100
AcDbLine
 10
67.0345
 20
3.16705705413967
 30
0.0
 11
67.55209999999999
 21
3.983551485790899
 31
0.0
  0
LINE
  5
5C
330
1E
100
AcDbEntity
  8
0
100
AcDbLine
 10
67.0345
 20
3.16705705413967
 30
0.0
 11
67.0345
 21
1.35443952504034
 31
0.0
  0
LINE
  5
5D
330
1E
100
AcDbEntity
  8
0
100
AcDbLine
 10
131.6339999999999
 20
4.62253033247248
 30
0.0
 11
133.366
 21
5.045146497923429
 31
0.0
  0
LINE
  5
5E
330
1E
100
AcDbEntity
  8
0
100
AcDbLine
 10
67.55209999999999
 20
3.983551485790899
 30
0.0
 11
67.55209999999999
 21
2.17093395669157
 31
0.0
  0
LINE
  5
5F
330
1E
100
AcDbEntity
  8
0
100
AcDbLine
 10
67.55209999999999
 20
3.983551485790899
 30
0.0
 11
69.4839
 21
3.764636312087299
 31
0.0
  0
LINE
  5
60
330
1E
100
AcDbEntity
  8
0
100
AcDbLine
 10
48.4841784911689
 20
4.70903358429753
 30
0.0
 11
67.0345
 21
1.50691659029209
 31
0.0
  0
LINE
  5
61
330
1E
100
AcDbEntity
  8
0
100
AcDbLine
 10
48.4841784911689
 20
4.70903358429753
 30
0.0
 11
67.0345
 21
1.50691659029209
 31
0.0
  0
LINE
  5
62
330
1E
100
AcDbEntity
  8
0
100
AcDbLine
 10
46.63399999999999
 20
5.045146497923429
 30
0.0
 11
46.63399999999999
 21
6.857764027022759
 31
0.0
  0
LINE
  5
63
330
1E
100
AcDbEntity
  8
0
100
AcDbLine
 10
46.63399999999999
 20
5.045146497923429
 30
0.0
 11
47.63399999999999
 21
5.77711769648444
 31
0.0
  0
LINE
  5
64
330
1E
100
AcDbEntity
  8
0
100
AcDbLine
 10
46.63399999999999
 20
5.045146497923429
 30
0.0
 11
48.366
 21
4.62253033247248
 31
0.0
  0
LINE
  5
65
330
1E
100
AcDbEntity
  8
0
100
AcDbLine
 10
47.63399999999999
 20
5.77711769648444
 30
0.0
 11
49.36600000000001
 21
5.354501531033499
 31
0.0
  0
LINE
  5
66
330
1E
100
AcDbEntity
  8
0
100
AcDbLine
 10
47.63399999999999
 20
5.77711769648444
 30
0.0
 11
47.63399999999999
 21
7.58973522558378
 31
0.0
  0
LINE
  5
67
330
1E
100
AcDbEntity
  8
0
100
AcDbLine
 10
49.36600000000001
 20
5.354501531033499
 30
0.0
 11
49.36600000000001
 21
7.167119060132829
 31
0.0
  0
LINE
  5
68
330
1E
100
AcDbEntity
  8
0
100
AcDbLine
 10
49.36600000000001
 20
7.167119060132829
 30
0.0
 11
49.36600000000001
 21
5.354501531033499
 31
0.0
  0
LINE
  5
69
330
1E
100
AcDbEntity
  8
0
100
AcDbLine
 10
47.63399999999999
 20
7.58973522558378
 30
0.0
 11
47.63399999999999
 21
5.77711769648444
 31
0.0
  0
LINE
  5
6A
330
1E
100
AcDbEntity
  8
0
100
AcDbLine
 10
47.63399999999999
 20
7.58973522558378
 30
0.0
 11
49.36600000000001
 21
7.167119060132829
 31
0.0
  0
LINE
  5
6B
330
1E
100
AcDbEntity
  8
0
100
AcDbLine
 10
46.63399999999999
 20
6.857764027022759
 30
0.0
 11
47.63399999999999
 21
7.58973522558378
 31
0.0
  0
LINE
  5
6C
330
1E
100
AcDbEntity
  8
0
100
AcDbLine
 10
46.63399999999999
 20
6.857764027022759
 30
0.0
 11
46.63399999999999
 21
5.045146497923429
 31
0.0
  0
LINE
  5
6D
330
1E
100
AcDbEntity
  8
0
100
AcDbLine
 10
130.6339999999999
 20
5.354501531033499
 30
0.0
 11
130.6339999999999
 21
7.167119060132829
 31
0.0
  0
LINE
  5
6E
330
1E
100
AcDbEntity
  8
0
100
AcDbLine
 10
130.6339999999999
 20
5.354501531033499
 30
0.0
 11
131.6339999999999
 21
4.62253033247248
 31
0.0
  0
LINE
  5
6F
330
1E
100
AcDbEntity
  8
0
100
AcDbLine
 10
130.6339999999999
 20
5.354501531033499
 30
0.0
 11
132.366
 21
5.77711769648444
 31
0.0
  0
LINE
  5
70
330
1E
100
AcDbEntity
  8
0
100
AcDbLine
 10
132.366
 20
5.77711769648444
 30
0.0
 11
133.366
 21
5.045146497923429
 31
0.0
  0
LINE
  5
71
330
1E
100
AcDbEntity
  8
0
100
AcDbLine
 10
132.366
 20
5.77711769648444
 30
0.0
 11
132.366
 21
7.58973522558378
 31
0.0
  0
LINE
  5
72
330
1E
100
AcDbEntity
  8
0
100
AcDbLine
 10
91.0
 20
6.360328004806759
 30
0.0
 11
91.0
 21
7.205560335708639
 31
0.0
  0
LINE
  5
73
330
1E
100
AcDbEntity
  8
0
100
AcDbLine
 10
130.6339999999999
 20
7.167119060132829
 30
0.0
 11
130.6339999999999
 21
5.354501531033499
 31
0.0
  0
LINE
  5
74
330
1E
100
AcDbEntity
  8
0
100
AcDbLine
 10
130.6339999999999
 20
7.167119060132829
 30
0.0
 11
132.366
 21
7.58973522558378
 31
0.0
  0
LINE
  5
75
330
1E
100
AcDbEntity
  8
0
100
AcDbLine
 10
107.151
 20
7.258809972555459
 30
0.0
 11
109.0829999999999
 21
7.477725146259039
 31
0.0
  0
LINE
  5
76
330
1E
100
AcDbEntity
  8
0
100
AcDbLine
 10
109.0829999999999
 20
7.477725146259039
 30
0.0
 11
109.0829999999999
 21
9.290342675358369
 31
0.0
  0
LINE
  5
77
330
1E
100
AcDbEntity
  8
0
100
AcDbLine
 10
91.0
 20
7.205560335708639
 30
0.0
 11
91.0
 21
9.01817786480797
 31
0.0
  0
LINE
  5
78
330
1E
100
AcDbEntity
  8
0
100
AcDbLine
 10
91.0
 20
7.205560335708639
 30
0.0
 11
91.0
 21
6.360328004806759
 31
0.0
  0
LINE
  5
79
330
1E
100
AcDbEntity
  8
0
100
AcDbLine
 10
89.0
 20
7.205560335708639
 30
0.0
 11
89.0
 21
6.360328004806759
 31
0.0
  0
LINE
  5
7A
330
1E
100
AcDbEntity
  8
0
100
AcDbLine
 10
89.0
 20
7.205560335708639
 30
0.0
 11
91.0
 21
7.205560335708639
 31
0.0
  0
LINE
  5
7B
330
1E
100
AcDbEntity
  8
0
100
AcDbLine
 10
89.0
 20
7.205560335708639
 30
0.0
 11
89.0
 21
9.01817786480797
 31
0.0
  0
LINE
  5
7C
330
1E
100
AcDbEntity
  8
0
100
AcDbLine
 10
89.0
 20
6.360328004806759
 30
0.0
 11
89.0
 21
8.172945533906089
 31
0.0
  0
LINE
  5
7D
330
1E
100
AcDbEntity
  8
0
100
AcDbLine
 10
89.0
 20
6.360328004806759
 30
0.0
 11
91.0
 21
6.360328004806759
 31
0.0
  0
LINE
  5
7E
330
1E
100
AcDbEntity
  8
0
100
AcDbLine
 10
89.0
 20
6.360328004806759
 30
0.0
 11
89.0
 21
7.205560335708639
 31
0.0
  0
LINE
  5
7F
330
1E
100
AcDbEntity
  8
0
100
AcDbLine
 10
72.84860000000001
 20
7.258809972555459
 30
0.0
 11
73.3662
 21
8.075304404206679
 31
0.0
  0
LINE
  5
80
330
1E
100
AcDbEntity
  8
0
100
AcDbLine
 10
71.4344
 20
8.29421957791026
 30
0.0
 11
73.3662
 21
8.075304404206679
 31
0.0
  0
LINE
  5
81
330
1E
100
AcDbEntity
  8
0
100
AcDbLine
 10
71.4344
 20
8.29421957791026
 30
0.0
 11
71.4344
 21
10.1068371070096
 31
0.0
  0
LINE
  5
82
330
1E
100
AcDbEntity
  8
0
100
AcDbLine
 10
70.9167
 20
9.290342675358369
 30
0.0
 11
71.4344
 21
10.1068371070096
 31
0.0
  0
LINE
  5
83
330
1E
100
AcDbEntity
  8
0
100
AcDbLine
 10
70.9167
 20
9.290342675358369
 30
0.0
 11
70.9167
 21
7.477725146259039
 31
0.0
  0
LINE
  5
84
330
1E
100
AcDbEntity
  8
0
100
AcDbLine
 10
132.366
 20
7.58973522558378
 30
0.0
 11
132.366
 21
5.77711769648444
 31
0.0
  0
LINE
  5
85
330
1E
100
AcDbEntity
  8
0
100
AcDbLine
 10
132.366
 20
7.58973522558378
 30
0.0
 11
133.366
 21
6.857764027022759
 31
0.0
  0
LINE
  5
86
330
1E
100
AcDbEntity
  8
0
100
AcDbLine
 10
106.634
 20
8.075304404206679
 30
0.0
 11
107.151
 21
7.258809972555459
 31
0.0
  0
LINE
  5
87
330
1E
100
AcDbEntity
  8
0
100
AcDbLine
 10
106.634
 20
8.075304404206679
 30
0.0
 11
106.634
 21
9.887921933306008
 31
0.0
  0
LINE
  5
88
330
1E
100
AcDbEntity
  8
0
100
AcDbLine
 10
106.634
 20
8.075304404206679
 30
0.0
 11
108.566
 21
8.29421957791026
 31
0.0
  0
LINE
  5
89
330
1E
100
AcDbEntity
  8
0
100
AcDbLine
 10
108.566
 20
8.29421957791026
 30
0.0
 11
109.0829999999999
 21
7.477725146259039
 31
0.0
  0
LINE
  5
8A
330
1E
100
AcDbEntity
  8
0
100
AcDbLine
 10
108.566
 20
8.29421957791026
 30
0.0
 11
108.566
 21
10.1068371070096
 31
0.0
  0
LINE
  5
8B
330
1E
100
AcDbEntity
  8
0
100
AcDbLine
 10
91.0
 20
9.01817786480797
 30
0.0
 11
91.0
 21
7.205560335708639
 31
0.0
  0
LINE
  5
8C
330
1E
100
AcDbEntity
  8
0
100
AcDbLine
 10
89.0
 20
8.172945533906089
 30
0.0
 11
89.0
 21
9.01817786480797
 31
0.0
  0
LINE
  5
8D
330
1E
100
AcDbEntity
  8
0
100
AcDbLine
 10
89.0
 20
8.172945533906089
 30
0.0
 11
89.0
 21
6.360328004806759
 31
0.0
  0
LINE
  5
8E
330
1E
100
AcDbEntity
  8
0
100
AcDbLine
 10
106.634
 20
9.887921933306008
 30
0.0
 11
106.634
 21
8.075304404206679
 31
0.0
  0
LINE
  5
8F
330
1E
100
AcDbEntity
  8
0
100
AcDbLine
 10
106.634
 20
9.887921933306008
 30
0.0
 11
108.566
 21
10.1068371070096
 31
0.0
  0
LINE
  5
90
330
1E
100
AcDbEntity
  8
0
100
AcDbLine
 10
109.0829999999999
 20
9.290342675358369
 30
0.0
 11
109.0829999999999
 21
7.477725146259039
 31
0.0
  0
LINE
  5
91
330
1E
100
AcDbEntity
  8
0
100
AcDbLine
 10
108.566
 20
10.1068371070096
 30
0.0
 11
108.566
 21
8.29421957791026
 31
0.0
  0
LINE
  5
92
330
1E
100
AcDbEntity
  8
0
100
AcDbLine
 10
108.566
 20
10.1068371070096
 30
0.0
 11
109.0829999999999
 21
9.290342675358369
 31
0.0
  0
LINE
  5
93
330
1E
100
AcDbEntity
  8
0
100
AcDbLine
 10
124.134
 20
10.11231432168019
 30
0.0
 11
125.866
 21
10.53493048713119
 31
0.0
  0
LINE
  5
94
330
1E
100
AcDbEntity
  8
0
100
AcDbLine
 10
89.0
 20
9.01817786480797
 30
0.0
 11
89.0
 21
7.205560335708639
 31
0.0
  0
LINE
  5
95
330
1E
100
AcDbEntity
  8
0
100
AcDbLine
 10
89.0
 20
9.01817786480797
 30
0.0
 11
91.0
 21
9.01817786480797
 31
0.0
  0
LINE
  5
96
330
1E
100
AcDbEntity
  8
0
100
AcDbLine
 10
89.0
 20
9.01817786480797
 30
0.0
 11
89.0
 21
8.172945533906089
 31
0.0
  0
LINE
  5
97
330
1E
100
AcDbEntity
  8
0
100
AcDbLine
 10
73.3662
 20
9.887921933306008
 30
0.0
 11
73.3662
 21
8.075304404206679
 31
0.0
  0
LINE
  5
98
330
1E
100
AcDbEntity
  8
0
100
AcDbLine
 10
73.3662
 20
8.075304404206679
 30
0.0
 11
73.3662
 21
9.887921933306008
 31
0.0
  0
LINE
  5
99
330
1E
100
AcDbEntity
  8
0
100
AcDbLine
 10
71.4344
 20
10.1068371070096
 30
0.0
 11
71.4344
 21
8.29421957791026
 31
0.0
  0
LINE
  5
9A
330
1E
100
AcDbEntity
  8
0
100
AcDbLine
 10
71.4344
 20
10.1068371070096
 30
0.0
 11
73.3662
 21
9.887921933306008
 31
0.0
  0
LINE
  5
9B
330
1E
100
AcDbEntity
  8
0
100
AcDbLine
 10
70.9167
 20
7.477725146259039
 30
0.0
 11
70.9167
 21
9.290342675358369
 31
0.0
  0
LINE
  5
9C
330
1E
100
AcDbEntity
  8
0
100
AcDbLine
 10
70.9167
 20
7.477725146259039
 30
0.0
 11
71.4344
 21
8.29421957791026
 31
0.0
  0
LINE
  5
9D
330
1E
100
AcDbEntity
  8
0
100
AcDbLine
 10
70.9167
 20
7.477725146259039
 30
0.0
 11
72.84860000000001
 21
7.258809972555459
 31
0.0
  0
LINE
  5
9E
330
1E
100
AcDbEntity
  8
0
100
AcDbLine
 10
55.866
 20
10.11231432168019
 30
0.0
 11
56.86600000000001
 21
10.84428552024119
 31
0.0
  0
LINE
  5
9F
330
1E
100
AcDbEntity
  8
0
100
AcDbLine
 10
125.866
 20
10.53493048713119
 30
0.0
 11
125.866
 21
12.3475480162305
 31
0.0
  0
LINE
  5
A0
330
1E
100
AcDbEntity
  8
0
100
AcDbLine
 10
123.134
 20
10.84428552024119
 30
0.0
 11
123.134
 21
12.65690304934059
 31
0.0
  0
LINE
  5
A1
330
1E
100
AcDbEntity
  8
0
100
AcDbLine
 10
123.134
 20
10.84428552024119
 30
0.0
 11
124.134
 21
10.11231432168019
 31
0.0
  0
LINE
  5
A2
330
1E
100
AcDbEntity
  8
0
100
AcDbLine
 10
123.134
 20
10.84428552024119
 30
0.0
 11
124.866
 21
11.26690168569219
 31
0.0
  0
LINE
  5
A3
330
1E
100
AcDbEntity
  8
0
100
AcDbLine
 10
56.86600000000001
 20
10.84428552024119
 30
0.0
 11
56.86600000000001
 21
12.65690304934059
 31
0.0
  0
LINE
  5
A4
330
1E
100
AcDbEntity
  8
0
100
AcDbLine
 10
54.13399999999999
 20
10.53493048713119
 30
0.0
 11
54.13399999999999
 21
12.3475480162305
 31
0.0
  0
LINE
  5
A5
330
1E
100
AcDbEntity
  8
0
100
AcDbLine
 10
54.13399999999999
 20
10.53493048713119
 30
0.0
 11
55.13399999999999
 21
11.26690168569219
 31
0.0
  0
LINE
  5
A6
330
1E
100
AcDbEntity
  8
0
100
AcDbLine
 10
54.13399999999999
 20
10.53493048713119
 30
0.0
 11
55.866
 21
10.11231432168019
 31
0.0
  0
LINE
  5
A7
330
1E
100
AcDbEntity
  8
0
100
AcDbLine
 10
32.0172
 20
10.8413272070831
 30
0.0
 11
32.0172
 21
12.6539447361824
 31
0.0
  0
LINE
  5
A8
330
1E
100
AcDbEntity
  8
0
100
AcDbLine
 10
30.603
 20
10.24374794913549
 30
0.0
 11
32.0172
 21
10.8413272070831
 31
0.0
  0
LINE
  5
A9
330
1E
100
AcDbEntity
  8
0
100
AcDbLine
 10
29.1888
 20
10.8413272070831
 30
0.0
 11
29.1888
 21
12.6539447361824
 31
0.0
  0
LINE
  5
AA
330
1E
100
AcDbEntity
  8
0
100
AcDbLine
 10
29.1888
 20
10.8413272070831
 30
0.0
 11
30.603
 21
11.4389064650307
 31
0.0
  0
LINE
  5
AB
330
1E
100
AcDbEntity
  8
0
100
AcDbLine
 10
29.1888
 20
10.8413272070831
 30
0.0
 11
30.603
 21
10.24374794913549
 31
0.0
  0
LINE
  5
AC
330
1E
100
AcDbEntity
  8
0
100
AcDbLine
 10
45.8
 20
5.1723707592044
 30
0.0
 11
46.86848357813469
 21
4.987931399394269
 31
0.0
  0
LINE
  5
AD
330
1E
100
AcDbEntity
  8
0
100
AcDbLine
 10
45.8
 20
5.1723707592044
 30
0.0
 11
46.86848357813469
 21
4.987931399394269
 31
0.0
  0
LINE
  5
AE
330
1E
100
AcDbEntity
  8
0
100
AcDbLine
 10
27.2
 20
11.2157819251529
 30
0.0
 11
45.8
 21
5.1723707592044
 31
0.0
  0
LINE
  5
AF
330
1E
100
AcDbEntity
  8
0
100
AcDbLine
 10
133.131516421865
 20
4.987931399394279
 30
0.0
 11
134.1999999999999
 21
5.1723707592044
 31
0.0
  0
LINE
  5
B0
330
1E
100
AcDbEntity
  8
0
100
AcDbLine
 10
133.366
 20
6.857764027022759
 30
0.0
 11
133.366
 21
5.045146497923429
 31
0.0
  0
LINE
  5
B1
330
1E
100
AcDbEntity
  8
0
100
AcDbLine
 10
133.366
 20
5.045146497923429
 30
0.0
 11
133.366
 21
6.857764027022759
 31
0.0
  0
LINE
  5
B2
330
1E
100
AcDbEntity
  8
0
100
AcDbLine
 10
133.131516421865
 20
4.987931399394279
 30
0.0
 11
134.1999999999999
 21
5.1723707592044
 31
0.0
  0
LINE
  5
B3
330
1E
100
AcDbEntity
  8
0
100
AcDbLine
 10
112.966
 20
1.50700289922729
 30
0.0
 11
131.515821508831
 21
4.70903358429753
 31
0.0
  0
LINE
  5
B4
330
1E
100
AcDbEntity
  8
0
100
AcDbLine
 10
147.9829999999999
 20
10.8413272070831
 30
0.0
 11
147.9829999999999
 21
12.6539447361824
 31
0.0
  0
LINE
  5
B5
330
1E
100
AcDbEntity
  8
0
100
AcDbLine
 10
147.9829999999999
 20
10.8413272070831
 30
0.0
 11
149.397
 21
10.24374794913549
 31
0.0
  0
LINE
  5
B6
330
1E
100
AcDbEntity
  8
0
100
AcDbLine
 10
147.9829999999999
 20
10.8413272070831
 30
0.0
 11
149.397
 21
11.4389064650307
 31
0.0
  0
LINE
  5
B7
330
1E
100
AcDbEntity
  8
0
100
AcDbLine
 10
149.397
 20
10.24374794913549
 30
0.0
 11
150.811
 21
10.8413272070831
 31
0.0
  0
LINE
  5
B8
330
1E
100
AcDbEntity
  8
0
100
AcDbLine
 10
150.811
 20
10.8413272070831
 30
0.0
 11
150.811
 21
12.6539447361824
 31
0.0
  0
LINE
  5
B9
330
1E
100
AcDbEntity
  8
0
100
AcDbLine
 10
134.1999999999999
 20
5.1723707592044
 30
0.0
 11
152.8
 21
11.2157819251529
 31
0.0
  0
LINE
  5
BA
330
1E
100
AcDbEntity
  8
0
100
AcDbLine
 10
18.6199
 20
18.03890312087809
 30
0.0
 11
18.6199
 21
19.85152064997739
 31
0.0
  0
LINE
  5
BB
330
1E
100
AcDbEntity
  8
0
100
AcDbLine
 10
16.88779999999999
 20
17.6162869554272
 30
0.0
 11
18.6199
 21
18.03890312087809
 31
0.0
  0
LINE
  5
BC
330
1E
100
AcDbEntity
  8
0
100
AcDbLine
 10
17.6199
 20
18.7708743194391
 30
0.0
 11
18.6199
 21
18.03890312087809
 31
0.0
  0
LINE
  5
BD
330
1E
100
AcDbEntity
  8
0
100
AcDbLine
 10
17.6199
 20
18.7708743194391
 30
0.0
 11
17.6199
 21
20.5834918485385
 31
0.0
  0
LINE
  5
BE
330
1E
100
AcDbEntity
  8
0
100
AcDbLine
 10
15.8878
 20
18.34825815398819
 30
0.0
 11
15.8878
 21
20.1608756830875
 31
0.0
  0
LINE
  5
BF
330
1E
100
AcDbEntity
  8
0
100
AcDbLine
 10
15.8878
 20
18.34825815398819
 30
0.0
 11
17.6199
 21
18.7708743194391
 31
0.0
  0
LINE
  5
C0
330
1E
100
AcDbEntity
  8
0
100
AcDbLine
 10
15.8878
 20
18.34825815398819
 30
0.0
 11
16.88779999999999
 21
17.6162869554272
 31
0.0
  0
LINE
  5
C1
330
1E
100
AcDbEntity
  8
0
100
AcDbLine
 10
124.866
 20
11.26690168569219
 30
0.0
 11
125.866
 21
10.53493048713119
 31
0.0
  0
LINE
  5
C2
330
1E
100
AcDbEntity
  8
0
100
AcDbLine
 10
124.866
 20
11.26690168569219
 30
0.0
 11
124.866
 21
13.0795192147915
 31
0.0
  0
LINE
  5
C3
330
1E
100
AcDbEntity
  8
0
100
AcDbLine
 10
147.9829999999999
 20
12.6539447361824
 30
0.0
 11
147.9829999999999
 21
10.8413272070831
 31
0.0
  0
LINE
  5
C4
330
1E
100
AcDbEntity
  8
0
100
AcDbLine
 10
147.9829999999999
 20
12.6539447361824
 30
0.0
 11
149.397
 21
13.25152399413009
 31
0.0
  0
LINE
  5
C5
330
1E
100
AcDbEntity
  8
0
100
AcDbLine
 10
150.811
 20
12.6539447361824
 30
0.0
 11
150.811
 21
10.8413272070831
 31
0.0
  0
LINE
  5
C6
330
1E
100
AcDbEntity
  8
0
100
AcDbLine
 10
149.397
 20
11.4389064650307
 30
0.0
 11
150.811
 21
10.8413272070831
 31
0.0
  0
LINE
  5
C7
330
1E
100
AcDbEntity
  8
0
100
AcDbLine
 10
149.397
 20
11.4389064650307
 30
0.0
 11
149.397
 21
13.25152399413009
 31
0.0
  0
LINE
  5
C8
330
1E
100
AcDbEntity
  8
0
100
AcDbLine
 10
125.866
 20
12.3475480162305
 30
0.0
 11
125.866
 21
10.53493048713119
 31
0.0
  0
LINE
  5
C9
330
1E
100
AcDbEntity
  8
0
100
AcDbLine
 10
55.13399999999999
 20
11.26690168569219
 30
0.0
 11
56.86600000000001
 21
10.84428552024119
 31
0.0
  0
LINE
  5
CA
330
1E
100
AcDbEntity
  8
0
100
AcDbLine
 10
55.13399999999999
 20
11.26690168569219
 30
0.0
 11
55.13399999999999
 21
13.0795192147915
 31
0.0
  0
LINE
  5
CB
330
1E
100
AcDbEntity
  8
0
100
AcDbLine
 10
54.13399999999999
 20
12.3475480162305
 30
0.0
 11
55.13399999999999
 21
13.0795192147915
 31
0.0
  0
LINE
  5
CC
330
1E
100
AcDbEntity
  8
0
100
AcDbLine
 10
54.13399999999999
 20
12.3475480162305
 30
0.0
 11
54.13399999999999
 21
10.53493048713119
 31
0.0
  0
LINE
  5
CD
330
1E
100
AcDbEntity
  8
0
100
AcDbLine
 10
123.134
 20
12.65690304934059
 30
0.0
 11
123.134
 21
10.84428552024119
 31
0.0
  0
LINE
  5
CE
330
1E
100
AcDbEntity
  8
0
100
AcDbLine
 10
123.134
 20
12.65690304934059
 30
0.0
 11
124.866
 21
13.0795192147915
 31
0.0
  0
LINE
  5
CF
330
1E
100
AcDbEntity
  8
0
100
AcDbLine
 10
149.397
 20
13.25152399413009
 30
0.0
 11
149.397
 21
11.4389064650307
 31
0.0
  0
LINE
  5
D0
330
1E
100
AcDbEntity
  8
0
100
AcDbLine
 10
149.397
 20
13.25152399413009
 30
0.0
 11
150.811
 21
12.6539447361824
 31
0.0
  0
LINE
  5
D1
330
1E
100
AcDbEntity
  8
0
100
AcDbLine
 10
124.866
 20
13.0795192147915
 30
0.0
 11
124.866
 21
11.26690168569219
 31
0.0
  0
LINE
  5
D2
330
1E
100
AcDbEntity
  8
0
100
AcDbLine
 10
124.866
 20
13.0795192147915
 30
0.0
 11
125.866
 21
12.3475480162305
 31
0.0
  0
LINE
  5
D3
330
1E
100
AcDbEntity
  8
0
100
AcDbLine
 10
91.0
 20
12.69957048657089
 30
0.0
 11
91.0
 21
13.5448028174728
 31
0.0
  0
LINE
  5
D4
330
1E
100
AcDbEntity
  8
0
100
AcDbLine
 10
89.0
 20
12.69957048657089
 30
0.0
 11
89.0
 21
14.51218801567019
 31
0.0
  0
LINE
  5
D5
330
1E
100
AcDbEntity
  8
0
100
AcDbLine
 10
89.0
 20
12.69957048657089
 30
0.0
 11
91.0
 21
12.69957048657089
 31
0.0
  0
LINE
  5
D6
330
1E
100
AcDbEntity
  8
0
100
AcDbLine
 10
89.0
 20
12.69957048657089
 30
0.0
 11
89.0
 21
13.5448028174728
 31
0.0
  0
LINE
  5
D7
330
1E
100
AcDbEntity
  8
0
100
AcDbLine
 10
56.86600000000001
 20
12.65690304934059
 30
0.0
 11
56.86600000000001
 21
10.84428552024119
 31
0.0
  0
LINE
  5
D8
330
1E
100
AcDbEntity
  8
0
100
AcDbLine
 10
55.13399999999999
 20
13.0795192147915
 30
0.0
 11
55.13399999999999
 21
11.26690168569219
 31
0.0
  0
LINE
  5
D9
330
1E
100
AcDbEntity
  8
0
100
AcDbLine
 10
55.13399999999999
 20
13.0795192147915
 30
0.0
 11
56.86600000000001
 21
12.65690304934059
 31
0.0
  0
LINE
  5
DA
330
1E
100
AcDbEntity
  8
0
100
AcDbLine
 10
32.0172
 20
12.6539447361824
 30
0.0
 11
32.0172
 21
10.8413272070831
 31
0.0
  0
LINE
  5
DB
330
1E
100
AcDbEntity
  8
0
100
AcDbLine
 10
30.603
 20
11.4389064650307
 30
0.0
 11
32.0172
 21
10.8413272070831
 31
0.0
  0
LINE
  5
DC
330
1E
100
AcDbEntity
  8
0
100
AcDbLine
 10
30.603
 20
11.4389064650307
 30
0.0
 11
30.603
 21
13.25152399413009
 31
0.0
  0
LINE
  5
DD
330
1E
100
AcDbEntity
  8
0
100
AcDbLine
 10
39.7954
 20
15.3240168740212
 30
0.0
 11
39.7954
 21
17.1366344031206
 31
0.0
  0
LINE
  5
DE
330
1E
100
AcDbEntity
  8
0
100
AcDbLine
 10
39.7954
 20
15.3240168740212
 30
0.0
 11
41.2096
 21
15.9215961319689
 31
0.0
  0
LINE
  5
DF
330
1E
100
AcDbEntity
  8
0
100
AcDbLine
 10
39.7954
 20
15.3240168740212
 30
0.0
 11
41.2096
 21
14.7260149999082
 31
0.0
  0
LINE
  5
E0
330
1E
100
AcDbEntity
  8
0
100
AcDbLine
 10
41.2096
 20
15.9215961319689
 30
0.0
 11
42.6238
 21
15.3240168740212
 31
0.0
  0
LINE
  5
E1
330
1E
100
AcDbEntity
  8
0
100
AcDbLine
 10
41.2096
 20
15.9215961319689
 30
0.0
 11
41.2096
 21
17.7342136610682
 31
0.0
  0
LINE
  5
E2
330
1E
100
AcDbEntity
  8
0
100
AcDbLine
 10
103.2689999999999
 20
13.38209559377419
 30
0.0
 11
105.201
 21
13.60101076747769
 31
0.0
  0
LINE
  5
E3
330
1E
100
AcDbEntity
  8
0
100
AcDbLine
 10
75.3167
 20
14.417505199129
 30
0.0
 11
77.2485
 21
14.1985900254254
 31
0.0
  0
LINE
  5
E4
330
1E
100
AcDbEntity
  8
0
100
AcDbLine
 10
75.3167
 20
14.417505199129
 30
0.0
 11
75.3167
 21
16.2301227282283
 31
0.0
  0
LINE
  5
E5
330
1E
100
AcDbEntity
  8
0
100
AcDbLine
 10
91.0
 20
13.5448028174728
 30
0.0
 11
91.0
 21
15.35742034657209
 31
0.0
  0
LINE
  5
E6
330
1E
100
AcDbEntity
  8
0
100
AcDbLine
 10
91.0
 20
13.5448028174728
 30
0.0
 11
91.0
 21
12.69957048657089
 31
0.0
  0
LINE
  5
E7
330
1E
100
AcDbEntity
  8
0
100
AcDbLine
 10
102.751
 20
14.1985900254254
 30
0.0
 11
103.2689999999999
 21
13.38209559377419
 31
0.0
  0
LINE
  5
E8
330
1E
100
AcDbEntity
  8
0
100
AcDbLine
 10
102.751
 20
14.1985900254254
 30
0.0
 11
102.751
 21
16.0112075545247
 31
0.0
  0
LINE
  5
E9
330
1E
100
AcDbEntity
  8
0
100
AcDbLine
 10
102.751
 20
14.1985900254254
 30
0.0
 11
104.6829999999999
 21
14.417505199129
 31
0.0
  0
LINE
  5
EA
330
1E
100
AcDbEntity
  8
0
100
AcDbLine
 10
137.376
 20
15.3240168740212
 30
0.0
 11
137.376
 21
17.1366344031206
 31
0.0
  0
LINE
  5
EB
330
1E
100
AcDbEntity
  8
0
100
AcDbLine
 10
137.376
 20
15.3240168740212
 30
0.0
 11
138.7899999999999
 21
14.7260149999082
 31
0.0
  0
LINE
  5
EC
330
1E
100
AcDbEntity
  8
0
100
AcDbLine
 10
137.376
 20
15.3240168740212
 30
0.0
 11
138.7899999999999
 21
15.9215961319689
 31
0.0
  0
LINE
  5
ED
330
1E
100
AcDbEntity
  8
0
100
AcDbLine
 10
138.7899999999999
 20
14.7260149999082
 30
0.0
 11
140.205
 21
15.3240168740212
 31
0.0
  0
LINE
  5
EE
330
1E
100
AcDbEntity
  8
0
100
AcDbLine
 10
140.205
 20
15.3240168740212
 30
0.0
 11
140.205
 21
17.1366344031206
 31
0.0
  0
LINE
  5
EF
330
1E
100
AcDbEntity
  8
0
100
AcDbLine
 10
104.6829999999999
 20
14.417505199129
 30
0.0
 11
105.201
 21
13.60101076747769
 31
0.0
  0
LINE
  5
F0
330
1E
100
AcDbEntity
  8
0
100
AcDbLine
 10
104.6829999999999
 20
14.417505199129
 30
0.0
 11
104.6829999999999
 21
16.2301227282283
 31
0.0
  0
LINE
  5
F1
330
1E
100
AcDbEntity
  8
0
100
AcDbLine
 10
105.201
 20
13.60101076747769
 30
0.0
 11
105.201
 21
15.41362829657709
 31
0.0
  0
LINE
  5
F2
330
1E
100
AcDbEntity
  8
0
100
AcDbLine
 10
89.0
 20
14.51218801567019
 30
0.0
 11
89.0
 21
15.35742034657209
 31
0.0
  0
LINE
  5
F3
330
1E
100
AcDbEntity
  8
0
100
AcDbLine
 10
89.0
 20
14.51218801567019
 30
0.0
 11
89.0
 21
12.69957048657089
 31
0.0
  0
LINE
  5
F4
330
1E
100
AcDbEntity
  8
0
100
AcDbLine
 10
89.0
 20
13.5448028174728
 30
0.0
 11
89.0
 21
12.69957048657089
 31
0.0
  0
LINE
  5
F5
330
1E
100
AcDbEntity
  8
0
100
AcDbLine
 10
89.0
 20
13.5448028174728
 30
0.0
 11
91.0
 21
13.5448028174728
 31
0.0
  0
LINE
  5
F6
330
1E
100
AcDbEntity
  8
0
100
AcDbLine
 10
89.0
 20
13.5448028174728
 30
0.0
 11
89.0
 21
15.35742034657209
 31
0.0
  0
LINE
  5
F7
330
1E
100
AcDbEntity
  8
0
100
AcDbLine
 10
77.2485
 20
14.1985900254254
 30
0.0
 11
77.2485
 21
16.0112075545247
 31
0.0
  0
LINE
  5
F8
330
1E
100
AcDbEntity
  8
0
100
AcDbLine
 10
76.73090000000001
 20
13.38209559377419
 30
0.0
 11
77.2485
 21
14.1985900254254
 31
0.0
  0
LINE
  5
F9
330
1E
100
AcDbEntity
  8
0
100
AcDbLine
 10
74.79899999999999
 20
13.60101076747769
 30
0.0
 11
74.79899999999999
 21
15.41362829657709
 31
0.0
  0
LINE
  5
FA
330
1E
100
AcDbEntity
  8
0
100
AcDbLine
 10
74.79899999999999
 20
13.60101076747769
 30
0.0
 11
75.3167
 21
14.417505199129
 31
0.0
  0
LINE
  5
FB
330
1E
100
AcDbEntity
  8
0
100
AcDbLine
 10
74.79899999999999
 20
13.60101076747769
 30
0.0
 11
76.73090000000001
 21
13.38209559377419
 31
0.0
  0
LINE
  5
FC
330
1E
100
AcDbEntity
  8
0
100
AcDbLine
 10
105.201
 20
15.41362829657709
 30
0.0
 11
105.201
 21
13.60101076747769
 31
0.0
  0
LINE
  5
FD
330
1E
100
AcDbEntity
  8
0
100
AcDbLine
 10
91.0
 20
15.35742034657209
 30
0.0
 11
91.0
 21
13.5448028174728
 31
0.0
  0
LINE
  5
FE
330
1E
100
AcDbEntity
  8
0
100
AcDbLine
 10
89.0
 20
15.35742034657209
 30
0.0
 11
89.0
 21
13.5448028174728
 31
0.0
  0
LINE
  5
FF
330
1E
100
AcDbEntity
  8
0
100
AcDbLine
 10
89.0
 20
15.35742034657209
 30
0.0
 11
91.0
 21
15.35742034657209
 31
0.0
  0
LINE
  5
100
330
1E
100
AcDbEntity
  8
0
100
AcDbLine
 10
89.0
 20
15.35742034657209
 30
0.0
 11
89.0
 21
14.51218801567019
 31
0.0
  0
LINE
  5
101
330
1E
100
AcDbEntity
  8
0
100
AcDbLine
 10
138.7899999999999
 20
15.9215961319689
 30
0.0
 11
140.205
 21
15.3240168740212
 31
0.0
  0
LINE
  5
102
330
1E
100
AcDbEntity
  8
0
100
AcDbLine
 10
138.7899999999999
 20
15.9215961319689
 30
0.0
 11
138.7899999999999
 21
17.7342136610682
 31
0.0
  0
LINE
  5
103
330
1E
100
AcDbEntity
  8
0
100
AcDbLine
 10
116.6339999999999
 20
15.6025209270534
 30
0.0
 11
118.3659999999999
 21
16.0251370925044
 31
0.0
  0
LINE
  5
104
330
1E
100
AcDbEntity
  8
0
100
AcDbLine
 10
118.3659999999999
 20
16.0251370925044
 30
0.0
 11
118.3659999999999
 21
17.8377546216037
 31
0.0
  0
LINE
  5
105
330
1E
100
AcDbEntity
  8
0
100
AcDbLine
 10
102.751
 20
16.0112075545247
 30
0.0
 11
102.751
 21
14.1985900254254
 31
0.0
  0
LINE
  5
106
330
1E
100
AcDbEntity
  8
0
100
AcDbLine
 10
102.751
 20
16.0112075545247
 30
0.0
 11
104.6829999999999
 21
16.2301227282283
 31
0.0
  0
LINE
  5
107
330
1E
100
AcDbEntity
  8
0
100
AcDbLine
 10
77.2485
 20
16.0112075545247
 30
0.0
 11
77.2485
 21
14.1985900254254
 31
0.0
  0
LINE
  5
108
330
1E
100
AcDbEntity
  8
0
100
AcDbLine
 10
74.79899999999999
 20
15.41362829657709
 30
0.0
 11
75.3167
 21
16.2301227282283
 31
0.0
  0
LINE
  5
109
330
1E
100
AcDbEntity
  8
0
100
AcDbLine
 10
74.79899999999999
 20
15.41362829657709
 30
0.0
 11
74.79899999999999
 21
13.60101076747769
 31
0.0
  0
LINE
  5
10A
330
1E
100
AcDbEntity
  8
0
100
AcDbLine
 10
63.366
 20
15.6025209270534
 30
0.0
 11
64.366
 21
16.3344921256144
 31
0.0
  0
LINE
  5
10B
330
1E
100
AcDbEntity
  8
0
100
AcDbLine
 10
62.63399999999999
 20
16.7571082910654
 30
0.0
 11
64.366
 21
16.3344921256144
 31
0.0
  0
LINE
  5
10C
330
1E
100
AcDbEntity
  8
0
100
AcDbLine
 10
62.63399999999999
 20
16.7571082910654
 30
0.0
 11
62.63399999999999
 21
18.56972582016469
 31
0.0
  0
LINE
  5
10D
330
1E
100
AcDbEntity
  8
0
100
AcDbLine
 10
104.6829999999999
 20
16.2301227282283
 30
0.0
 11
104.6829999999999
 21
14.417505199129
 31
0.0
  0
LINE
  5
10E
330
1E
100
AcDbEntity
  8
0
100
AcDbLine
 10
104.6829999999999
 20
16.2301227282283
 30
0.0
 11
105.201
 21
15.41362829657709
 31
0.0
  0
LINE
  5
10F
330
1E
100
AcDbEntity
  8
0
100
AcDbLine
 10
115.6339999999999
 20
16.3344921256144
 30
0.0
 11
115.6339999999999
 21
18.14710965471379
 31
0.0
  0
LINE
  5
110
330
1E
100
AcDbEntity
  8
0
100
AcDbLine
 10
115.6339999999999
 20
16.3344921256144
 30
0.0
 11
116.6339999999999
 21
15.6025209270534
 31
0.0
  0
LINE
  5
111
330
1E
100
AcDbEntity
  8
0
100
AcDbLine
 10
115.6339999999999
 20
16.3344921256144
 30
0.0
 11
117.3659999999999
 21
16.7571082910654
 31
0.0
  0
LINE
  5
112
330
1E
100
AcDbEntity
  8
0
100
AcDbLine
 10
137.376
 20
17.1366344031206
 30
0.0
 11
137.376
 21
15.3240168740212
 31
0.0
  0
LINE
  5
113
330
1E
100
AcDbEntity
  8
0
100
AcDbLine
 10
137.376
 20
17.1366344031206
 30
0.0
 11
138.7899999999999
 21
17.7342136610682
 31
0.0
  0
LINE
  5
114
330
1E
100
AcDbEntity
  8
0
100
AcDbLine
 10
140.205
 20
17.1366344031206
 30
0.0
 11
140.205
 21
15.3240168740212
 31
0.0
  0
LINE
  5
115
330
1E
100
AcDbEntity
  8
0
100
AcDbLine
 10
138.7899999999999
 20
17.7342136610682
 30
0.0
 11
138.7899999999999
 21
15.9215961319689
 31
0.0
  0
LINE
  5
116
330
1E
100
AcDbEntity
  8
0
100
AcDbLine
 10
138.7899999999999
 20
17.7342136610682
 30
0.0
 11
140.205
 21
17.1366344031206
 31
0.0
  0
LINE
  5
117
330
1E
100
AcDbEntity
  8
0
100
AcDbLine
 10
117.3659999999999
 20
16.7571082910654
 30
0.0
 11
118.3659999999999
 21
16.0251370925044
 31
0.0
  0
LINE
  5
118
330
1E
100
AcDbEntity
  8
0
100
AcDbLine
 10
117.3659999999999
 20
16.7571082910654
 30
0.0
 11
117.3659999999999
 21
18.56972582016469
 31
0.0
  0
LINE
  5
119
330
1E
100
AcDbEntity
  8
0
100
AcDbLine
 10
163.1119999999999
 20
17.6162869554272
 30
0.0
 11
164.1119999999999
 21
18.34825815398819
 31
0.0
  0
LINE
  5
11A
330
1E
100
AcDbEntity
  8
0
100
AcDbLine
 10
75.3167
 20
16.2301227282283
 30
0.0
 11
75.3167
 21
14.417505199129
 31
0.0
  0
LINE
  5
11B
330
1E
100
AcDbEntity
  8
0
100
AcDbLine
 10
75.3167
 20
16.2301227282283
 30
0.0
 11
77.2485
 21
16.0112075545247
 31
0.0
  0
LINE
  5
11C
330
1E
100
AcDbEntity
  8
0
100
AcDbLine
 10
64.366
 20
16.3344921256144
 30
0.0
 11
64.366
 21
18.14710965471379
 31
0.0
  0
LINE
  5
11D
330
1E
100
AcDbEntity
  8
0
100
AcDbLine
 10
61.63399999999999
 20
16.0251370925044
 30
0.0
 11
61.63399999999999
 21
17.8377546216037
 31
0.0
  0
LINE
  5
11E
330
1E
100
AcDbEntity
  8
0
100
AcDbLine
 10
61.63399999999999
 20
16.0251370925044
 30
0.0
 11
62.63399999999999
 21
16.7571082910654
 31
0.0
  0
LINE
  5
11F
330
1E
100
AcDbEntity
  8
0
100
AcDbLine
 10
61.63399999999999
 20
16.0251370925044
 30
0.0
 11
63.366
 21
15.6025209270534
 31
0.0
  0
LINE
  5
120
330
1E
100
AcDbEntity
  8
0
100
AcDbLine
 10
42.6238
 20
17.1366344031206
 30
0.0
 11
42.6238
 21
15.3240168740212
 31
0.0
  0
LINE
  5
121
330
1E
100
AcDbEntity
  8
0
100
AcDbLine
 10
42.6238
 20
15.3240168740212
 30
0.0
 11
42.6238
 21
17.1366344031206
 31
0.0
  0
LINE
  5
122
330
1E
100
AcDbEntity
  8
0
100
AcDbLine
 10
41.2096
 20
14.7260149999082
 30
0.0
 11
42.6238
 21
15.3240168740212
 31
0.0
  0
LINE
  5
123
330
1E
100
AcDbEntity
  8
0
100
AcDbLine
 10
115.6339999999999
 20
18.14710965471379
 30
0.0
 11
115.6339999999999
 21
16.3344921256144
 31
0.0
  0
LINE
  5
124
330
1E
100
AcDbEntity
  8
0
100
AcDbLine
 10
115.6339999999999
 20
18.14710965471379
 30
0.0
 11
117.3659999999999
 21
18.56972582016469
 31
0.0
  0
LINE
  5
125
330
1E
100
AcDbEntity
  8
0
100
AcDbLine
 10
118.3659999999999
 20
17.8377546216037
 30
0.0
 11
118.3659999999999
 21
16.0251370925044
 31
0.0
  0
LINE
  5
126
330
1E
100
AcDbEntity
  8
0
100
AcDbLine
 10
161.3799999999999
 20
18.03890312087809
 30
0.0
 11
161.3799999999999
 21
19.85152064997739
 31
0.0
  0
LINE
  5
127
330
1E
100
AcDbEntity
  8
0
100
AcDbLine
 10
161.3799999999999
 20
18.03890312087809
 30
0.0
 11
163.1119999999999
 21
17.6162869554272
 31
0.0
  0
LINE
  5
128
330
1E
100
AcDbEntity
  8
0
100
AcDbLine
 10
161.3799999999999
 20
18.03890312087809
 30
0.0
 11
162.3799999999999
 21
18.7708743194391
 31
0.0
  0
LINE
  5
129
330
1E
100
AcDbEntity
  8
0
100
AcDbLine
 10
117.3659999999999
 20
18.56972582016469
 30
0.0
 11
117.3659999999999
 21
16.7571082910654
 31
0.0
  0
LINE
  5
12A
330
1E
100
AcDbEntity
  8
0
100
AcDbLine
 10
117.3659999999999
 20
18.56972582016469
 30
0.0
 11
118.3659999999999
 21
17.8377546216037
 31
0.0
  0
LINE
  5
12B
330
1E
100
AcDbEntity
  8
0
100
AcDbLine
 10
164.1119999999999
 20
18.34825815398819
 30
0.0
 11
164.1119999999999
 21
20.1608756830875
 31
0.0
  0
LINE
  5
12C
330
1E
100
AcDbEntity
  8
0
100
AcDbLine
 10
64.366
 20
18.14710965471379
 30
0.0
 11
64.366
 21
16.3344921256144
 31
0.0
  0
LINE
  5
12D
330
1E
100
AcDbEntity
  8
0
100
AcDbLine
 10
162.3799999999999
 20
18.7708743194391
 30
0.0
 11
164.1119999999999
 21
18.34825815398819
 31
0.0
  0
LINE
  5
12E
330
1E
100
AcDbEntity
  8
0
100
AcDbLine
 10
162.3799999999999
 20
18.7708743194391
 30
0.0
 11
162.3799999999999
 21
20.5834918485385
 31
0.0
  0
LINE
  5
12F
330
1E
100
AcDbEntity
  8
0
100
AcDbLine
 10
91.0
 20
19.03881296833499
 30
0.0
 11
91.0
 21
19.88404529923689
 31
0.0
  0
LINE
  5
130
330
1E
100
AcDbEntity
  8
0
100
AcDbLine
 10
89.0
 20
19.03881296833499
 30
0.0
 11
89.0
 21
20.8514304974344
 31
0.0
  0
LINE
  5
131
330
1E
100
AcDbEntity
  8
0
100
AcDbLine
 10
89.0
 20
19.03881296833499
 30
0.0
 11
91.0
 21
19.03881296833499
 31
0.0
  0
LINE
  5
132
330
1E
100
AcDbEntity
  8
0
100
AcDbLine
 10
89.0
 20
19.03881296833499
 30
0.0
 11
89.0
 21
19.88404529923689
 31
0.0
  0
LINE
  5
133
330
1E
100
AcDbEntity
  8
0
100
AcDbLine
 10
62.63399999999999
 20
18.56972582016469
 30
0.0
 11
62.63399999999999
 21
16.7571082910654
 31
0.0
  0
LINE
  5
134
330
1E
100
AcDbEntity
  8
0
100
AcDbLine
 10
62.63399999999999
 20
18.56972582016469
 30
0.0
 11
64.366
 21
18.14710965471379
 31
0.0
  0
LINE
  5
135
330
1E
100
AcDbEntity
  8
0
100
AcDbLine
 10
61.63399999999999
 20
17.8377546216037
 30
0.0
 11
62.63399999999999
 21
18.56972582016469
 31
0.0
  0
LINE
  5
136
330
1E
100
AcDbEntity
  8
0
100
AcDbLine
 10
61.63399999999999
 20
17.8377546216037
 30
0.0
 11
61.63399999999999
 21
16.0251370925044
 31
0.0
  0
LINE
  5
137
330
1E
100
AcDbEntity
  8
0
100
AcDbLine
 10
41.2096
 20
17.7342136610682
 30
0.0
 11
41.2096
 21
15.9215961319689
 31
0.0
  0
LINE
  5
138
330
1E
100
AcDbEntity
  8
0
100
AcDbLine
 10
41.2096
 20
17.7342136610682
 30
0.0
 11
42.6238
 21
17.1366344031206
 31
0.0
  0
LINE
  5
139
330
1E
100
AcDbEntity
  8
0
100
AcDbLine
 10
39.7954
 20
17.1366344031206
 30
0.0
 11
41.2096
 21
17.7342136610682
 31
0.0
  0
LINE
  5
13A
330
1E
100
AcDbEntity
  8
0
100
AcDbLine
 10
39.7954
 20
17.1366344031206
 30
0.0
 11
39.7954
 21
15.3240168740212
 31
0.0
  0
LINE
  5
13B
330
1E
100
AcDbEntity
  8
0
100
AcDbLine
 10
30.603
 20
13.25152399413009
 30
0.0
 11
30.603
 21
11.4389064650307
 31
0.0
  0
LINE
  5
13C
330
1E
100
AcDbEntity
  8
0
100
AcDbLine
 10
30.603
 20
13.25152399413009
 30
0.0
 11
32.0172
 21
12.6539447361824
 31
0.0
  0
LINE
  5
13D
330
1E
100
AcDbEntity
  8
0
100
AcDbLine
 10
29.1888
 20
12.6539447361824
 30
0.0
 11
30.603
 21
13.25152399413009
 31
0.0
  0
LINE
  5
13E
330
1E
100
AcDbEntity
  8
0
100
AcDbLine
 10
29.1888
 20
12.6539447361824
 30
0.0
 11
29.1888
 21
10.8413272070831
 31
0.0
  0
LINE
  5
13F
330
1E
100
AcDbEntity
  8
0
100
AcDbLine
 10
10.08699999999999
 20
26.45657190433
 30
0.0
 11
10.08699999999999
 21
28.2691894334293
 31
0.0
  0
LINE
  5
140
330
1E
100
AcDbEntity
  8
0
100
AcDbLine
 10
8.15512
 20
26.23765673062639
 30
0.0
 11
10.08699999999999
 21
26.45657190433
 31
0.0
  0
LINE
  5
141
330
1E
100
AcDbEntity
  8
0
100
AcDbLine
 10
9.569339999999998
 20
27.2730663359812
 30
0.0
 11
10.08699999999999
 21
26.45657190433
 31
0.0
  0
LINE
  5
142
330
1E
100
AcDbEntity
  8
0
100
AcDbLine
 10
9.569339999999998
 20
27.2730663359812
 30
0.0
 11
9.569339999999998
 21
29.0856838650805
 31
0.0
  0
LINE
  5
143
330
1E
100
AcDbEntity
  8
0
100
AcDbLine
 10
7.637489999999999
 20
27.0541511622776
 30
0.0
 11
7.637489999999999
 21
28.8667686913769
 31
0.0
  0
LINE
  5
144
330
1E
100
AcDbEntity
  8
0
100
AcDbLine
 10
7.637489999999999
 20
27.0541511622776
 30
0.0
 11
9.569339999999998
 21
27.2730663359812
 31
0.0
  0
LINE
  5
145
330
1E
100
AcDbEntity
  8
0
100
AcDbLine
 10
7.637489999999999
 20
27.0541511622776
 30
0.0
 11
8.15512
 21
26.23765673062639
 31
0.0
  0
LINE
  5
146
330
1E
100
AcDbEntity
  8
0
100
AcDbLine
 10
18.6199
 20
19.85152064997739
 30
0.0
 11
18.6199
 21
18.03890312087809
 31
0.0
  0
LINE
  5
147
330
1E
100
AcDbEntity
  8
0
100
AcDbLine
 10
28.87819999999999
 20
21.5178793948703
 30
0.0
 11
28.87819999999999
 21
23.3304969239696
 31
0.0
  0
LINE
  5
148
330
1E
100
AcDbEntity
  8
0
100
AcDbLine
 10
28.87819999999999
 20
21.5178793948703
 30
0.0
 11
30.6103
 21
21.94049556032119
 31
0.0
  0
LINE
  5
149
330
1E
100
AcDbEntity
  8
0
100
AcDbLine
 10
28.87819999999999
 20
21.5178793948703
 30
0.0
 11
29.8782
 21
20.7859081963092
 31
0.0
  0
LINE
  5
14A
330
1E
100
AcDbEntity
  8
0
100
AcDbLine
 10
31.6103
 20
23.0211418908595
 30
0.0
 11
31.6103
 21
21.20852436176019
 31
0.0
  0
LINE
  5
14B
330
1E
100
AcDbEntity
  8
0
100
AcDbLine
 10
30.6103
 20
21.94049556032119
 30
0.0
 11
31.6103
 21
21.20852436176019
 31
0.0
  0
LINE
  5
14C
330
1E
100
AcDbEntity
  8
0
100
AcDbLine
 10
30.6103
 20
21.94049556032119
 30
0.0
 11
30.6103
 21
23.7531130894205
 31
0.0
  0
LINE
  5
14D
330
1E
100
AcDbEntity
  8
0
100
AcDbLine
 10
31.6103
 20
21.20852436176019
 30
0.0
 11
31.6103
 21
23.0211418908595
 31
0.0
  0
LINE
  5
14E
330
1E
100
AcDbEntity
  8
0
100
AcDbLine
 10
29.8782
 20
20.7859081963092
 30
0.0
 11
31.6103
 21
21.20852436176019
 31
0.0
  0
LINE
  5
14F
330
1E
100
AcDbEntity
  8
0
100
AcDbLine
 10
41.8686
 20
24.6875006357523
 30
0.0
 11
41.8686
 21
26.5001181648517
 31
0.0
  0
LINE
  5
150
330
1E
100
AcDbEntity
  8
0
100
AcDbLine
 10
41.8686
 20
24.6875006357523
 30
0.0
 11
43.6007
 21
25.11011680120329
 31
0.0
  0
LINE
  5
151
330
1E
100
AcDbEntity
  8
0
100
AcDbLine
 10
41.8686
 20
24.6875006357523
 30
0.0
 11
42.86859999999999
 21
23.9555294371913
 31
0.0
  0
LINE
  5
152
330
1E
100
AcDbEntity
  8
0
100
AcDbLine
 10
44.6007
 20
26.1907631317416
 30
0.0
 11
44.6007
 21
24.3781456026422
 31
0.0
  0
LINE
  5
153
330
1E
100
AcDbEntity
  8
0
100
AcDbLine
 10
43.6007
 20
25.11011680120329
 30
0.0
 11
44.6007
 21
24.3781456026422
 31
0.0
  0
LINE
  5
154
330
1E
100
AcDbEntity
  8
0
100
AcDbLine
 10
43.6007
 20
25.11011680120329
 30
0.0
 11
43.6007
 21
26.9227343303026
 31
0.0
  0
LINE
  5
155
330
1E
100
AcDbEntity
  8
0
100
AcDbLine
 10
44.6007
 20
24.3781456026422
 30
0.0
 11
44.6007
 21
26.1907631317416
 31
0.0
  0
LINE
  5
156
330
1E
100
AcDbEntity
  8
0
100
AcDbLine
 10
42.86859999999999
 20
23.9555294371913
 30
0.0
 11
44.6007
 21
24.3781456026422
 31
0.0
  0
LINE
  5
157
330
1E
100
AcDbEntity
  8
0
100
AcDbLine
 10
43.6007
 20
26.9227343303026
 30
0.0
 11
43.6007
 21
25.11011680120329
 31
0.0
  0
LINE
  5
158
330
1E
100
AcDbEntity
  8
0
100
AcDbLine
 10
43.6007
 20
26.9227343303026
 30
0.0
 11
44.6007
 21
26.1907631317416
 31
0.0
  0
LINE
  5
159
330
1E
100
AcDbEntity
  8
0
100
AcDbLine
 10
41.8686
 20
26.5001181648517
 30
0.0
 11
43.6007
 21
26.9227343303026
 31
0.0
  0
LINE
  5
15A
330
1E
100
AcDbEntity
  8
0
100
AcDbLine
 10
41.8686
 20
26.5001181648517
 30
0.0
 11
41.8686
 21
24.6875006357523
 31
0.0
  0
LINE
  5
15B
330
1E
100
AcDbEntity
  8
0
100
AcDbLine
 10
30.6103
 20
23.7531130894205
 30
0.0
 11
30.6103
 21
21.94049556032119
 31
0.0
  0
LINE
  5
15C
330
1E
100
AcDbEntity
  8
0
100
AcDbLine
 10
30.6103
 20
23.7531130894205
 30
0.0
 11
31.6103
 21
23.0211418908595
 31
0.0
  0
LINE
  5
15D
330
1E
100
AcDbEntity
  8
0
100
AcDbLine
 10
28.87819999999999
 20
23.3304969239696
 30
0.0
 11
30.6103
 21
23.7531130894205
 31
0.0
  0
LINE
  5
15E
330
1E
100
AcDbEntity
  8
0
100
AcDbLine
 10
28.87819999999999
 20
23.3304969239696
 30
0.0
 11
28.87819999999999
 21
21.5178793948703
 31
0.0
  0
LINE
  5
15F
330
1E
100
AcDbEntity
  8
0
100
AcDbLine
 10
17.6199
 20
20.5834918485385
 30
0.0
 11
17.6199
 21
18.7708743194391
 31
0.0
  0
LINE
  5
160
330
1E
100
AcDbEntity
  8
0
100
AcDbLine
 10
17.6199
 20
20.5834918485385
 30
0.0
 11
18.6199
 21
19.85152064997739
 31
0.0
  0
LINE
  5
161
330
1E
100
AcDbEntity
  8
0
100
AcDbLine
 10
15.8878
 20
20.1608756830875
 30
0.0
 11
17.6199
 21
20.5834918485385
 31
0.0
  0
LINE
  5
162
330
1E
100
AcDbEntity
  8
0
100
AcDbLine
 10
15.8878
 20
20.1608756830875
 30
0.0
 11
15.8878
 21
18.34825815398819
 31
0.0
  0
LINE
  5
163
330
1E
100
AcDbEntity
  8
0
100
AcDbLine
 10
50.402
 20
19.80628392479389
 30
0.0
 11
50.402
 21
21.61890145389329
 31
0.0
  0
LINE
  5
164
330
1E
100
AcDbEntity
  8
0
100
AcDbLine
 10
50.402
 20
19.80628392479389
 30
0.0
 11
51.8162
 21
20.4038631827416
 31
0.0
  0
LINE
  5
165
330
1E
100
AcDbEntity
  8
0
100
AcDbLine
 10
50.402
 20
19.80628392479389
 30
0.0
 11
51.8162
 21
19.2087046668463
 31
0.0
  0
LINE
  5
166
330
1E
100
AcDbEntity
  8
0
100
AcDbLine
 10
51.8162
 20
20.4038631827416
 30
0.0
 11
53.2304
 21
19.80628392479389
 31
0.0
  0
LINE
  5
167
330
1E
100
AcDbEntity
  8
0
100
AcDbLine
 10
51.8162
 20
20.4038631827416
 30
0.0
 11
51.8162
 21
22.21648071184089
 31
0.0
  0
LINE
  5
168
330
1E
100
AcDbEntity
  8
0
100
AcDbLine
 10
128.184
 20
19.2087046668463
 30
0.0
 11
129.5979999999999
 21
19.80628392479389
 31
0.0
  0
LINE
  5
169
330
1E
100
AcDbEntity
  8
0
100
AcDbLine
 10
99.38679999999999
 20
19.50538121499289
 30
0.0
 11
101.319
 21
19.72429638869639
 31
0.0
  0
LINE
  5
16A
330
1E
100
AcDbEntity
  8
0
100
AcDbLine
 10
126.77
 20
19.80628392479389
 30
0.0
 11
126.77
 21
21.61890145389329
 31
0.0
  0
LINE
  5
16B
330
1E
100
AcDbEntity
  8
0
100
AcDbLine
 10
126.77
 20
19.80628392479389
 30
0.0
 11
128.184
 21
19.2087046668463
 31
0.0
  0
LINE
  5
16C
330
1E
100
AcDbEntity
  8
0
100
AcDbLine
 10
126.77
 20
19.80628392479389
 30
0.0
 11
128.184
 21
20.4038631827416
 31
0.0
  0
LINE
  5
16D
330
1E
100
AcDbEntity
  8
0
100
AcDbLine
 10
129.5979999999999
 20
19.80628392479389
 30
0.0
 11
129.5979999999999
 21
21.61890145389329
 31
0.0
  0
LINE
  5
16E
330
1E
100
AcDbEntity
  8
0
100
AcDbLine
 10
101.319
 20
19.72429638869639
 30
0.0
 11
101.319
 21
21.5369139177958
 31
0.0
  0
LINE
  5
16F
330
1E
100
AcDbEntity
  8
0
100
AcDbLine
 10
80.6132
 20
19.50538121499289
 30
0.0
 11
81.1308
 21
20.3218756466441
 31
0.0
  0
LINE
  5
170
330
1E
100
AcDbEntity
  8
0
100
AcDbLine
 10
78.68129999999999
 20
19.72429638869639
 30
0.0
 11
78.68129999999999
 21
21.5369139177958
 31
0.0
  0
LINE
  5
171
330
1E
100
AcDbEntity
  8
0
100
AcDbLine
 10
78.68129999999999
 20
19.72429638869639
 30
0.0
 11
79.199
 21
20.54079082034769
 31
0.0
  0
LINE
  5
172
330
1E
100
AcDbEntity
  8
0
100
AcDbLine
 10
78.68129999999999
 20
19.72429638869639
 30
0.0
 11
80.6132
 21
19.50538121499289
 31
0.0
  0
LINE
  5
173
330
1E
100
AcDbEntity
  8
0
100
AcDbLine
 10
161.3799999999999
 20
19.85152064997739
 30
0.0
 11
161.3799999999999
 21
18.03890312087809
 31
0.0
  0
LINE
  5
174
330
1E
100
AcDbEntity
  8
0
100
AcDbLine
 10
161.3799999999999
 20
19.85152064997739
 30
0.0
 11
162.3799999999999
 21
20.5834918485385
 31
0.0
  0
LINE
  5
175
330
1E
100
AcDbEntity
  8
0
100
AcDbLine
 10
98.86920000000001
 20
20.3218756466441
 30
0.0
 11
99.38679999999999
 21
19.50538121499289
 31
0.0
  0
LINE
  5
176
330
1E
100
AcDbEntity
  8
0
100
AcDbLine
 10
98.86920000000001
 20
20.3218756466441
 30
0.0
 11
98.86920000000001
 21
22.13449317574339
 31
0.0
  0
LINE
  5
177
330
1E
100
AcDbEntity
  8
0
100
AcDbLine
 10
98.86920000000001
 20
20.3218756466441
 30
0.0
 11
100.801
 21
20.54079082034769
 31
0.0
  0
LINE
  5
178
330
1E
100
AcDbEntity
  8
0
100
AcDbLine
 10
164.1119999999999
 20
20.1608756830875
 30
0.0
 11
164.1119999999999
 21
18.34825815398819
 31
0.0
  0
LINE
  5
179
330
1E
100
AcDbEntity
  8
0
100
AcDbLine
 10
91.0
 20
19.88404529923689
 30
0.0
 11
91.0
 21
21.6966628283362
 31
0.0
  0
LINE
  5
17A
330
1E
100
AcDbEntity
  8
0
100
AcDbLine
 10
91.0
 20
19.88404529923689
 30
0.0
 11
91.0
 21
19.03881296833499
 31
0.0
  0
LINE
  5
17B
330
1E
100
AcDbEntity
  8
0
100
AcDbLine
 10
89.0
 20
19.88404529923689
 30
0.0
 11
89.0
 21
19.03881296833499
 31
0.0
  0
LINE
  5
17C
330
1E
100
AcDbEntity
  8
0
100
AcDbLine
 10
89.0
 20
19.88404529923689
 30
0.0
 11
91.0
 21
19.88404529923689
 31
0.0
  0
LINE
  5
17D
330
1E
100
AcDbEntity
  8
0
100
AcDbLine
 10
89.0
 20
19.88404529923689
 30
0.0
 11
89.0
 21
21.6966628283362
 31
0.0
  0
LINE
  5
17E
330
1E
100
AcDbEntity
  8
0
100
AcDbLine
 10
128.184
 20
20.4038631827416
 30
0.0
 11
129.5979999999999
 21
19.80628392479389
 31
0.0
  0
LINE
  5
17F
330
1E
100
AcDbEntity
  8
0
100
AcDbLine
 10
128.184
 20
20.4038631827416
 30
0.0
 11
128.184
 21
22.21648071184089
 31
0.0
  0
LINE
  5
180
330
1E
100
AcDbEntity
  8
0
100
AcDbLine
 10
150.122
 20
20.7859081963092
 30
0.0
 11
151.122
 21
21.5178793948703
 31
0.0
  0
LINE
  5
181
330
1E
100
AcDbEntity
  8
0
100
AcDbLine
 10
100.801
 20
20.54079082034769
 30
0.0
 11
101.319
 21
19.72429638869639
 31
0.0
  0
LINE
  5
182
330
1E
100
AcDbEntity
  8
0
100
AcDbLine
 10
100.801
 20
20.54079082034769
 30
0.0
 11
100.801
 21
22.35340834944699
 31
0.0
  0
LINE
  5
183
330
1E
100
AcDbEntity
  8
0
100
AcDbLine
 10
162.3799999999999
 20
20.5834918485385
 30
0.0
 11
162.3799999999999
 21
18.7708743194391
 31
0.0
  0
LINE
  5
184
330
1E
100
AcDbEntity
  8
0
100
AcDbLine
 10
162.3799999999999
 20
20.5834918485385
 30
0.0
 11
164.1119999999999
 21
20.1608756830875
 31
0.0
  0
LINE
  5
185
330
1E
100
AcDbEntity
  8
0
100
AcDbLine
 10
109.1339999999999
 20
21.09230491626119
 30
0.0
 11
110.8659999999999
 21
21.5149210817121
 31
0.0
  0
LINE
  5
186
330
1E
100
AcDbEntity
  8
0
100
AcDbLine
 10
148.39
 20
21.20852436176019
 30
0.0
 11
148.39
 21
23.0211418908595
 31
0.0
  0
LINE
  5
187
330
1E
100
AcDbEntity
  8
0
100
AcDbLine
 10
148.39
 20
21.20852436176019
 30
0.0
 11
150.122
 21
20.7859081963092
 31
0.0
  0
LINE
  5
188
330
1E
100
AcDbEntity
  8
0
100
AcDbLine
 10
148.39
 20
21.20852436176019
 30
0.0
 11
149.39
 21
21.94049556032119
 31
0.0
  0
LINE
  5
189
330
1E
100
AcDbEntity
  8
0
100
AcDbLine
 10
110.8659999999999
 20
21.5149210817121
 30
0.0
 11
110.8659999999999
 21
23.3275386108114
 31
0.0
  0
LINE
  5
18A
330
1E
100
AcDbEntity
  8
0
100
AcDbLine
 10
89.0
 20
20.8514304974344
 30
0.0
 11
89.0
 21
21.6966628283362
 31
0.0
  0
LINE
  5
18B
330
1E
100
AcDbEntity
  8
0
100
AcDbLine
 10
89.0
 20
20.8514304974344
 30
0.0
 11
89.0
 21
19.03881296833499
 31
0.0
  0
LINE
  5
18C
330
1E
100
AcDbEntity
  8
0
100
AcDbLine
 10
79.199
 20
20.54079082034769
 30
0.0
 11
81.1308
 21
20.3218756466441
 31
0.0
  0
LINE
  5
18D
330
1E
100
AcDbEntity
  8
0
100
AcDbLine
 10
79.199
 20
20.54079082034769
 30
0.0
 11
79.199
 21
22.35340834944699
 31
0.0
  0
LINE
  5
18E
330
1E
100
AcDbEntity
  8
0
100
AcDbLine
 10
81.1308
 20
20.3218756466441
 30
0.0
 11
81.1308
 21
22.13449317574339
 31
0.0
  0
LINE
  5
18F
330
1E
100
AcDbEntity
  8
0
100
AcDbLine
 10
70.866
 20
21.09230491626119
 30
0.0
 11
71.866
 21
21.82427611482219
 31
0.0
  0
LINE
  5
190
330
1E
100
AcDbEntity
  8
0
100
AcDbLine
 10
151.122
 20
21.5178793948703
 30
0.0
 11
151.122
 21
23.3304969239696
 31
0.0
  0
LINE
  5
191
330
1E
100
AcDbEntity
  8
0
100
AcDbLine
 10
101.319
 20
21.5369139177958
 30
0.0
 11
101.319
 21
19.72429638869639
 31
0.0
  0
LINE
  5
192
330
1E
100
AcDbEntity
  8
0
100
AcDbLine
 10
126.77
 20
21.61890145389329
 30
0.0
 11
126.77
 21
19.80628392479389
 31
0.0
  0
LINE
  5
193
330
1E
100
AcDbEntity
  8
0
100
AcDbLine
 10
126.77
 20
21.61890145389329
 30
0.0
 11
128.184
 21
22.21648071184089
 31
0.0
  0
LINE
  5
194
330
1E
100
AcDbEntity
  8
0
100
AcDbLine
 10
129.5979999999999
 20
21.61890145389329
 30
0.0
 11
129.5979999999999
 21
19.80628392479389
 31
0.0
  0
LINE
  5
195
330
1E
100
AcDbEntity
  8
0
100
AcDbLine
 10
91.0
 20
21.6966628283362
 30
0.0
 11
91.0
 21
19.88404529923689
 31
0.0
  0
LINE
  5
196
330
1E
100
AcDbEntity
  8
0
100
AcDbLine
 10
128.184
 20
22.21648071184089
 30
0.0
 11
128.184
 21
20.4038631827416
 31
0.0
  0
LINE
  5
197
330
1E
100
AcDbEntity
  8
0
100
AcDbLine
 10
128.184
 20
22.21648071184089
 30
0.0
 11
129.5979999999999
 21
21.61890145389329
 31
0.0
  0
LINE
  5
198
330
1E
100
AcDbEntity
  8
0
100
AcDbLine
 10
149.39
 20
21.94049556032119
 30
0.0
 11
151.122
 21
21.5178793948703
 31
0.0
  0
LINE
  5
199
330
1E
100
AcDbEntity
  8
0
100
AcDbLine
 10
149.39
 20
21.94049556032119
 30
0.0
 11
149.39
 21
23.7531130894205
 31
0.0
  0
LINE
  5
19A
330
1E
100
AcDbEntity
  8
0
100
AcDbLine
 10
108.1339999999999
 20
21.82427611482219
 30
0.0
 11
108.1339999999999
 21
23.6368936439215
 31
0.0
  0
LINE
  5
19B
330
1E
100
AcDbEntity
  8
0
100
AcDbLine
 10
108.1339999999999
 20
21.82427611482219
 30
0.0
 11
109.1339999999999
 21
21.09230491626119
 31
0.0
  0
LINE
  5
19C
330
1E
100
AcDbEntity
  8
0
100
AcDbLine
 10
108.1339999999999
 20
21.82427611482219
 30
0.0
 11
109.8659999999999
 21
22.2468922802731
 31
0.0
  0
LINE
  5
19D
330
1E
100
AcDbEntity
  8
0
100
AcDbLine
 10
98.86920000000001
 20
22.13449317574339
 30
0.0
 11
98.86920000000001
 21
20.3218756466441
 31
0.0
  0
LINE
  5
19E
330
1E
100
AcDbEntity
  8
0
100
AcDbLine
 10
98.86920000000001
 20
22.13449317574339
 30
0.0
 11
100.801
 21
22.35340834944699
 31
0.0
  0
LINE
  5
19F
330
1E
100
AcDbEntity
  8
0
100
AcDbLine
 10
89.0
 20
21.6966628283362
 30
0.0
 11
89.0
 21
19.88404529923689
 31
0.0
  0
LINE
  5
1A0
330
1E
100
AcDbEntity
  8
0
100
AcDbLine
 10
89.0
 20
21.6966628283362
 30
0.0
 11
91.0
 21
21.6966628283362
 31
0.0
  0
LINE
  5
1A1
330
1E
100
AcDbEntity
  8
0
100
AcDbLine
 10
89.0
 20
21.6966628283362
 30
0.0
 11
89.0
 21
20.8514304974344
 31
0.0
  0
LINE
  5
1A2
330
1E
100
AcDbEntity
  8
0
100
AcDbLine
 10
81.1308
 20
22.13449317574339
 30
0.0
 11
81.1308
 21
20.3218756466441
 31
0.0
  0
LINE
  5
1A3
330
1E
100
AcDbEntity
  8
0
100
AcDbLine
 10
78.68129999999999
 20
21.5369139177958
 30
0.0
 11
79.199
 21
22.35340834944699
 31
0.0
  0
LINE
  5
1A4
330
1E
100
AcDbEntity
  8
0
100
AcDbLine
 10
78.68129999999999
 20
21.5369139177958
 30
0.0
 11
78.68129999999999
 21
19.72429638869639
 31
0.0
  0
LINE
  5
1A5
330
1E
100
AcDbEntity
  8
0
100
AcDbLine
 10
71.866
 20
21.82427611482219
 30
0.0
 11
71.866
 21
23.6368936439215
 31
0.0
  0
LINE
  5
1A6
330
1E
100
AcDbEntity
  8
0
100
AcDbLine
 10
69.134
 20
21.5149210817121
 30
0.0
 11
69.134
 21
23.3275386108114
 31
0.0
  0
LINE
  5
1A7
330
1E
100
AcDbEntity
  8
0
100
AcDbLine
 10
69.134
 20
21.5149210817121
 30
0.0
 11
70.134
 21
22.2468922802731
 31
0.0
  0
LINE
  5
1A8
330
1E
100
AcDbEntity
  8
0
100
AcDbLine
 10
69.134
 20
21.5149210817121
 30
0.0
 11
70.866
 21
21.09230491626119
 31
0.0
  0
LINE
  5
1A9
330
1E
100
AcDbEntity
  8
0
100
AcDbLine
 10
53.2304
 20
21.61890145389329
 30
0.0
 11
53.2304
 21
19.80628392479389
 31
0.0
  0
LINE
  5
1AA
330
1E
100
AcDbEntity
  8
0
100
AcDbLine
 10
53.2304
 20
19.80628392479389
 30
0.0
 11
53.2304
 21
21.61890145389329
 31
0.0
  0
LINE
  5
1AB
330
1E
100
AcDbEntity
  8
0
100
AcDbLine
 10
51.8162
 20
19.2087046668463
 30
0.0
 11
53.2304
 21
19.80628392479389
 31
0.0
  0
LINE
  5
1AC
330
1E
100
AcDbEntity
  8
0
100
AcDbLine
 10
57.591
 20
27.5477668435243
 30
0.0
 11
57.591
 21
29.36038437262359
 31
0.0
  0
LINE
  5
1AD
330
1E
100
AcDbEntity
  8
0
100
AcDbLine
 10
55.85899999999999
 20
27.12515067807339
 30
0.0
 11
57.591
 21
27.5477668435243
 31
0.0
  0
LINE
  5
1AE
330
1E
100
AcDbEntity
  8
0
100
AcDbLine
 10
54.85899999999999
 20
27.8571218766344
 30
0.0
 11
54.85899999999999
 21
29.6697394057337
 31
0.0
  0
LINE
  5
1AF
330
1E
100
AcDbEntity
  8
0
100
AcDbLine
 10
54.85899999999999
 20
27.8571218766344
 30
0.0
 11
56.591
 21
28.2797380420853
 31
0.0
  0
LINE
  5
1B0
330
1E
100
AcDbEntity
  8
0
100
AcDbLine
 10
54.85899999999999
 20
27.8571218766344
 30
0.0
 11
55.85899999999999
 21
27.12515067807339
 31
0.0
  0
LINE
  5
1B1
330
1E
100
AcDbEntity
  8
0
100
AcDbLine
 10
61.0086
 20
24.2889735917321
 30
0.0
 11
61.0086
 21
26.10159112083139
 31
0.0
  0
LINE
  5
1B2
330
1E
100
AcDbEntity
  8
0
100
AcDbLine
 10
61.0086
 20
24.2889735917321
 30
0.0
 11
62.4228
 21
24.8865528496797
 31
0.0
  0
LINE
  5
1B3
330
1E
100
AcDbEntity
  8
0
100
AcDbLine
 10
61.0086
 20
24.2889735917321
 30
0.0
 11
62.4228
 21
23.69139433378439
 31
0.0
  0
LINE
  5
1B4
330
1E
100
AcDbEntity
  8
0
100
AcDbLine
 10
62.4228
 20
24.8865528496797
 30
0.0
 11
63.837
 21
24.2889735917321
 31
0.0
  0
LINE
  5
1B5
330
1E
100
AcDbEntity
  8
0
100
AcDbLine
 10
62.4228
 20
24.8865528496797
 30
0.0
 11
62.4228
 21
26.6991703787791
 31
0.0
  0
LINE
  5
1B6
330
1E
100
AcDbEntity
  8
0
100
AcDbLine
 10
109.8659999999999
 20
22.2468922802731
 30
0.0
 11
110.8659999999999
 21
21.5149210817121
 31
0.0
  0
LINE
  5
1B7
330
1E
100
AcDbEntity
  8
0
100
AcDbLine
 10
109.8659999999999
 20
22.2468922802731
 30
0.0
 11
109.8659999999999
 21
24.0595098093725
 31
0.0
  0
LINE
  5
1B8
330
1E
100
AcDbEntity
  8
0
100
AcDbLine
 10
108.1339999999999
 20
23.6368936439215
 30
0.0
 11
108.1339999999999
 21
21.82427611482219
 31
0.0
  0
LINE
  5
1B9
330
1E
100
AcDbEntity
  8
0
100
AcDbLine
 10
108.1339999999999
 20
23.6368936439215
 30
0.0
 11
109.8659999999999
 21
24.0595098093725
 31
0.0
  0
LINE
  5
1BA
330
1E
100
AcDbEntity
  8
0
100
AcDbLine
 10
148.39
 20
23.0211418908595
 30
0.0
 11
148.39
 21
21.20852436176019
 31
0.0
  0
LINE
  5
1BB
330
1E
100
AcDbEntity
  8
0
100
AcDbLine
 10
148.39
 20
23.0211418908595
 30
0.0
 11
149.39
 21
23.7531130894205
 31
0.0
  0
LINE
  5
1BC
330
1E
100
AcDbEntity
  8
0
100
AcDbLine
 10
151.122
 20
23.3304969239696
 30
0.0
 11
151.122
 21
21.5178793948703
 31
0.0
  0
LINE
  5
1BD
330
1E
100
AcDbEntity
  8
0
100
AcDbLine
 10
110.8659999999999
 20
23.3275386108114
 30
0.0
 11
110.8659999999999
 21
21.5149210817121
 31
0.0
  0
LINE
  5
1BE
330
1E
100
AcDbEntity
  8
0
100
AcDbLine
 10
100.801
 20
22.35340834944699
 30
0.0
 11
100.801
 21
20.54079082034769
 31
0.0
  0
LINE
  5
1BF
330
1E
100
AcDbEntity
  8
0
100
AcDbLine
 10
100.801
 20
22.35340834944699
 30
0.0
 11
101.319
 21
21.5369139177958
 31
0.0
  0
LINE
  5
1C0
330
1E
100
AcDbEntity
  8
0
100
AcDbLine
 10
79.199
 20
22.35340834944699
 30
0.0
 11
79.199
 21
20.54079082034769
 31
0.0
  0
LINE
  5
1C1
330
1E
100
AcDbEntity
  8
0
100
AcDbLine
 10
79.199
 20
22.35340834944699
 30
0.0
 11
81.1308
 21
22.13449317574339
 31
0.0
  0
LINE
  5
1C2
330
1E
100
AcDbEntity
  8
0
100
AcDbLine
 10
117.577
 20
23.69139433378439
 30
0.0
 11
118.991
 21
24.2889735917321
 31
0.0
  0
LINE
  5
1C3
330
1E
100
AcDbEntity
  8
0
100
AcDbLine
 10
149.39
 20
23.7531130894205
 30
0.0
 11
149.39
 21
21.94049556032119
 31
0.0
  0
LINE
  5
1C4
330
1E
100
AcDbEntity
  8
0
100
AcDbLine
 10
149.39
 20
23.7531130894205
 30
0.0
 11
151.122
 21
23.3304969239696
 31
0.0
  0
LINE
  5
1C5
330
1E
100
AcDbEntity
  8
0
100
AcDbLine
 10
137.131
 20
23.9555294371913
 30
0.0
 11
138.131
 21
24.6875006357523
 31
0.0
  0
LINE
  5
1C6
330
1E
100
AcDbEntity
  8
0
100
AcDbLine
 10
109.8659999999999
 20
24.0595098093725
 30
0.0
 11
109.8659999999999
 21
22.2468922802731
 31
0.0
  0
LINE
  5
1C7
330
1E
100
AcDbEntity
  8
0
100
AcDbLine
 10
109.8659999999999
 20
24.0595098093725
 30
0.0
 11
110.8659999999999
 21
23.3275386108114
 31
0.0
  0
LINE
  5
1C8
330
1E
100
AcDbEntity
  8
0
100
AcDbLine
 10
71.866
 20
23.6368936439215
 30
0.0
 11
71.866
 21
21.82427611482219
 31
0.0
  0
LINE
  5
1C9
330
1E
100
AcDbEntity
  8
0
100
AcDbLine
 10
70.134
 20
22.2468922802731
 30
0.0
 11
71.866
 21
21.82427611482219
 31
0.0
  0
LINE
  5
1CA
330
1E
100
AcDbEntity
  8
0
100
AcDbLine
 10
70.134
 20
22.2468922802731
 30
0.0
 11
70.134
 21
24.0595098093725
 31
0.0
  0
LINE
  5
1CB
330
1E
100
AcDbEntity
  8
0
100
AcDbLine
 10
116.1629999999999
 20
24.2889735917321
 30
0.0
 11
116.1629999999999
 21
26.10159112083139
 31
0.0
  0
LINE
  5
1CC
330
1E
100
AcDbEntity
  8
0
100
AcDbLine
 10
116.1629999999999
 20
24.2889735917321
 30
0.0
 11
117.577
 21
23.69139433378439
 31
0.0
  0
LINE
  5
1CD
330
1E
100
AcDbEntity
  8
0
100
AcDbLine
 10
116.1629999999999
 20
24.2889735917321
 30
0.0
 11
117.577
 21
24.8865528496797
 31
0.0
  0
LINE
  5
1CE
330
1E
100
AcDbEntity
  8
0
100
AcDbLine
 10
118.991
 20
24.2889735917321
 30
0.0
 11
118.991
 21
26.10159112083139
 31
0.0
  0
LINE
  5
1CF
330
1E
100
AcDbEntity
  8
0
100
AcDbLine
 10
70.134
 20
24.0595098093725
 30
0.0
 11
70.134
 21
22.2468922802731
 31
0.0
  0
LINE
  5
1D0
330
1E
100
AcDbEntity
  8
0
100
AcDbLine
 10
70.134
 20
24.0595098093725
 30
0.0
 11
71.866
 21
23.6368936439215
 31
0.0
  0
LINE
  5
1D1
330
1E
100
AcDbEntity
  8
0
100
AcDbLine
 10
69.134
 20
23.3275386108114
 30
0.0
 11
70.134
 21
24.0595098093725
 31
0.0
  0
LINE
  5
1D2
330
1E
100
AcDbEntity
  8
0
100
AcDbLine
 10
69.134
 20
23.3275386108114
 30
0.0
 11
69.134
 21
21.5149210817121
 31
0.0
  0
LINE
  5
1D3
330
1E
100
AcDbEntity
  8
0
100
AcDbLine
 10
117.577
 20
24.8865528496797
 30
0.0
 11
118.991
 21
24.2889735917321
 31
0.0
  0
LINE
  5
1D4
330
1E
100
AcDbEntity
  8
0
100
AcDbLine
 10
117.577
 20
24.8865528496797
 30
0.0
 11
117.577
 21
26.6991703787791
 31
0.0
  0
LINE
  5
1D5
330
1E
100
AcDbEntity
  8
0
100
AcDbLine
 10
135.399
 20
24.3781456026422
 30
0.0
 11
135.399
 21
26.1907631317416
 31
0.0
  0
LINE
  5
1D6
330
1E
100
AcDbEntity
  8
0
100
AcDbLine
 10
135.399
 20
24.3781456026422
 30
0.0
 11
137.131
 21
23.9555294371913
 31
0.0
  0
LINE
  5
1D7
330
1E
100
AcDbEntity
  8
0
100
AcDbLine
 10
135.399
 20
24.3781456026422
 30
0.0
 11
136.399
 21
25.11011680120329
 31
0.0
  0
LINE
  5
1D8
330
1E
100
AcDbEntity
  8
0
100
AcDbLine
 10
138.131
 20
24.6875006357523
 30
0.0
 11
138.131
 21
26.5001181648517
 31
0.0
  0
LINE
  5
1D9
330
1E
100
AcDbEntity
  8
0
100
AcDbLine
 10
136.399
 20
25.11011680120329
 30
0.0
 11
138.131
 21
24.6875006357523
 31
0.0
  0
LINE
  5
1DA
330
1E
100
AcDbEntity
  8
0
100
AcDbLine
 10
136.399
 20
25.11011680120329
 30
0.0
 11
136.399
 21
26.9227343303026
 31
0.0
  0
LINE
  5
1DB
330
1E
100
AcDbEntity
  8
0
100
AcDbLine
 10
91.0
 20
25.3780554500992
 30
0.0
 11
91.0
 21
26.223287781001
 31
0.0
  0
LINE
  5
1DC
330
1E
100
AcDbEntity
  8
0
100
AcDbLine
 10
95.50449999999999
 20
25.6286668362116
 30
0.0
 11
97.4364
 21
25.8475820099152
 31
0.0
  0
LINE
  5
1DD
330
1E
100
AcDbEntity
  8
0
100
AcDbLine
 10
97.4364
 20
25.8475820099152
 30
0.0
 11
97.4364
 21
27.6601995390145
 31
0.0
  0
LINE
  5
1DE
330
1E
100
AcDbEntity
  8
0
100
AcDbLine
 10
89.0
 20
25.3780554500992
 30
0.0
 11
89.0
 21
27.1906729791985
 31
0.0
  0
LINE
  5
1DF
330
1E
100
AcDbEntity
  8
0
100
AcDbLine
 10
89.0
 20
25.3780554500992
 30
0.0
 11
91.0
 21
25.3780554500992
 31
0.0
  0
LINE
  5
1E0
330
1E
100
AcDbEntity
  8
0
100
AcDbLine
 10
89.0
 20
25.3780554500992
 30
0.0
 11
89.0
 21
26.223287781001
 31
0.0
  0
LINE
  5
1E1
330
1E
100
AcDbEntity
  8
0
100
AcDbLine
 10
84.4955
 20
25.6286668362116
 30
0.0
 11
85.0131
 21
26.4451612678628
 31
0.0
  0
LINE
  5
1E2
330
1E
100
AcDbEntity
  8
0
100
AcDbLine
 10
78.366
 20
26.58208890546889
 30
0.0
 11
79.366
 21
27.3140601040299
 31
0.0
  0
LINE
  5
1E3
330
1E
100
AcDbEntity
  8
0
100
AcDbLine
 10
83.0812
 20
26.6640764415664
 30
0.0
 11
85.0131
 21
26.4451612678628
 31
0.0
  0
LINE
  5
1E4
330
1E
100
AcDbEntity
  8
0
100
AcDbLine
 10
83.0812
 20
26.6640764415664
 30
0.0
 11
83.0812
 21
28.47669397066569
 31
0.0
  0
LINE
  5
1E5
330
1E
100
AcDbEntity
  8
0
100
AcDbLine
 10
116.1629999999999
 20
26.10159112083139
 30
0.0
 11
116.1629999999999
 21
24.2889735917321
 31
0.0
  0
LINE
  5
1E6
330
1E
100
AcDbEntity
  8
0
100
AcDbLine
 10
116.1629999999999
 20
26.10159112083139
 30
0.0
 11
117.577
 21
26.6991703787791
 31
0.0
  0
LINE
  5
1E7
330
1E
100
AcDbEntity
  8
0
100
AcDbLine
 10
118.991
 20
26.10159112083139
 30
0.0
 11
118.991
 21
24.2889735917321
 31
0.0
  0
LINE
  5
1E8
330
1E
100
AcDbEntity
  8
0
100
AcDbLine
 10
135.399
 20
26.1907631317416
 30
0.0
 11
135.399
 21
24.3781456026422
 31
0.0
  0
LINE
  5
1E9
330
1E
100
AcDbEntity
  8
0
100
AcDbLine
 10
135.399
 20
26.1907631317416
 30
0.0
 11
136.399
 21
26.9227343303026
 31
0.0
  0
LINE
  5
1EA
330
1E
100
AcDbEntity
  8
0
100
AcDbLine
 10
91.0
 20
26.223287781001
 30
0.0
 11
91.0
 21
28.03590531010039
 31
0.0
  0
LINE
  5
1EB
330
1E
100
AcDbEntity
  8
0
100
AcDbLine
 10
91.0
 20
26.223287781001
 30
0.0
 11
91.0
 21
25.3780554500992
 31
0.0
  0
LINE
  5
1EC
330
1E
100
AcDbEntity
  8
0
100
AcDbLine
 10
94.98690000000001
 20
26.4451612678628
 30
0.0
 11
95.50449999999999
 21
25.6286668362116
 31
0.0
  0
LINE
  5
1ED
330
1E
100
AcDbEntity
  8
0
100
AcDbLine
 10
94.98690000000001
 20
26.4451612678628
 30
0.0
 11
94.98690000000001
 21
28.2577787969621
 31
0.0
  0
LINE
  5
1EE
330
1E
100
AcDbEntity
  8
0
100
AcDbLine
 10
94.98690000000001
 20
26.4451612678628
 30
0.0
 11
96.91880000000001
 21
26.6640764415664
 31
0.0
  0
LINE
  5
1EF
330
1E
100
AcDbEntity
  8
0
100
AcDbLine
 10
96.91880000000001
 20
26.6640764415664
 30
0.0
 11
97.4364
 21
25.8475820099152
 31
0.0
  0
LINE
  5
1F0
330
1E
100
AcDbEntity
  8
0
100
AcDbLine
 10
96.91880000000001
 20
26.6640764415664
 30
0.0
 11
96.91880000000001
 21
28.47669397066569
 31
0.0
  0
LINE
  5
1F1
330
1E
100
AcDbEntity
  8
0
100
AcDbLine
 10
117.577
 20
26.6991703787791
 30
0.0
 11
117.577
 21
24.8865528496797
 31
0.0
  0
LINE
  5
1F2
330
1E
100
AcDbEntity
  8
0
100
AcDbLine
 10
117.577
 20
26.6991703787791
 30
0.0
 11
118.991
 21
26.10159112083139
 31
0.0
  0
LINE
  5
1F3
330
1E
100
AcDbEntity
  8
0
100
AcDbLine
 10
138.131
 20
26.5001181648517
 30
0.0
 11
138.131
 21
24.6875006357523
 31
0.0
  0
LINE
  5
1F4
330
1E
100
AcDbEntity
  8
0
100
AcDbLine
 10
101.634
 20
26.58208890546889
 30
0.0
 11
103.366
 21
27.0047050709198
 31
0.0
  0
LINE
  5
1F5
330
1E
100
AcDbEntity
  8
0
100
AcDbLine
 10
89.0
 20
26.223287781001
 30
0.0
 11
89.0
 21
25.3780554500992
 31
0.0
  0
LINE
  5
1F6
330
1E
100
AcDbEntity
  8
0
100
AcDbLine
 10
89.0
 20
26.223287781001
 30
0.0
 11
91.0
 21
26.223287781001
 31
0.0
  0
LINE
  5
1F7
330
1E
100
AcDbEntity
  8
0
100
AcDbLine
 10
89.0
 20
26.223287781001
 30
0.0
 11
89.0
 21
28.03590531010039
 31
0.0
  0
LINE
  5
1F8
330
1E
100
AcDbEntity
  8
0
100
AcDbLine
 10
85.0131
 20
26.4451612678628
 30
0.0
 11
85.0131
 21
28.2577787969621
 31
0.0
  0
LINE
  5
1F9
330
1E
100
AcDbEntity
  8
0
100
AcDbLine
 10
82.56359999999999
 20
25.8475820099152
 30
0.0
 11
82.56359999999999
 21
27.6601995390145
 31
0.0
  0
LINE
  5
1FA
330
1E
100
AcDbEntity
  8
0
100
AcDbLine
 10
82.56359999999999
 20
25.8475820099152
 30
0.0
 11
83.0812
 21
26.6640764415664
 31
0.0
  0
LINE
  5
1FB
330
1E
100
AcDbEntity
  8
0
100
AcDbLine
 10
82.56359999999999
 20
25.8475820099152
 30
0.0
 11
84.4955
 21
25.6286668362116
 31
0.0
  0
LINE
  5
1FC
330
1E
100
AcDbEntity
  8
0
100
AcDbLine
 10
63.837
 20
26.10159112083139
 30
0.0
 11
63.837
 21
24.2889735917321
 31
0.0
  0
LINE
  5
1FD
330
1E
100
AcDbEntity
  8
0
100
AcDbLine
 10
63.837
 20
24.2889735917321
 30
0.0
 11
63.837
 21
26.10159112083139
 31
0.0
  0
LINE
  5
1FE
330
1E
100
AcDbEntity
  8
0
100
AcDbLine
 10
62.4228
 20
23.69139433378439
 30
0.0
 11
63.837
 21
24.2889735917321
 31
0.0
  0
LINE
  5
1FF
330
1E
100
AcDbEntity
  8
0
100
AcDbLine
 10
77.634
 20
27.73667626948089
 30
0.0
 11
79.366
 21
27.3140601040299
 31
0.0
  0
LINE
  5
200
330
1E
100
AcDbEntity
  8
0
100
AcDbLine
 10
77.634
 20
27.73667626948089
 30
0.0
 11
77.634
 21
29.5492937985802
 31
0.0
  0
LINE
  5
201
330
1E
100
AcDbEntity
  8
0
100
AcDbLine
 10
79.366
 20
27.3140601040299
 30
0.0
 11
79.366
 21
29.1266776331293
 31
0.0
  0
LINE
  5
202
330
1E
100
AcDbEntity
  8
0
100
AcDbLine
 10
76.634
 20
27.0047050709198
 30
0.0
 11
76.634
 21
28.81732260001919
 31
0.0
  0
LINE
  5
203
330
1E
100
AcDbEntity
  8
0
100
AcDbLine
 10
76.634
 20
27.0047050709198
 30
0.0
 11
77.634
 21
27.73667626948089
 31
0.0
  0
LINE
  5
204
330
1E
100
AcDbEntity
  8
0
100
AcDbLine
 10
76.634
 20
27.0047050709198
 30
0.0
 11
78.366
 21
26.58208890546889
 31
0.0
  0
LINE
  5
205
330
1E
100
AcDbEntity
  8
0
100
AcDbLine
 10
136.399
 20
26.9227343303026
 30
0.0
 11
136.399
 21
25.11011680120329
 31
0.0
  0
LINE
  5
206
330
1E
100
AcDbEntity
  8
0
100
AcDbLine
 10
136.399
 20
26.9227343303026
 30
0.0
 11
138.131
 21
26.5001181648517
 31
0.0
  0
LINE
  5
207
330
1E
100
AcDbEntity
  8
0
100
AcDbLine
 10
124.141
 20
27.12515067807339
 30
0.0
 11
125.141
 21
27.8571218766344
 31
0.0
  0
LINE
  5
208
330
1E
100
AcDbEntity
  8
0
100
AcDbLine
 10
103.366
 20
27.0047050709198
 30
0.0
 11
103.366
 21
28.81732260001919
 31
0.0
  0
LINE
  5
209
330
1E
100
AcDbEntity
  8
0
100
AcDbLine
 10
97.4364
 20
27.6601995390145
 30
0.0
 11
97.4364
 21
25.8475820099152
 31
0.0
  0
LINE
  5
20A
330
1E
100
AcDbEntity
  8
0
100
AcDbLine
 10
122.4089999999999
 20
27.5477668435243
 30
0.0
 11
122.4089999999999
 21
29.36038437262359
 31
0.0
  0
LINE
  5
20B
330
1E
100
AcDbEntity
  8
0
100
AcDbLine
 10
122.4089999999999
 20
27.5477668435243
 30
0.0
 11
124.141
 21
27.12515067807339
 31
0.0
  0
LINE
  5
20C
330
1E
100
AcDbEntity
  8
0
100
AcDbLine
 10
122.4089999999999
 20
27.5477668435243
 30
0.0
 11
123.4089999999999
 21
28.2797380420853
 31
0.0
  0
LINE
  5
20D
330
1E
100
AcDbEntity
  8
0
100
AcDbLine
 10
100.634
 20
27.3140601040299
 30
0.0
 11
100.634
 21
29.1266776331293
 31
0.0
  0
LINE
  5
20E
330
1E
100
AcDbEntity
  8
0
100
AcDbLine
 10
100.634
 20
27.3140601040299
 30
0.0
 11
101.634
 21
26.58208890546889
 31
0.0
  0
LINE
  5
20F
330
1E
100
AcDbEntity
  8
0
100
AcDbLine
 10
100.634
 20
27.3140601040299
 30
0.0
 11
102.366
 21
27.73667626948089
 31
0.0
  0
LINE
  5
210
330
1E
100
AcDbEntity
  8
0
100
AcDbLine
 10
125.141
 20
27.8571218766344
 30
0.0
 11
125.141
 21
29.6697394057337
 31
0.0
  0
LINE
  5
211
330
1E
100
AcDbEntity
  8
0
100
AcDbLine
 10
102.366
 20
27.73667626948089
 30
0.0
 11
103.366
 21
27.0047050709198
 31
0.0
  0
LINE
  5
212
330
1E
100
AcDbEntity
  8
0
100
AcDbLine
 10
102.366
 20
27.73667626948089
 30
0.0
 11
102.366
 21
29.5492937985802
 31
0.0
  0
LINE
  5
213
330
1E
100
AcDbEntity
  8
0
100
AcDbLine
 10
157.356
 20
27.8786753010724
 30
0.0
 11
157.8739999999999
 21
28.6951697327236
 31
0.0
  0
LINE
  5
214
330
1E
100
AcDbEntity
  8
0
100
AcDbLine
 10
89.0
 20
27.1906729791985
 30
0.0
 11
89.0
 21
28.03590531010039
 31
0.0
  0
LINE
  5
215
330
1E
100
AcDbEntity
  8
0
100
AcDbLine
 10
89.0
 20
27.1906729791985
 30
0.0
 11
89.0
 21
25.3780554500992
 31
0.0
  0
LINE
  5
216
330
1E
100
AcDbEntity
  8
0
100
AcDbLine
 10
82.56359999999999
 20
27.6601995390145
 30
0.0
 11
83.0812
 21
28.47669397066569
 31
0.0
  0
LINE
  5
217
330
1E
100
AcDbEntity
  8
0
100
AcDbLine
 10
82.56359999999999
 20
27.6601995390145
 30
0.0
 11
82.56359999999999
 21
25.8475820099152
 31
0.0
  0
LINE
  5
218
330
1E
100
AcDbEntity
  8
0
100
AcDbLine
 10
62.4228
 20
26.6991703787791
 30
0.0
 11
62.4228
 21
24.8865528496797
 31
0.0
  0
LINE
  5
219
330
1E
100
AcDbEntity
  8
0
100
AcDbLine
 10
62.4228
 20
26.6991703787791
 30
0.0
 11
63.837
 21
26.10159112083139
 31
0.0
  0
LINE
  5
21A
330
1E
100
AcDbEntity
  8
0
100
AcDbLine
 10
61.0086
 20
26.10159112083139
 30
0.0
 11
62.4228
 21
26.6991703787791
 31
0.0
  0
LINE
  5
21B
330
1E
100
AcDbEntity
  8
0
100
AcDbLine
 10
61.0086
 20
26.10159112083139
 30
0.0
 11
61.0086
 21
24.2889735917321
 31
0.0
  0
LINE
  5
21C
330
1E
100
AcDbEntity
  8
0
100
AcDbLine
 10
51.8162
 20
22.21648071184089
 30
0.0
 11
51.8162
 21
20.4038631827416
 31
0.0
  0
LINE
  5
21D
330
1E
100
AcDbEntity
  8
0
100
AcDbLine
 10
51.8162
 20
22.21648071184089
 30
0.0
 11
53.2304
 21
21.61890145389329
 31
0.0
  0
LINE
  5
21E
330
1E
100
AcDbEntity
  8
0
100
AcDbLine
 10
50.402
 20
21.61890145389329
 30
0.0
 11
51.8162
 21
22.21648071184089
 31
0.0
  0
LINE
  5
21F
330
1E
100
AcDbEntity
  8
0
100
AcDbLine
 10
50.402
 20
21.61890145389329
 30
0.0
 11
50.402
 21
19.80628392479389
 31
0.0
  0
LINE
  5
220
330
1E
100
AcDbEntity
  8
0
100
AcDbLine
 10
91.0
 20
28.03590531010039
 30
0.0
 11
91.0
 21
26.223287781001
 31
0.0
  0
LINE
  5
221
330
1E
100
AcDbEntity
  8
0
100
AcDbLine
 10
89.0
 20
28.03590531010039
 30
0.0
 11
89.0
 21
26.223287781001
 31
0.0
  0
LINE
  5
222
330
1E
100
AcDbEntity
  8
0
100
AcDbLine
 10
89.0
 20
28.03590531010039
 30
0.0
 11
91.0
 21
28.03590531010039
 31
0.0
  0
LINE
  5
223
330
1E
100
AcDbEntity
  8
0
100
AcDbLine
 10
89.0
 20
28.03590531010039
 30
0.0
 11
89.0
 21
27.1906729791985
 31
0.0
  0
LINE
  5
224
330
1E
100
AcDbEntity
  8
0
100
AcDbLine
 10
22.644
 20
27.8786753010724
 30
0.0
 11
24.5759
 21
28.0971678586105
 31
0.0
  0
LINE
  5
225
330
1E
100
AcDbEntity
  8
0
100
AcDbLine
 10
12.09999999999999
 20
19.7714432843646
 30
0.0
 11
12.9
 21
19.07644260254039
 31
0.0
  0
LINE
  5
226
330
1E
100
AcDbEntity
  8
0
100
AcDbLine
 10
12.9
 20
19.07644260254039
 30
0.0
 11
27.2
 21
11.2157819251529
 31
0.0
  0
LINE
  5
227
330
1E
100
AcDbEntity
  8
0
100
AcDbLine
 10
4.2
 20
28.0781669266455
 30
0.0
 11
12.9
 21
19.07644260254039
 31
0.0
  0
LINE
  5
228
330
1E
100
AcDbEntity
  8
0
100
AcDbLine
 10
152.8
 20
11.2157819251529
 30
0.0
 11
167.1
 21
19.07644260254039
 31
0.0
  0
LINE
  5
229
330
1E
100
AcDbEntity
  8
0
100
AcDbLine
 10
169.9129999999999
 20
26.45657190433
 30
0.0
 11
169.9129999999999
 21
28.2691894334293
 31
0.0
  0
LINE
  5
22A
330
1E
100
AcDbEntity
  8
0
100
AcDbLine
 10
169.9129999999999
 20
26.45657190433
 30
0.0
 11
171.8449999999999
 21
26.23765673062639
 31
0.0
  0
LINE
  5
22B
330
1E
100
AcDbEntity
  8
0
100
AcDbLine
 10
169.9129999999999
 20
26.45657190433
 30
0.0
 11
170.4309999999999
 21
27.2730663359812
 31
0.0
  0
LINE
  5
22C
330
1E
100
AcDbEntity
  8
0
100
AcDbLine
 10
171.8449999999999
 20
26.23765673062639
 30
0.0
 11
172.3629999999999
 21
27.0541511622776
 31
0.0
  0
LINE
  5
22D
330
1E
100
AcDbEntity
  8
0
100
AcDbLine
 10
172.3629999999999
 20
27.0541511622776
 30
0.0
 11
172.3629999999999
 21
28.8667686913769
 31
0.0
  0
LINE
  5
22E
330
1E
100
AcDbEntity
  8
0
100
AcDbLine
 10
170.4309999999999
 20
27.2730663359812
 30
0.0
 11
172.3629999999999
 21
27.0541511622776
 31
0.0
  0
LINE
  5
22F
330
1E
100
AcDbEntity
  8
0
100
AcDbLine
 10
170.4309999999999
 20
27.2730663359812
 30
0.0
 11
170.4309999999999
 21
29.0856838650805
 31
0.0
  0
LINE
  5
230
330
1E
100
AcDbEntity
  8
0
100
AcDbLine
 10
167.9
 20
19.7714432843646
 30
0.0
 11
176.6999999999999
 21
28.899952458105
 31
0.0
  0
LINE
  5
231
330
1E
100
AcDbEntity
  8
0
100
AcDbLine
 10
167.1
 20
19.07644260254039
 30
0.0
 11
175.8
 21
28.0781669266455
 31
0.0
  0
LINE
  5
232
330
1E
100
AcDbEntity
  8
0
100
AcDbLine
 10
167.1
 20
19.07644260254039
 30
0.0
 11
167.9
 21
19.7714432843646
 31
0.0
  0
LINE
  5
233
330
1E
100
AcDbEntity
  8
0
100
AcDbLine
 10
106.971
 20
28.17366138455719
 30
0.0
 11
108.3849999999999
 21
28.7712406425048
 31
0.0
  0
LINE
  5
234
330
1E
100
AcDbEntity
  8
0
100
AcDbLine
 10
155.424
 20
28.0971678586105
 30
0.0
 11
155.424
 21
29.9097853877099
 31
0.0
  0
LINE
  5
235
330
1E
100
AcDbEntity
  8
0
100
AcDbLine
 10
155.424
 20
28.0971678586105
 30
0.0
 11
157.356
 21
27.8786753010724
 31
0.0
  0
LINE
  5
236
330
1E
100
AcDbEntity
  8
0
100
AcDbLine
 10
155.424
 20
28.0971678586105
 30
0.0
 11
155.942
 21
28.9136622902617
 31
0.0
  0
LINE
  5
237
330
1E
100
AcDbEntity
  8
0
100
AcDbLine
 10
94.98690000000001
 20
28.2577787969621
 30
0.0
 11
94.98690000000001
 21
26.4451612678628
 31
0.0
  0
LINE
  5
238
330
1E
100
AcDbEntity
  8
0
100
AcDbLine
 10
94.98690000000001
 20
28.2577787969621
 30
0.0
 11
96.91880000000001
 21
28.47669397066569
 31
0.0
  0
LINE
  5
239
330
1E
100
AcDbEntity
  8
0
100
AcDbLine
 10
169.9129999999999
 20
28.2691894334293
 30
0.0
 11
169.9129999999999
 21
26.45657190433
 31
0.0
  0
LINE
  5
23A
330
1E
100
AcDbEntity
  8
0
100
AcDbLine
 10
169.9129999999999
 20
28.2691894334293
 30
0.0
 11
170.4309999999999
 21
29.0856838650805
 31
0.0
  0
LINE
  5
23B
330
1E
100
AcDbEntity
  8
0
100
AcDbLine
 10
85.0131
 20
28.2577787969621
 30
0.0
 11
85.0131
 21
26.4451612678628
 31
0.0
  0
LINE
  5
23C
330
1E
100
AcDbEntity
  8
0
100
AcDbLine
 10
73.02939999999999
 20
28.17366138455719
 30
0.0
 11
74.4436
 21
28.7712406425048
 31
0.0
  0
LINE
  5
23D
330
1E
100
AcDbEntity
  8
0
100
AcDbLine
 10
24.5759
 20
28.0971678586105
 30
0.0
 11
24.5759
 21
29.9097853877099
 31
0.0
  0
LINE
  5
23E
330
1E
100
AcDbEntity
  8
0
100
AcDbLine
 10
56.591
 20
28.2797380420853
 30
0.0
 11
57.591
 21
27.5477668435243
 31
0.0
  0
LINE
  5
23F
330
1E
100
AcDbEntity
  8
0
100
AcDbLine
 10
56.591
 20
28.2797380420853
 30
0.0
 11
56.591
 21
30.09235557118469
 31
0.0
  0
LINE
  5
240
330
1E
100
AcDbEntity
  8
0
100
AcDbLine
 10
96.91880000000001
 20
28.47669397066569
 30
0.0
 11
96.91880000000001
 21
26.6640764415664
 31
0.0
  0
LINE
  5
241
330
1E
100
AcDbEntity
  8
0
100
AcDbLine
 10
96.91880000000001
 20
28.47669397066569
 30
0.0
 11
97.4364
 21
27.6601995390145
 31
0.0
  0
LINE
  5
242
330
1E
100
AcDbEntity
  8
0
100
AcDbLine
 10
123.4089999999999
 20
28.2797380420853
 30
0.0
 11
125.141
 21
27.8571218766344
 31
0.0
  0
LINE
  5
243
330
1E
100
AcDbEntity
  8
0
100
AcDbLine
 10
123.4089999999999
 20
28.2797380420853
 30
0.0
 11
123.4089999999999
 21
30.09235557118469
 31
0.0
  0
LINE
  5
244
330
1E
100
AcDbEntity
  8
0
100
AcDbLine
 10
105.556
 20
28.7712406425048
 30
0.0
 11
105.556
 21
30.58385817160409
 31
0.0
  0
LINE
  5
245
330
1E
100
AcDbEntity
  8
0
100
AcDbLine
 10
105.556
 20
28.7712406425048
 30
0.0
 11
106.971
 21
28.17366138455719
 31
0.0
  0
LINE
  5
246
330
1E
100
AcDbEntity
  8
0
100
AcDbLine
 10
105.556
 20
28.7712406425048
 30
0.0
 11
106.971
 21
29.36924251661789
 31
0.0
  0
LINE
  5
247
330
1E
100
AcDbEntity
  8
0
100
AcDbLine
 10
108.3849999999999
 20
28.7712406425048
 30
0.0
 11
108.3849999999999
 21
30.58385817160409
 31
0.0
  0
LINE
  5
248
330
1E
100
AcDbEntity
  8
0
100
AcDbLine
 10
157.8739999999999
 20
28.6951697327236
 30
0.0
 11
157.8739999999999
 21
30.5077872618229
 31
0.0
  0
LINE
  5
249
330
1E
100
AcDbEntity
  8
0
100
AcDbLine
 10
83.0812
 20
28.47669397066569
 30
0.0
 11
83.0812
 21
26.6640764415664
 31
0.0
  0
LINE
  5
24A
330
1E
100
AcDbEntity
  8
0
100
AcDbLine
 10
83.0812
 20
28.47669397066569
 30
0.0
 11
85.0131
 21
28.2577787969621
 31
0.0
  0
LINE
  5
24B
330
1E
100
AcDbEntity
  8
0
100
AcDbLine
 10
74.4436
 20
28.7712406425048
 30
0.0
 11
74.4436
 21
30.58385817160409
 31
0.0
  0
LINE
  5
24C
330
1E
100
AcDbEntity
  8
0
100
AcDbLine
 10
103.366
 20
28.81732260001919
 30
0.0
 11
103.366
 21
27.0047050709198
 31
0.0
  0
LINE
  5
24D
330
1E
100
AcDbEntity
  8
0
100
AcDbLine
 10
172.3629999999999
 20
28.8667686913769
 30
0.0
 11
172.3629999999999
 21
27.0541511622776
 31
0.0
  0
LINE
  5
24E
330
1E
100
AcDbEntity
  8
0
100
AcDbLine
 10
76.634
 20
28.81732260001919
 30
0.0
 11
77.634
 21
29.5492937985802
 31
0.0
  0
LINE
  5
24F
330
1E
100
AcDbEntity
  8
0
100
AcDbLine
 10
76.634
 20
28.81732260001919
 30
0.0
 11
76.634
 21
27.0047050709198
 31
0.0
  0
LINE
  5
250
330
1E
100
AcDbEntity
  8
0
100
AcDbLine
 10
71.6152
 20
28.7712406425048
 30
0.0
 11
71.6152
 21
30.58385817160409
 31
0.0
  0
LINE
  5
251
330
1E
100
AcDbEntity
  8
0
100
AcDbLine
 10
71.6152
 20
28.7712406425048
 30
0.0
 11
73.02939999999999
 21
29.36924251661789
 31
0.0
  0
LINE
  5
252
330
1E
100
AcDbEntity
  8
0
100
AcDbLine
 10
71.6152
 20
28.7712406425048
 30
0.0
 11
73.02939999999999
 21
28.17366138455719
 31
0.0
  0
LINE
  5
253
330
1E
100
AcDbEntity
  8
0
100
AcDbLine
 10
22.12639999999999
 20
28.6951697327236
 30
0.0
 11
22.12639999999999
 21
30.5077872618229
 31
0.0
  0
LINE
  5
254
330
1E
100
AcDbEntity
  8
0
100
AcDbLine
 10
22.12639999999999
 20
28.6951697327236
 30
0.0
 11
24.0582
 21
28.9136622902617
 31
0.0
  0
LINE
  5
255
330
1E
100
AcDbEntity
  8
0
100
AcDbLine
 10
22.12639999999999
 20
28.6951697327236
 30
0.0
 11
22.644
 21
27.8786753010724
 31
0.0
  0
LINE
  5
256
330
1E
100
AcDbEntity
  8
0
100
AcDbLine
 10
10.08699999999999
 20
28.2691894334293
 30
0.0
 11
10.08699999999999
 21
26.45657190433
 31
0.0
  0
LINE
  5
257
330
1E
100
AcDbEntity
  8
0
100
AcDbLine
 10
7.637489999999999
 20
28.8667686913769
 30
0.0
 11
9.569339999999998
 21
29.0856838650805
 31
0.0
  0
LINE
  5
258
330
1E
100
AcDbEntity
  8
0
100
AcDbLine
 10
7.637489999999999
 20
28.8667686913769
 30
0.0
 11
7.637489999999999
 21
27.0541511622776
 31
0.0
  0
LINE
  5
259
330
1E
100
AcDbEntity
  8
0
100
AcDbLine
 10
5.0
 20
35.5208434209218
 30
0.0
 11
5.0
 21
37.3334609500211
 31
0.0
  0
LINE
  5
25A
330
1E
100
AcDbEntity
  8
0
100
AcDbLine
 10
5.0
 20
35.5208434209218
 30
0.0
 11
7.0
 21
35.5208434209218
 31
0.0
  0
LINE
  5
25B
330
1E
100
AcDbEntity
  8
0
100
AcDbLine
 10
5.0
 20
35.5208434209218
 30
0.0
 11
5.0
 21
36.3660757518237
 31
0.0
  0
LINE
  5
25C
330
1E
100
AcDbEntity
  8
0
100
AcDbLine
 10
5.0
 20
37.3334609500211
 30
0.0
 11
5.0
 21
38.17869328092299
 31
0.0
  0
LINE
  5
25D
330
1E
100
AcDbEntity
  8
0
100
AcDbLine
 10
5.0
 20
37.3334609500211
 30
0.0
 11
5.0
 21
35.5208434209218
 31
0.0
  0
LINE
  5
25E
330
1E
100
AcDbEntity
  8
0
100
AcDbLine
 10
5.0
 20
36.3660757518237
 30
0.0
 11
5.0
 21
38.17869328092299
 31
0.0
  0
LINE
  5
25F
330
1E
100
AcDbEntity
  8
0
100
AcDbLine
 10
5.0
 20
36.3660757518237
 30
0.0
 11
7.0
 21
36.3660757518237
 31
0.0
  0
LINE
  5
260
330
1E
100
AcDbEntity
  8
0
100
AcDbLine
 10
5.0
 20
36.3660757518237
 30
0.0
 11
5.0
 21
35.5208434209218
 31
0.0
  0
LINE
  5
261
330
1E
100
AcDbEntity
  8
0
100
AcDbLine
 10
7.0
 20
35.5208434209218
 30
0.0
 11
7.0
 21
36.3660757518237
 31
0.0
  0
LINE
  5
262
330
1E
100
AcDbEntity
  8
0
100
AcDbLine
 10
9.569339999999998
 20
29.0856838650805
 30
0.0
 11
9.569339999999998
 21
27.2730663359812
 31
0.0
  0
LINE
  5
263
330
1E
100
AcDbEntity
  8
0
100
AcDbLine
 10
9.569339999999998
 20
29.0856838650805
 30
0.0
 11
10.08699999999999
 21
28.2691894334293
 31
0.0
  0
LINE
  5
264
330
1E
100
AcDbEntity
  8
0
100
AcDbLine
 10
20.0
 20
37.3334609500211
 30
0.0
 11
20.0
 21
38.17869328092299
 31
0.0
  0
LINE
  5
265
330
1E
100
AcDbEntity
  8
0
100
AcDbLine
 10
20.0
 20
37.3334609500211
 30
0.0
 11
20.0
 21
35.5208434209218
 31
0.0
  0
LINE
  5
266
330
1E
100
AcDbEntity
  8
0
100
AcDbLine
 10
20.0
 20
35.5208434209218
 30
0.0
 11
20.0
 21
37.3334609500211
 31
0.0
  0
LINE
  5
267
330
1E
100
AcDbEntity
  8
0
100
AcDbLine
 10
20.0
 20
35.5208434209218
 30
0.0
 11
22.0
 21
35.5208434209218
 31
0.0
  0
LINE
  5
268
330
1E
100
AcDbEntity
  8
0
100
AcDbLine
 10
20.0
 20
35.5208434209218
 30
0.0
 11
20.0
 21
36.3660757518237
 31
0.0
  0
LINE
  5
269
330
1E
100
AcDbEntity
  8
0
100
AcDbLine
 10
22.0
 20
35.5208434209218
 30
0.0
 11
22.0
 21
36.3660757518237
 31
0.0
  0
LINE
  5
26A
330
1E
100
AcDbEntity
  8
0
100
AcDbLine
 10
24.5759
 20
29.9097853877099
 30
0.0
 11
24.5759
 21
28.0971678586105
 31
0.0
  0
LINE
  5
26B
330
1E
100
AcDbEntity
  8
0
100
AcDbLine
 10
24.0582
 20
28.9136622902617
 30
0.0
 11
24.5759
 21
28.0971678586105
 31
0.0
  0
LINE
  5
26C
330
1E
100
AcDbEntity
  8
0
100
AcDbLine
 10
24.0582
 20
28.9136622902617
 30
0.0
 11
24.0582
 21
30.72627981936109
 31
0.0
  0
LINE
  5
26D
330
1E
100
AcDbEntity
  8
0
100
AcDbLine
 10
24.0582
 20
30.72627981936109
 30
0.0
 11
24.0582
 21
28.9136622902617
 31
0.0
  0
LINE
  5
26E
330
1E
100
AcDbEntity
  8
0
100
AcDbLine
 10
24.0582
 20
30.72627981936109
 30
0.0
 11
24.5759
 21
29.9097853877099
 31
0.0
  0
LINE
  5
26F
330
1E
100
AcDbEntity
  8
0
100
AcDbLine
 10
22.12639999999999
 20
30.5077872618229
 30
0.0
 11
24.0582
 21
30.72627981936109
 31
0.0
  0
LINE
  5
270
330
1E
100
AcDbEntity
  8
0
100
AcDbLine
 10
22.12639999999999
 20
30.5077872618229
 30
0.0
 11
22.12639999999999
 21
28.6951697327236
 31
0.0
  0
LINE
  5
271
330
1E
100
AcDbEntity
  8
0
100
AcDbLine
 10
35.0
 20
37.3334609500211
 30
0.0
 11
35.0
 21
38.17869328092299
 31
0.0
  0
LINE
  5
272
330
1E
100
AcDbEntity
  8
0
100
AcDbLine
 10
35.0
 20
37.3334609500211
 30
0.0
 11
35.0
 21
35.5208434209218
 31
0.0
  0
LINE
  5
273
330
1E
100
AcDbEntity
  8
0
100
AcDbLine
 10
35.0
 20
35.5208434209218
 30
0.0
 11
35.0
 21
37.3334609500211
 31
0.0
  0
LINE
  5
274
330
1E
100
AcDbEntity
  8
0
100
AcDbLine
 10
35.0
 20
35.5208434209218
 30
0.0
 11
37.0
 21
35.5208434209218
 31
0.0
  0
LINE
  5
275
330
1E
100
AcDbEntity
  8
0
100
AcDbLine
 10
35.0
 20
35.5208434209218
 30
0.0
 11
35.0
 21
36.3660757518237
 31
0.0
  0
LINE
  5
276
330
1E
100
AcDbEntity
  8
0
100
AcDbLine
 10
36.61529999999999
 20
30.3357656870042
 30
0.0
 11
36.61529999999999
 21
32.1483832161035
 31
0.0
  0
LINE
  5
277
330
1E
100
AcDbEntity
  8
0
100
AcDbLine
 10
36.61529999999999
 20
30.3357656870042
 30
0.0
 11
38.5471
 21
30.5546808607078
 31
0.0
  0
LINE
  5
278
330
1E
100
AcDbEntity
  8
0
100
AcDbLine
 10
36.61529999999999
 20
30.3357656870042
 30
0.0
 11
37.1329
 21
29.5192712553529
 31
0.0
  0
LINE
  5
279
330
1E
100
AcDbEntity
  8
0
100
AcDbLine
 10
36.61529999999999
 20
32.1483832161035
 30
0.0
 11
38.5471
 21
32.3672983898071
 31
0.0
  0
LINE
  5
27A
330
1E
100
AcDbEntity
  8
0
100
AcDbLine
 10
36.61529999999999
 20
32.1483832161035
 30
0.0
 11
36.61529999999999
 21
30.3357656870042
 31
0.0
  0
LINE
  5
27B
330
1E
100
AcDbEntity
  8
0
100
AcDbLine
 10
37.0
 20
35.5208434209218
 30
0.0
 11
37.0
 21
36.3660757518237
 31
0.0
  0
LINE
  5
27C
330
1E
100
AcDbEntity
  8
0
100
AcDbLine
 10
38.5471
 20
30.5546808607078
 30
0.0
 11
39.0648
 21
29.7381864290565
 31
0.0
  0
LINE
  5
27D
330
1E
100
AcDbEntity
  8
0
100
AcDbLine
 10
38.5471
 20
30.5546808607078
 30
0.0
 11
38.5471
 21
32.3672983898071
 31
0.0
  0
LINE
  5
27E
330
1E
100
AcDbEntity
  8
0
100
AcDbLine
 10
37.1329
 20
29.5192712553529
 30
0.0
 11
39.0648
 21
29.7381864290565
 31
0.0
  0
LINE
  5
27F
330
1E
100
AcDbEntity
  8
0
100
AcDbLine
 10
39.0648
 20
31.55080395815589
 30
0.0
 11
39.0648
 21
29.7381864290565
 31
0.0
  0
LINE
  5
280
330
1E
100
AcDbEntity
  8
0
100
AcDbLine
 10
39.0648
 20
29.7381864290565
 30
0.0
 11
39.0648
 21
31.55080395815589
 31
0.0
  0
LINE
  5
281
330
1E
100
AcDbEntity
  8
0
100
AcDbLine
 10
38.5471
 20
32.3672983898071
 30
0.0
 11
38.5471
 21
30.5546808607078
 31
0.0
  0
LINE
  5
282
330
1E
100
AcDbEntity
  8
0
100
AcDbLine
 10
38.5471
 20
32.3672983898071
 30
0.0
 11
39.0648
 21
31.55080395815589
 31
0.0
  0
LINE
  5
283
330
1E
100
AcDbEntity
  8
0
100
AcDbLine
 10
50.0
 20
37.3334609500211
 30
0.0
 11
50.0
 21
38.17869328092299
 31
0.0
  0
LINE
  5
284
330
1E
100
AcDbEntity
  8
0
100
AcDbLine
 10
50.0
 20
37.3334609500211
 30
0.0
 11
50.0
 21
35.5208434209218
 31
0.0
  0
LINE
  5
285
330
1E
100
AcDbEntity
  8
0
100
AcDbLine
 10
50.0
 20
35.5208434209218
 30
0.0
 11
50.0
 21
37.3334609500211
 31
0.0
  0
LINE
  5
286
330
1E
100
AcDbEntity
  8
0
100
AcDbLine
 10
50.0
 20
35.5208434209218
 30
0.0
 11
52.0
 21
35.5208434209218
 31
0.0
  0
LINE
  5
287
330
1E
100
AcDbEntity
  8
0
100
AcDbLine
 10
50.0
 20
35.5208434209218
 30
0.0
 11
50.0
 21
36.3660757518237
 31
0.0
  0
LINE
  5
288
330
1E
100
AcDbEntity
  8
0
100
AcDbLine
 10
51.1041
 20
31.9764461645178
 30
0.0
 11
51.1041
 21
33.7890636936172
 31
0.0
  0
LINE
  5
289
330
1E
100
AcDbEntity
  8
0
100
AcDbLine
 10
51.1041
 20
31.9764461645178
 30
0.0
 11
53.036
 21
32.19519229175519
 31
0.0
  0
LINE
  5
28A
330
1E
100
AcDbEntity
  8
0
100
AcDbLine
 10
51.1041
 20
31.9764461645178
 30
0.0
 11
51.6218
 21
31.15986720963349
 31
0.0
  0
LINE
  5
28B
330
1E
100
AcDbEntity
  8
0
100
AcDbLine
 10
51.6218
 20
31.15986720963349
 30
0.0
 11
53.55360000000001
 21
31.3787823833371
 31
0.0
  0
LINE
  5
28C
330
1E
100
AcDbEntity
  8
0
100
AcDbLine
 10
51.1041
 20
33.7890636936172
 30
0.0
 11
53.036
 21
34.0078098208546
 31
0.0
  0
LINE
  5
28D
330
1E
100
AcDbEntity
  8
0
100
AcDbLine
 10
51.1041
 20
33.7890636936172
 30
0.0
 11
51.1041
 21
31.9764461645178
 31
0.0
  0
LINE
  5
28E
330
1E
100
AcDbEntity
  8
0
100
AcDbLine
 10
52.0
 20
35.5208434209218
 30
0.0
 11
52.0
 21
36.3660757518237
 31
0.0
  0
LINE
  5
28F
330
1E
100
AcDbEntity
  8
0
100
AcDbLine
 10
53.036
 20
32.19519229175519
 30
0.0
 11
53.55360000000001
 21
31.3787823833371
 31
0.0
  0
LINE
  5
290
330
1E
100
AcDbEntity
  8
0
100
AcDbLine
 10
53.036
 20
32.19519229175519
 30
0.0
 11
53.036
 21
34.0078098208546
 31
0.0
  0
LINE
  5
291
330
1E
100
AcDbEntity
  8
0
100
AcDbLine
 10
57.591
 20
29.36038437262359
 30
0.0
 11
57.591
 21
27.5477668435243
 31
0.0
  0
LINE
  5
292
330
1E
100
AcDbEntity
  8
0
100
AcDbLine
 10
56.591
 20
30.09235557118469
 30
0.0
 11
56.591
 21
28.2797380420853
 31
0.0
  0
LINE
  5
293
330
1E
100
AcDbEntity
  8
0
100
AcDbLine
 10
56.591
 20
30.09235557118469
 30
0.0
 11
57.591
 21
29.36038437262359
 31
0.0
  0
LINE
  5
294
330
1E
100
AcDbEntity
  8
0
100
AcDbLine
 10
54.85899999999999
 20
29.6697394057337
 30
0.0
 11
56.591
 21
30.09235557118469
 31
0.0
  0
LINE
  5
295
330
1E
100
AcDbEntity
  8
0
100
AcDbLine
 10
54.85899999999999
 20
29.6697394057337
 30
0.0
 11
54.85899999999999
 21
27.8571218766344
 31
0.0
  0
LINE
  5
296
330
1E
100
AcDbEntity
  8
0
100
AcDbLine
 10
53.55360000000001
 20
33.1913999124364
 30
0.0
 11
53.55360000000001
 21
31.3787823833371
 31
0.0
  0
LINE
  5
297
330
1E
100
AcDbEntity
  8
0
100
AcDbLine
 10
53.55360000000001
 20
31.3787823833371
 30
0.0
 11
53.55360000000001
 21
33.1913999124364
 31
0.0
  0
LINE
  5
298
330
1E
100
AcDbEntity
  8
0
100
AcDbLine
 10
53.036
 20
34.0078098208546
 30
0.0
 11
53.036
 21
32.19519229175519
 31
0.0
  0
LINE
  5
299
330
1E
100
AcDbEntity
  8
0
100
AcDbLine
 10
53.036
 20
34.0078098208546
 30
0.0
 11
53.55360000000001
 21
33.1913999124364
 31
0.0
  0
LINE
  5
29A
330
1E
100
AcDbEntity
  8
0
100
AcDbLine
 10
65.0
 20
37.3334609500211
 30
0.0
 11
65.0
 21
38.17869328092299
 31
0.0
  0
LINE
  5
29B
330
1E
100
AcDbEntity
  8
0
100
AcDbLine
 10
65.0
 20
37.3334609500211
 30
0.0
 11
65.0
 21
35.5208434209218
 31
0.0
  0
LINE
  5
29C
330
1E
100
AcDbEntity
  8
0
100
AcDbLine
 10
65.0
 20
35.5208434209218
 30
0.0
 11
65.0
 21
37.3334609500211
 31
0.0
  0
LINE
  5
29D
330
1E
100
AcDbEntity
  8
0
100
AcDbLine
 10
65.0
 20
35.5208434209218
 30
0.0
 11
67.0
 21
35.5208434209218
 31
0.0
  0
LINE
  5
29E
330
1E
100
AcDbEntity
  8
0
100
AcDbLine
 10
65.0
 20
35.5208434209218
 30
0.0
 11
65.0
 21
36.3660757518237
 31
0.0
  0
LINE
  5
29F
330
1E
100
AcDbEntity
  8
0
100
AcDbLine
 10
65.593
 20
33.617168903648
 30
0.0
 11
65.593
 21
35.4297864327473
 31
0.0
  0
LINE
  5
2A0
330
1E
100
AcDbEntity
  8
0
100
AcDbLine
 10
65.593
 20
33.617168903648
 30
0.0
 11
67.5249
 21
33.8359150308854
 31
0.0
  0
LINE
  5
2A1
330
1E
100
AcDbEntity
  8
0
100
AcDbLine
 10
65.593
 20
33.617168903648
 30
0.0
 11
66.11069999999999
 21
32.8007167336133
 31
0.0
  0
LINE
  5
2A2
330
1E
100
AcDbEntity
  8
0
100
AcDbLine
 10
66.11069999999999
 20
32.8007167336133
 30
0.0
 11
68.0425
 21
33.0194628608507
 31
0.0
  0
LINE
  5
2A3
330
1E
100
AcDbEntity
  8
0
100
AcDbLine
 10
65.593
 20
35.4297864327473
 30
0.0
 11
66.39718793089439
 21
35.5208434209218
 31
0.0
  0
LINE
  5
2A4
330
1E
100
AcDbEntity
  8
0
100
AcDbLine
 10
65.593
 20
35.4297864327473
 30
0.0
 11
65.593
 21
33.617168903648
 31
0.0
  0
LINE
  5
2A5
330
1E
100
AcDbEntity
  8
0
100
AcDbLine
 10
67.0
 20
35.5890989235714
 30
0.0
 11
67.5249
 21
35.6485325599847
 31
0.0
  0
LINE
  5
2A6
330
1E
100
AcDbEntity
  8
0
100
AcDbLine
 10
67.0
 20
35.5208434209218
 30
0.0
 11
67.0
 21
36.3660757518237
 31
0.0
  0
LINE
  5
2A7
330
1E
100
AcDbEntity
  8
0
100
AcDbLine
 10
67.8494
 20
31.0267431175165
 30
0.0
 11
67.8494
 21
32.8393606466158
 31
0.0
  0
LINE
  5
2A8
330
1E
100
AcDbEntity
  8
0
100
AcDbLine
 10
67.8494
 20
31.0267431175165
 30
0.0
 11
69.5814
 21
31.4493592829674
 31
0.0
  0
LINE
  5
2A9
330
1E
100
AcDbEntity
  8
0
100
AcDbLine
 10
67.8494
 20
31.0267431175165
 30
0.0
 11
68.8494
 21
30.29477191895539
 31
0.0
  0
LINE
  5
2AA
330
1E
100
AcDbEntity
  8
0
100
AcDbLine
 10
67.8494
 20
32.8393606466158
 30
0.0
 11
69.5814
 21
33.2619768120667
 31
0.0
  0
LINE
  5
2AB
330
1E
100
AcDbEntity
  8
0
100
AcDbLine
 10
67.8494
 20
32.8393606466158
 30
0.0
 11
67.8494
 21
31.0267431175165
 31
0.0
  0
LINE
  5
2AC
330
1E
100
AcDbEntity
  8
0
100
AcDbLine
 10
68.0425
 20
34.83208038995011
 30
0.0
 11
68.0425
 21
33.0194628608507
 31
0.0
  0
LINE
  5
2AD
330
1E
100
AcDbEntity
  8
0
100
AcDbLine
 10
67.5249
 20
33.8359150308854
 30
0.0
 11
68.0425
 21
33.0194628608507
 31
0.0
  0
LINE
  5
2AE
330
1E
100
AcDbEntity
  8
0
100
AcDbLine
 10
67.5249
 20
33.8359150308854
 30
0.0
 11
67.5249
 21
35.6485325599847
 31
0.0
  0
LINE
  5
2AF
330
1E
100
AcDbEntity
  8
0
100
AcDbLine
 10
106.971
 20
29.36924251661789
 30
0.0
 11
108.3849999999999
 21
28.7712406425048
 31
0.0
  0
LINE
  5
2B0
330
1E
100
AcDbEntity
  8
0
100
AcDbLine
 10
106.971
 20
29.36924251661789
 30
0.0
 11
106.971
 21
31.1818600457172
 31
0.0
  0
LINE
  5
2B1
330
1E
100
AcDbEntity
  8
0
100
AcDbLine
 10
122.4089999999999
 20
29.36038437262359
 30
0.0
 11
122.4089999999999
 21
27.5477668435243
 31
0.0
  0
LINE
  5
2B2
330
1E
100
AcDbEntity
  8
0
100
AcDbLine
 10
122.4089999999999
 20
29.36038437262359
 30
0.0
 11
123.4089999999999
 21
30.09235557118469
 31
0.0
  0
LINE
  5
2B3
330
1E
100
AcDbEntity
  8
0
100
AcDbLine
 10
100.634
 20
29.1266776331293
 30
0.0
 11
100.634
 21
27.3140601040299
 31
0.0
  0
LINE
  5
2B4
330
1E
100
AcDbEntity
  8
0
100
AcDbLine
 10
100.634
 20
29.1266776331293
 30
0.0
 11
102.366
 21
29.5492937985802
 31
0.0
  0
LINE
  5
2B5
330
1E
100
AcDbEntity
  8
0
100
AcDbLine
 10
170.4309999999999
 20
29.0856838650805
 30
0.0
 11
170.4309999999999
 21
27.2730663359812
 31
0.0
  0
LINE
  5
2B6
330
1E
100
AcDbEntity
  8
0
100
AcDbLine
 10
170.4309999999999
 20
29.0856838650805
 30
0.0
 11
172.3629999999999
 21
28.8667686913769
 31
0.0
  0
LINE
  5
2B7
330
1E
100
AcDbEntity
  8
0
100
AcDbLine
 10
155.942
 20
28.9136622902617
 30
0.0
 11
157.8739999999999
 21
28.6951697327236
 31
0.0
  0
LINE
  5
2B8
330
1E
100
AcDbEntity
  8
0
100
AcDbLine
 10
155.942
 20
28.9136622902617
 30
0.0
 11
155.942
 21
30.72627981936109
 31
0.0
  0
LINE
  5
2B9
330
1E
100
AcDbEntity
  8
0
100
AcDbLine
 10
79.366
 20
29.1266776331293
 30
0.0
 11
79.366
 21
27.3140601040299
 31
0.0
  0
LINE
  5
2BA
330
1E
100
AcDbEntity
  8
0
100
AcDbLine
 10
142.867
 20
29.5192712553529
 30
0.0
 11
143.3849999999999
 21
30.3357656870042
 31
0.0
  0
LINE
  5
2BB
330
1E
100
AcDbEntity
  8
0
100
AcDbLine
 10
102.366
 20
29.5492937985802
 30
0.0
 11
102.366
 21
27.73667626948089
 31
0.0
  0
LINE
  5
2BC
330
1E
100
AcDbEntity
  8
0
100
AcDbLine
 10
102.366
 20
29.5492937985802
 30
0.0
 11
103.366
 21
28.81732260001919
 31
0.0
  0
LINE
  5
2BD
330
1E
100
AcDbEntity
  8
0
100
AcDbLine
 10
140.935
 20
29.7381864290565
 30
0.0
 11
140.935
 21
31.55080395815589
 31
0.0
  0
LINE
  5
2BE
330
1E
100
AcDbEntity
  8
0
100
AcDbLine
 10
140.935
 20
29.7381864290565
 30
0.0
 11
142.867
 21
29.5192712553529
 31
0.0
  0
LINE
  5
2BF
330
1E
100
AcDbEntity
  8
0
100
AcDbLine
 10
140.935
 20
29.7381864290565
 30
0.0
 11
141.453
 21
30.5546808607078
 31
0.0
  0
LINE
  5
2C0
330
1E
100
AcDbEntity
  8
0
100
AcDbLine
 10
125.141
 20
29.6697394057337
 30
0.0
 11
125.141
 21
27.8571218766344
 31
0.0
  0
LINE
  5
2C1
330
1E
100
AcDbEntity
  8
0
100
AcDbLine
 10
105.556
 20
30.58385817160409
 30
0.0
 11
105.556
 21
28.7712406425048
 31
0.0
  0
LINE
  5
2C2
330
1E
100
AcDbEntity
  8
0
100
AcDbLine
 10
105.556
 20
30.58385817160409
 30
0.0
 11
106.971
 21
31.1818600457172
 31
0.0
  0
LINE
  5
2C3
330
1E
100
AcDbEntity
  8
0
100
AcDbLine
 10
108.3849999999999
 20
30.58385817160409
 30
0.0
 11
108.3849999999999
 21
28.7712406425048
 31
0.0
  0
LINE
  5
2C4
330
1E
100
AcDbEntity
  8
0
100
AcDbLine
 10
109.419
 20
30.7173880844064
 30
0.0
 11
109.419
 21
32.5300056135057
 31
0.0
  0
LINE
  5
2C5
330
1E
100
AcDbEntity
  8
0
100
AcDbLine
 10
109.419
 20
30.7173880844064
 30
0.0
 11
111.151
 21
30.29477191895539
 31
0.0
  0
LINE
  5
2C6
330
1E
100
AcDbEntity
  8
0
100
AcDbLine
 10
109.419
 20
30.7173880844064
 30
0.0
 11
110.419
 21
31.4493592829674
 31
0.0
  0
LINE
  5
2C7
330
1E
100
AcDbEntity
  8
0
100
AcDbLine
 10
143.3849999999999
 20
30.3357656870042
 30
0.0
 11
143.3849999999999
 21
32.1483832161035
 31
0.0
  0
LINE
  5
2C8
330
1E
100
AcDbEntity
  8
0
100
AcDbLine
 10
141.453
 20
30.5546808607078
 30
0.0
 11
143.3849999999999
 21
30.3357656870042
 31
0.0
  0
LINE
  5
2C9
330
1E
100
AcDbEntity
  8
0
100
AcDbLine
 10
141.453
 20
30.5546808607078
 30
0.0
 11
141.453
 21
32.3672983898071
 31
0.0
  0
LINE
  5
2CA
330
1E
100
AcDbEntity
  8
0
100
AcDbLine
 10
123.4089999999999
 20
30.09235557118469
 30
0.0
 11
123.4089999999999
 21
28.2797380420853
 31
0.0
  0
LINE
  5
2CB
330
1E
100
AcDbEntity
  8
0
100
AcDbLine
 10
123.4089999999999
 20
30.09235557118469
 30
0.0
 11
125.141
 21
29.6697394057337
 31
0.0
  0
LINE
  5
2CC
330
1E
100
AcDbEntity
  8
0
100
AcDbLine
 10
111.151
 20
30.29477191895539
 30
0.0
 11
112.151
 21
31.0267431175165
 31
0.0
  0
LINE
  5
2CD
330
1E
100
AcDbEntity
  8
0
100
AcDbLine
 10
155.424
 20
29.9097853877099
 30
0.0
 11
155.424
 21
28.0971678586105
 31
0.0
  0
LINE
  5
2CE
330
1E
100
AcDbEntity
  8
0
100
AcDbLine
 10
155.424
 20
29.9097853877099
 30
0.0
 11
155.942
 21
30.72627981936109
 31
0.0
  0
LINE
  5
2CF
330
1E
100
AcDbEntity
  8
0
100
AcDbLine
 10
157.8739999999999
 20
30.5077872618229
 30
0.0
 11
157.8739999999999
 21
28.6951697327236
 31
0.0
  0
LINE
  5
2D0
330
1E
100
AcDbEntity
  8
0
100
AcDbLine
 10
77.634
 20
29.5492937985802
 30
0.0
 11
77.634
 21
27.73667626948089
 31
0.0
  0
LINE
  5
2D1
330
1E
100
AcDbEntity
  8
0
100
AcDbLine
 10
77.634
 20
29.5492937985802
 30
0.0
 11
79.366
 21
29.1266776331293
 31
0.0
  0
LINE
  5
2D2
330
1E
100
AcDbEntity
  8
0
100
AcDbLine
 10
74.4436
 20
30.58385817160409
 30
0.0
 11
74.4436
 21
28.7712406425048
 31
0.0
  0
LINE
  5
2D3
330
1E
100
AcDbEntity
  8
0
100
AcDbLine
 10
73.02939999999999
 20
29.36924251661789
 30
0.0
 11
74.4436
 21
28.7712406425048
 31
0.0
  0
LINE
  5
2D4
330
1E
100
AcDbEntity
  8
0
100
AcDbLine
 10
73.02939999999999
 20
29.36924251661789
 30
0.0
 11
73.02939999999999
 21
31.1818600457172
 31
0.0
  0
LINE
  5
2D5
330
1E
100
AcDbEntity
  8
0
100
AcDbLine
 10
71.6152
 20
30.58385817160409
 30
0.0
 11
73.02939999999999
 21
31.1818600457172
 31
0.0
  0
LINE
  5
2D6
330
1E
100
AcDbEntity
  8
0
100
AcDbLine
 10
71.6152
 20
30.58385817160409
 30
0.0
 11
71.6152
 21
28.7712406425048
 31
0.0
  0
LINE
  5
2D7
330
1E
100
AcDbEntity
  8
0
100
AcDbLine
 10
106.971
 20
31.1818600457172
 30
0.0
 11
106.971
 21
29.36924251661789
 31
0.0
  0
LINE
  5
2D8
330
1E
100
AcDbEntity
  8
0
100
AcDbLine
 10
106.971
 20
31.1818600457172
 30
0.0
 11
108.3849999999999
 21
30.58385817160409
 31
0.0
  0
LINE
  5
2D9
330
1E
100
AcDbEntity
  8
0
100
AcDbLine
 10
109.419
 20
32.5300056135057
 30
0.0
 11
109.419
 21
30.7173880844064
 31
0.0
  0
LINE
  5
2DA
330
1E
100
AcDbEntity
  8
0
100
AcDbLine
 10
109.419
 20
32.5300056135057
 30
0.0
 11
110.419
 21
33.2619768120667
 31
0.0
  0
LINE
  5
2DB
330
1E
100
AcDbEntity
  8
0
100
AcDbLine
 10
126.4459999999999
 20
31.3787823833371
 30
0.0
 11
126.4459999999999
 21
33.1913999124364
 31
0.0
  0
LINE
  5
2DC
330
1E
100
AcDbEntity
  8
0
100
AcDbLine
 10
126.4459999999999
 20
31.3787823833371
 30
0.0
 11
128.3779999999999
 21
31.15986720963349
 31
0.0
  0
LINE
  5
2DD
330
1E
100
AcDbEntity
  8
0
100
AcDbLine
 10
126.4459999999999
 20
31.3787823833371
 30
0.0
 11
126.964
 21
32.19519229175519
 31
0.0
  0
LINE
  5
2DE
330
1E
100
AcDbEntity
  8
0
100
AcDbLine
 10
140.935
 20
31.55080395815589
 30
0.0
 11
140.935
 21
29.7381864290565
 31
0.0
  0
LINE
  5
2DF
330
1E
100
AcDbEntity
  8
0
100
AcDbLine
 10
140.935
 20
31.55080395815589
 30
0.0
 11
141.453
 21
32.3672983898071
 31
0.0
  0
LINE
  5
2E0
330
1E
100
AcDbEntity
  8
0
100
AcDbLine
 10
128.3779999999999
 20
31.15986720963349
 30
0.0
 11
128.896
 21
31.9764461645178
 31
0.0
  0
LINE
  5
2E1
330
1E
100
AcDbEntity
  8
0
100
AcDbLine
 10
143.3849999999999
 20
32.1483832161035
 30
0.0
 11
143.3849999999999
 21
30.3357656870042
 31
0.0
  0
LINE
  5
2E2
330
1E
100
AcDbEntity
  8
0
100
AcDbLine
 10
141.453
 20
32.3672983898071
 30
0.0
 11
141.453
 21
30.5546808607078
 31
0.0
  0
LINE
  5
2E3
330
1E
100
AcDbEntity
  8
0
100
AcDbLine
 10
141.453
 20
32.3672983898071
 30
0.0
 11
143.3849999999999
 21
32.1483832161035
 31
0.0
  0
LINE
  5
2E4
330
1E
100
AcDbEntity
  8
0
100
AcDbLine
 10
128.896
 20
31.9764461645178
 30
0.0
 11
128.896
 21
33.7890636936172
 31
0.0
  0
LINE
  5
2E5
330
1E
100
AcDbEntity
  8
0
100
AcDbLine
 10
126.964
 20
32.19519229175519
 30
0.0
 11
128.896
 21
31.9764461645178
 31
0.0
  0
LINE
  5
2E6
330
1E
100
AcDbEntity
  8
0
100
AcDbLine
 10
126.964
 20
32.19519229175519
 30
0.0
 11
126.964
 21
34.0078098208546
 31
0.0
  0
LINE
  5
2E7
330
1E
100
AcDbEntity
  8
0
100
AcDbLine
 10
112.151
 20
31.0267431175165
 30
0.0
 11
112.151
 21
32.8393606466158
 31
0.0
  0
LINE
  5
2E8
330
1E
100
AcDbEntity
  8
0
100
AcDbLine
 10
110.419
 20
31.4493592829674
 30
0.0
 11
112.151
 21
31.0267431175165
 31
0.0
  0
LINE
  5
2E9
330
1E
100
AcDbEntity
  8
0
100
AcDbLine
 10
110.419
 20
31.4493592829674
 30
0.0
 11
110.419
 21
33.2619768120667
 31
0.0
  0
LINE
  5
2EA
330
1E
100
AcDbEntity
  8
0
100
AcDbLine
 10
155.942
 20
30.72627981936109
 30
0.0
 11
155.942
 21
28.9136622902617
 31
0.0
  0
LINE
  5
2EB
330
1E
100
AcDbEntity
  8
0
100
AcDbLine
 10
155.942
 20
30.72627981936109
 30
0.0
 11
157.8739999999999
 21
30.5077872618229
 31
0.0
  0
LINE
  5
2EC
330
1E
100
AcDbEntity
  8
0
100
AcDbLine
 10
73.02939999999999
 20
31.1818600457172
 30
0.0
 11
73.02939999999999
 21
29.36924251661789
 31
0.0
  0
LINE
  5
2ED
330
1E
100
AcDbEntity
  8
0
100
AcDbLine
 10
73.02939999999999
 20
31.1818600457172
 30
0.0
 11
74.4436
 21
30.58385817160409
 31
0.0
  0
LINE
  5
2EE
330
1E
100
AcDbEntity
  8
0
100
AcDbLine
 10
113.8889999999999
 20
32.8007167336133
 30
0.0
 11
114.407
 21
33.617168903648
 31
0.0
  0
LINE
  5
2EF
330
1E
100
AcDbEntity
  8
0
100
AcDbLine
 10
126.4459999999999
 20
33.1913999124364
 30
0.0
 11
126.4459999999999
 21
31.3787823833371
 31
0.0
  0
LINE
  5
2F0
330
1E
100
AcDbEntity
  8
0
100
AcDbLine
 10
126.4459999999999
 20
33.1913999124364
 30
0.0
 11
126.964
 21
34.0078098208546
 31
0.0
  0
LINE
  5
2F1
330
1E
100
AcDbEntity
  8
0
100
AcDbLine
 10
111.957
 20
33.0194628608507
 30
0.0
 11
111.957
 21
34.83208038995011
 31
0.0
  0
LINE
  5
2F2
330
1E
100
AcDbEntity
  8
0
100
AcDbLine
 10
111.957
 20
33.0194628608507
 30
0.0
 11
113.8889999999999
 21
32.8007167336133
 31
0.0
  0
LINE
  5
2F3
330
1E
100
AcDbEntity
  8
0
100
AcDbLine
 10
111.957
 20
33.0194628608507
 30
0.0
 11
112.4749999999999
 21
33.8359150308854
 31
0.0
  0
LINE
  5
2F4
330
1E
100
AcDbEntity
  8
0
100
AcDbLine
 10
112.151
 20
32.8393606466158
 30
0.0
 11
112.151
 21
31.0267431175165
 31
0.0
  0
LINE
  5
2F5
330
1E
100
AcDbEntity
  8
0
100
AcDbLine
 10
110.419
 20
33.2619768120667
 30
0.0
 11
110.419
 21
31.4493592829674
 31
0.0
  0
LINE
  5
2F6
330
1E
100
AcDbEntity
  8
0
100
AcDbLine
 10
110.419
 20
33.2619768120667
 30
0.0
 11
112.151
 21
32.8393606466158
 31
0.0
  0
LINE
  5
2F7
330
1E
100
AcDbEntity
  8
0
100
AcDbLine
 10
70.5814
 20
32.5300056135057
 30
0.0
 11
70.5814
 21
30.7173880844064
 31
0.0
  0
LINE
  5
2F8
330
1E
100
AcDbEntity
  8
0
100
AcDbLine
 10
69.5814
 20
31.4493592829674
 30
0.0
 11
70.5814
 21
30.7173880844064
 31
0.0
  0
LINE
  5
2F9
330
1E
100
AcDbEntity
  8
0
100
AcDbLine
 10
69.5814
 20
31.4493592829674
 30
0.0
 11
69.5814
 21
33.2619768120667
 31
0.0
  0
LINE
  5
2FA
330
1E
100
AcDbEntity
  8
0
100
AcDbLine
 10
70.5814
 20
30.7173880844064
 30
0.0
 11
70.5814
 21
32.5300056135057
 31
0.0
  0
LINE
  5
2FB
330
1E
100
AcDbEntity
  8
0
100
AcDbLine
 10
68.8494
 20
30.29477191895539
 30
0.0
 11
70.5814
 21
30.7173880844064
 31
0.0
  0
LINE
  5
2FC
330
1E
100
AcDbEntity
  8
0
100
AcDbLine
 10
111.957
 20
34.83208038995011
 30
0.0
 11
111.957
 21
33.0194628608507
 31
0.0
  0
LINE
  5
2FD
330
1E
100
AcDbEntity
  8
0
100
AcDbLine
 10
111.957
 20
34.83208038995011
 30
0.0
 11
112.4749999999999
 21
35.6485325599847
 31
0.0
  0
LINE
  5
2FE
330
1E
100
AcDbEntity
  8
0
100
AcDbLine
 10
112.4749999999999
 20
35.6485325599847
 30
0.0
 11
112.4749999999999
 21
33.8359150308854
 31
0.0
  0
LINE
  5
2FF
330
1E
100
AcDbEntity
  8
0
100
AcDbLine
 10
112.4749999999999
 20
35.6485325599847
 30
0.0
 11
113.0
 21
35.5890906775833
 31
0.0
  0
LINE
  5
300
330
1E
100
AcDbEntity
  8
0
100
AcDbLine
 10
113.0
 20
35.5208434209218
 30
0.0
 11
113.0
 21
37.3334609500211
 31
0.0
  0
LINE
  5
301
330
1E
100
AcDbEntity
  8
0
100
AcDbLine
 10
113.0
 20
35.5208434209218
 30
0.0
 11
115.0
 21
35.5208434209218
 31
0.0
  0
LINE
  5
302
330
1E
100
AcDbEntity
  8
0
100
AcDbLine
 10
113.0
 20
35.5208434209218
 30
0.0
 11
113.0
 21
36.3660757518237
 31
0.0
  0
LINE
  5
303
330
1E
100
AcDbEntity
  8
0
100
AcDbLine
 10
114.407
 20
35.4297864327473
 30
0.0
 11
114.407
 21
33.617168903648
 31
0.0
  0
LINE
  5
304
330
1E
100
AcDbEntity
  8
0
100
AcDbLine
 10
128.896
 20
33.7890636936172
 30
0.0
 11
128.896
 21
31.9764461645178
 31
0.0
  0
LINE
  5
305
330
1E
100
AcDbEntity
  8
0
100
AcDbLine
 10
145.0
 20
35.5208434209218
 30
0.0
 11
145.0
 21
36.3660757518237
 31
0.0
  0
LINE
  5
306
330
1E
100
AcDbEntity
  8
0
100
AcDbLine
 10
143.0
 20
35.5208434209218
 30
0.0
 11
143.0
 21
37.3334609500211
 31
0.0
  0
LINE
  5
307
330
1E
100
AcDbEntity
  8
0
100
AcDbLine
 10
143.0
 20
35.5208434209218
 30
0.0
 11
145.0
 21
35.5208434209218
 31
0.0
  0
LINE
  5
308
330
1E
100
AcDbEntity
  8
0
100
AcDbLine
 10
143.0
 20
35.5208434209218
 30
0.0
 11
143.0
 21
36.3660757518237
 31
0.0
  0
LINE
  5
309
330
1E
100
AcDbEntity
  8
0
100
AcDbLine
 10
130.0
 20
35.5208434209218
 30
0.0
 11
130.0
 21
36.3660757518237
 31
0.0
  0
LINE
  5
30A
330
1E
100
AcDbEntity
  8
0
100
AcDbLine
 10
128.0
 20
35.5208434209218
 30
0.0
 11
128.0
 21
37.3334609500211
 31
0.0
  0
LINE
  5
30B
330
1E
100
AcDbEntity
  8
0
100
AcDbLine
 10
128.0
 20
35.5208434209218
 30
0.0
 11
130.0
 21
35.5208434209218
 31
0.0
  0
LINE
  5
30C
330
1E
100
AcDbEntity
  8
0
100
AcDbLine
 10
128.0
 20
35.5208434209218
 30
0.0
 11
128.0
 21
36.3660757518237
 31
0.0
  0
LINE
  5
30D
330
1E
100
AcDbEntity
  8
0
100
AcDbLine
 10
115.0
 20
35.5208434209218
 30
0.0
 11
115.0
 21
36.3660757518237
 31
0.0
  0
LINE
  5
30E
330
1E
100
AcDbEntity
  8
0
100
AcDbLine
 10
175.0
 20
35.5208434209218
 30
0.0
 11
175.0
 21
36.3660757518237
 31
0.0
  0
LINE
  5
30F
330
1E
100
AcDbEntity
  8
0
100
AcDbLine
 10
173.0
 20
35.5208434209218
 30
0.0
 11
173.0
 21
37.3334609500211
 31
0.0
  0
LINE
  5
310
330
1E
100
AcDbEntity
  8
0
100
AcDbLine
 10
173.0
 20
35.5208434209218
 30
0.0
 11
175.0
 21
35.5208434209218
 31
0.0
  0
LINE
  5
311
330
1E
100
AcDbEntity
  8
0
100
AcDbLine
 10
173.0
 20
35.5208434209218
 30
0.0
 11
173.0
 21
36.3660757518237
 31
0.0
  0
LINE
  5
312
330
1E
100
AcDbEntity
  8
0
100
AcDbLine
 10
160.0
 20
35.5208434209218
 30
0.0
 11
160.0
 21
36.3660757518237
 31
0.0
  0
LINE
  5
313
330
1E
100
AcDbEntity
  8
0
100
AcDbLine
 10
158.0
 20
35.5208434209218
 30
0.0
 11
158.0
 21
37.3334609500211
 31
0.0
  0
LINE
  5
314
330
1E
100
AcDbEntity
  8
0
100
AcDbLine
 10
158.0
 20
35.5208434209218
 30
0.0
 11
160.0
 21
35.5208434209218
 31
0.0
  0
LINE
  5
315
330
1E
100
AcDbEntity
  8
0
100
AcDbLine
 10
158.0
 20
35.5208434209218
 30
0.0
 11
158.0
 21
36.3660757518237
 31
0.0
  0
LINE
  5
316
330
1E
100
AcDbEntity
  8
0
100
AcDbLine
 10
126.964
 20
34.0078098208546
 30
0.0
 11
126.964
 21
32.19519229175519
 31
0.0
  0
LINE
  5
317
330
1E
100
AcDbEntity
  8
0
100
AcDbLine
 10
126.964
 20
34.0078098208546
 30
0.0
 11
128.896
 21
33.7890636936172
 31
0.0
  0
LINE
  5
318
330
1E
100
AcDbEntity
  8
0
100
AcDbLine
 10
114.407
 20
33.617168903648
 30
0.0
 11
114.407
 21
35.4297864327473
 31
0.0
  0
LINE
  5
319
330
1E
100
AcDbEntity
  8
0
100
AcDbLine
 10
113.602770442317
 20
35.5208434209218
 30
0.0
 11
114.407
 21
35.4297864327473
 31
0.0
  0
LINE
  5
31A
330
1E
100
AcDbEntity
  8
0
100
AcDbLine
 10
112.4749999999999
 20
33.8359150308854
 30
0.0
 11
114.407
 21
33.617168903648
 31
0.0
  0
LINE
  5
31B
330
1E
100
AcDbEntity
  8
0
100
AcDbLine
 10
112.4749999999999
 20
33.8359150308854
 30
0.0
 11
112.4749999999999
 21
35.6485325599847
 31
0.0
  0
LINE
  5
31C
330
1E
100
AcDbEntity
  8
0
100
AcDbLine
 10
69.5814
 20
33.2619768120667
 30
0.0
 11
69.5814
 21
31.4493592829674
 31
0.0
  0
LINE
  5
31D
330
1E
100
AcDbEntity
  8
0
100
AcDbLine
 10
69.5814
 20
33.2619768120667
 30
0.0
 11
70.5814
 21
32.5300056135057
 31
0.0
  0
LINE
  5
31E
330
1E
100
AcDbEntity
  8
0
100
AcDbLine
 10
68.0425
 20
33.0194628608507
 30
0.0
 11
68.0425
 21
34.83208038995011
 31
0.0
  0
LINE
  5
31F
330
1E
100
AcDbEntity
  8
0
100
AcDbLine
 10
113.0
 20
37.3334609500211
 30
0.0
 11
113.0
 21
35.5208434209218
 31
0.0
  0
LINE
  5
320
330
1E
100
AcDbEntity
  8
0
100
AcDbLine
 10
113.0
 20
37.3334609500211
 30
0.0
 11
113.0
 21
38.1104460242615
 31
0.0
  0
LINE
  5
321
330
1E
100
AcDbEntity
  8
0
100
AcDbLine
 10
145.0
 20
36.3660757518237
 30
0.0
 11
145.0
 21
38.17869328092299
 31
0.0
  0
LINE
  5
322
330
1E
100
AcDbEntity
  8
0
100
AcDbLine
 10
145.0
 20
36.3660757518237
 30
0.0
 11
145.0
 21
35.5208434209218
 31
0.0
  0
LINE
  5
323
330
1E
100
AcDbEntity
  8
0
100
AcDbLine
 10
143.0
 20
36.3660757518237
 30
0.0
 11
145.0
 21
36.3660757518237
 31
0.0
  0
LINE
  5
324
330
1E
100
AcDbEntity
  8
0
100
AcDbLine
 10
143.0
 20
36.3660757518237
 30
0.0
 11
143.0
 21
35.5208434209218
 31
0.0
  0
LINE
  5
325
330
1E
100
AcDbEntity
  8
0
100
AcDbLine
 10
143.0
 20
36.3660757518237
 30
0.0
 11
143.0
 21
38.17869328092299
 31
0.0
  0
LINE
  5
326
330
1E
100
AcDbEntity
  8
0
100
AcDbLine
 10
130.0
 20
36.3660757518237
 30
0.0
 11
130.0
 21
38.17869328092299
 31
0.0
  0
LINE
  5
327
330
1E
100
AcDbEntity
  8
0
100
AcDbLine
 10
130.0
 20
36.3660757518237
 30
0.0
 11
130.0
 21
35.5208434209218
 31
0.0
  0
LINE
  5
328
330
1E
100
AcDbEntity
  8
0
100
AcDbLine
 10
128.0
 20
36.3660757518237
 30
0.0
 11
130.0
 21
36.3660757518237
 31
0.0
  0
LINE
  5
329
330
1E
100
AcDbEntity
  8
0
100
AcDbLine
 10
128.0
 20
36.3660757518237
 30
0.0
 11
128.0
 21
35.5208434209218
 31
0.0
  0
LINE
  5
32A
330
1E
100
AcDbEntity
  8
0
100
AcDbLine
 10
128.0
 20
36.3660757518237
 30
0.0
 11
128.0
 21
38.17869328092299
 31
0.0
  0
LINE
  5
32B
330
1E
100
AcDbEntity
  8
0
100
AcDbLine
 10
143.0
 20
37.3334609500211
 30
0.0
 11
143.0
 21
35.5208434209218
 31
0.0
  0
LINE
  5
32C
330
1E
100
AcDbEntity
  8
0
100
AcDbLine
 10
143.0
 20
37.3334609500211
 30
0.0
 11
143.0
 21
38.17869328092299
 31
0.0
  0
LINE
  5
32D
330
1E
100
AcDbEntity
  8
0
100
AcDbLine
 10
128.0
 20
37.3334609500211
 30
0.0
 11
128.0
 21
35.5208434209218
 31
0.0
  0
LINE
  5
32E
330
1E
100
AcDbEntity
  8
0
100
AcDbLine
 10
128.0
 20
37.3334609500211
 30
0.0
 11
128.0
 21
38.17869328092299
 31
0.0
  0
LINE
  5
32F
330
1E
100
AcDbEntity
  8
0
100
AcDbLine
 10
115.0
 20
36.3660757518237
 30
0.0
 11
115.0
 21
38.17869328092299
 31
0.0
  0
LINE
  5
330
330
1E
100
AcDbEntity
  8
0
100
AcDbLine
 10
115.0
 20
36.3660757518237
 30
0.0
 11
115.0
 21
35.5208434209218
 31
0.0
  0
LINE
  5
331
330
1E
100
AcDbEntity
  8
0
100
AcDbLine
 10
113.0
 20
36.3660757518237
 30
0.0
 11
115.0
 21
36.3660757518237
 31
0.0
  0
LINE
  5
332
330
1E
100
AcDbEntity
  8
0
100
AcDbLine
 10
113.0
 20
36.3660757518237
 30
0.0
 11
113.0
 21
35.5208434209218
 31
0.0
  0
LINE
  5
333
330
1E
100
AcDbEntity
  8
0
100
AcDbLine
 10
113.0
 20
36.3660757518237
 30
0.0
 11
113.0
 21
38.1104460242615
 31
0.0
  0
LINE
  5
334
330
1E
100
AcDbEntity
  8
0
100
AcDbLine
 10
67.5249
 20
38.05100414186
 30
0.0
 11
68.0425
 21
38.8674563118947
 31
0.0
  0
LINE
  5
335
330
1E
100
AcDbEntity
  8
0
100
AcDbLine
 10
112.4749999999999
 20
38.05100414186
 30
0.0
 11
114.407
 21
38.2697502690974
 31
0.0
  0
LINE
  5
336
330
1E
100
AcDbEntity
  8
0
100
AcDbLine
 10
158.0
 20
37.3334609500211
 30
0.0
 11
158.0
 21
35.5208434209218
 31
0.0
  0
LINE
  5
337
330
1E
100
AcDbEntity
  8
0
100
AcDbLine
 10
158.0
 20
37.3334609500211
 30
0.0
 11
158.0
 21
38.17869328092299
 31
0.0
  0
LINE
  5
338
330
1E
100
AcDbEntity
  8
0
100
AcDbLine
 10
175.0
 20
36.3660757518237
 30
0.0
 11
175.0
 21
38.17869328092299
 31
0.0
  0
LINE
  5
339
330
1E
100
AcDbEntity
  8
0
100
AcDbLine
 10
175.0
 20
36.3660757518237
 30
0.0
 11
175.0
 21
35.5208434209218
 31
0.0
  0
LINE
  5
33A
330
1E
100
AcDbEntity
  8
0
100
AcDbLine
 10
173.0
 20
36.3660757518237
 30
0.0
 11
175.0
 21
36.3660757518237
 31
0.0
  0
LINE
  5
33B
330
1E
100
AcDbEntity
  8
0
100
AcDbLine
 10
173.0
 20
36.3660757518237
 30
0.0
 11
173.0
 21
35.5208434209218
 31
0.0
  0
LINE
  5
33C
330
1E
100
AcDbEntity
  8
0
100
AcDbLine
 10
173.0
 20
36.3660757518237
 30
0.0
 11
173.0
 21
38.17869328092299
 31
0.0
  0
LINE
  5
33D
330
1E
100
AcDbEntity
  8
0
100
AcDbLine
 10
173.0
 20
37.3334609500211
 30
0.0
 11
173.0
 21
35.5208434209218
 31
0.0
  0
LINE
  5
33E
330
1E
100
AcDbEntity
  8
0
100
AcDbLine
 10
173.0
 20
37.3334609500211
 30
0.0
 11
173.0
 21
38.17869328092299
 31
0.0
  0
LINE
  5
33F
330
1E
100
AcDbEntity
  8
0
100
AcDbLine
 10
160.0
 20
36.3660757518237
 30
0.0
 11
160.0
 21
38.17869328092299
 31
0.0
  0
LINE
  5
340
330
1E
100
AcDbEntity
  8
0
100
AcDbLine
 10
160.0
 20
36.3660757518237
 30
0.0
 11
160.0
 21
35.5208434209218
 31
0.0
  0
LINE
  5
341
330
1E
100
AcDbEntity
  8
0
100
AcDbLine
 10
158.0
 20
36.3660757518237
 30
0.0
 11
160.0
 21
36.3660757518237
 31
0.0
  0
LINE
  5
342
330
1E
100
AcDbEntity
  8
0
100
AcDbLine
 10
158.0
 20
36.3660757518237
 30
0.0
 11
158.0
 21
35.5208434209218
 31
0.0
  0
LINE
  5
343
330
1E
100
AcDbEntity
  8
0
100
AcDbLine
 10
158.0
 20
36.3660757518237
 30
0.0
 11
158.0
 21
38.17869328092299
 31
0.0
  0
LINE
  5
344
330
1E
100
AcDbEntity
  8
0
100
AcDbLine
 10
67.5249
 20
35.6485325599847
 30
0.0
 11
67.5249
 21
33.8359150308854
 31
0.0
  0
LINE
  5
345
330
1E
100
AcDbEntity
  8
0
100
AcDbLine
 10
67.5249
 20
35.6485325599847
 30
0.0
 11
68.0425
 21
34.83208038995011
 31
0.0
  0
LINE
  5
346
330
1E
100
AcDbEntity
  8
0
100
AcDbLine
 10
67.0
 20
36.3660757518237
 30
0.0
 11
67.0
 21
35.5208434209218
 31
0.0
  0
LINE
  5
347
330
1E
100
AcDbEntity
  8
0
100
AcDbLine
 10
67.0
 20
36.3660757518237
 30
0.0
 11
67.0
 21
38.11043777827339
 31
0.0
  0
LINE
  5
348
330
1E
100
AcDbEntity
  8
0
100
AcDbLine
 10
145.0
 20
38.17869328092299
 30
0.0
 11
145.0
 21
36.3660757518237
 31
0.0
  0
LINE
  5
349
330
1E
100
AcDbEntity
  8
0
100
AcDbLine
 10
143.0
 20
38.17869328092299
 30
0.0
 11
143.0
 21
36.3660757518237
 31
0.0
  0
LINE
  5
34A
330
1E
100
AcDbEntity
  8
0
100
AcDbLine
 10
143.0
 20
38.17869328092299
 30
0.0
 11
145.0
 21
38.17869328092299
 31
0.0
  0
LINE
  5
34B
330
1E
100
AcDbEntity
  8
0
100
AcDbLine
 10
143.0
 20
38.17869328092299
 30
0.0
 11
143.0
 21
37.3334609500211
 31
0.0
  0
LINE
  5
34C
330
1E
100
AcDbEntity
  8
0
100
AcDbLine
 10
130.0
 20
38.17869328092299
 30
0.0
 11
130.0
 21
36.3660757518237
 31
0.0
  0
LINE
  5
34D
330
1E
100
AcDbEntity
  8
0
100
AcDbLine
 10
128.0
 20
38.17869328092299
 30
0.0
 11
128.0
 21
36.3660757518237
 31
0.0
  0
LINE
  5
34E
330
1E
100
AcDbEntity
  8
0
100
AcDbLine
 10
128.0
 20
38.17869328092299
 30
0.0
 11
130.0
 21
38.17869328092299
 31
0.0
  0
LINE
  5
34F
330
1E
100
AcDbEntity
  8
0
100
AcDbLine
 10
128.0
 20
38.17869328092299
 30
0.0
 11
128.0
 21
37.3334609500211
 31
0.0
  0
LINE
  5
350
330
1E
100
AcDbEntity
  8
0
100
AcDbLine
 10
115.0
 20
38.17869328092299
 30
0.0
 11
115.0
 21
36.3660757518237
 31
0.0
  0
LINE
  5
351
330
1E
100
AcDbEntity
  8
0
100
AcDbLine
 10
113.602770442317
 20
38.17869328092299
 30
0.0
 11
115.0
 21
38.17869328092299
 31
0.0
  0
LINE
  5
352
330
1E
100
AcDbEntity
  8
0
100
AcDbLine
 10
113.0
 20
38.1104460242615
 30
0.0
 11
113.0
 21
36.3660757518237
 31
0.0
  0
LINE
  5
353
330
1E
100
AcDbEntity
  8
0
100
AcDbLine
 10
113.0
 20
38.1104460242615
 30
0.0
 11
113.0
 21
37.3334609500211
 31
0.0
  0
LINE
  5
354
330
1E
100
AcDbEntity
  8
0
100
AcDbLine
 10
175.0
 20
38.17869328092299
 30
0.0
 11
175.0
 21
36.3660757518237
 31
0.0
  0
LINE
  5
355
330
1E
100
AcDbEntity
  8
0
100
AcDbLine
 10
173.0
 20
38.17869328092299
 30
0.0
 11
173.0
 21
36.3660757518237
 31
0.0
  0
LINE
  5
356
330
1E
100
AcDbEntity
  8
0
100
AcDbLine
 10
173.0
 20
38.17869328092299
 30
0.0
 11
175.0
 21
38.17869328092299
 31
0.0
  0
LINE
  5
357
330
1E
100
AcDbEntity
  8
0
100
AcDbLine
 10
173.0
 20
38.17869328092299
 30
0.0
 11
173.0
 21
37.3334609500211
 31
0.0
  0
LINE
  5
358
330
1E
100
AcDbEntity
  8
0
100
AcDbLine
 10
160.0
 20
38.17869328092299
 30
0.0
 11
160.0
 21
36.3660757518237
 31
0.0
  0
LINE
  5
359
330
1E
100
AcDbEntity
  8
0
100
AcDbLine
 10
158.0
 20
38.17869328092299
 30
0.0
 11
158.0
 21
36.3660757518237
 31
0.0
  0
LINE
  5
35A
330
1E
100
AcDbEntity
  8
0
100
AcDbLine
 10
158.0
 20
38.17869328092299
 30
0.0
 11
160.0
 21
38.17869328092299
 31
0.0
  0
LINE
  5
35B
330
1E
100
AcDbEntity
  8
0
100
AcDbLine
 10
158.0
 20
38.17869328092299
 30
0.0
 11
158.0
 21
37.3334609500211
 31
0.0
  0
LINE
  5
35C
330
1E
100
AcDbEntity
  8
0
100
AcDbLine
 10
67.0
 20
38.11043777827339
 30
0.0
 11
67.0
 21
36.3660757518237
 31
0.0
  0
LINE
  5
35D
330
1E
100
AcDbEntity
  8
0
100
AcDbLine
 10
65.0
 20
36.3660757518237
 30
0.0
 11
65.0
 21
38.17869328092299
 31
0.0
  0
LINE
  5
35E
330
1E
100
AcDbEntity
  8
0
100
AcDbLine
 10
65.0
 20
36.3660757518237
 30
0.0
 11
67.0
 21
36.3660757518237
 31
0.0
  0
LINE
  5
35F
330
1E
100
AcDbEntity
  8
0
100
AcDbLine
 10
65.0
 20
36.3660757518237
 30
0.0
 11
65.0
 21
35.5208434209218
 31
0.0
  0
LINE
  5
360
330
1E
100
AcDbEntity
  8
0
100
AcDbLine
 10
65.0
 20
38.17869328092299
 30
0.0
 11
66.3971879308943
 21
38.17869328092299
 31
0.0
  0
LINE
  5
361
330
1E
100
AcDbEntity
  8
0
100
AcDbLine
 10
65.0
 20
38.17869328092299
 30
0.0
 11
65.0
 21
36.3660757518237
 31
0.0
  0
LINE
  5
362
330
1E
100
AcDbEntity
  8
0
100
AcDbLine
 10
65.0
 20
38.17869328092299
 30
0.0
 11
65.0
 21
37.3334609500211
 31
0.0
  0
LINE
  5
363
330
1E
100
AcDbEntity
  8
0
100
AcDbLine
 10
52.0
 20
36.3660757518237
 30
0.0
 11
52.0
 21
35.5208434209218
 31
0.0
  0
LINE
  5
364
330
1E
100
AcDbEntity
  8
0
100
AcDbLine
 10
52.0
 20
36.3660757518237
 30
0.0
 11
52.0
 21
38.17869328092299
 31
0.0
  0
LINE
  5
365
330
1E
100
AcDbEntity
  8
0
100
AcDbLine
 10
52.0
 20
38.17869328092299
 30
0.0
 11
52.0
 21
36.3660757518237
 31
0.0
  0
LINE
  5
366
330
1E
100
AcDbEntity
  8
0
100
AcDbLine
 10
50.0
 20
36.3660757518237
 30
0.0
 11
50.0
 21
38.17869328092299
 31
0.0
  0
LINE
  5
367
330
1E
100
AcDbEntity
  8
0
100
AcDbLine
 10
50.0
 20
36.3660757518237
 30
0.0
 11
52.0
 21
36.3660757518237
 31
0.0
  0
LINE
  5
368
330
1E
100
AcDbEntity
  8
0
100
AcDbLine
 10
50.0
 20
36.3660757518237
 30
0.0
 11
50.0
 21
35.5208434209218
 31
0.0
  0
LINE
  5
369
330
1E
100
AcDbEntity
  8
0
100
AcDbLine
 10
50.0
 20
38.17869328092299
 30
0.0
 11
52.0
 21
38.17869328092299
 31
0.0
  0
LINE
  5
36A
330
1E
100
AcDbEntity
  8
0
100
AcDbLine
 10
50.0
 20
38.17869328092299
 30
0.0
 11
50.0
 21
36.3660757518237
 31
0.0
  0
LINE
  5
36B
330
1E
100
AcDbEntity
  8
0
100
AcDbLine
 10
50.0
 20
38.17869328092299
 30
0.0
 11
50.0
 21
37.3334609500211
 31
0.0
  0
LINE
  5
36C
330
1E
100
AcDbEntity
  8
0
100
AcDbLine
 10
37.0
 20
36.3660757518237
 30
0.0
 11
37.0
 21
35.5208434209218
 31
0.0
  0
LINE
  5
36D
330
1E
100
AcDbEntity
  8
0
100
AcDbLine
 10
37.0
 20
36.3660757518237
 30
0.0
 11
37.0
 21
38.17869328092299
 31
0.0
  0
LINE
  5
36E
330
1E
100
AcDbEntity
  8
0
100
AcDbLine
 10
37.0
 20
38.17869328092299
 30
0.0
 11
37.0
 21
36.3660757518237
 31
0.0
  0
LINE
  5
36F
330
1E
100
AcDbEntity
  8
0
100
AcDbLine
 10
35.0
 20
36.3660757518237
 30
0.0
 11
35.0
 21
38.17869328092299
 31
0.0
  0
LINE
  5
370
330
1E
100
AcDbEntity
  8
0
100
AcDbLine
 10
35.0
 20
36.3660757518237
 30
0.0
 11
37.0
 21
36.3660757518237
 31
0.0
  0
LINE
  5
371
330
1E
100
AcDbEntity
  8
0
100
AcDbLine
 10
35.0
 20
36.3660757518237
 30
0.0
 11
35.0
 21
35.5208434209218
 31
0.0
  0
LINE
  5
372
330
1E
100
AcDbEntity
  8
0
100
AcDbLine
 10
35.0
 20
38.17869328092299
 30
0.0
 11
37.0
 21
38.17869328092299
 31
0.0
  0
LINE
  5
373
330
1E
100
AcDbEntity
  8
0
100
AcDbLine
 10
35.0
 20
38.17869328092299
 30
0.0
 11
35.0
 21
36.3660757518237
 31
0.0
  0
LINE
  5
374
330
1E
100
AcDbEntity
  8
0
100
AcDbLine
 10
35.0
 20
38.17869328092299
 30
0.0
 11
35.0
 21
37.3334609500211
 31
0.0
  0
LINE
  5
375
330
1E
100
AcDbEntity
  8
0
100
AcDbLine
 10
22.0
 20
36.3660757518237
 30
0.0
 11
22.0
 21
35.5208434209218
 31
0.0
  0
LINE
  5
376
330
1E
100
AcDbEntity
  8
0
100
AcDbLine
 10
22.0
 20
36.3660757518237
 30
0.0
 11
22.0
 21
38.17869328092299
 31
0.0
  0
LINE
  5
377
330
1E
100
AcDbEntity
  8
0
100
AcDbLine
 10
22.0
 20
38.17869328092299
 30
0.0
 11
22.0
 21
36.3660757518237
 31
0.0
  0
LINE
  5
378
330
1E
100
AcDbEntity
  8
0
100
AcDbLine
 10
20.0
 20
36.3660757518237
 30
0.0
 11
20.0
 21
38.17869328092299
 31
0.0
  0
LINE
  5
379
330
1E
100
AcDbEntity
  8
0
100
AcDbLine
 10
20.0
 20
36.3660757518237
 30
0.0
 11
22.0
 21
36.3660757518237
 31
0.0
  0
LINE
  5
37A
330
1E
100
AcDbEntity
  8
0
100
AcDbLine
 10
20.0
 20
36.3660757518237
 30
0.0
 11
20.0
 21
35.5208434209218
 31
0.0
  0
LINE
  5
37B
330
1E
100
AcDbEntity
  8
0
100
AcDbLine
 10
20.0
 20
38.17869328092299
 30
0.0
 11
22.0
 21
38.17869328092299
 31
0.0
  0
LINE
  5
37C
330
1E
100
AcDbEntity
  8
0
100
AcDbLine
 10
20.0
 20
38.17869328092299
 30
0.0
 11
20.0
 21
36.3660757518237
 31
0.0
  0
LINE
  5
37D
330
1E
100
AcDbEntity
  8
0
100
AcDbLine
 10
20.0
 20
38.17869328092299
 30
0.0
 11
20.0
 21
37.3334609500211
 31
0.0
  0
LINE
  5
37E
330
1E
100
AcDbEntity
  8
0
100
AcDbLine
 10
7.0
 20
36.3660757518237
 30
0.0
 11
7.0
 21
35.5208434209218
 31
0.0
  0
LINE
  5
37F
330
1E
100
AcDbEntity
  8
0
100
AcDbLine
 10
7.0
 20
36.3660757518237
 30
0.0
 11
7.0
 21
38.17869328092299
 31
0.0
  0
LINE
  5
380
330
1E
100
AcDbEntity
  8
0
100
AcDbLine
 10
9.569339999999998
 20
44.61389509838079
 30
0.0
 11
10.08699999999999
 21
45.43030500679889
 31
0.0
  0
LINE
  5
381
330
1E
100
AcDbEntity
  8
0
100
AcDbLine
 10
7.637489999999999
 20
44.83264122561819
 30
0.0
 11
7.637489999999999
 21
46.6452587547175
 31
0.0
  0
LINE
  5
382
330
1E
100
AcDbEntity
  8
0
100
AcDbLine
 10
7.637489999999999
 20
44.83264122561819
 30
0.0
 11
9.569339999999998
 21
44.61389509838079
 31
0.0
  0
LINE
  5
383
330
1E
100
AcDbEntity
  8
0
100
AcDbLine
 10
7.637489999999999
 20
44.83264122561819
 30
0.0
 11
8.15512
 21
45.64905113403629
 31
0.0
  0
LINE
  5
384
330
1E
100
AcDbEntity
  8
0
100
AcDbLine
 10
10.08699999999999
 20
45.43030500679889
 30
0.0
 11
10.08699999999999
 21
47.24292253589829
 31
0.0
  0
LINE
  5
385
330
1E
100
AcDbEntity
  8
0
100
AcDbLine
 10
10.08699999999999
 20
47.24292253589829
 30
0.0
 11
10.08699999999999
 21
45.43030500679889
 31
0.0
  0
LINE
  5
386
330
1E
100
AcDbEntity
  8
0
100
AcDbLine
 10
8.15512
 20
45.64905113403629
 30
0.0
 11
8.15512
 21
47.46166866313569
 31
0.0
  0
LINE
  5
387
330
1E
100
AcDbEntity
  8
0
100
AcDbLine
 10
8.15512
 20
45.64905113403629
 30
0.0
 11
10.08699999999999
 21
45.43030500679889
 31
0.0
  0
LINE
  5
388
330
1E
100
AcDbEntity
  8
0
100
AcDbLine
 10
7.637489999999999
 20
46.6452587547175
 30
0.0
 11
7.637489999999999
 21
44.83264122561819
 31
0.0
  0
LINE
  5
389
330
1E
100
AcDbEntity
  8
0
100
AcDbLine
 10
7.637489999999999
 20
46.6452587547175
 30
0.0
 11
8.15512
 21
47.46166866313569
 31
0.0
  0
LINE
  5
38A
330
1E
100
AcDbEntity
  8
0
100
AcDbLine
 10
22.12639999999999
 20
45.0045360155873
 30
0.0
 11
22.12639999999999
 21
43.191918486488
 31
0.0
  0
LINE
  5
38B
330
1E
100
AcDbEntity
  8
0
100
AcDbLine
 10
22.12639999999999
 20
45.0045360155873
 30
0.0
 11
22.644
 21
45.820988185622
 31
0.0
  0
LINE
  5
38C
330
1E
100
AcDbEntity
  8
0
100
AcDbLine
 10
24.0582
 20
42.9731723592506
 30
0.0
 11
24.5759
 21
43.7895822676687
 31
0.0
  0
LINE
  5
38D
330
1E
100
AcDbEntity
  8
0
100
AcDbLine
 10
53.036
 20
39.6917268809902
 30
0.0
 11
53.55360000000001
 21
40.50813678940829
 31
0.0
  0
LINE
  5
38E
330
1E
100
AcDbEntity
  8
0
100
AcDbLine
 10
51.1041
 20
39.9104730082276
 30
0.0
 11
51.1041
 21
41.72309053732699
 31
0.0
  0
LINE
  5
38F
330
1E
100
AcDbEntity
  8
0
100
AcDbLine
 10
51.1041
 20
39.9104730082276
 30
0.0
 11
53.036
 21
39.6917268809902
 31
0.0
  0
LINE
  5
390
330
1E
100
AcDbEntity
  8
0
100
AcDbLine
 10
51.1041
 20
39.9104730082276
 30
0.0
 11
51.6218
 21
40.72692517826229
 31
0.0
  0
LINE
  5
391
330
1E
100
AcDbEntity
  8
0
100
AcDbLine
 10
68.0425
 20
38.8674563118947
 30
0.0
 11
68.0425
 21
40.68007384099399
 31
0.0
  0
LINE
  5
392
330
1E
100
AcDbEntity
  8
0
100
AcDbLine
 10
66.11069999999999
 20
39.0862024391321
 30
0.0
 11
66.11069999999999
 21
40.89881996823139
 31
0.0
  0
LINE
  5
393
330
1E
100
AcDbEntity
  8
0
100
AcDbLine
 10
66.11069999999999
 20
39.0862024391321
 30
0.0
 11
68.0425
 21
38.8674563118947
 31
0.0
  0
LINE
  5
394
330
1E
100
AcDbEntity
  8
0
100
AcDbLine
 10
65.593
 20
40.0823677981968
 30
0.0
 11
65.593
 21
38.2697502690974
 31
0.0
  0
LINE
  5
395
330
1E
100
AcDbEntity
  8
0
100
AcDbLine
 10
65.593
 20
40.0823677981968
 30
0.0
 11
66.11069999999999
 21
40.89881996823139
 31
0.0
  0
LINE
  5
396
330
1E
100
AcDbEntity
  8
0
100
AcDbLine
 10
65.593
 20
38.2697502690974
 30
0.0
 11
65.593
 21
40.0823677981968
 31
0.0
  0
LINE
  5
397
330
1E
100
AcDbEntity
  8
0
100
AcDbLine
 10
65.593
 20
38.2697502690974
 30
0.0
 11
67.5249
 21
38.05100414186
 31
0.0
  0
LINE
  5
398
330
1E
100
AcDbEntity
  8
0
100
AcDbLine
 10
65.593
 20
38.2697502690974
 30
0.0
 11
66.11069999999999
 21
39.0862024391321
 31
0.0
  0
LINE
  5
399
330
1E
100
AcDbEntity
  8
0
100
AcDbLine
 10
111.957
 20
38.8674563118947
 30
0.0
 11
111.957
 21
40.68007384099399
 31
0.0
  0
LINE
  5
39A
330
1E
100
AcDbEntity
  8
0
100
AcDbLine
 10
111.957
 20
38.8674563118947
 30
0.0
 11
113.8889999999999
 21
39.0862024391321
 31
0.0
  0
LINE
  5
39B
330
1E
100
AcDbEntity
  8
0
100
AcDbLine
 10
111.957
 20
38.8674563118947
 30
0.0
 11
112.4749999999999
 21
38.05100414186
 31
0.0
  0
LINE
  5
39C
330
1E
100
AcDbEntity
  8
0
100
AcDbLine
 10
113.8889999999999
 20
39.0862024391321
 30
0.0
 11
114.407
 21
38.2697502690974
 31
0.0
  0
LINE
  5
39D
330
1E
100
AcDbEntity
  8
0
100
AcDbLine
 10
113.8889999999999
 20
39.0862024391321
 30
0.0
 11
113.8889999999999
 21
40.89881996823139
 31
0.0
  0
LINE
  5
39E
330
1E
100
AcDbEntity
  8
0
100
AcDbLine
 10
114.407
 20
38.2697502690974
 30
0.0
 11
114.407
 21
40.0823677981968
 31
0.0
  0
LINE
  5
39F
330
1E
100
AcDbEntity
  8
0
100
AcDbLine
 10
114.407
 20
40.0823677981968
 30
0.0
 11
114.407
 21
38.2697502690974
 31
0.0
  0
LINE
  5
3A0
330
1E
100
AcDbEntity
  8
0
100
AcDbLine
 10
128.896
 20
39.9104730082276
 30
0.0
 11
128.896
 21
41.72309053732699
 31
0.0
  0
LINE
  5
3A1
330
1E
100
AcDbEntity
  8
0
100
AcDbLine
 10
126.964
 20
39.6917268809902
 30
0.0
 11
128.896
 21
39.9104730082276
 31
0.0
  0
LINE
  5
3A2
330
1E
100
AcDbEntity
  8
0
100
AcDbLine
 10
69.5814
 20
40.43755988977809
 30
0.0
 11
70.5814
 21
41.1695310883391
 31
0.0
  0
LINE
  5
3A3
330
1E
100
AcDbEntity
  8
0
100
AcDbLine
 10
53.55360000000001
 20
40.50813678940829
 30
0.0
 11
53.55360000000001
 21
42.3207543185077
 31
0.0
  0
LINE
  5
3A4
330
1E
100
AcDbEntity
  8
0
100
AcDbLine
 10
51.6218
 20
40.72692517826229
 30
0.0
 11
51.6218
 21
42.5395427073616
 31
0.0
  0
LINE
  5
3A5
330
1E
100
AcDbEntity
  8
0
100
AcDbLine
 10
51.6218
 20
40.72692517826229
 30
0.0
 11
53.55360000000001
 21
40.50813678940829
 31
0.0
  0
LINE
  5
3A6
330
1E
100
AcDbEntity
  8
0
100
AcDbLine
 10
68.0425
 20
40.68007384099399
 30
0.0
 11
68.0425
 21
38.8674563118947
 31
0.0
  0
LINE
  5
3A7
330
1E
100
AcDbEntity
  8
0
100
AcDbLine
 10
38.5471
 20
41.3324496201204
 30
0.0
 11
39.0648
 21
42.1488595285385
 31
0.0
  0
LINE
  5
3A8
330
1E
100
AcDbEntity
  8
0
100
AcDbLine
 10
39.0648
 20
42.1488595285385
 30
0.0
 11
39.0648
 21
43.9614770576379
 31
0.0
  0
LINE
  5
3A9
330
1E
100
AcDbEntity
  8
0
100
AcDbLine
 10
37.1329
 20
42.3676479173925
 30
0.0
 11
37.1329
 21
44.18026544649179
 31
0.0
  0
LINE
  5
3AA
330
1E
100
AcDbEntity
  8
0
100
AcDbLine
 10
37.1329
 20
42.3676479173925
 30
0.0
 11
39.0648
 21
42.1488595285385
 31
0.0
  0
LINE
  5
3AB
330
1E
100
AcDbEntity
  8
0
100
AcDbLine
 10
36.61529999999999
 20
41.55119574735779
 30
0.0
 11
36.61529999999999
 21
43.3638132764572
 31
0.0
  0
LINE
  5
3AC
330
1E
100
AcDbEntity
  8
0
100
AcDbLine
 10
36.61529999999999
 20
41.55119574735779
 30
0.0
 11
38.5471
 21
41.3324496201204
 31
0.0
  0
LINE
  5
3AD
330
1E
100
AcDbEntity
  8
0
100
AcDbLine
 10
36.61529999999999
 20
41.55119574735779
 30
0.0
 11
37.1329
 21
42.3676479173925
 31
0.0
  0
LINE
  5
3AE
330
1E
100
AcDbEntity
  8
0
100
AcDbLine
 10
53.55360000000001
 20
42.3207543185077
 30
0.0
 11
53.55360000000001
 21
40.50813678940829
 31
0.0
  0
LINE
  5
3AF
330
1E
100
AcDbEntity
  8
0
100
AcDbLine
 10
51.6218
 20
42.5395427073616
 30
0.0
 11
51.6218
 21
40.72692517826229
 31
0.0
  0
LINE
  5
3B0
330
1E
100
AcDbEntity
  8
0
100
AcDbLine
 10
51.6218
 20
42.5395427073616
 30
0.0
 11
53.55360000000001
 21
42.3207543185077
 31
0.0
  0
LINE
  5
3B1
330
1E
100
AcDbEntity
  8
0
100
AcDbLine
 10
51.1041
 20
41.72309053732699
 30
0.0
 11
51.1041
 21
39.9104730082276
 31
0.0
  0
LINE
  5
3B2
330
1E
100
AcDbEntity
  8
0
100
AcDbLine
 10
51.1041
 20
41.72309053732699
 30
0.0
 11
51.6218
 21
42.5395427073616
 31
0.0
  0
LINE
  5
3B3
330
1E
100
AcDbEntity
  8
0
100
AcDbLine
 10
66.11069999999999
 20
40.89881996823139
 30
0.0
 11
66.11069999999999
 21
39.0862024391321
 31
0.0
  0
LINE
  5
3B4
330
1E
100
AcDbEntity
  8
0
100
AcDbLine
 10
66.11069999999999
 20
40.89881996823139
 30
0.0
 11
68.0425
 21
40.68007384099399
 31
0.0
  0
LINE
  5
3B5
330
1E
100
AcDbEntity
  8
0
100
AcDbLine
 10
70.5814
 20
41.1695310883391
 30
0.0
 11
70.5814
 21
42.9821486174384
 31
0.0
  0
LINE
  5
3B6
330
1E
100
AcDbEntity
  8
0
100
AcDbLine
 10
73.02939999999999
 20
42.51784570259379
 30
0.0
 11
74.4436
 21
43.1155094837745
 31
0.0
  0
LINE
  5
3B7
330
1E
100
AcDbEntity
  8
0
100
AcDbLine
 10
106.971
 20
42.51784570259379
 30
0.0
 11
108.3849999999999
 21
43.1155094837745
 31
0.0
  0
LINE
  5
3B8
330
1E
100
AcDbEntity
  8
0
100
AcDbLine
 10
70.5814
 20
42.9821486174384
 30
0.0
 11
70.5814
 21
41.1695310883391
 31
0.0
  0
LINE
  5
3B9
330
1E
100
AcDbEntity
  8
0
100
AcDbLine
 10
68.8494
 20
41.59214725379
 30
0.0
 11
68.8494
 21
43.4047647828893
 31
0.0
  0
LINE
  5
3BA
330
1E
100
AcDbEntity
  8
0
100
AcDbLine
 10
68.8494
 20
41.59214725379
 30
0.0
 11
70.5814
 21
41.1695310883391
 31
0.0
  0
LINE
  5
3BB
330
1E
100
AcDbEntity
  8
0
100
AcDbLine
 10
67.8494
 20
42.67279358432829
 30
0.0
 11
67.8494
 21
40.860176055229
 31
0.0
  0
LINE
  5
3BC
330
1E
100
AcDbEntity
  8
0
100
AcDbLine
 10
67.8494
 20
42.67279358432829
 30
0.0
 11
68.8494
 21
43.4047647828893
 31
0.0
  0
LINE
  5
3BD
330
1E
100
AcDbEntity
  8
0
100
AcDbLine
 10
67.8494
 20
40.860176055229
 30
0.0
 11
67.8494
 21
42.67279358432829
 31
0.0
  0
LINE
  5
3BE
330
1E
100
AcDbEntity
  8
0
100
AcDbLine
 10
67.8494
 20
40.860176055229
 30
0.0
 11
69.5814
 21
40.43755988977809
 31
0.0
  0
LINE
  5
3BF
330
1E
100
AcDbEntity
  8
0
100
AcDbLine
 10
67.8494
 20
40.860176055229
 30
0.0
 11
68.8494
 21
41.59214725379
 31
0.0
  0
LINE
  5
3C0
330
1E
100
AcDbEntity
  8
0
100
AcDbLine
 10
109.419
 20
41.1695310883391
 30
0.0
 11
109.419
 21
42.9821486174384
 31
0.0
  0
LINE
  5
3C1
330
1E
100
AcDbEntity
  8
0
100
AcDbLine
 10
109.419
 20
41.1695310883391
 30
0.0
 11
111.151
 21
41.59214725379
 31
0.0
  0
LINE
  5
3C2
330
1E
100
AcDbEntity
  8
0
100
AcDbLine
 10
109.419
 20
41.1695310883391
 30
0.0
 11
110.419
 21
40.43755988977809
 31
0.0
  0
LINE
  5
3C3
330
1E
100
AcDbEntity
  8
0
100
AcDbLine
 10
36.61529999999999
 20
43.3638132764572
 30
0.0
 11
36.61529999999999
 21
41.55119574735779
 31
0.0
  0
LINE
  5
3C4
330
1E
100
AcDbEntity
  8
0
100
AcDbLine
 10
36.61529999999999
 20
43.3638132764572
 30
0.0
 11
37.1329
 21
44.18026544649179
 31
0.0
  0
LINE
  5
3C5
330
1E
100
AcDbEntity
  8
0
100
AcDbLine
 10
74.4436
 20
43.1155094837745
 30
0.0
 11
74.4436
 21
44.92812701287379
 31
0.0
  0
LINE
  5
3C6
330
1E
100
AcDbEntity
  8
0
100
AcDbLine
 10
71.6152
 20
43.1155094837745
 30
0.0
 11
71.6152
 21
44.92812701287379
 31
0.0
  0
LINE
  5
3C7
330
1E
100
AcDbEntity
  8
0
100
AcDbLine
 10
71.6152
 20
43.1155094837745
 30
0.0
 11
73.02939999999999
 21
42.51784570259379
 31
0.0
  0
LINE
  5
3C8
330
1E
100
AcDbEntity
  8
0
100
AcDbLine
 10
71.6152
 20
43.1155094837745
 30
0.0
 11
73.02939999999999
 21
43.7131732649552
 31
0.0
  0
LINE
  5
3C9
330
1E
100
AcDbEntity
  8
0
100
AcDbLine
 10
105.556
 20
43.1155094837745
 30
0.0
 11
105.556
 21
44.92812701287379
 31
0.0
  0
LINE
  5
3CA
330
1E
100
AcDbEntity
  8
0
100
AcDbLine
 10
105.556
 20
43.1155094837745
 30
0.0
 11
106.971
 21
43.7131732649552
 31
0.0
  0
LINE
  5
3CB
330
1E
100
AcDbEntity
  8
0
100
AcDbLine
 10
105.556
 20
43.1155094837745
 30
0.0
 11
106.971
 21
42.51784570259379
 31
0.0
  0
LINE
  5
3CC
330
1E
100
AcDbEntity
  8
0
100
AcDbLine
 10
108.3849999999999
 20
43.1155094837745
 30
0.0
 11
108.3849999999999
 21
44.92812701287379
 31
0.0
  0
LINE
  5
3CD
330
1E
100
AcDbEntity
  8
0
100
AcDbLine
 10
68.8494
 20
43.4047647828893
 30
0.0
 11
68.8494
 21
41.59214725379
 31
0.0
  0
LINE
  5
3CE
330
1E
100
AcDbEntity
  8
0
100
AcDbLine
 10
68.8494
 20
43.4047647828893
 30
0.0
 11
70.5814
 21
42.9821486174384
 31
0.0
  0
LINE
  5
3CF
330
1E
100
AcDbEntity
  8
0
100
AcDbLine
 10
109.419
 20
42.9821486174384
 30
0.0
 11
111.151
 21
43.4047647828893
 31
0.0
  0
LINE
  5
3D0
330
1E
100
AcDbEntity
  8
0
100
AcDbLine
 10
109.419
 20
42.9821486174384
 30
0.0
 11
109.419
 21
41.1695310883391
 31
0.0
  0
LINE
  5
3D1
330
1E
100
AcDbEntity
  8
0
100
AcDbLine
 10
111.957
 20
40.68007384099399
 30
0.0
 11
113.8889999999999
 21
40.89881996823139
 31
0.0
  0
LINE
  5
3D2
330
1E
100
AcDbEntity
  8
0
100
AcDbLine
 10
111.957
 20
40.68007384099399
 30
0.0
 11
111.957
 21
38.8674563118947
 31
0.0
  0
LINE
  5
3D3
330
1E
100
AcDbEntity
  8
0
100
AcDbLine
 10
112.151
 20
42.67279358432829
 30
0.0
 11
112.151
 21
40.860176055229
 31
0.0
  0
LINE
  5
3D4
330
1E
100
AcDbEntity
  8
0
100
AcDbLine
 10
111.151
 20
41.59214725379
 30
0.0
 11
111.151
 21
43.4047647828893
 31
0.0
  0
LINE
  5
3D5
330
1E
100
AcDbEntity
  8
0
100
AcDbLine
 10
111.151
 20
41.59214725379
 30
0.0
 11
112.151
 21
40.860176055229
 31
0.0
  0
LINE
  5
3D6
330
1E
100
AcDbEntity
  8
0
100
AcDbLine
 10
39.0648
 20
43.9614770576379
 30
0.0
 11
39.0648
 21
42.1488595285385
 31
0.0
  0
LINE
  5
3D7
330
1E
100
AcDbEntity
  8
0
100
AcDbLine
 10
73.02939999999999
 20
43.7131732649552
 30
0.0
 11
73.02939999999999
 21
45.52579079405449
 31
0.0
  0
LINE
  5
3D8
330
1E
100
AcDbEntity
  8
0
100
AcDbLine
 10
73.02939999999999
 20
43.7131732649552
 30
0.0
 11
74.4436
 21
43.1155094837745
 31
0.0
  0
LINE
  5
3D9
330
1E
100
AcDbEntity
  8
0
100
AcDbLine
 10
56.591
 20
43.6071811306601
 30
0.0
 11
57.591
 21
44.3391523292211
 31
0.0
  0
LINE
  5
3DA
330
1E
100
AcDbEntity
  8
0
100
AcDbLine
 10
106.971
 20
43.7131732649552
 30
0.0
 11
106.971
 21
45.52579079405449
 31
0.0
  0
LINE
  5
3DB
330
1E
100
AcDbEntity
  8
0
100
AcDbLine
 10
106.971
 20
43.7131732649552
 30
0.0
 11
108.3849999999999
 21
43.1155094837745
 31
0.0
  0
LINE
  5
3DC
330
1E
100
AcDbEntity
  8
0
100
AcDbLine
 10
111.151
 20
43.4047647828893
 30
0.0
 11
112.151
 21
42.67279358432829
 31
0.0
  0
LINE
  5
3DD
330
1E
100
AcDbEntity
  8
0
100
AcDbLine
 10
111.151
 20
43.4047647828893
 30
0.0
 11
111.151
 21
41.59214725379
 31
0.0
  0
LINE
  5
3DE
330
1E
100
AcDbEntity
  8
0
100
AcDbLine
 10
126.4459999999999
 20
40.50813678940829
 30
0.0
 11
126.4459999999999
 21
42.3207543185077
 31
0.0
  0
LINE
  5
3DF
330
1E
100
AcDbEntity
  8
0
100
AcDbLine
 10
126.4459999999999
 20
40.50813678940829
 30
0.0
 11
128.3779999999999
 21
40.72692517826229
 31
0.0
  0
LINE
  5
3E0
330
1E
100
AcDbEntity
  8
0
100
AcDbLine
 10
126.4459999999999
 20
40.50813678940829
 30
0.0
 11
126.964
 21
39.6917268809902
 31
0.0
  0
LINE
  5
3E1
330
1E
100
AcDbEntity
  8
0
100
AcDbLine
 10
113.8889999999999
 20
40.89881996823139
 30
0.0
 11
114.407
 21
40.0823677981968
 31
0.0
  0
LINE
  5
3E2
330
1E
100
AcDbEntity
  8
0
100
AcDbLine
 10
113.8889999999999
 20
40.89881996823139
 30
0.0
 11
113.8889999999999
 21
39.0862024391321
 31
0.0
  0
LINE
  5
3E3
330
1E
100
AcDbEntity
  8
0
100
AcDbLine
 10
126.4459999999999
 20
42.3207543185077
 30
0.0
 11
128.3779999999999
 21
42.5395427073616
 31
0.0
  0
LINE
  5
3E4
330
1E
100
AcDbEntity
  8
0
100
AcDbLine
 10
126.4459999999999
 20
42.3207543185077
 30
0.0
 11
126.4459999999999
 21
40.50813678940829
 31
0.0
  0
LINE
  5
3E5
330
1E
100
AcDbEntity
  8
0
100
AcDbLine
 10
123.4089999999999
 20
43.6071811306601
 30
0.0
 11
125.141
 21
44.0297972961111
 31
0.0
  0
LINE
  5
3E6
330
1E
100
AcDbEntity
  8
0
100
AcDbLine
 10
128.3779999999999
 20
42.5395427073616
 30
0.0
 11
128.896
 21
41.72309053732699
 31
0.0
  0
LINE
  5
3E7
330
1E
100
AcDbEntity
  8
0
100
AcDbLine
 10
128.3779999999999
 20
42.5395427073616
 30
0.0
 11
128.3779999999999
 21
40.72692517826229
 31
0.0
  0
LINE
  5
3E8
330
1E
100
AcDbEntity
  8
0
100
AcDbLine
 10
140.935
 20
42.1488595285385
 30
0.0
 11
140.935
 21
43.9614770576379
 31
0.0
  0
LINE
  5
3E9
330
1E
100
AcDbEntity
  8
0
100
AcDbLine
 10
140.935
 20
42.1488595285385
 30
0.0
 11
142.867
 21
42.3676479173925
 31
0.0
  0
LINE
  5
3EA
330
1E
100
AcDbEntity
  8
0
100
AcDbLine
 10
140.935
 20
42.1488595285385
 30
0.0
 11
141.453
 21
41.3324496201204
 31
0.0
  0
LINE
  5
3EB
330
1E
100
AcDbEntity
  8
0
100
AcDbLine
 10
140.935
 20
43.9614770576379
 30
0.0
 11
142.867
 21
44.18026544649179
 31
0.0
  0
LINE
  5
3EC
330
1E
100
AcDbEntity
  8
0
100
AcDbLine
 10
140.935
 20
43.9614770576379
 30
0.0
 11
140.935
 21
42.1488595285385
 31
0.0
  0
LINE
  5
3ED
330
1E
100
AcDbEntity
  8
0
100
AcDbLine
 10
143.3849999999999
 20
43.3638132764572
 30
0.0
 11
143.3849999999999
 21
41.55119574735779
 31
0.0
  0
LINE
  5
3EE
330
1E
100
AcDbEntity
  8
0
100
AcDbLine
 10
142.867
 20
42.3676479173925
 30
0.0
 11
143.3849999999999
 21
41.55119574735779
 31
0.0
  0
LINE
  5
3EF
330
1E
100
AcDbEntity
  8
0
100
AcDbLine
 10
142.867
 20
42.3676479173925
 30
0.0
 11
142.867
 21
44.18026544649179
 31
0.0
  0
LINE
  5
3F0
330
1E
100
AcDbEntity
  8
0
100
AcDbLine
 10
155.424
 20
43.7895822676687
 30
0.0
 11
155.424
 21
45.6021997967681
 31
0.0
  0
LINE
  5
3F1
330
1E
100
AcDbEntity
  8
0
100
AcDbLine
 10
155.424
 20
43.7895822676687
 30
0.0
 11
157.356
 21
44.0083706565227
 31
0.0
  0
LINE
  5
3F2
330
1E
100
AcDbEntity
  8
0
100
AcDbLine
 10
155.424
 20
43.7895822676687
 30
0.0
 11
155.942
 21
42.9731723592506
 31
0.0
  0
LINE
  5
3F3
330
1E
100
AcDbEntity
  8
0
100
AcDbLine
 10
157.356
 20
44.0083706565227
 30
0.0
 11
157.8739999999999
 21
43.191918486488
 31
0.0
  0
LINE
  5
3F4
330
1E
100
AcDbEntity
  8
0
100
AcDbLine
 10
157.356
 20
44.0083706565227
 30
0.0
 11
157.356
 21
45.820988185622
 31
0.0
  0
LINE
  5
3F5
330
1E
100
AcDbEntity
  8
0
100
AcDbLine
 10
157.8739999999999
 20
43.191918486488
 30
0.0
 11
157.8739999999999
 21
45.0045360155873
 31
0.0
  0
LINE
  5
3F6
330
1E
100
AcDbEntity
  8
0
100
AcDbLine
 10
155.942
 20
42.9731723592506
 30
0.0
 11
157.8739999999999
 21
43.191918486488
 31
0.0
  0
LINE
  5
3F7
330
1E
100
AcDbEntity
  8
0
100
AcDbLine
 10
143.3849999999999
 20
41.55119574735779
 30
0.0
 11
143.3849999999999
 21
43.3638132764572
 31
0.0
  0
LINE
  5
3F8
330
1E
100
AcDbEntity
  8
0
100
AcDbLine
 10
141.453
 20
41.3324496201204
 30
0.0
 11
143.3849999999999
 21
41.55119574735779
 31
0.0
  0
LINE
  5
3F9
330
1E
100
AcDbEntity
  8
0
100
AcDbLine
 10
128.896
 20
41.72309053732699
 30
0.0
 11
128.896
 21
39.9104730082276
 31
0.0
  0
LINE
  5
3FA
330
1E
100
AcDbEntity
  8
0
100
AcDbLine
 10
128.3779999999999
 20
40.72692517826229
 30
0.0
 11
128.896
 21
39.9104730082276
 31
0.0
  0
LINE
  5
3FB
330
1E
100
AcDbEntity
  8
0
100
AcDbLine
 10
128.3779999999999
 20
40.72692517826229
 30
0.0
 11
128.3779999999999
 21
42.5395427073616
 31
0.0
  0
LINE
  5
3FC
330
1E
100
AcDbEntity
  8
0
100
AcDbLine
 10
112.151
 20
40.860176055229
 30
0.0
 11
112.151
 21
42.67279358432829
 31
0.0
  0
LINE
  5
3FD
330
1E
100
AcDbEntity
  8
0
100
AcDbLine
 10
110.419
 20
40.43755988977809
 30
0.0
 11
112.151
 21
40.860176055229
 31
0.0
  0
LINE
  5
3FE
330
1E
100
AcDbEntity
  8
0
100
AcDbLine
 10
24.5759
 20
43.7895822676687
 30
0.0
 11
24.5759
 21
45.6021997967681
 31
0.0
  0
LINE
  5
3FF
330
1E
100
AcDbEntity
  8
0
100
AcDbLine
 10
37.1329
 20
44.18026544649179
 30
0.0
 11
37.1329
 21
42.3676479173925
 31
0.0
  0
LINE
  5
400
330
1E
100
AcDbEntity
  8
0
100
AcDbLine
 10
37.1329
 20
44.18026544649179
 30
0.0
 11
39.0648
 21
43.9614770576379
 31
0.0
  0
LINE
  5
401
330
1E
100
AcDbEntity
  8
0
100
AcDbLine
 10
74.4436
 20
44.92812701287379
 30
0.0
 11
74.4436
 21
43.1155094837745
 31
0.0
  0
LINE
  5
402
330
1E
100
AcDbEntity
  8
0
100
AcDbLine
 10
71.6152
 20
44.92812701287379
 30
0.0
 11
71.6152
 21
43.1155094837745
 31
0.0
  0
LINE
  5
403
330
1E
100
AcDbEntity
  8
0
100
AcDbLine
 10
71.6152
 20
44.92812701287379
 30
0.0
 11
73.02939999999999
 21
45.52579079405449
 31
0.0
  0
LINE
  5
404
330
1E
100
AcDbEntity
  8
0
100
AcDbLine
 10
57.591
 20
44.3391523292211
 30
0.0
 11
57.591
 21
46.1517698583205
 31
0.0
  0
LINE
  5
405
330
1E
100
AcDbEntity
  8
0
100
AcDbLine
 10
55.85899999999999
 20
44.7617684946721
 30
0.0
 11
55.85899999999999
 21
46.5743860237714
 31
0.0
  0
LINE
  5
406
330
1E
100
AcDbEntity
  8
0
100
AcDbLine
 10
55.85899999999999
 20
44.7617684946721
 30
0.0
 11
57.591
 21
44.3391523292211
 31
0.0
  0
LINE
  5
407
330
1E
100
AcDbEntity
  8
0
100
AcDbLine
 10
54.85899999999999
 20
44.0297972961111
 30
0.0
 11
54.85899999999999
 21
45.84241482521039
 31
0.0
  0
LINE
  5
408
330
1E
100
AcDbEntity
  8
0
100
AcDbLine
 10
54.85899999999999
 20
44.0297972961111
 30
0.0
 11
56.591
 21
43.6071811306601
 31
0.0
  0
LINE
  5
409
330
1E
100
AcDbEntity
  8
0
100
AcDbLine
 10
54.85899999999999
 20
44.0297972961111
 30
0.0
 11
55.85899999999999
 21
44.7617684946721
 31
0.0
  0
LINE
  5
40A
330
1E
100
AcDbEntity
  8
0
100
AcDbLine
 10
77.634
 20
44.1500738567984
 30
0.0
 11
79.366
 21
44.57269002224929
 31
0.0
  0
LINE
  5
40B
330
1E
100
AcDbEntity
  8
0
100
AcDbLine
 10
83.0812
 20
45.22305403926179
 30
0.0
 11
85.0131
 21
45.4418001664992
 31
0.0
  0
LINE
  5
40C
330
1E
100
AcDbEntity
  8
0
100
AcDbLine
 10
79.366
 20
44.57269002224929
 30
0.0
 11
79.366
 21
46.3853075513487
 31
0.0
  0
LINE
  5
40D
330
1E
100
AcDbEntity
  8
0
100
AcDbLine
 10
85.0131
 20
45.4418001664992
 30
0.0
 11
85.0131
 21
47.25441769559849
 31
0.0
  0
LINE
  5
40E
330
1E
100
AcDbEntity
  8
0
100
AcDbLine
 10
78.366
 20
45.3046612208104
 30
0.0
 11
78.366
 21
47.11727874990971
 31
0.0
  0
LINE
  5
40F
330
1E
100
AcDbEntity
  8
0
100
AcDbLine
 10
78.366
 20
45.3046612208104
 30
0.0
 11
79.366
 21
44.57269002224929
 31
0.0
  0
LINE
  5
410
330
1E
100
AcDbEntity
  8
0
100
AcDbLine
 10
76.634
 20
44.88204505535939
 30
0.0
 11
76.634
 21
46.69466258445879
 31
0.0
  0
LINE
  5
411
330
1E
100
AcDbEntity
  8
0
100
AcDbLine
 10
76.634
 20
44.88204505535939
 30
0.0
 11
77.634
 21
44.1500738567984
 31
0.0
  0
LINE
  5
412
330
1E
100
AcDbEntity
  8
0
100
AcDbLine
 10
76.634
 20
44.88204505535939
 30
0.0
 11
78.366
 21
45.3046612208104
 31
0.0
  0
LINE
  5
413
330
1E
100
AcDbEntity
  8
0
100
AcDbLine
 10
73.02939999999999
 20
45.52579079405449
 30
0.0
 11
73.02939999999999
 21
43.7131732649552
 31
0.0
  0
LINE
  5
414
330
1E
100
AcDbEntity
  8
0
100
AcDbLine
 10
73.02939999999999
 20
45.52579079405449
 30
0.0
 11
74.4436
 21
44.92812701287379
 31
0.0
  0
LINE
  5
415
330
1E
100
AcDbEntity
  8
0
100
AcDbLine
 10
94.98690000000001
 20
45.4418001664992
 30
0.0
 11
94.98690000000001
 21
47.25441769559849
 31
0.0
  0
LINE
  5
416
330
1E
100
AcDbEntity
  8
0
100
AcDbLine
 10
94.98690000000001
 20
45.4418001664992
 30
0.0
 11
95.50449999999999
 21
46.25825233653389
 31
0.0
  0
LINE
  5
417
330
1E
100
AcDbEntity
  8
0
100
AcDbLine
 10
94.98690000000001
 20
45.4418001664992
 30
0.0
 11
96.91880000000001
 21
45.22305403926179
 31
0.0
  0
LINE
  5
418
330
1E
100
AcDbEntity
  8
0
100
AcDbLine
 10
102.366
 20
44.1500738567984
 30
0.0
 11
103.366
 21
44.88204505535939
 31
0.0
  0
LINE
  5
419
330
1E
100
AcDbEntity
  8
0
100
AcDbLine
 10
125.141
 20
44.0297972961111
 30
0.0
 11
125.141
 21
45.84241482521039
 31
0.0
  0
LINE
  5
41A
330
1E
100
AcDbEntity
  8
0
100
AcDbLine
 10
100.634
 20
44.57269002224929
 30
0.0
 11
100.634
 21
46.3853075513487
 31
0.0
  0
LINE
  5
41B
330
1E
100
AcDbEntity
  8
0
100
AcDbLine
 10
100.634
 20
44.57269002224929
 30
0.0
 11
101.634
 21
45.3046612208104
 31
0.0
  0
LINE
  5
41C
330
1E
100
AcDbEntity
  8
0
100
AcDbLine
 10
100.634
 20
44.57269002224929
 30
0.0
 11
102.366
 21
44.1500738567984
 31
0.0
  0
LINE
  5
41D
330
1E
100
AcDbEntity
  8
0
100
AcDbLine
 10
103.366
 20
44.88204505535939
 30
0.0
 11
103.366
 21
46.69466258445879
 31
0.0
  0
LINE
  5
41E
330
1E
100
AcDbEntity
  8
0
100
AcDbLine
 10
101.634
 20
45.3046612208104
 30
0.0
 11
101.634
 21
47.11727874990971
 31
0.0
  0
LINE
  5
41F
330
1E
100
AcDbEntity
  8
0
100
AcDbLine
 10
101.634
 20
45.3046612208104
 30
0.0
 11
103.366
 21
44.88204505535939
 31
0.0
  0
LINE
  5
420
330
1E
100
AcDbEntity
  8
0
100
AcDbLine
 10
105.556
 20
44.92812701287379
 30
0.0
 11
106.971
 21
45.52579079405449
 31
0.0
  0
LINE
  5
421
330
1E
100
AcDbEntity
  8
0
100
AcDbLine
 10
105.556
 20
44.92812701287379
 30
0.0
 11
105.556
 21
43.1155094837745
 31
0.0
  0
LINE
  5
422
330
1E
100
AcDbEntity
  8
0
100
AcDbLine
 10
122.4089999999999
 20
44.3391523292211
 30
0.0
 11
122.4089999999999
 21
46.1517698583205
 31
0.0
  0
LINE
  5
423
330
1E
100
AcDbEntity
  8
0
100
AcDbLine
 10
122.4089999999999
 20
44.3391523292211
 30
0.0
 11
124.141
 21
44.7617684946721
 31
0.0
  0
LINE
  5
424
330
1E
100
AcDbEntity
  8
0
100
AcDbLine
 10
122.4089999999999
 20
44.3391523292211
 30
0.0
 11
123.4089999999999
 21
43.6071811306601
 31
0.0
  0
LINE
  5
425
330
1E
100
AcDbEntity
  8
0
100
AcDbLine
 10
172.3629999999999
 20
44.83264122561819
 30
0.0
 11
172.3629999999999
 21
46.6452587547175
 31
0.0
  0
LINE
  5
426
330
1E
100
AcDbEntity
  8
0
100
AcDbLine
 10
170.4309999999999
 20
44.61389509838079
 30
0.0
 11
172.3629999999999
 21
44.83264122561819
 31
0.0
  0
LINE
  5
427
330
1E
100
AcDbEntity
  8
0
100
AcDbLine
 10
124.141
 20
44.7617684946721
 30
0.0
 11
124.141
 21
46.5743860237714
 31
0.0
  0
LINE
  5
428
330
1E
100
AcDbEntity
  8
0
100
AcDbLine
 10
124.141
 20
44.7617684946721
 30
0.0
 11
125.141
 21
44.0297972961111
 31
0.0
  0
LINE
  5
429
330
1E
100
AcDbEntity
  8
0
100
AcDbLine
 10
155.424
 20
45.6021997967681
 30
0.0
 11
157.356
 21
45.820988185622
 31
0.0
  0
LINE
  5
42A
330
1E
100
AcDbEntity
  8
0
100
AcDbLine
 10
155.424
 20
45.6021997967681
 30
0.0
 11
155.424
 21
43.7895822676687
 31
0.0
  0
LINE
  5
42B
330
1E
100
AcDbEntity
  8
0
100
AcDbLine
 10
169.9129999999999
 20
45.43030500679889
 30
0.0
 11
169.9129999999999
 21
47.24292253589829
 31
0.0
  0
LINE
  5
42C
330
1E
100
AcDbEntity
  8
0
100
AcDbLine
 10
169.9129999999999
 20
45.43030500679889
 30
0.0
 11
171.8449999999999
 21
45.64905113403629
 31
0.0
  0
LINE
  5
42D
330
1E
100
AcDbEntity
  8
0
100
AcDbLine
 10
169.9129999999999
 20
45.43030500679889
 30
0.0
 11
170.4309999999999
 21
44.61389509838079
 31
0.0
  0
LINE
  5
42E
330
1E
100
AcDbEntity
  8
0
100
AcDbLine
 10
157.8739999999999
 20
45.0045360155873
 30
0.0
 11
157.8739999999999
 21
43.191918486488
 31
0.0
  0
LINE
  5
42F
330
1E
100
AcDbEntity
  8
0
100
AcDbLine
 10
108.3849999999999
 20
44.92812701287379
 30
0.0
 11
108.3849999999999
 21
43.1155094837745
 31
0.0
  0
LINE
  5
430
330
1E
100
AcDbEntity
  8
0
100
AcDbLine
 10
106.971
 20
45.52579079405449
 30
0.0
 11
108.3849999999999
 21
44.92812701287379
 31
0.0
  0
LINE
  5
431
330
1E
100
AcDbEntity
  8
0
100
AcDbLine
 10
106.971
 20
45.52579079405449
 30
0.0
 11
106.971
 21
43.7131732649552
 31
0.0
  0
LINE
  5
432
330
1E
100
AcDbEntity
  8
0
100
AcDbLine
 10
142.867
 20
44.18026544649179
 30
0.0
 11
143.3849999999999
 21
43.3638132764572
 31
0.0
  0
LINE
  5
433
330
1E
100
AcDbEntity
  8
0
100
AcDbLine
 10
142.867
 20
44.18026544649179
 30
0.0
 11
142.867
 21
42.3676479173925
 31
0.0
  0
LINE
  5
434
330
1E
100
AcDbEntity
  8
0
100
AcDbLine
 10
96.91880000000001
 20
45.22305403926179
 30
0.0
 11
97.4364
 21
46.0394639476799
 31
0.0
  0
LINE
  5
435
330
1E
100
AcDbEntity
  8
0
100
AcDbLine
 10
54.85899999999999
 20
45.84241482521039
 30
0.0
 11
54.85899999999999
 21
44.0297972961111
 31
0.0
  0
LINE
  5
436
330
1E
100
AcDbEntity
  8
0
100
AcDbLine
 10
54.85899999999999
 20
45.84241482521039
 30
0.0
 11
55.85899999999999
 21
46.5743860237714
 31
0.0
  0
LINE
  5
437
330
1E
100
AcDbEntity
  8
0
100
AcDbLine
 10
57.591
 20
46.1517698583205
 30
0.0
 11
57.591
 21
44.3391523292211
 31
0.0
  0
LINE
  5
438
330
1E
100
AcDbEntity
  8
0
100
AcDbLine
 10
84.4955
 20
46.25825233653389
 30
0.0
 11
84.4955
 21
48.07086986563319
 31
0.0
  0
LINE
  5
439
330
1E
100
AcDbEntity
  8
0
100
AcDbLine
 10
84.4955
 20
46.25825233653389
 30
0.0
 11
85.0131
 21
45.4418001664992
 31
0.0
  0
LINE
  5
43A
330
1E
100
AcDbEntity
  8
0
100
AcDbLine
 10
82.56359999999999
 20
46.0394639476799
 30
0.0
 11
83.0812
 21
45.22305403926179
 31
0.0
  0
LINE
  5
43B
330
1E
100
AcDbEntity
  8
0
100
AcDbLine
 10
82.56359999999999
 20
46.0394639476799
 30
0.0
 11
82.56359999999999
 21
47.8520814767793
 31
0.0
  0
LINE
  5
43C
330
1E
100
AcDbEntity
  8
0
100
AcDbLine
 10
82.56359999999999
 20
46.0394639476799
 30
0.0
 11
84.4955
 21
46.25825233653389
 31
0.0
  0
LINE
  5
43D
330
1E
100
AcDbEntity
  8
0
100
AcDbLine
 10
91.0
 20
45.66363139174439
 30
0.0
 11
91.0
 21
46.50886372264629
 31
0.0
  0
LINE
  5
43E
330
1E
100
AcDbEntity
  8
0
100
AcDbLine
 10
89.0
 20
45.66363139174439
 30
0.0
 11
89.0
 21
46.50886372264629
 31
0.0
  0
LINE
  5
43F
330
1E
100
AcDbEntity
  8
0
100
AcDbLine
 10
89.0
 20
45.66363139174439
 30
0.0
 11
91.0
 21
45.66363139174439
 31
0.0
  0
LINE
  5
440
330
1E
100
AcDbEntity
  8
0
100
AcDbLine
 10
89.0
 20
45.66363139174439
 30
0.0
 11
89.0
 21
47.4762489208437
 31
0.0
  0
LINE
  5
441
330
1E
100
AcDbEntity
  8
0
100
AcDbLine
 10
79.366
 20
46.3853075513487
 30
0.0
 11
79.366
 21
44.57269002224929
 31
0.0
  0
LINE
  5
442
330
1E
100
AcDbEntity
  8
0
100
AcDbLine
 10
91.0
 20
46.50886372264629
 30
0.0
 11
91.0
 21
48.3214812517456
 31
0.0
  0
LINE
  5
443
330
1E
100
AcDbEntity
  8
0
100
AcDbLine
 10
91.0
 20
46.50886372264629
 30
0.0
 11
91.0
 21
45.66363139174439
 31
0.0
  0
LINE
  5
444
330
1E
100
AcDbEntity
  8
0
100
AcDbLine
 10
62.4228
 20
47.00036632306569
 30
0.0
 11
63.837
 21
47.5980301042465
 31
0.0
  0
LINE
  5
445
330
1E
100
AcDbEntity
  8
0
100
AcDbLine
 10
43.6007
 20
46.7768023715422
 30
0.0
 11
44.6007
 21
47.5087735701032
 31
0.0
  0
LINE
  5
446
330
1E
100
AcDbEntity
  8
0
100
AcDbLine
 10
41.8686
 20
47.19941853699309
 30
0.0
 11
41.8686
 21
49.0120360660925
 31
0.0
  0
LINE
  5
447
330
1E
100
AcDbEntity
  8
0
100
AcDbLine
 10
41.8686
 20
47.19941853699309
 30
0.0
 11
43.6007
 21
46.7768023715422
 31
0.0
  0
LINE
  5
448
330
1E
100
AcDbEntity
  8
0
100
AcDbLine
 10
41.8686
 20
47.19941853699309
 30
0.0
 11
42.86859999999999
 21
47.9313897355542
 31
0.0
  0
LINE
  5
449
330
1E
100
AcDbEntity
  8
0
100
AcDbLine
 10
55.85899999999999
 20
46.5743860237714
 30
0.0
 11
55.85899999999999
 21
44.7617684946721
 31
0.0
  0
LINE
  5
44A
330
1E
100
AcDbEntity
  8
0
100
AcDbLine
 10
55.85899999999999
 20
46.5743860237714
 30
0.0
 11
57.591
 21
46.1517698583205
 31
0.0
  0
LINE
  5
44B
330
1E
100
AcDbEntity
  8
0
100
AcDbLine
 10
85.0131
 20
47.25441769559849
 30
0.0
 11
85.0131
 21
45.4418001664992
 31
0.0
  0
LINE
  5
44C
330
1E
100
AcDbEntity
  8
0
100
AcDbLine
 10
78.366
 20
47.11727874990971
 30
0.0
 11
78.366
 21
45.3046612208104
 31
0.0
  0
LINE
  5
44D
330
1E
100
AcDbEntity
  8
0
100
AcDbLine
 10
78.366
 20
47.11727874990971
 30
0.0
 11
79.366
 21
46.3853075513487
 31
0.0
  0
LINE
  5
44E
330
1E
100
AcDbEntity
  8
0
100
AcDbLine
 10
76.634
 20
46.69466258445879
 30
0.0
 11
76.634
 21
44.88204505535939
 31
0.0
  0
LINE
  5
44F
330
1E
100
AcDbEntity
  8
0
100
AcDbLine
 10
76.634
 20
46.69466258445879
 30
0.0
 11
78.366
 21
47.11727874990971
 31
0.0
  0
LINE
  5
450
330
1E
100
AcDbEntity
  8
0
100
AcDbLine
 10
89.0
 20
46.50886372264629
 30
0.0
 11
89.0
 21
48.3214812517456
 31
0.0
  0
LINE
  5
451
330
1E
100
AcDbEntity
  8
0
100
AcDbLine
 10
89.0
 20
46.50886372264629
 30
0.0
 11
91.0
 21
46.50886372264629
 31
0.0
  0
LINE
  5
452
330
1E
100
AcDbEntity
  8
0
100
AcDbLine
 10
89.0
 20
46.50886372264629
 30
0.0
 11
89.0
 21
45.66363139174439
 31
0.0
  0
LINE
  5
453
330
1E
100
AcDbEntity
  8
0
100
AcDbLine
 10
94.98690000000001
 20
47.25441769559849
 30
0.0
 11
95.50449999999999
 21
48.07086986563319
 31
0.0
  0
LINE
  5
454
330
1E
100
AcDbEntity
  8
0
100
AcDbLine
 10
94.98690000000001
 20
47.25441769559849
 30
0.0
 11
94.98690000000001
 21
45.4418001664992
 31
0.0
  0
LINE
  5
455
330
1E
100
AcDbEntity
  8
0
100
AcDbLine
 10
95.50449999999999
 20
46.25825233653389
 30
0.0
 11
95.50449999999999
 21
48.07086986563319
 31
0.0
  0
LINE
  5
456
330
1E
100
AcDbEntity
  8
0
100
AcDbLine
 10
95.50449999999999
 20
46.25825233653389
 30
0.0
 11
97.4364
 21
46.0394639476799
 31
0.0
  0
LINE
  5
457
330
1E
100
AcDbEntity
  8
0
100
AcDbLine
 10
100.634
 20
46.3853075513487
 30
0.0
 11
101.634
 21
47.11727874990971
 31
0.0
  0
LINE
  5
458
330
1E
100
AcDbEntity
  8
0
100
AcDbLine
 10
100.634
 20
46.3853075513487
 30
0.0
 11
100.634
 21
44.57269002224929
 31
0.0
  0
LINE
  5
459
330
1E
100
AcDbEntity
  8
0
100
AcDbLine
 10
122.4089999999999
 20
46.1517698583205
 30
0.0
 11
124.141
 21
46.5743860237714
 31
0.0
  0
LINE
  5
45A
330
1E
100
AcDbEntity
  8
0
100
AcDbLine
 10
122.4089999999999
 20
46.1517698583205
 30
0.0
 11
122.4089999999999
 21
44.3391523292211
 31
0.0
  0
LINE
  5
45B
330
1E
100
AcDbEntity
  8
0
100
AcDbLine
 10
125.141
 20
45.84241482521039
 30
0.0
 11
125.141
 21
44.0297972961111
 31
0.0
  0
LINE
  5
45C
330
1E
100
AcDbEntity
  8
0
100
AcDbLine
 10
103.366
 20
46.69466258445879
 30
0.0
 11
103.366
 21
44.88204505535939
 31
0.0
  0
LINE
  5
45D
330
1E
100
AcDbEntity
  8
0
100
AcDbLine
 10
124.141
 20
46.5743860237714
 30
0.0
 11
125.141
 21
45.84241482521039
 31
0.0
  0
LINE
  5
45E
330
1E
100
AcDbEntity
  8
0
100
AcDbLine
 10
124.141
 20
46.5743860237714
 30
0.0
 11
124.141
 21
44.7617684946721
 31
0.0
  0
LINE
  5
45F
330
1E
100
AcDbEntity
  8
0
100
AcDbLine
 10
171.8449999999999
 20
45.64905113403629
 30
0.0
 11
172.3629999999999
 21
44.83264122561819
 31
0.0
  0
LINE
  5
460
330
1E
100
AcDbEntity
  8
0
100
AcDbLine
 10
171.8449999999999
 20
45.64905113403629
 30
0.0
 11
171.8449999999999
 21
47.46166866313569
 31
0.0
  0
LINE
  5
461
330
1E
100
AcDbEntity
  8
0
100
AcDbLine
 10
172.3629999999999
 20
46.6452587547175
 30
0.0
 11
172.3629999999999
 21
44.83264122561819
 31
0.0
  0
LINE
  5
462
330
1E
100
AcDbEntity
  8
0
100
AcDbLine
 10
157.356
 20
45.820988185622
 30
0.0
 11
157.8739999999999
 21
45.0045360155873
 31
0.0
  0
LINE
  5
463
330
1E
100
AcDbEntity
  8
0
100
AcDbLine
 10
157.356
 20
45.820988185622
 30
0.0
 11
157.356
 21
44.0083706565227
 31
0.0
  0
LINE
  5
464
330
1E
100
AcDbEntity
  8
0
100
AcDbLine
 10
136.399
 20
46.7768023715422
 30
0.0
 11
138.131
 21
47.19941853699309
 31
0.0
  0
LINE
  5
465
330
1E
100
AcDbEntity
  8
0
100
AcDbLine
 10
101.634
 20
47.11727874990971
 30
0.0
 11
103.366
 21
46.69466258445879
 31
0.0
  0
LINE
  5
466
330
1E
100
AcDbEntity
  8
0
100
AcDbLine
 10
101.634
 20
47.11727874990971
 30
0.0
 11
101.634
 21
45.3046612208104
 31
0.0
  0
LINE
  5
467
330
1E
100
AcDbEntity
  8
0
100
AcDbLine
 10
169.9129999999999
 20
47.24292253589829
 30
0.0
 11
171.8449999999999
 21
47.46166866313569
 31
0.0
  0
LINE
  5
468
330
1E
100
AcDbEntity
  8
0
100
AcDbLine
 10
169.9129999999999
 20
47.24292253589829
 30
0.0
 11
169.9129999999999
 21
45.43030500679889
 31
0.0
  0
LINE
  5
469
330
1E
100
AcDbEntity
  8
0
100
AcDbLine
 10
138.131
 20
47.19941853699309
 30
0.0
 11
138.131
 21
49.0120360660925
 31
0.0
  0
LINE
  5
46A
330
1E
100
AcDbEntity
  8
0
100
AcDbLine
 10
117.577
 20
47.00036632306569
 30
0.0
 11
118.991
 21
47.5980301042465
 31
0.0
  0
LINE
  5
46B
330
1E
100
AcDbEntity
  8
0
100
AcDbLine
 10
97.4364
 20
46.0394639476799
 30
0.0
 11
97.4364
 21
47.8520814767793
 31
0.0
  0
LINE
  5
46C
330
1E
100
AcDbEntity
  8
0
100
AcDbLine
 10
24.5759
 20
45.6021997967681
 30
0.0
 11
24.5759
 21
43.7895822676687
 31
0.0
  0
LINE
  5
46D
330
1E
100
AcDbEntity
  8
0
100
AcDbLine
 10
22.644
 20
45.820988185622
 30
0.0
 11
22.644
 21
44.0083706565227
 31
0.0
  0
LINE
  5
46E
330
1E
100
AcDbEntity
  8
0
100
AcDbLine
 10
22.644
 20
45.820988185622
 30
0.0
 11
24.5759
 21
45.6021997967681
 31
0.0
  0
LINE
  5
46F
330
1E
100
AcDbEntity
  8
0
100
AcDbLine
 10
22.644
 20
44.0083706565227
 30
0.0
 11
22.644
 21
45.820988185622
 31
0.0
  0
LINE
  5
470
330
1E
100
AcDbEntity
  8
0
100
AcDbLine
 10
22.644
 20
44.0083706565227
 30
0.0
 11
24.5759
 21
43.7895822676687
 31
0.0
  0
LINE
  5
471
330
1E
100
AcDbEntity
  8
0
100
AcDbLine
 10
22.12639999999999
 20
43.191918486488
 30
0.0
 11
22.12639999999999
 21
45.0045360155873
 31
0.0
  0
LINE
  5
472
330
1E
100
AcDbEntity
  8
0
100
AcDbLine
 10
22.12639999999999
 20
43.191918486488
 30
0.0
 11
24.0582
 21
42.9731723592506
 31
0.0
  0
LINE
  5
473
330
1E
100
AcDbEntity
  8
0
100
AcDbLine
 10
22.12639999999999
 20
43.191918486488
 30
0.0
 11
22.644
 21
44.0083706565227
 31
0.0
  0
LINE
  5
474
330
1E
100
AcDbEntity
  8
0
100
AcDbLine
 10
7.0
 20
38.17869328092299
 30
0.0
 11
7.0
 21
36.3660757518237
 31
0.0
  0
LINE
  5
475
330
1E
100
AcDbEntity
  8
0
100
AcDbLine
 10
5.0
 20
38.17869328092299
 30
0.0
 11
7.0
 21
38.17869328092299
 31
0.0
  0
LINE
  5
476
330
1E
100
AcDbEntity
  8
0
100
AcDbLine
 10
5.0
 20
38.17869328092299
 30
0.0
 11
5.0
 21
36.3660757518237
 31
0.0
  0
LINE
  5
477
330
1E
100
AcDbEntity
  8
0
100
AcDbLine
 10
5.0
 20
38.17869328092299
 30
0.0
 11
5.0
 21
37.3334609500211
 31
0.0
  0
LINE
  5
478
330
1E
100
AcDbEntity
  8
0
100
AcDbLine
 10
3.299999999999999
 20
28.899952458105
 30
0.0
 11
12.09999999999999
 21
19.7714432843646
 31
0.0
  0
LINE
  5
479
330
1E
100
AcDbEntity
  8
0
100
AcDbLine
 10
180.0
 20
46.8191647609687
 30
0.0
 11
180.0
 21
38.6623858800217
 31
0.0
  0
LINE
  5
47A
330
1E
100
AcDbEntity
  8
0
100
AcDbLine
 10
176.6999999999999
 20
28.899952458105
 30
0.0
 11
180.0
 21
38.6623858800217
 31
0.0
  0
LINE
  5
47B
330
1E
100
AcDbEntity
  8
0
100
AcDbLine
 10
175.8
 20
28.0781669266455
 30
0.0
 11
179.0
 21
37.7560771154721
 31
0.0
  0
LINE
  5
47C
330
1E
100
AcDbEntity
  8
0
100
AcDbLine
 10
180.0
 20
38.6623858800217
 30
0.0
 11
180.0
 21
46.8191647609687
 31
0.0
  0
LINE
  5
47D
330
1E
100
AcDbEntity
  8
0
100
AcDbLine
 10
175.8
 20
47.4339873042986
 30
0.0
 11
179.0
 21
37.7560771154721
 31
0.0
  0
LINE
  5
47E
330
1E
100
AcDbEntity
  8
0
100
AcDbLine
 10
0.9999999999999969
 20
37.7560771154721
 30
0.0
 11
4.2
 21
47.4339873042986
 31
0.0
  0
LINE
  5
47F
330
1E
100
AcDbEntity
  8
0
100
AcDbLine
 10
0.9999999999999969
 20
37.7560771154721
 30
0.0
 11
4.2
 21
28.0781669266455
 31
0.0
  0
LINE
  5
480
330
1E
100
AcDbEntity
  8
0
100
AcDbLine
 10
8.15512
 20
47.46166866313569
 30
0.0
 11
8.15512
 21
45.64905113403629
 31
0.0
  0
LINE
  5
481
330
1E
100
AcDbEntity
  8
0
100
AcDbLine
 10
8.15512
 20
47.46166866313569
 30
0.0
 11
10.08699999999999
 21
47.24292253589829
 31
0.0
  0
LINE
  5
482
330
1E
100
AcDbEntity
  8
0
100
AcDbLine
 10
4.99999999999999
 20
203.978914476958
 30
0.0
 11
90.0
 21
203.978914476958
 31
0.0
  0
LINE
  5
483
330
1E
100
AcDbEntity
  8
0
100
AcDbLine
 10
5.0
 20
203.978914476958
 30
0.0
 11
5.0
 21
118.978914476958
 31
0.0
  0
LINE
  5
484
330
1E
100
AcDbEntity
  8
0
100
AcDbLine
 10
5.0
 20
203.978914476958
 30
0.0
 11
90.0
 21
203.978914476958
 31
0.0
  0
LINE
  5
485
330
1E
100
AcDbEntity
  8
0
100
AcDbLine
 10
5.0
 20
203.978914476958
 30
0.0
 11
6.0
 21
202.9789144769579
 31
0.0
  0
LINE
  5
486
330
1E
100
AcDbEntity
  8
0
100
AcDbLine
 10
6.0
 20
202.9789144769579
 30
0.0
 11
90.0
 21
202.9789144769579
 31
0.0
  0
LINE
  5
487
330
1E
100
AcDbEntity
  8
0
100
AcDbLine
 10
6.0
 20
202.9789144769579
 30
0.0
 11
6.0
 21
118.978914476958
 31
0.0
  0
LINE
  5
488
330
1E
100
AcDbEntity
  8
0
100
AcDbLine
 10
6.0
 20
202.9789144769579
 30
0.0
 11
90.0
 21
202.9789144769579
 31
0.0
  0
LINE
  5
489
330
1E
100
AcDbEntity
  8
0
100
AcDbLine
 10
6.0
 20
118.978914476958
 30
0.0
 11
6.0
 21
96.54105011681942
 31
0.0
  0
LINE
  5
48A
330
1E
100
AcDbEntity
  8
0
100
AcDbLine
 10
6.0
 20
118.978914476958
 30
0.0
 11
6.0
 21
202.9789144769579
 31
0.0
  0
LINE
  5
48B
330
1E
100
AcDbEntity
  8
0
100
AcDbLine
 10
6.0
 20
96.54105011681942
 30
0.0
 11
6.0
 21
118.978914476958
 31
0.0
  0
LINE
  5
48C
330
1E
100
AcDbEntity
  8
0
100
AcDbLine
 10
5.0
 20
118.978914476958
 30
0.0
 11
5.0
 21
95.5037195288944
 31
0.0
  0
LINE
  5
48D
330
1E
100
AcDbEntity
  8
0
100
AcDbLine
 10
5.0
 20
118.978914476958
 30
0.0
 11
5.0
 21
203.978914476958
 31
0.0
  0
LINE
  5
48E
330
1E
100
AcDbEntity
  8
0
100
AcDbLine
 10
5.0
 20
95.5037195288944
 30
0.0
 11
5.0
 21
118.978914476958
 31
0.0
  0
LINE
  5
48F
330
1E
100
AcDbEntity
  8
0
100
AcDbLine
 10
12.09999999999999
 20
102.868766703162
 30
0.0
 11
26.4
 21
110.856212230185
 31
0.0
  0
LINE
  5
490
330
1E
100
AcDbEntity
  8
0
100
AcDbLine
 10
12.09999999999999
 20
102.868766703162
 30
0.0
 11
12.9
 21
103.563767384986
 31
0.0
  0
LINE
  5
491
330
1E
100
AcDbEntity
  8
0
100
AcDbLine
 10
3.299999999999999
 20
93.74025752942181
 30
0.0
 11
12.09999999999999
 21
102.868766703162
 31
0.0
  0
LINE
  5
492
330
1E
100
AcDbEntity
  8
0
100
AcDbLine
 10
12.09999999999999
 20
67.52272488572519
 30
0.0
 11
26.4
 21
75.510170412748
 31
0.0
  0
LINE
  5
493
330
1E
100
AcDbEntity
  8
0
100
AcDbLine
 10
3.299999999999999
 20
58.3942157119848
 30
0.0
 11
12.09999999999999
 21
67.52272488572519
 31
0.0
  0
LINE
  5
494
330
1E
100
AcDbEntity
  8
0
100
AcDbLine
 10
12.09999999999999
 20
65.71010735662579
 30
0.0
 11
26.4
 21
73.6975528836487
 31
0.0
  0
LINE
  5
495
330
1E
100
AcDbEntity
  8
0
100
AcDbLine
 10
12.09999999999999
 20
65.71010735662579
 30
0.0
 11
12.9
 21
66.40510803845001
 31
0.0
  0
LINE
  5
496
330
1E
100
AcDbEntity
  8
0
100
AcDbLine
 10
3.299999999999999
 20
56.58159818288551
 30
0.0
 11
12.09999999999999
 21
65.71010735662579
 31
0.0
  0
LINE
  5
497
330
1E
100
AcDbEntity
  8
0
100
AcDbLine
 10
12.9
 20
103.563767384986
 30
0.0
 11
27.2
 21
111.424428062374
 31
0.0
  0
LINE
  5
498
330
1E
100
AcDbEntity
  8
0
100
AcDbLine
 10
12.9
 20
66.40510803845001
 30
0.0
 11
27.2
 21
74.26576871583759
 31
0.0
  0
LINE
  5
499
330
1E
100
AcDbEntity
  8
0
100
AcDbLine
 10
12.09999999999999
 20
57.5533284756789
 30
0.0
 11
26.4
 21
65.5407740027017
 31
0.0
  0
LINE
  5
49A
330
1E
100
AcDbEntity
  8
0
100
AcDbLine
 10
3.299999999999999
 20
48.4248193019385
 30
0.0
 11
12.09999999999999
 21
57.5533284756789
 31
0.0
  0
LINE
  5
49B
330
1E
100
AcDbEntity
  8
0
100
AcDbLine
 10
15.8878
 20
55.3512785478566
 30
0.0
 11
15.8878
 21
53.5386610187573
 31
0.0
  0
LINE
  5
49C
330
1E
100
AcDbEntity
  8
0
100
AcDbLine
 10
15.8878
 20
55.3512785478566
 30
0.0
 11
16.88779999999999
 21
56.0832497464176
 31
0.0
  0
LINE
  5
49D
330
1E
100
AcDbEntity
  8
0
100
AcDbLine
 10
17.6199
 20
53.11604485330629
 30
0.0
 11
18.6199
 21
53.8480160518673
 31
0.0
  0
LINE
  5
49E
330
1E
100
AcDbEntity
  8
0
100
AcDbLine
 10
44.6007
 20
47.5087735701032
 30
0.0
 11
44.6007
 21
49.3213910992025
 31
0.0
  0
LINE
  5
49F
330
1E
100
AcDbEntity
  8
0
100
AcDbLine
 10
42.86859999999999
 20
47.9313897355542
 30
0.0
 11
42.86859999999999
 21
49.74400726465351
 31
0.0
  0
LINE
  5
4A0
330
1E
100
AcDbEntity
  8
0
100
AcDbLine
 10
42.86859999999999
 20
47.9313897355542
 30
0.0
 11
44.6007
 21
47.5087735701032
 31
0.0
  0
LINE
  5
4A1
330
1E
100
AcDbEntity
  8
0
100
AcDbLine
 10
30.6103
 20
49.9464236124242
 30
0.0
 11
31.6103
 21
50.6783948109853
 31
0.0
  0
LINE
  5
4A2
330
1E
100
AcDbEntity
  8
0
100
AcDbLine
 10
31.6103
 20
50.6783948109853
 30
0.0
 11
31.6103
 21
52.4910123400846
 31
0.0
  0
LINE
  5
4A3
330
1E
100
AcDbEntity
  8
0
100
AcDbLine
 10
31.6103
 20
52.4910123400846
 30
0.0
 11
31.6103
 21
50.6783948109853
 31
0.0
  0
LINE
  5
4A4
330
1E
100
AcDbEntity
  8
0
100
AcDbLine
 10
29.8782
 20
52.91362850553561
 30
0.0
 11
29.8782
 21
51.10101097643621
 31
0.0
  0
LINE
  5
4A5
330
1E
100
AcDbEntity
  8
0
100
AcDbLine
 10
29.8782
 20
52.91362850553561
 30
0.0
 11
31.6103
 21
52.4910123400846
 31
0.0
  0
LINE
  5
4A6
330
1E
100
AcDbEntity
  8
0
100
AcDbLine
 10
29.8782
 20
51.10101097643621
 30
0.0
 11
29.8782
 21
52.91362850553561
 31
0.0
  0
LINE
  5
4A7
330
1E
100
AcDbEntity
  8
0
100
AcDbLine
 10
29.8782
 20
51.10101097643621
 30
0.0
 11
31.6103
 21
50.6783948109853
 31
0.0
  0
LINE
  5
4A8
330
1E
100
AcDbEntity
  8
0
100
AcDbLine
 10
28.87819999999999
 20
52.1816573069745
 30
0.0
 11
28.87819999999999
 21
50.3690397778752
 31
0.0
  0
LINE
  5
4A9
330
1E
100
AcDbEntity
  8
0
100
AcDbLine
 10
28.87819999999999
 20
52.1816573069745
 30
0.0
 11
29.8782
 21
52.91362850553561
 31
0.0
  0
LINE
  5
4AA
330
1E
100
AcDbEntity
  8
0
100
AcDbLine
 10
28.87819999999999
 20
50.3690397778752
 30
0.0
 11
28.87819999999999
 21
52.1816573069745
 31
0.0
  0
LINE
  5
4AB
330
1E
100
AcDbEntity
  8
0
100
AcDbLine
 10
28.87819999999999
 20
50.3690397778752
 30
0.0
 11
30.6103
 21
49.9464236124242
 31
0.0
  0
LINE
  5
4AC
330
1E
100
AcDbEntity
  8
0
100
AcDbLine
 10
28.87819999999999
 20
50.3690397778752
 30
0.0
 11
29.8782
 21
51.10101097643621
 31
0.0
  0
LINE
  5
4AD
330
1E
100
AcDbEntity
  8
0
100
AcDbLine
 10
50.402
 20
53.8931682538177
 30
0.0
 11
50.402
 21
52.08055072471839
 31
0.0
  0
LINE
  5
4AE
330
1E
100
AcDbEntity
  8
0
100
AcDbLine
 10
50.402
 20
53.8931682538177
 30
0.0
 11
51.8162
 21
54.4908320349985
 31
0.0
  0
LINE
  5
4AF
330
1E
100
AcDbEntity
  8
0
100
AcDbLine
 10
51.8162
 20
51.4828869435377
 30
0.0
 11
53.2304
 21
52.08055072471839
 31
0.0
  0
LINE
  5
4B0
330
1E
100
AcDbEntity
  8
0
100
AcDbLine
 10
53.2304
 20
52.08055072471839
 30
0.0
 11
53.2304
 21
53.8931682538177
 31
0.0
  0
LINE
  5
4B1
330
1E
100
AcDbEntity
  8
0
100
AcDbLine
 10
53.2304
 20
53.8931682538177
 30
0.0
 11
53.2304
 21
52.08055072471839
 31
0.0
  0
LINE
  5
4B2
330
1E
100
AcDbEntity
  8
0
100
AcDbLine
 10
51.8162
 20
52.6782145058991
 30
0.0
 11
51.8162
 21
54.4908320349985
 31
0.0
  0
LINE
  5
4B3
330
1E
100
AcDbEntity
  8
0
100
AcDbLine
 10
51.8162
 20
52.6782145058991
 30
0.0
 11
53.2304
 21
52.08055072471839
 31
0.0
  0
LINE
  5
4B4
330
1E
100
AcDbEntity
  8
0
100
AcDbLine
 10
50.402
 20
52.08055072471839
 30
0.0
 11
50.402
 21
53.8931682538177
 31
0.0
  0
LINE
  5
4B5
330
1E
100
AcDbEntity
  8
0
100
AcDbLine
 10
50.402
 20
52.08055072471839
 30
0.0
 11
51.8162
 21
51.4828869435377
 31
0.0
  0
LINE
  5
4B6
330
1E
100
AcDbEntity
  8
0
100
AcDbLine
 10
50.402
 20
52.08055072471839
 30
0.0
 11
51.8162
 21
52.6782145058991
 31
0.0
  0
LINE
  5
4B7
330
1E
100
AcDbEntity
  8
0
100
AcDbLine
 10
44.6007
 20
49.3213910992025
 30
0.0
 11
44.6007
 21
47.5087735701032
 31
0.0
  0
LINE
  5
4B8
330
1E
100
AcDbEntity
  8
0
100
AcDbLine
 10
42.86859999999999
 20
49.74400726465351
 30
0.0
 11
42.86859999999999
 21
47.9313897355542
 31
0.0
  0
LINE
  5
4B9
330
1E
100
AcDbEntity
  8
0
100
AcDbLine
 10
42.86859999999999
 20
49.74400726465351
 30
0.0
 11
44.6007
 21
49.3213910992025
 31
0.0
  0
LINE
  5
4BA
330
1E
100
AcDbEntity
  8
0
100
AcDbLine
 10
41.8686
 20
49.0120360660925
 30
0.0
 11
41.8686
 21
47.19941853699309
 31
0.0
  0
LINE
  5
4BB
330
1E
100
AcDbEntity
  8
0
100
AcDbLine
 10
41.8686
 20
49.0120360660925
 30
0.0
 11
42.86859999999999
 21
49.74400726465351
 31
0.0
  0
LINE
  5
4BC
330
1E
100
AcDbEntity
  8
0
100
AcDbLine
 10
18.6199
 20
53.8480160518673
 30
0.0
 11
18.6199
 21
55.6606335809667
 31
0.0
  0
LINE
  5
4BD
330
1E
100
AcDbEntity
  8
0
100
AcDbLine
 10
51.8162
 20
54.4908320349985
 30
0.0
 11
51.8162
 21
52.6782145058991
 31
0.0
  0
LINE
  5
4BE
330
1E
100
AcDbEntity
  8
0
100
AcDbLine
 10
51.8162
 20
54.4908320349985
 30
0.0
 11
53.2304
 21
53.8931682538177
 31
0.0
  0
LINE
  5
4BF
330
1E
100
AcDbEntity
  8
0
100
AcDbLine
 10
39.7954
 20
58.3756888742897
 30
0.0
 11
39.7954
 21
56.5630713451904
 31
0.0
  0
LINE
  5
4C0
330
1E
100
AcDbEntity
  8
0
100
AcDbLine
 10
39.7954
 20
58.3756888742897
 30
0.0
 11
41.2096
 21
58.9733526554704
 31
0.0
  0
LINE
  5
4C1
330
1E
100
AcDbEntity
  8
0
100
AcDbLine
 10
41.2096
 20
55.9654075640097
 30
0.0
 11
42.6238
 21
56.5630713451904
 31
0.0
  0
LINE
  5
4C2
330
1E
100
AcDbEntity
  8
0
100
AcDbLine
 10
42.6238
 20
56.5630713451904
 30
0.0
 11
42.6238
 21
58.3756888742897
 31
0.0
  0
LINE
  5
4C3
330
1E
100
AcDbEntity
  8
0
100
AcDbLine
 10
42.6238
 20
58.3756888742897
 30
0.0
 11
42.6238
 21
56.5630713451904
 31
0.0
  0
LINE
  5
4C4
330
1E
100
AcDbEntity
  8
0
100
AcDbLine
 10
41.2096
 20
58.9733526554704
 30
0.0
 11
41.2096
 21
57.1607351263711
 31
0.0
  0
LINE
  5
4C5
330
1E
100
AcDbEntity
  8
0
100
AcDbLine
 10
41.2096
 20
58.9733526554704
 30
0.0
 11
42.6238
 21
58.3756888742897
 31
0.0
  0
LINE
  5
4C6
330
1E
100
AcDbEntity
  8
0
100
AcDbLine
 10
41.2096
 20
57.1607351263711
 30
0.0
 11
41.2096
 21
58.9733526554704
 31
0.0
  0
LINE
  5
4C7
330
1E
100
AcDbEntity
  8
0
100
AcDbLine
 10
41.2096
 20
57.1607351263711
 30
0.0
 11
42.6238
 21
56.5630713451904
 31
0.0
  0
LINE
  5
4C8
330
1E
100
AcDbEntity
  8
0
100
AcDbLine
 10
39.7954
 20
56.5630713451904
 30
0.0
 11
39.7954
 21
58.3756888742897
 31
0.0
  0
LINE
  5
4C9
330
1E
100
AcDbEntity
  8
0
100
AcDbLine
 10
39.7954
 20
56.5630713451904
 30
0.0
 11
41.2096
 21
55.9654075640097
 31
0.0
  0
LINE
  5
4CA
330
1E
100
AcDbEntity
  8
0
100
AcDbLine
 10
39.7954
 20
56.5630713451904
 30
0.0
 11
41.2096
 21
57.1607351263711
 31
0.0
  0
LINE
  5
4CB
330
1E
100
AcDbEntity
  8
0
100
AcDbLine
 10
18.6199
 20
55.6606335809667
 30
0.0
 11
18.6199
 21
53.8480160518673
 31
0.0
  0
LINE
  5
4CC
330
1E
100
AcDbEntity
  8
0
100
AcDbLine
 10
16.88779999999999
 20
56.0832497464176
 30
0.0
 11
16.88779999999999
 21
54.27063221731829
 31
0.0
  0
LINE
  5
4CD
330
1E
100
AcDbEntity
  8
0
100
AcDbLine
 10
16.88779999999999
 20
56.0832497464176
 30
0.0
 11
18.6199
 21
55.6606335809667
 31
0.0
  0
LINE
  5
4CE
330
1E
100
AcDbEntity
  8
0
100
AcDbLine
 10
16.88779999999999
 20
54.27063221731829
 30
0.0
 11
16.88779999999999
 21
56.0832497464176
 31
0.0
  0
LINE
  5
4CF
330
1E
100
AcDbEntity
  8
0
100
AcDbLine
 10
16.88779999999999
 20
54.27063221731829
 30
0.0
 11
18.6199
 21
53.8480160518673
 31
0.0
  0
LINE
  5
4D0
330
1E
100
AcDbEntity
  8
0
100
AcDbLine
 10
15.8878
 20
53.5386610187573
 30
0.0
 11
15.8878
 21
55.3512785478566
 31
0.0
  0
LINE
  5
4D1
330
1E
100
AcDbEntity
  8
0
100
AcDbLine
 10
15.8878
 20
53.5386610187573
 30
0.0
 11
17.6199
 21
53.11604485330629
 31
0.0
  0
LINE
  5
4D2
330
1E
100
AcDbEntity
  8
0
100
AcDbLine
 10
15.8878
 20
53.5386610187573
 30
0.0
 11
16.88779999999999
 21
54.27063221731829
 31
0.0
  0
LINE
  5
4D3
330
1E
100
AcDbEntity
  8
0
100
AcDbLine
 10
30.603
 20
60.4479281844816
 30
0.0
 11
32.0172
 21
61.0455919656623
 31
0.0
  0
LINE
  5
4D4
330
1E
100
AcDbEntity
  8
0
100
AcDbLine
 10
63.837
 20
47.5980301042465
 30
0.0
 11
63.837
 21
49.4106476333458
 31
0.0
  0
LINE
  5
4D5
330
1E
100
AcDbEntity
  8
0
100
AcDbLine
 10
61.0086
 20
47.5980301042465
 30
0.0
 11
61.0086
 21
49.4106476333458
 31
0.0
  0
LINE
  5
4D6
330
1E
100
AcDbEntity
  8
0
100
AcDbLine
 10
61.0086
 20
47.5980301042465
 30
0.0
 11
62.4228
 21
47.00036632306569
 31
0.0
  0
LINE
  5
4D7
330
1E
100
AcDbEntity
  8
0
100
AcDbLine
 10
61.0086
 20
47.5980301042465
 30
0.0
 11
62.4228
 21
48.1956938854272
 31
0.0
  0
LINE
  5
4D8
330
1E
100
AcDbEntity
  8
0
100
AcDbLine
 10
84.4955
 20
48.07086986563319
 30
0.0
 11
84.4955
 21
46.25825233653389
 31
0.0
  0
LINE
  5
4D9
330
1E
100
AcDbEntity
  8
0
100
AcDbLine
 10
84.4955
 20
48.07086986563319
 30
0.0
 11
85.0131
 21
47.25441769559849
 31
0.0
  0
LINE
  5
4DA
330
1E
100
AcDbEntity
  8
0
100
AcDbLine
 10
82.56359999999999
 20
47.8520814767793
 30
0.0
 11
82.56359999999999
 21
46.0394639476799
 31
0.0
  0
LINE
  5
4DB
330
1E
100
AcDbEntity
  8
0
100
AcDbLine
 10
82.56359999999999
 20
47.8520814767793
 30
0.0
 11
84.4955
 21
48.07086986563319
 31
0.0
  0
LINE
  5
4DC
330
1E
100
AcDbEntity
  8
0
100
AcDbLine
 10
89.0
 20
47.4762489208437
 30
0.0
 11
89.0
 21
45.66363139174439
 31
0.0
  0
LINE
  5
4DD
330
1E
100
AcDbEntity
  8
0
100
AcDbLine
 10
89.0
 20
47.4762489208437
 30
0.0
 11
89.0
 21
48.3214812517456
 31
0.0
  0
LINE
  5
4DE
330
1E
100
AcDbEntity
  8
0
100
AcDbLine
 10
135.399
 20
47.5087735701032
 30
0.0
 11
135.399
 21
49.3213910992025
 31
0.0
  0
LINE
  5
4DF
330
1E
100
AcDbEntity
  8
0
100
AcDbLine
 10
135.399
 20
47.5087735701032
 30
0.0
 11
137.131
 21
47.9313897355542
 31
0.0
  0
LINE
  5
4E0
330
1E
100
AcDbEntity
  8
0
100
AcDbLine
 10
135.399
 20
47.5087735701032
 30
0.0
 11
136.399
 21
46.7768023715422
 31
0.0
  0
LINE
  5
4E1
330
1E
100
AcDbEntity
  8
0
100
AcDbLine
 10
116.1629999999999
 20
47.5980301042465
 30
0.0
 11
116.1629999999999
 21
49.4106476333458
 31
0.0
  0
LINE
  5
4E2
330
1E
100
AcDbEntity
  8
0
100
AcDbLine
 10
116.1629999999999
 20
47.5980301042465
 30
0.0
 11
117.577
 21
48.1956938854272
 31
0.0
  0
LINE
  5
4E3
330
1E
100
AcDbEntity
  8
0
100
AcDbLine
 10
116.1629999999999
 20
47.5980301042465
 30
0.0
 11
117.577
 21
47.00036632306569
 31
0.0
  0
LINE
  5
4E4
330
1E
100
AcDbEntity
  8
0
100
AcDbLine
 10
137.131
 20
47.9313897355542
 30
0.0
 11
137.131
 21
49.74400726465351
 31
0.0
  0
LINE
  5
4E5
330
1E
100
AcDbEntity
  8
0
100
AcDbLine
 10
137.131
 20
47.9313897355542
 30
0.0
 11
138.131
 21
47.19941853699309
 31
0.0
  0
LINE
  5
4E6
330
1E
100
AcDbEntity
  8
0
100
AcDbLine
 10
118.991
 20
47.5980301042465
 30
0.0
 11
118.991
 21
49.4106476333458
 31
0.0
  0
LINE
  5
4E7
330
1E
100
AcDbEntity
  8
0
100
AcDbLine
 10
97.4364
 20
47.8520814767793
 30
0.0
 11
97.4364
 21
46.0394639476799
 31
0.0
  0
LINE
  5
4E8
330
1E
100
AcDbEntity
  8
0
100
AcDbLine
 10
62.4228
 20
48.1956938854272
 30
0.0
 11
62.4228
 21
50.0083114145265
 31
0.0
  0
LINE
  5
4E9
330
1E
100
AcDbEntity
  8
0
100
AcDbLine
 10
62.4228
 20
48.1956938854272
 30
0.0
 11
63.837
 21
47.5980301042465
 31
0.0
  0
LINE
  5
4EA
330
1E
100
AcDbEntity
  8
0
100
AcDbLine
 10
63.837
 20
49.4106476333458
 30
0.0
 11
63.837
 21
47.5980301042465
 31
0.0
  0
LINE
  5
4EB
330
1E
100
AcDbEntity
  8
0
100
AcDbLine
 10
61.0086
 20
49.4106476333458
 30
0.0
 11
61.0086
 21
47.5980301042465
 31
0.0
  0
LINE
  5
4EC
330
1E
100
AcDbEntity
  8
0
100
AcDbLine
 10
61.0086
 20
49.4106476333458
 30
0.0
 11
62.4228
 21
50.0083114145265
 31
0.0
  0
LINE
  5
4ED
330
1E
100
AcDbEntity
  8
0
100
AcDbLine
 10
70.134
 20
49.64002689247229
 30
0.0
 11
71.866
 21
50.06264305792329
 31
0.0
  0
LINE
  5
4EE
330
1E
100
AcDbEntity
  8
0
100
AcDbLine
 10
91.0
 20
48.3214812517456
 30
0.0
 11
91.0
 21
46.50886372264629
 31
0.0
  0
LINE
  5
4EF
330
1E
100
AcDbEntity
  8
0
100
AcDbLine
 10
89.0
 20
48.3214812517456
 30
0.0
 11
89.0
 21
47.4762489208437
 31
0.0
  0
LINE
  5
4F0
330
1E
100
AcDbEntity
  8
0
100
AcDbLine
 10
89.0
 20
48.3214812517456
 30
0.0
 11
89.0
 21
46.50886372264629
 31
0.0
  0
LINE
  5
4F1
330
1E
100
AcDbEntity
  8
0
100
AcDbLine
 10
89.0
 20
48.3214812517456
 30
0.0
 11
91.0
 21
48.3214812517456
 31
0.0
  0
LINE
  5
4F2
330
1E
100
AcDbEntity
  8
0
100
AcDbLine
 10
62.4228
 20
50.0083114145265
 30
0.0
 11
62.4228
 21
48.1956938854272
 31
0.0
  0
LINE
  5
4F3
330
1E
100
AcDbEntity
  8
0
100
AcDbLine
 10
62.4228
 20
50.0083114145265
 30
0.0
 11
63.837
 21
49.4106476333458
 31
0.0
  0
LINE
  5
4F4
330
1E
100
AcDbEntity
  8
0
100
AcDbLine
 10
71.866
 20
50.06264305792329
 30
0.0
 11
71.866
 21
51.8752605870226
 31
0.0
  0
LINE
  5
4F5
330
1E
100
AcDbEntity
  8
0
100
AcDbLine
 10
70.866
 20
50.7946142564843
 30
0.0
 11
70.866
 21
52.6072317855836
 31
0.0
  0
LINE
  5
4F6
330
1E
100
AcDbEntity
  8
0
100
AcDbLine
 10
70.866
 20
50.7946142564843
 30
0.0
 11
71.866
 21
50.06264305792329
 31
0.0
  0
LINE
  5
4F7
330
1E
100
AcDbEntity
  8
0
100
AcDbLine
 10
69.134
 20
50.3719980910333
 30
0.0
 11
69.134
 21
52.18461562013271
 31
0.0
  0
LINE
  5
4F8
330
1E
100
AcDbEntity
  8
0
100
AcDbLine
 10
69.134
 20
50.3719980910333
 30
0.0
 11
70.134
 21
49.64002689247229
 31
0.0
  0
LINE
  5
4F9
330
1E
100
AcDbEntity
  8
0
100
AcDbLine
 10
69.134
 20
50.3719980910333
 30
0.0
 11
70.866
 21
50.7946142564843
 31
0.0
  0
LINE
  5
4FA
330
1E
100
AcDbEntity
  8
0
100
AcDbLine
 10
108.1339999999999
 20
50.06264305792329
 30
0.0
 11
108.1339999999999
 21
51.8752605870226
 31
0.0
  0
LINE
  5
4FB
330
1E
100
AcDbEntity
  8
0
100
AcDbLine
 10
108.1339999999999
 20
50.06264305792329
 30
0.0
 11
109.1339999999999
 21
50.7946142564843
 31
0.0
  0
LINE
  5
4FC
330
1E
100
AcDbEntity
  8
0
100
AcDbLine
 10
108.1339999999999
 20
50.06264305792329
 30
0.0
 11
109.8659999999999
 21
49.64002689247229
 31
0.0
  0
LINE
  5
4FD
330
1E
100
AcDbEntity
  8
0
100
AcDbLine
 10
79.199
 20
51.34629739886389
 30
0.0
 11
81.1308
 21
51.5650435261014
 31
0.0
  0
LINE
  5
4FE
330
1E
100
AcDbEntity
  8
0
100
AcDbLine
 10
100.801
 20
51.34629739886389
 30
0.0
 11
101.319
 21
52.16270730728211
 31
0.0
  0
LINE
  5
4FF
330
1E
100
AcDbEntity
  8
0
100
AcDbLine
 10
109.1339999999999
 20
50.7946142564843
 30
0.0
 11
109.1339999999999
 21
52.6072317855836
 31
0.0
  0
LINE
  5
500
330
1E
100
AcDbEntity
  8
0
100
AcDbLine
 10
109.1339999999999
 20
50.7946142564843
 30
0.0
 11
110.8659999999999
 21
50.3719980910333
 31
0.0
  0
LINE
  5
501
330
1E
100
AcDbEntity
  8
0
100
AcDbLine
 10
110.8659999999999
 20
50.3719980910333
 30
0.0
 11
110.8659999999999
 21
52.18461562013271
 31
0.0
  0
LINE
  5
502
330
1E
100
AcDbEntity
  8
0
100
AcDbLine
 10
109.8659999999999
 20
49.64002689247229
 30
0.0
 11
110.8659999999999
 21
50.3719980910333
 31
0.0
  0
LINE
  5
503
330
1E
100
AcDbEntity
  8
0
100
AcDbLine
 10
116.1629999999999
 20
49.4106476333458
 30
0.0
 11
117.577
 21
50.0083114145265
 31
0.0
  0
LINE
  5
504
330
1E
100
AcDbEntity
  8
0
100
AcDbLine
 10
116.1629999999999
 20
49.4106476333458
 30
0.0
 11
116.1629999999999
 21
47.5980301042465
 31
0.0
  0
LINE
  5
505
330
1E
100
AcDbEntity
  8
0
100
AcDbLine
 10
117.577
 20
48.1956938854272
 30
0.0
 11
117.577
 21
50.0083114145265
 31
0.0
  0
LINE
  5
506
330
1E
100
AcDbEntity
  8
0
100
AcDbLine
 10
117.577
 20
48.1956938854272
 30
0.0
 11
118.991
 21
47.5980301042465
 31
0.0
  0
LINE
  5
507
330
1E
100
AcDbEntity
  8
0
100
AcDbLine
 10
135.399
 20
49.3213910992025
 30
0.0
 11
137.131
 21
49.74400726465351
 31
0.0
  0
LINE
  5
508
330
1E
100
AcDbEntity
  8
0
100
AcDbLine
 10
135.399
 20
49.3213910992025
 30
0.0
 11
135.399
 21
47.5087735701032
 31
0.0
  0
LINE
  5
509
330
1E
100
AcDbEntity
  8
0
100
AcDbLine
 10
137.131
 20
49.74400726465351
 30
0.0
 11
138.131
 21
49.0120360660925
 31
0.0
  0
LINE
  5
50A
330
1E
100
AcDbEntity
  8
0
100
AcDbLine
 10
137.131
 20
49.74400726465351
 30
0.0
 11
137.131
 21
47.9313897355542
 31
0.0
  0
LINE
  5
50B
330
1E
100
AcDbEntity
  8
0
100
AcDbLine
 10
118.991
 20
49.4106476333458
 30
0.0
 11
118.991
 21
47.5980301042465
 31
0.0
  0
LINE
  5
50C
330
1E
100
AcDbEntity
  8
0
100
AcDbLine
 10
117.577
 20
50.0083114145265
 30
0.0
 11
118.991
 21
49.4106476333458
 31
0.0
  0
LINE
  5
50D
330
1E
100
AcDbEntity
  8
0
100
AcDbLine
 10
117.577
 20
50.0083114145265
 30
0.0
 11
117.577
 21
48.1956938854272
 31
0.0
  0
LINE
  5
50E
330
1E
100
AcDbEntity
  8
0
100
AcDbLine
 10
71.866
 20
51.8752605870226
 30
0.0
 11
71.866
 21
50.06264305792329
 31
0.0
  0
LINE
  5
50F
330
1E
100
AcDbEntity
  8
0
100
AcDbLine
 10
81.1308
 20
51.5650435261014
 30
0.0
 11
81.1308
 21
53.37766105520071
 31
0.0
  0
LINE
  5
510
330
1E
100
AcDbEntity
  8
0
100
AcDbLine
 10
98.86920000000001
 20
51.5650435261014
 30
0.0
 11
98.86920000000001
 21
53.37766105520071
 31
0.0
  0
LINE
  5
511
330
1E
100
AcDbEntity
  8
0
100
AcDbLine
 10
98.86920000000001
 20
51.5650435261014
 30
0.0
 11
99.38679999999999
 21
52.381495696136
 31
0.0
  0
LINE
  5
512
330
1E
100
AcDbEntity
  8
0
100
AcDbLine
 10
98.86920000000001
 20
51.5650435261014
 30
0.0
 11
100.801
 21
51.34629739886389
 31
0.0
  0
LINE
  5
513
330
1E
100
AcDbEntity
  8
0
100
AcDbLine
 10
69.134
 20
52.18461562013271
 30
0.0
 11
69.134
 21
50.3719980910333
 31
0.0
  0
LINE
  5
514
330
1E
100
AcDbEntity
  8
0
100
AcDbLine
 10
69.134
 20
52.18461562013271
 30
0.0
 11
70.866
 21
52.6072317855836
 31
0.0
  0
LINE
  5
515
330
1E
100
AcDbEntity
  8
0
100
AcDbLine
 10
80.6132
 20
52.381495696136
 30
0.0
 11
80.6132
 21
54.1941132252354
 31
0.0
  0
LINE
  5
516
330
1E
100
AcDbEntity
  8
0
100
AcDbLine
 10
80.6132
 20
52.381495696136
 30
0.0
 11
81.1308
 21
51.5650435261014
 31
0.0
  0
LINE
  5
517
330
1E
100
AcDbEntity
  8
0
100
AcDbLine
 10
78.68129999999999
 20
52.16270730728211
 30
0.0
 11
79.199
 21
51.34629739886389
 31
0.0
  0
LINE
  5
518
330
1E
100
AcDbEntity
  8
0
100
AcDbLine
 10
78.68129999999999
 20
52.16270730728211
 30
0.0
 11
78.68129999999999
 21
53.9753248363814
 31
0.0
  0
LINE
  5
519
330
1E
100
AcDbEntity
  8
0
100
AcDbLine
 10
78.68129999999999
 20
52.16270730728211
 30
0.0
 11
80.6132
 21
52.381495696136
 31
0.0
  0
LINE
  5
51A
330
1E
100
AcDbEntity
  8
0
100
AcDbLine
 10
91.0
 20
52.0028738735085
 30
0.0
 11
91.0
 21
52.8481062044104
 31
0.0
  0
LINE
  5
51B
330
1E
100
AcDbEntity
  8
0
100
AcDbLine
 10
89.0
 20
52.0028738735085
 30
0.0
 11
89.0
 21
52.8481062044104
 31
0.0
  0
LINE
  5
51C
330
1E
100
AcDbEntity
  8
0
100
AcDbLine
 10
89.0
 20
52.0028738735085
 30
0.0
 11
91.0
 21
52.0028738735085
 31
0.0
  0
LINE
  5
51D
330
1E
100
AcDbEntity
  8
0
100
AcDbLine
 10
89.0
 20
52.0028738735085
 30
0.0
 11
89.0
 21
53.8154914026079
 31
0.0
  0
LINE
  5
51E
330
1E
100
AcDbEntity
  8
0
100
AcDbLine
 10
70.866
 20
52.6072317855836
 30
0.0
 11
70.866
 21
50.7946142564843
 31
0.0
  0
LINE
  5
51F
330
1E
100
AcDbEntity
  8
0
100
AcDbLine
 10
70.866
 20
52.6072317855836
 30
0.0
 11
71.866
 21
51.8752605870226
 31
0.0
  0
LINE
  5
520
330
1E
100
AcDbEntity
  8
0
100
AcDbLine
 10
99.38679999999999
 20
52.381495696136
 30
0.0
 11
99.38679999999999
 21
54.1941132252354
 31
0.0
  0
LINE
  5
521
330
1E
100
AcDbEntity
  8
0
100
AcDbLine
 10
99.38679999999999
 20
52.381495696136
 30
0.0
 11
101.319
 21
52.16270730728211
 31
0.0
  0
LINE
  5
522
330
1E
100
AcDbEntity
  8
0
100
AcDbLine
 10
101.319
 20
52.16270730728211
 30
0.0
 11
101.319
 21
53.9753248363814
 31
0.0
  0
LINE
  5
523
330
1E
100
AcDbEntity
  8
0
100
AcDbLine
 10
108.1339999999999
 20
51.8752605870226
 30
0.0
 11
109.1339999999999
 21
52.6072317855836
 31
0.0
  0
LINE
  5
524
330
1E
100
AcDbEntity
  8
0
100
AcDbLine
 10
108.1339999999999
 20
51.8752605870226
 30
0.0
 11
108.1339999999999
 21
50.06264305792329
 31
0.0
  0
LINE
  5
525
330
1E
100
AcDbEntity
  8
0
100
AcDbLine
 10
110.8659999999999
 20
52.18461562013271
 30
0.0
 11
110.8659999999999
 21
50.3719980910333
 31
0.0
  0
LINE
  5
526
330
1E
100
AcDbEntity
  8
0
100
AcDbLine
 10
81.1308
 20
53.37766105520071
 30
0.0
 11
81.1308
 21
51.5650435261014
 31
0.0
  0
LINE
  5
527
330
1E
100
AcDbEntity
  8
0
100
AcDbLine
 10
91.0
 20
52.8481062044104
 30
0.0
 11
91.0
 21
54.66072373350971
 31
0.0
  0
LINE
  5
528
330
1E
100
AcDbEntity
  8
0
100
AcDbLine
 10
91.0
 20
52.8481062044104
 30
0.0
 11
91.0
 21
52.0028738735085
 31
0.0
  0
LINE
  5
529
330
1E
100
AcDbEntity
  8
0
100
AcDbLine
 10
89.0
 20
52.8481062044104
 30
0.0
 11
89.0
 21
54.66072373350971
 31
0.0
  0
LINE
  5
52A
330
1E
100
AcDbEntity
  8
0
100
AcDbLine
 10
89.0
 20
52.8481062044104
 30
0.0
 11
91.0
 21
52.8481062044104
 31
0.0
  0
LINE
  5
52B
330
1E
100
AcDbEntity
  8
0
100
AcDbLine
 10
89.0
 20
52.8481062044104
 30
0.0
 11
89.0
 21
52.0028738735085
 31
0.0
  0
LINE
  5
52C
330
1E
100
AcDbEntity
  8
0
100
AcDbLine
 10
89.0
 20
53.8154914026079
 30
0.0
 11
89.0
 21
52.0028738735085
 31
0.0
  0
LINE
  5
52D
330
1E
100
AcDbEntity
  8
0
100
AcDbLine
 10
89.0
 20
53.8154914026079
 30
0.0
 11
89.0
 21
54.66072373350971
 31
0.0
  0
LINE
  5
52E
330
1E
100
AcDbEntity
  8
0
100
AcDbLine
 10
98.86920000000001
 20
53.37766105520071
 30
0.0
 11
99.38679999999999
 21
54.1941132252354
 31
0.0
  0
LINE
  5
52F
330
1E
100
AcDbEntity
  8
0
100
AcDbLine
 10
98.86920000000001
 20
53.37766105520071
 30
0.0
 11
98.86920000000001
 21
51.5650435261014
 31
0.0
  0
LINE
  5
530
330
1E
100
AcDbEntity
  8
0
100
AcDbLine
 10
109.1339999999999
 20
52.6072317855836
 30
0.0
 11
110.8659999999999
 21
52.18461562013271
 31
0.0
  0
LINE
  5
531
330
1E
100
AcDbEntity
  8
0
100
AcDbLine
 10
109.1339999999999
 20
52.6072317855836
 30
0.0
 11
109.1339999999999
 21
50.7946142564843
 31
0.0
  0
LINE
  5
532
330
1E
100
AcDbEntity
  8
0
100
AcDbLine
 10
126.77
 20
52.08055072471839
 30
0.0
 11
126.77
 21
53.8931682538177
 31
0.0
  0
LINE
  5
533
330
1E
100
AcDbEntity
  8
0
100
AcDbLine
 10
126.77
 20
52.08055072471839
 30
0.0
 11
128.184
 21
52.6782145058991
 31
0.0
  0
LINE
  5
534
330
1E
100
AcDbEntity
  8
0
100
AcDbLine
 10
126.77
 20
52.08055072471839
 30
0.0
 11
128.184
 21
51.4828869435377
 31
0.0
  0
LINE
  5
535
330
1E
100
AcDbEntity
  8
0
100
AcDbLine
 10
80.6132
 20
54.1941132252354
 30
0.0
 11
80.6132
 21
52.381495696136
 31
0.0
  0
LINE
  5
536
330
1E
100
AcDbEntity
  8
0
100
AcDbLine
 10
80.6132
 20
54.1941132252354
 30
0.0
 11
81.1308
 21
53.37766105520071
 31
0.0
  0
LINE
  5
537
330
1E
100
AcDbEntity
  8
0
100
AcDbLine
 10
78.68129999999999
 20
53.9753248363814
 30
0.0
 11
78.68129999999999
 21
52.16270730728211
 31
0.0
  0
LINE
  5
538
330
1E
100
AcDbEntity
  8
0
100
AcDbLine
 10
78.68129999999999
 20
53.9753248363814
 30
0.0
 11
80.6132
 21
54.1941132252354
 31
0.0
  0
LINE
  5
539
330
1E
100
AcDbEntity
  8
0
100
AcDbLine
 10
101.319
 20
53.9753248363814
 30
0.0
 11
101.319
 21
52.16270730728211
 31
0.0
  0
LINE
  5
53A
330
1E
100
AcDbEntity
  8
0
100
AcDbLine
 10
99.38679999999999
 20
54.1941132252354
 30
0.0
 11
101.319
 21
53.9753248363814
 31
0.0
  0
LINE
  5
53B
330
1E
100
AcDbEntity
  8
0
100
AcDbLine
 10
99.38679999999999
 20
54.1941132252354
 30
0.0
 11
99.38679999999999
 21
52.381495696136
 31
0.0
  0
LINE
  5
53C
330
1E
100
AcDbEntity
  8
0
100
AcDbLine
 10
126.77
 20
53.8931682538177
 30
0.0
 11
128.184
 21
54.4908320349985
 31
0.0
  0
LINE
  5
53D
330
1E
100
AcDbEntity
  8
0
100
AcDbLine
 10
126.77
 20
53.8931682538177
 30
0.0
 11
126.77
 21
52.08055072471839
 31
0.0
  0
LINE
  5
53E
330
1E
100
AcDbEntity
  8
0
100
AcDbLine
 10
129.5979999999999
 20
53.8931682538177
 30
0.0
 11
129.5979999999999
 21
52.08055072471839
 31
0.0
  0
LINE
  5
53F
330
1E
100
AcDbEntity
  8
0
100
AcDbLine
 10
128.184
 20
52.6782145058991
 30
0.0
 11
128.184
 21
54.4908320349985
 31
0.0
  0
LINE
  5
540
330
1E
100
AcDbEntity
  8
0
100
AcDbLine
 10
128.184
 20
52.6782145058991
 30
0.0
 11
129.5979999999999
 21
52.08055072471839
 31
0.0
  0
LINE
  5
541
330
1E
100
AcDbEntity
  8
0
100
AcDbLine
 10
91.0
 20
54.66072373350971
 30
0.0
 11
91.0
 21
52.8481062044104
 31
0.0
  0
LINE
  5
542
330
1E
100
AcDbEntity
  8
0
100
AcDbLine
 10
62.63399999999999
 20
55.12993766652971
 30
0.0
 11
64.366
 21
55.5525538319806
 31
0.0
  0
LINE
  5
543
330
1E
100
AcDbEntity
  8
0
100
AcDbLine
 10
64.366
 20
55.5525538319806
 30
0.0
 11
64.366
 21
57.36517136108001
 31
0.0
  0
LINE
  5
544
330
1E
100
AcDbEntity
  8
0
100
AcDbLine
 10
64.366
 20
57.36517136108001
 30
0.0
 11
64.366
 21
55.5525538319806
 31
0.0
  0
LINE
  5
545
330
1E
100
AcDbEntity
  8
0
100
AcDbLine
 10
63.366
 20
56.2845672921582
 30
0.0
 11
63.366
 21
58.09718482125749
 31
0.0
  0
LINE
  5
546
330
1E
100
AcDbEntity
  8
0
100
AcDbLine
 10
63.366
 20
56.2845672921582
 30
0.0
 11
64.366
 21
55.5525538319806
 31
0.0
  0
LINE
  5
547
330
1E
100
AcDbEntity
  8
0
100
AcDbLine
 10
61.63399999999999
 20
55.86195112670729
 30
0.0
 11
61.63399999999999
 21
57.67456865580659
 31
0.0
  0
LINE
  5
548
330
1E
100
AcDbEntity
  8
0
100
AcDbLine
 10
61.63399999999999
 20
55.86195112670729
 30
0.0
 11
62.63399999999999
 21
55.12993766652971
 31
0.0
  0
LINE
  5
549
330
1E
100
AcDbEntity
  8
0
100
AcDbLine
 10
61.63399999999999
 20
55.86195112670729
 30
0.0
 11
63.366
 21
56.2845672921582
 31
0.0
  0
LINE
  5
54A
330
1E
100
AcDbEntity
  8
0
100
AcDbLine
 10
89.0
 20
54.66072373350971
 30
0.0
 11
89.0
 21
53.8154914026079
 31
0.0
  0
LINE
  5
54B
330
1E
100
AcDbEntity
  8
0
100
AcDbLine
 10
89.0
 20
54.66072373350971
 30
0.0
 11
89.0
 21
52.8481062044104
 31
0.0
  0
LINE
  5
54C
330
1E
100
AcDbEntity
  8
0
100
AcDbLine
 10
89.0
 20
54.66072373350971
 30
0.0
 11
91.0
 21
54.66072373350971
 31
0.0
  0
LINE
  5
54D
330
1E
100
AcDbEntity
  8
0
100
AcDbLine
 10
115.6339999999999
 20
55.5525538319806
 30
0.0
 11
115.6339999999999
 21
57.36517136108001
 31
0.0
  0
LINE
  5
54E
330
1E
100
AcDbEntity
  8
0
100
AcDbLine
 10
115.6339999999999
 20
55.5525538319806
 30
0.0
 11
116.6339999999999
 21
56.2845672921582
 31
0.0
  0
LINE
  5
54F
330
1E
100
AcDbEntity
  8
0
100
AcDbLine
 10
115.6339999999999
 20
55.5525538319806
 30
0.0
 11
117.3659999999999
 21
55.12993766652971
 31
0.0
  0
LINE
  5
550
330
1E
100
AcDbEntity
  8
0
100
AcDbLine
 10
61.63399999999999
 20
57.67456865580659
 30
0.0
 11
61.63399999999999
 21
55.86195112670729
 31
0.0
  0
LINE
  5
551
330
1E
100
AcDbEntity
  8
0
100
AcDbLine
 10
61.63399999999999
 20
57.67456865580659
 30
0.0
 11
63.366
 21
58.09718482125749
 31
0.0
  0
LINE
  5
552
330
1E
100
AcDbEntity
  8
0
100
AcDbLine
 10
75.3167
 20
57.4694984968496
 30
0.0
 11
77.2485
 21
57.6882868857035
 31
0.0
  0
LINE
  5
553
330
1E
100
AcDbEntity
  8
0
100
AcDbLine
 10
77.2485
 20
57.6882868857035
 30
0.0
 11
77.2485
 21
59.5009044148028
 31
0.0
  0
LINE
  5
554
330
1E
100
AcDbEntity
  8
0
100
AcDbLine
 10
63.366
 20
58.09718482125749
 30
0.0
 11
63.366
 21
56.2845672921582
 31
0.0
  0
LINE
  5
555
330
1E
100
AcDbEntity
  8
0
100
AcDbLine
 10
63.366
 20
58.09718482125749
 30
0.0
 11
64.366
 21
57.36517136108001
 31
0.0
  0
LINE
  5
556
330
1E
100
AcDbEntity
  8
0
100
AcDbLine
 10
102.751
 20
57.6882868857035
 30
0.0
 11
102.751
 21
59.5009044148028
 31
0.0
  0
LINE
  5
557
330
1E
100
AcDbEntity
  8
0
100
AcDbLine
 10
102.751
 20
57.6882868857035
 30
0.0
 11
103.2689999999999
 21
58.5046967941216
 31
0.0
  0
LINE
  5
558
330
1E
100
AcDbEntity
  8
0
100
AcDbLine
 10
102.751
 20
57.6882868857035
 30
0.0
 11
104.6829999999999
 21
57.4694984968496
 31
0.0
  0
LINE
  5
559
330
1E
100
AcDbEntity
  8
0
100
AcDbLine
 10
104.6829999999999
 20
57.4694984968496
 30
0.0
 11
105.201
 21
58.2859506668842
 31
0.0
  0
LINE
  5
55A
330
1E
100
AcDbEntity
  8
0
100
AcDbLine
 10
115.6339999999999
 20
57.36517136108001
 30
0.0
 11
116.6339999999999
 21
58.09718482125749
 31
0.0
  0
LINE
  5
55B
330
1E
100
AcDbEntity
  8
0
100
AcDbLine
 10
115.6339999999999
 20
57.36517136108001
 30
0.0
 11
115.6339999999999
 21
55.5525538319806
 31
0.0
  0
LINE
  5
55C
330
1E
100
AcDbEntity
  8
0
100
AcDbLine
 10
116.6339999999999
 20
56.2845672921582
 30
0.0
 11
116.6339999999999
 21
58.09718482125749
 31
0.0
  0
LINE
  5
55D
330
1E
100
AcDbEntity
  8
0
100
AcDbLine
 10
116.6339999999999
 20
56.2845672921582
 30
0.0
 11
118.3659999999999
 21
55.86195112670729
 31
0.0
  0
LINE
  5
55E
330
1E
100
AcDbEntity
  8
0
100
AcDbLine
 10
74.79899999999999
 20
58.2859506668842
 30
0.0
 11
75.3167
 21
57.4694984968496
 31
0.0
  0
LINE
  5
55F
330
1E
100
AcDbEntity
  8
0
100
AcDbLine
 10
74.79899999999999
 20
58.2859506668842
 30
0.0
 11
74.79899999999999
 21
60.0985681959836
 31
0.0
  0
LINE
  5
560
330
1E
100
AcDbEntity
  8
0
100
AcDbLine
 10
74.79899999999999
 20
58.2859506668842
 30
0.0
 11
76.73090000000001
 21
58.5046967941216
 31
0.0
  0
LINE
  5
561
330
1E
100
AcDbEntity
  8
0
100
AcDbLine
 10
91.0
 20
58.3421163552727
 30
0.0
 11
91.0
 21
59.1873486861746
 31
0.0
  0
LINE
  5
562
330
1E
100
AcDbEntity
  8
0
100
AcDbLine
 10
89.0
 20
58.3421163552727
 30
0.0
 11
89.0
 21
59.1873486861746
 31
0.0
  0
LINE
  5
563
330
1E
100
AcDbEntity
  8
0
100
AcDbLine
 10
89.0
 20
58.3421163552727
 30
0.0
 11
91.0
 21
58.3421163552727
 31
0.0
  0
LINE
  5
564
330
1E
100
AcDbEntity
  8
0
100
AcDbLine
 10
89.0
 20
58.3421163552727
 30
0.0
 11
89.0
 21
60.15473388437199
 31
0.0
  0
LINE
  5
565
330
1E
100
AcDbEntity
  8
0
100
AcDbLine
 10
105.201
 20
58.2859506668842
 30
0.0
 11
105.201
 21
60.0985681959836
 31
0.0
  0
LINE
  5
566
330
1E
100
AcDbEntity
  8
0
100
AcDbLine
 10
116.6339999999999
 20
58.09718482125749
 30
0.0
 11
118.3659999999999
 21
57.67456865580659
 31
0.0
  0
LINE
  5
567
330
1E
100
AcDbEntity
  8
0
100
AcDbLine
 10
116.6339999999999
 20
58.09718482125749
 30
0.0
 11
116.6339999999999
 21
56.2845672921582
 31
0.0
  0
LINE
  5
568
330
1E
100
AcDbEntity
  8
0
100
AcDbLine
 10
118.3659999999999
 20
57.67456865580659
 30
0.0
 11
118.3659999999999
 21
55.86195112670729
 31
0.0
  0
LINE
  5
569
330
1E
100
AcDbEntity
  8
0
100
AcDbLine
 10
118.3659999999999
 20
55.86195112670729
 30
0.0
 11
118.3659999999999
 21
57.67456865580659
 31
0.0
  0
LINE
  5
56A
330
1E
100
AcDbEntity
  8
0
100
AcDbLine
 10
117.3659999999999
 20
55.12993766652971
 30
0.0
 11
118.3659999999999
 21
55.86195112670729
 31
0.0
  0
LINE
  5
56B
330
1E
100
AcDbEntity
  8
0
100
AcDbLine
 10
128.184
 20
54.4908320349985
 30
0.0
 11
129.5979999999999
 21
53.8931682538177
 31
0.0
  0
LINE
  5
56C
330
1E
100
AcDbEntity
  8
0
100
AcDbLine
 10
128.184
 20
54.4908320349985
 30
0.0
 11
128.184
 21
52.6782145058991
 31
0.0
  0
LINE
  5
56D
330
1E
100
AcDbEntity
  8
0
100
AcDbLine
 10
129.5979999999999
 20
52.08055072471839
 30
0.0
 11
129.5979999999999
 21
53.8931682538177
 31
0.0
  0
LINE
  5
56E
330
1E
100
AcDbEntity
  8
0
100
AcDbLine
 10
128.184
 20
51.4828869435377
 30
0.0
 11
129.5979999999999
 21
52.08055072471839
 31
0.0
  0
LINE
  5
56F
330
1E
100
AcDbEntity
  8
0
100
AcDbLine
 10
138.131
 20
49.0120360660925
 30
0.0
 11
138.131
 21
47.19941853699309
 31
0.0
  0
LINE
  5
570
330
1E
100
AcDbEntity
  8
0
100
AcDbLine
 10
137.376
 20
56.5630713451904
 30
0.0
 11
137.376
 21
58.3756888742897
 31
0.0
  0
LINE
  5
571
330
1E
100
AcDbEntity
  8
0
100
AcDbLine
 10
137.376
 20
56.5630713451904
 30
0.0
 11
138.7899999999999
 21
57.1607351263711
 31
0.0
  0
LINE
  5
572
330
1E
100
AcDbEntity
  8
0
100
AcDbLine
 10
137.376
 20
56.5630713451904
 30
0.0
 11
138.7899999999999
 21
55.9654075640097
 31
0.0
  0
LINE
  5
573
330
1E
100
AcDbEntity
  8
0
100
AcDbLine
 10
76.73090000000001
 20
58.5046967941216
 30
0.0
 11
76.73090000000001
 21
60.317314323221
 31
0.0
  0
LINE
  5
574
330
1E
100
AcDbEntity
  8
0
100
AcDbLine
 10
76.73090000000001
 20
58.5046967941216
 30
0.0
 11
77.2485
 21
57.6882868857035
 31
0.0
  0
LINE
  5
575
330
1E
100
AcDbEntity
  8
0
100
AcDbLine
 10
103.2689999999999
 20
58.5046967941216
 30
0.0
 11
103.2689999999999
 21
60.317314323221
 31
0.0
  0
LINE
  5
576
330
1E
100
AcDbEntity
  8
0
100
AcDbLine
 10
103.2689999999999
 20
58.5046967941216
 30
0.0
 11
105.201
 21
58.2859506668842
 31
0.0
  0
LINE
  5
577
330
1E
100
AcDbEntity
  8
0
100
AcDbLine
 10
137.376
 20
58.3756888742897
 30
0.0
 11
138.7899999999999
 21
58.9733526554704
 31
0.0
  0
LINE
  5
578
330
1E
100
AcDbEntity
  8
0
100
AcDbLine
 10
137.376
 20
58.3756888742897
 30
0.0
 11
137.376
 21
56.5630713451904
 31
0.0
  0
LINE
  5
579
330
1E
100
AcDbEntity
  8
0
100
AcDbLine
 10
138.7899999999999
 20
57.1607351263711
 30
0.0
 11
138.7899999999999
 21
58.9733526554704
 31
0.0
  0
LINE
  5
57A
330
1E
100
AcDbEntity
  8
0
100
AcDbLine
 10
138.7899999999999
 20
57.1607351263711
 30
0.0
 11
140.205
 21
56.5630713451904
 31
0.0
  0
LINE
  5
57B
330
1E
100
AcDbEntity
  8
0
100
AcDbLine
 10
77.2485
 20
59.5009044148028
 30
0.0
 11
77.2485
 21
57.6882868857035
 31
0.0
  0
LINE
  5
57C
330
1E
100
AcDbEntity
  8
0
100
AcDbLine
 10
91.0
 20
59.1873486861746
 30
0.0
 11
91.0
 21
60.99996621527389
 31
0.0
  0
LINE
  5
57D
330
1E
100
AcDbEntity
  8
0
100
AcDbLine
 10
91.0
 20
59.1873486861746
 30
0.0
 11
91.0
 21
58.3421163552727
 31
0.0
  0
LINE
  5
57E
330
1E
100
AcDbEntity
  8
0
100
AcDbLine
 10
89.0
 20
59.1873486861746
 30
0.0
 11
89.0
 21
60.99996621527389
 31
0.0
  0
LINE
  5
57F
330
1E
100
AcDbEntity
  8
0
100
AcDbLine
 10
89.0
 20
59.1873486861746
 30
0.0
 11
91.0
 21
59.1873486861746
 31
0.0
  0
LINE
  5
580
330
1E
100
AcDbEntity
  8
0
100
AcDbLine
 10
89.0
 20
59.1873486861746
 30
0.0
 11
89.0
 21
58.3421163552727
 31
0.0
  0
LINE
  5
581
330
1E
100
AcDbEntity
  8
0
100
AcDbLine
 10
76.73090000000001
 20
60.317314323221
 30
0.0
 11
76.73090000000001
 21
58.5046967941216
 31
0.0
  0
LINE
  5
582
330
1E
100
AcDbEntity
  8
0
100
AcDbLine
 10
76.73090000000001
 20
60.317314323221
 30
0.0
 11
77.2485
 21
59.5009044148028
 31
0.0
  0
LINE
  5
583
330
1E
100
AcDbEntity
  8
0
100
AcDbLine
 10
74.79899999999999
 20
60.0985681959836
 30
0.0
 11
74.79899999999999
 21
58.2859506668842
 31
0.0
  0
LINE
  5
584
330
1E
100
AcDbEntity
  8
0
100
AcDbLine
 10
74.79899999999999
 20
60.0985681959836
 30
0.0
 11
76.73090000000001
 21
60.317314323221
 31
0.0
  0
LINE
  5
585
330
1E
100
AcDbEntity
  8
0
100
AcDbLine
 10
89.0
 20
60.15473388437199
 30
0.0
 11
89.0
 21
58.3421163552727
 31
0.0
  0
LINE
  5
586
330
1E
100
AcDbEntity
  8
0
100
AcDbLine
 10
89.0
 20
60.15473388437199
 30
0.0
 11
89.0
 21
60.99996621527389
 31
0.0
  0
LINE
  5
587
330
1E
100
AcDbEntity
  8
0
100
AcDbLine
 10
102.751
 20
59.5009044148028
 30
0.0
 11
103.2689999999999
 21
60.317314323221
 31
0.0
  0
LINE
  5
588
330
1E
100
AcDbEntity
  8
0
100
AcDbLine
 10
102.751
 20
59.5009044148028
 30
0.0
 11
102.751
 21
57.6882868857035
 31
0.0
  0
LINE
  5
589
330
1E
100
AcDbEntity
  8
0
100
AcDbLine
 10
105.201
 20
60.0985681959836
 30
0.0
 11
105.201
 21
58.2859506668842
 31
0.0
  0
LINE
  5
58A
330
1E
100
AcDbEntity
  8
0
100
AcDbLine
 10
103.2689999999999
 20
60.317314323221
 30
0.0
 11
105.201
 21
60.0985681959836
 31
0.0
  0
LINE
  5
58B
330
1E
100
AcDbEntity
  8
0
100
AcDbLine
 10
103.2689999999999
 20
60.317314323221
 30
0.0
 11
103.2689999999999
 21
58.5046967941216
 31
0.0
  0
LINE
  5
58C
330
1E
100
AcDbEntity
  8
0
100
AcDbLine
 10
138.7899999999999
 20
58.9733526554704
 30
0.0
 11
140.205
 21
58.3756888742897
 31
0.0
  0
LINE
  5
58D
330
1E
100
AcDbEntity
  8
0
100
AcDbLine
 10
138.7899999999999
 20
58.9733526554704
 30
0.0
 11
138.7899999999999
 21
57.1607351263711
 31
0.0
  0
LINE
  5
58E
330
1E
100
AcDbEntity
  8
0
100
AcDbLine
 10
140.205
 20
58.3756888742897
 30
0.0
 11
140.205
 21
56.5630713451904
 31
0.0
  0
LINE
  5
58F
330
1E
100
AcDbEntity
  8
0
100
AcDbLine
 10
140.205
 20
56.5630713451904
 30
0.0
 11
140.205
 21
58.3756888742897
 31
0.0
  0
LINE
  5
590
330
1E
100
AcDbEntity
  8
0
100
AcDbLine
 10
138.7899999999999
 20
55.9654075640097
 30
0.0
 11
140.205
 21
56.5630713451904
 31
0.0
  0
LINE
  5
591
330
1E
100
AcDbEntity
  8
0
100
AcDbLine
 10
95.50449999999999
 20
48.07086986563319
 30
0.0
 11
97.4364
 21
47.8520814767793
 31
0.0
  0
LINE
  5
592
330
1E
100
AcDbEntity
  8
0
100
AcDbLine
 10
95.50449999999999
 20
48.07086986563319
 30
0.0
 11
95.50449999999999
 21
46.25825233653389
 31
0.0
  0
LINE
  5
593
330
1E
100
AcDbEntity
  8
0
100
AcDbLine
 10
55.13399999999999
 20
60.61989070220359
 30
0.0
 11
56.86600000000001
 21
61.0425068676546
 31
0.0
  0
LINE
  5
594
330
1E
100
AcDbEntity
  8
0
100
AcDbLine
 10
32.0172
 20
61.0455919656623
 30
0.0
 11
32.0172
 21
62.8582094947617
 31
0.0
  0
LINE
  5
595
330
1E
100
AcDbEntity
  8
0
100
AcDbLine
 10
29.1888
 20
61.0455919656623
 30
0.0
 11
29.1888
 21
62.8582094947617
 31
0.0
  0
LINE
  5
596
330
1E
100
AcDbEntity
  8
0
100
AcDbLine
 10
29.1888
 20
61.0455919656623
 30
0.0
 11
30.603
 21
60.4479281844816
 31
0.0
  0
LINE
  5
597
330
1E
100
AcDbEntity
  8
0
100
AcDbLine
 10
29.1888
 20
61.0455919656623
 30
0.0
 11
30.603
 21
61.6432557468431
 31
0.0
  0
LINE
  5
598
330
1E
100
AcDbEntity
  8
0
100
AcDbLine
 10
91.0
 20
60.99996621527389
 30
0.0
 11
91.0
 21
59.1873486861746
 31
0.0
  0
LINE
  5
599
330
1E
100
AcDbEntity
  8
0
100
AcDbLine
 10
89.0
 20
60.99996621527389
 30
0.0
 11
89.0
 21
60.15473388437199
 31
0.0
  0
LINE
  5
59A
330
1E
100
AcDbEntity
  8
0
100
AcDbLine
 10
89.0
 20
60.99996621527389
 30
0.0
 11
89.0
 21
59.1873486861746
 31
0.0
  0
LINE
  5
59B
330
1E
100
AcDbEntity
  8
0
100
AcDbLine
 10
89.0
 20
60.99996621527389
 30
0.0
 11
91.0
 21
60.99996621527389
 31
0.0
  0
LINE
  5
59C
330
1E
100
AcDbEntity
  8
0
100
AcDbLine
 10
56.86600000000001
 20
61.0425068676546
 30
0.0
 11
56.86600000000001
 21
62.8551243967539
 31
0.0
  0
LINE
  5
59D
330
1E
100
AcDbEntity
  8
0
100
AcDbLine
 10
30.603
 20
61.6432557468431
 30
0.0
 11
30.603
 21
63.4558732759424
 31
0.0
  0
LINE
  5
59E
330
1E
100
AcDbEntity
  8
0
100
AcDbLine
 10
30.603
 20
61.6432557468431
 30
0.0
 11
32.0172
 21
61.0455919656623
 31
0.0
  0
LINE
  5
59F
330
1E
100
AcDbEntity
  8
0
100
AcDbLine
 10
55.866
 20
61.7745203278321
 30
0.0
 11
55.866
 21
63.5871378569315
 31
0.0
  0
LINE
  5
5A0
330
1E
100
AcDbEntity
  8
0
100
AcDbLine
 10
55.866
 20
61.7745203278321
 30
0.0
 11
56.86600000000001
 21
61.0425068676546
 31
0.0
  0
LINE
  5
5A1
330
1E
100
AcDbEntity
  8
0
100
AcDbLine
 10
54.13399999999999
 20
61.35190416238121
 30
0.0
 11
54.13399999999999
 21
63.1645216914805
 31
0.0
  0
LINE
  5
5A2
330
1E
100
AcDbEntity
  8
0
100
AcDbLine
 10
54.13399999999999
 20
61.35190416238121
 30
0.0
 11
55.13399999999999
 21
60.61989070220359
 31
0.0
  0
LINE
  5
5A3
330
1E
100
AcDbEntity
  8
0
100
AcDbLine
 10
54.13399999999999
 20
61.35190416238121
 30
0.0
 11
55.866
 21
61.7745203278321
 31
0.0
  0
LINE
  5
5A4
330
1E
100
AcDbEntity
  8
0
100
AcDbLine
 10
123.134
 20
61.0425068676546
 30
0.0
 11
123.134
 21
62.8551243967539
 31
0.0
  0
LINE
  5
5A5
330
1E
100
AcDbEntity
  8
0
100
AcDbLine
 10
123.134
 20
61.0425068676546
 30
0.0
 11
124.134
 21
61.7745203278321
 31
0.0
  0
LINE
  5
5A6
330
1E
100
AcDbEntity
  8
0
100
AcDbLine
 10
123.134
 20
61.0425068676546
 30
0.0
 11
124.866
 21
60.61989070220359
 31
0.0
  0
LINE
  5
5A7
330
1E
100
AcDbEntity
  8
0
100
AcDbLine
 10
32.0172
 20
62.8582094947617
 30
0.0
 11
32.0172
 21
61.0455919656623
 31
0.0
  0
LINE
  5
5A8
330
1E
100
AcDbEntity
  8
0
100
AcDbLine
 10
29.1888
 20
62.8582094947617
 30
0.0
 11
29.1888
 21
61.0455919656623
 31
0.0
  0
LINE
  5
5A9
330
1E
100
AcDbEntity
  8
0
100
AcDbLine
 10
29.1888
 20
62.8582094947617
 30
0.0
 11
30.603
 21
63.4558732759424
 31
0.0
  0
LINE
  5
5AA
330
1E
100
AcDbEntity
  8
0
100
AcDbLine
 10
56.86600000000001
 20
62.8551243967539
 30
0.0
 11
56.86600000000001
 21
61.0425068676546
 31
0.0
  0
LINE
  5
5AB
330
1E
100
AcDbEntity
  8
0
100
AcDbLine
 10
123.134
 20
62.8551243967539
 30
0.0
 11
124.134
 21
63.5871378569315
 31
0.0
  0
LINE
  5
5AC
330
1E
100
AcDbEntity
  8
0
100
AcDbLine
 10
123.134
 20
62.8551243967539
 30
0.0
 11
123.134
 21
61.0425068676546
 31
0.0
  0
LINE
  5
5AD
330
1E
100
AcDbEntity
  8
0
100
AcDbLine
 10
124.134
 20
61.7745203278321
 30
0.0
 11
124.134
 21
63.5871378569315
 31
0.0
  0
LINE
  5
5AE
330
1E
100
AcDbEntity
  8
0
100
AcDbLine
 10
124.134
 20
61.7745203278321
 30
0.0
 11
125.866
 21
61.35190416238121
 31
0.0
  0
LINE
  5
5AF
330
1E
100
AcDbEntity
  8
0
100
AcDbLine
 10
125.866
 20
61.35190416238121
 30
0.0
 11
125.866
 21
63.1645216914805
 31
0.0
  0
LINE
  5
5B0
330
1E
100
AcDbEntity
  8
0
100
AcDbLine
 10
124.866
 20
60.61989070220359
 30
0.0
 11
125.866
 21
61.35190416238121
 31
0.0
  0
LINE
  5
5B1
330
1E
100
AcDbEntity
  8
0
100
AcDbLine
 10
148.39
 20
50.6783948109853
 30
0.0
 11
148.39
 21
52.4910123400846
 31
0.0
  0
LINE
  5
5B2
330
1E
100
AcDbEntity
  8
0
100
AcDbLine
 10
148.39
 20
50.6783948109853
 30
0.0
 11
150.122
 21
51.10101097643621
 31
0.0
  0
LINE
  5
5B3
330
1E
100
AcDbEntity
  8
0
100
AcDbLine
 10
148.39
 20
50.6783948109853
 30
0.0
 11
149.39
 21
49.9464236124242
 31
0.0
  0
LINE
  5
5B4
330
1E
100
AcDbEntity
  8
0
100
AcDbLine
 10
148.39
 20
52.4910123400846
 30
0.0
 11
150.122
 21
52.91362850553561
 31
0.0
  0
LINE
  5
5B5
330
1E
100
AcDbEntity
  8
0
100
AcDbLine
 10
148.39
 20
52.4910123400846
 30
0.0
 11
148.39
 21
50.6783948109853
 31
0.0
  0
LINE
  5
5B6
330
1E
100
AcDbEntity
  8
0
100
AcDbLine
 10
149.39
 20
49.9464236124242
 30
0.0
 11
151.122
 21
50.3690397778752
 31
0.0
  0
LINE
  5
5B7
330
1E
100
AcDbEntity
  8
0
100
AcDbLine
 10
147.9829999999999
 20
61.0455919656623
 30
0.0
 11
147.9829999999999
 21
62.8582094947617
 31
0.0
  0
LINE
  5
5B8
330
1E
100
AcDbEntity
  8
0
100
AcDbLine
 10
147.9829999999999
 20
61.0455919656623
 30
0.0
 11
149.397
 21
61.6432557468431
 31
0.0
  0
LINE
  5
5B9
330
1E
100
AcDbEntity
  8
0
100
AcDbLine
 10
147.9829999999999
 20
61.0455919656623
 30
0.0
 11
149.397
 21
60.4479281844816
 31
0.0
  0
LINE
  5
5BA
330
1E
100
AcDbEntity
  8
0
100
AcDbLine
 10
30.603
 20
63.4558732759424
 30
0.0
 11
30.603
 21
61.6432557468431
 31
0.0
  0
LINE
  5
5BB
330
1E
100
AcDbEntity
  8
0
100
AcDbLine
 10
30.603
 20
63.4558732759424
 30
0.0
 11
32.0172
 21
62.8582094947617
 31
0.0
  0
LINE
  5
5BC
330
1E
100
AcDbEntity
  8
0
100
AcDbLine
 10
54.13399999999999
 20
63.1645216914805
 30
0.0
 11
54.13399999999999
 21
61.35190416238121
 31
0.0
  0
LINE
  5
5BD
330
1E
100
AcDbEntity
  8
0
100
AcDbLine
 10
54.13399999999999
 20
63.1645216914805
 30
0.0
 11
55.866
 21
63.5871378569315
 31
0.0
  0
LINE
  5
5BE
330
1E
100
AcDbEntity
  8
0
100
AcDbLine
 10
125.866
 20
63.1645216914805
 30
0.0
 11
125.866
 21
61.35190416238121
 31
0.0
  0
LINE
  5
5BF
330
1E
100
AcDbEntity
  8
0
100
AcDbLine
 10
147.9829999999999
 20
62.8582094947617
 30
0.0
 11
149.397
 21
63.4558732759424
 31
0.0
  0
LINE
  5
5C0
330
1E
100
AcDbEntity
  8
0
100
AcDbLine
 10
147.9829999999999
 20
62.8582094947617
 30
0.0
 11
147.9829999999999
 21
61.0455919656623
 31
0.0
  0
LINE
  5
5C1
330
1E
100
AcDbEntity
  8
0
100
AcDbLine
 10
149.397
 20
61.6432557468431
 30
0.0
 11
149.397
 21
63.4558732759424
 31
0.0
  0
LINE
  5
5C2
330
1E
100
AcDbEntity
  8
0
100
AcDbLine
 10
149.397
 20
61.6432557468431
 30
0.0
 11
150.811
 21
61.0455919656623
 31
0.0
  0
LINE
  5
5C3
330
1E
100
AcDbEntity
  8
0
100
AcDbLine
 10
71.4344
 20
63.5927418564517
 30
0.0
 11
73.3662
 21
63.81153024530569
 31
0.0
  0
LINE
  5
5C4
330
1E
100
AcDbEntity
  8
0
100
AcDbLine
 10
73.3662
 20
63.81153024530569
 30
0.0
 11
73.3662
 21
65.624147774405
 31
0.0
  0
LINE
  5
5C5
330
1E
100
AcDbEntity
  8
0
100
AcDbLine
 10
106.634
 20
63.81153024530569
 30
0.0
 11
106.634
 21
65.624147774405
 31
0.0
  0
LINE
  5
5C6
330
1E
100
AcDbEntity
  8
0
100
AcDbLine
 10
106.634
 20
63.81153024530569
 30
0.0
 11
107.151
 21
64.6279401537238
 31
0.0
  0
LINE
  5
5C7
330
1E
100
AcDbEntity
  8
0
100
AcDbLine
 10
106.634
 20
63.81153024530569
 30
0.0
 11
108.566
 21
63.5927418564517
 31
0.0
  0
LINE
  5
5C8
330
1E
100
AcDbEntity
  8
0
100
AcDbLine
 10
108.566
 20
63.5927418564517
 30
0.0
 11
109.0829999999999
 21
64.4091940264864
 31
0.0
  0
LINE
  5
5C9
330
1E
100
AcDbEntity
  8
0
100
AcDbLine
 10
55.866
 20
63.5871378569315
 30
0.0
 11
55.866
 21
61.7745203278321
 31
0.0
  0
LINE
  5
5CA
330
1E
100
AcDbEntity
  8
0
100
AcDbLine
 10
55.866
 20
63.5871378569315
 30
0.0
 11
56.86600000000001
 21
62.8551243967539
 31
0.0
  0
LINE
  5
5CB
330
1E
100
AcDbEntity
  8
0
100
AcDbLine
 10
124.134
 20
63.5871378569315
 30
0.0
 11
125.866
 21
63.1645216914805
 31
0.0
  0
LINE
  5
5CC
330
1E
100
AcDbEntity
  8
0
100
AcDbLine
 10
124.134
 20
63.5871378569315
 30
0.0
 11
124.134
 21
61.7745203278321
 31
0.0
  0
LINE
  5
5CD
330
1E
100
AcDbEntity
  8
0
100
AcDbLine
 10
149.397
 20
63.4558732759424
 30
0.0
 11
150.811
 21
62.8582094947617
 31
0.0
  0
LINE
  5
5CE
330
1E
100
AcDbEntity
  8
0
100
AcDbLine
 10
149.397
 20
63.4558732759424
 30
0.0
 11
149.397
 21
61.6432557468431
 31
0.0
  0
LINE
  5
5CF
330
1E
100
AcDbEntity
  8
0
100
AcDbLine
 10
151.122
 20
52.1816573069745
 30
0.0
 11
151.122
 21
50.3690397778752
 31
0.0
  0
LINE
  5
5D0
330
1E
100
AcDbEntity
  8
0
100
AcDbLine
 10
150.122
 20
51.10101097643621
 30
0.0
 11
150.122
 21
52.91362850553561
 31
0.0
  0
LINE
  5
5D1
330
1E
100
AcDbEntity
  8
0
100
AcDbLine
 10
150.122
 20
51.10101097643621
 30
0.0
 11
151.122
 21
50.3690397778752
 31
0.0
  0
LINE
  5
5D2
330
1E
100
AcDbEntity
  8
0
100
AcDbLine
 10
150.122
 20
52.91362850553561
 30
0.0
 11
151.122
 21
52.1816573069745
 31
0.0
  0
LINE
  5
5D3
330
1E
100
AcDbEntity
  8
0
100
AcDbLine
 10
150.122
 20
52.91362850553561
 30
0.0
 11
150.122
 21
51.10101097643621
 31
0.0
  0
LINE
  5
5D4
330
1E
100
AcDbEntity
  8
0
100
AcDbLine
 10
161.3799999999999
 20
53.8480160518673
 30
0.0
 11
161.3799999999999
 21
55.6606335809667
 31
0.0
  0
LINE
  5
5D5
330
1E
100
AcDbEntity
  8
0
100
AcDbLine
 10
161.3799999999999
 20
53.8480160518673
 30
0.0
 11
163.1119999999999
 21
54.27063221731829
 31
0.0
  0
LINE
  5
5D6
330
1E
100
AcDbEntity
  8
0
100
AcDbLine
 10
161.3799999999999
 20
53.8480160518673
 30
0.0
 11
162.3799999999999
 21
53.11604485330629
 31
0.0
  0
LINE
  5
5D7
330
1E
100
AcDbEntity
  8
0
100
AcDbLine
 10
161.3799999999999
 20
55.6606335809667
 30
0.0
 11
163.1119999999999
 21
56.0832497464176
 31
0.0
  0
LINE
  5
5D8
330
1E
100
AcDbEntity
  8
0
100
AcDbLine
 10
161.3799999999999
 20
55.6606335809667
 30
0.0
 11
161.3799999999999
 21
53.8480160518673
 31
0.0
  0
LINE
  5
5D9
330
1E
100
AcDbEntity
  8
0
100
AcDbLine
 10
164.1119999999999
 20
55.3512785478566
 30
0.0
 11
164.1119999999999
 21
53.5386610187573
 31
0.0
  0
LINE
  5
5DA
330
1E
100
AcDbEntity
  8
0
100
AcDbLine
 10
163.1119999999999
 20
54.27063221731829
 30
0.0
 11
163.1119999999999
 21
56.0832497464176
 31
0.0
  0
LINE
  5
5DB
330
1E
100
AcDbEntity
  8
0
100
AcDbLine
 10
163.1119999999999
 20
54.27063221731829
 30
0.0
 11
164.1119999999999
 21
53.5386610187573
 31
0.0
  0
LINE
  5
5DC
330
1E
100
AcDbEntity
  8
0
100
AcDbLine
 10
163.1119999999999
 20
56.0832497464176
 30
0.0
 11
164.1119999999999
 21
55.3512785478566
 31
0.0
  0
LINE
  5
5DD
330
1E
100
AcDbEntity
  8
0
100
AcDbLine
 10
163.1119999999999
 20
56.0832497464176
 30
0.0
 11
163.1119999999999
 21
54.27063221731829
 31
0.0
  0
LINE
  5
5DE
330
1E
100
AcDbEntity
  8
0
100
AcDbLine
 10
164.1119999999999
 20
53.5386610187573
 30
0.0
 11
164.1119999999999
 21
55.3512785478566
 31
0.0
  0
LINE
  5
5DF
330
1E
100
AcDbEntity
  8
0
100
AcDbLine
 10
162.3799999999999
 20
53.11604485330629
 30
0.0
 11
164.1119999999999
 21
53.5386610187573
 31
0.0
  0
LINE
  5
5E0
330
1E
100
AcDbEntity
  8
0
100
AcDbLine
 10
151.122
 20
50.3690397778752
 30
0.0
 11
151.122
 21
52.1816573069745
 31
0.0
  0
LINE
  5
5E1
330
1E
100
AcDbEntity
  8
0
100
AcDbLine
 10
150.811
 20
62.8582094947617
 30
0.0
 11
150.811
 21
61.0455919656623
 31
0.0
  0
LINE
  5
5E2
330
1E
100
AcDbEntity
  8
0
100
AcDbLine
 10
150.811
 20
61.0455919656623
 30
0.0
 11
150.811
 21
62.8582094947617
 31
0.0
  0
LINE
  5
5E3
330
1E
100
AcDbEntity
  8
0
100
AcDbLine
 10
149.397
 20
60.4479281844816
 30
0.0
 11
150.811
 21
61.0455919656623
 31
0.0
  0
LINE
  5
5E4
330
1E
100
AcDbEntity
  8
0
100
AcDbLine
 10
152.8
 20
64.29637230579121
 30
0.0
 11
167.1
 21
56.4357116284037
 31
0.0
  0
LINE
  5
5E5
330
1E
100
AcDbEntity
  8
0
100
AcDbLine
 10
171.8449999999999
 20
47.46166866313569
 30
0.0
 11
172.3629999999999
 21
46.6452587547175
 31
0.0
  0
LINE
  5
5E6
330
1E
100
AcDbEntity
  8
0
100
AcDbLine
 10
171.8449999999999
 20
47.46166866313569
 30
0.0
 11
171.8449999999999
 21
45.64905113403629
 31
0.0
  0
LINE
  5
5E7
330
1E
100
AcDbEntity
  8
0
100
AcDbLine
 10
179.693640018451
 20
47.72547352551839
 30
0.0
 11
180.0
 21
48.63178229006799
 31
0.0
  0
LINE
  5
5E8
330
1E
100
AcDbEntity
  8
0
100
AcDbLine
 10
180.0
 20
48.63178229006799
 30
0.0
 11
180.0
 21
83.97782410750499
 31
0.0
  0
LINE
  5
5E9
330
1E
100
AcDbEntity
  8
0
100
AcDbLine
 10
176.6999999999999
 20
58.3942157119848
 30
0.0
 11
180.0
 21
48.63178229006799
 31
0.0
  0
LINE
  5
5EA
330
1E
100
AcDbEntity
  8
0
100
AcDbLine
 10
176.6999999999999
 20
56.58159818288551
 30
0.0
 11
180.0
 21
46.8191647609687
 31
0.0
  0
LINE
  5
5EB
330
1E
100
AcDbEntity
  8
0
100
AcDbLine
 10
167.9
 20
57.5533284756789
 30
0.0
 11
176.6999999999999
 21
48.4248193019385
 31
0.0
  0
LINE
  5
5EC
330
1E
100
AcDbEntity
  8
0
100
AcDbLine
 10
176.6999999999999
 20
48.4248193019385
 30
0.0
 11
180.0
 21
38.6623858800217
 31
0.0
  0
LINE
  5
5ED
330
1E
100
AcDbEntity
  8
0
100
AcDbLine
 10
167.1
 20
56.4357116284037
 30
0.0
 11
175.8
 21
47.4339873042986
 31
0.0
  0
LINE
  5
5EE
330
1E
100
AcDbEntity
  8
0
100
AcDbLine
 10
26.4
 20
110.856212230185
 30
0.0
 11
45.3
 21
116.899623396133
 31
0.0
  0
LINE
  5
5EF
330
1E
100
AcDbEntity
  8
0
100
AcDbLine
 10
27.2
 20
111.424428062374
 30
0.0
 11
45.8
 21
117.467839228322
 31
0.0
  0
LINE
  5
5F0
330
1E
100
AcDbEntity
  8
0
100
AcDbLine
 10
45.3
 20
116.899623396133
 30
0.0
 11
66.90000000000001
 21
120.6186456521019
 31
0.0
  0
LINE
  5
5F1
330
1E
100
AcDbEntity
  8
0
100
AcDbLine
 10
45.3
 20
81.55358157869649
 30
0.0
 11
66.90000000000001
 21
85.27260383466479
 31
0.0
  0
LINE
  5
5F2
330
1E
100
AcDbEntity
  8
0
100
AcDbLine
 10
26.4
 20
75.510170412748
 30
0.0
 11
45.3
 21
81.55358157869649
 31
0.0
  0
LINE
  5
5F3
330
1E
100
AcDbEntity
  8
0
100
AcDbLine
 10
27.2
 20
74.26576871583759
 30
0.0
 11
45.8
 21
80.309179881786
 31
0.0
  0
LINE
  5
5F4
330
1E
100
AcDbEntity
  8
0
100
AcDbLine
 10
45.3
 20
79.74096404959709
 30
0.0
 11
66.90000000000001
 21
83.45998630556541
 31
0.0
  0
LINE
  5
5F5
330
1E
100
AcDbEntity
  8
0
100
AcDbLine
 10
26.4
 20
73.6975528836487
 30
0.0
 11
45.3
 21
79.74096404959709
 31
0.0
  0
LINE
  5
5F6
330
1E
100
AcDbEntity
  8
0
100
AcDbLine
 10
45.8
 20
117.467839228322
 30
0.0
 11
67.09999999999999
 21
121.1445998677459
 31
0.0
  0
LINE
  5
5F7
330
1E
100
AcDbEntity
  8
0
100
AcDbLine
 10
45.8
 20
80.309179881786
 30
0.0
 11
67.09999999999999
 21
83.9859405212092
 31
0.0
  0
LINE
  5
5F8
330
1E
100
AcDbEntity
  8
0
100
AcDbLine
 10
45.3
 20
71.58418516865009
 30
0.0
 11
66.90000000000001
 21
75.30320742461841
 31
0.0
  0
LINE
  5
5F9
330
1E
100
AcDbEntity
  8
0
100
AcDbLine
 10
26.4
 20
65.5407740027017
 30
0.0
 11
45.3
 21
71.58418516865009
 31
0.0
  0
LINE
  5
5FA
330
1E
100
AcDbEntity
  8
0
100
AcDbLine
 10
70.9167
 20
64.4091940264864
 30
0.0
 11
71.4344
 21
63.5927418564517
 31
0.0
  0
LINE
  5
5FB
330
1E
100
AcDbEntity
  8
0
100
AcDbLine
 10
70.9167
 20
64.4091940264864
 30
0.0
 11
70.9167
 21
66.2218115555857
 31
0.0
  0
LINE
  5
5FC
330
1E
100
AcDbEntity
  8
0
100
AcDbLine
 10
70.9167
 20
64.4091940264864
 30
0.0
 11
72.84860000000001
 21
64.6279401537238
 31
0.0
  0
LINE
  5
5FD
330
1E
100
AcDbEntity
  8
0
100
AcDbLine
 10
72.84860000000001
 20
64.6279401537238
 30
0.0
 11
72.84860000000001
 21
66.44055768282311
 31
0.0
  0
LINE
  5
5FE
330
1E
100
AcDbEntity
  8
0
100
AcDbLine
 10
72.84860000000001
 20
64.6279401537238
 30
0.0
 11
73.3662
 21
63.81153024530569
 31
0.0
  0
LINE
  5
5FF
330
1E
100
AcDbEntity
  8
0
100
AcDbLine
 10
91.0
 20
64.6813588370368
 30
0.0
 11
91.0
 21
65.5265911679387
 31
0.0
  0
LINE
  5
600
330
1E
100
AcDbEntity
  8
0
100
AcDbLine
 10
47.63399999999999
 20
66.1098437378775
 30
0.0
 11
49.36600000000001
 21
66.5324599033285
 31
0.0
  0
LINE
  5
601
330
1E
100
AcDbEntity
  8
0
100
AcDbLine
 10
73.3662
 20
65.624147774405
 30
0.0
 11
73.3662
 21
63.81153024530569
 31
0.0
  0
LINE
  5
602
330
1E
100
AcDbEntity
  8
0
100
AcDbLine
 10
49.36600000000001
 20
66.5324599033285
 30
0.0
 11
49.36600000000001
 21
68.3450774324278
 31
0.0
  0
LINE
  5
603
330
1E
100
AcDbEntity
  8
0
100
AcDbLine
 10
48.366
 20
67.26447336350609
 30
0.0
 11
48.366
 21
69.07709089260539
 31
0.0
  0
LINE
  5
604
330
1E
100
AcDbEntity
  8
0
100
AcDbLine
 10
48.366
 20
67.26447336350609
 30
0.0
 11
49.36600000000001
 21
66.5324599033285
 31
0.0
  0
LINE
  5
605
330
1E
100
AcDbEntity
  8
0
100
AcDbLine
 10
46.63399999999999
 20
66.84185719805511
 30
0.0
 11
46.63399999999999
 21
68.65447472715451
 31
0.0
  0
LINE
  5
606
330
1E
100
AcDbEntity
  8
0
100
AcDbLine
 10
46.63399999999999
 20
66.84185719805511
 30
0.0
 11
47.63399999999999
 21
66.1098437378775
 31
0.0
  0
LINE
  5
607
330
1E
100
AcDbEntity
  8
0
100
AcDbLine
 10
46.63399999999999
 20
66.84185719805511
 30
0.0
 11
48.366
 21
67.26447336350609
 31
0.0
  0
LINE
  5
608
330
1E
100
AcDbEntity
  8
0
100
AcDbLine
 10
72.84860000000001
 20
66.44055768282311
 30
0.0
 11
72.84860000000001
 21
64.6279401537238
 31
0.0
  0
LINE
  5
609
330
1E
100
AcDbEntity
  8
0
100
AcDbLine
 10
72.84860000000001
 20
66.44055768282311
 30
0.0
 11
73.3662
 21
65.624147774405
 31
0.0
  0
LINE
  5
60A
330
1E
100
AcDbEntity
  8
0
100
AcDbLine
 10
70.9167
 20
66.2218115555857
 30
0.0
 11
70.9167
 21
64.4091940264864
 31
0.0
  0
LINE
  5
60B
330
1E
100
AcDbEntity
  8
0
100
AcDbLine
 10
70.9167
 20
66.2218115555857
 30
0.0
 11
72.84860000000001
 21
66.44055768282311
 31
0.0
  0
LINE
  5
60C
330
1E
100
AcDbEntity
  8
0
100
AcDbLine
 10
89.0
 20
65.5265911679387
 30
0.0
 11
89.0
 21
67.339208697038
 31
0.0
  0
LINE
  5
60D
330
1E
100
AcDbEntity
  8
0
100
AcDbLine
 10
89.0
 20
65.5265911679387
 30
0.0
 11
91.0
 21
65.5265911679387
 31
0.0
  0
LINE
  5
60E
330
1E
100
AcDbEntity
  8
0
100
AcDbLine
 10
89.0
 20
65.5265911679387
 30
0.0
 11
89.0
 21
64.6813588370368
 31
0.0
  0
LINE
  5
60F
330
1E
100
AcDbEntity
  8
0
100
AcDbLine
 10
49.36600000000001
 20
68.3450774324278
 30
0.0
 11
49.36600000000001
 21
66.5324599033285
 31
0.0
  0
LINE
  5
610
330
1E
100
AcDbEntity
  8
0
100
AcDbLine
 10
89.0
 20
67.339208697038
 30
0.0
 11
89.0
 21
66.4939763661361
 31
0.0
  0
LINE
  5
611
330
1E
100
AcDbEntity
  8
0
100
AcDbLine
 10
89.0
 20
67.339208697038
 30
0.0
 11
89.0
 21
65.5265911679387
 31
0.0
  0
LINE
  5
612
330
1E
100
AcDbEntity
  8
0
100
AcDbLine
 10
89.0
 20
67.339208697038
 30
0.0
 11
91.0
 21
67.339208697038
 31
0.0
  0
LINE
  5
613
330
1E
100
AcDbEntity
  8
0
100
AcDbLine
 10
91.0
 20
67.339208697038
 30
0.0
 11
91.0
 21
65.5265911679387
 31
0.0
  0
LINE
  5
614
330
1E
100
AcDbEntity
  8
0
100
AcDbLine
 10
91.0
 20
65.5265911679387
 30
0.0
 11
91.0
 21
67.339208697038
 31
0.0
  0
LINE
  5
615
330
1E
100
AcDbEntity
  8
0
100
AcDbLine
 10
91.0
 20
65.5265911679387
 30
0.0
 11
91.0
 21
64.6813588370368
 31
0.0
  0
LINE
  5
616
330
1E
100
AcDbEntity
  8
0
100
AcDbLine
 10
89.0
 20
66.4939763661361
 30
0.0
 11
89.0
 21
64.6813588370368
 31
0.0
  0
LINE
  5
617
330
1E
100
AcDbEntity
  8
0
100
AcDbLine
 10
89.0
 20
66.4939763661361
 30
0.0
 11
89.0
 21
67.339208697038
 31
0.0
  0
LINE
  5
618
330
1E
100
AcDbEntity
  8
0
100
AcDbLine
 10
89.0
 20
64.6813588370368
 30
0.0
 11
89.0
 21
65.5265911679387
 31
0.0
  0
LINE
  5
619
330
1E
100
AcDbEntity
  8
0
100
AcDbLine
 10
89.0
 20
64.6813588370368
 30
0.0
 11
91.0
 21
64.6813588370368
 31
0.0
  0
LINE
  5
61A
330
1E
100
AcDbEntity
  8
0
100
AcDbLine
 10
89.0
 20
64.6813588370368
 30
0.0
 11
89.0
 21
66.4939763661361
 31
0.0
  0
LINE
  5
61B
330
1E
100
AcDbEntity
  8
0
100
AcDbLine
 10
106.634
 20
65.624147774405
 30
0.0
 11
107.151
 21
66.44055768282311
 31
0.0
  0
LINE
  5
61C
330
1E
100
AcDbEntity
  8
0
100
AcDbLine
 10
106.634
 20
65.624147774405
 30
0.0
 11
106.634
 21
63.81153024530569
 31
0.0
  0
LINE
  5
61D
330
1E
100
AcDbEntity
  8
0
100
AcDbLine
 10
107.151
 20
64.6279401537238
 30
0.0
 11
107.151
 21
66.44055768282311
 31
0.0
  0
LINE
  5
61E
330
1E
100
AcDbEntity
  8
0
100
AcDbLine
 10
107.151
 20
64.6279401537238
 30
0.0
 11
109.0829999999999
 21
64.4091940264864
 31
0.0
  0
LINE
  5
61F
330
1E
100
AcDbEntity
  8
0
100
AcDbLine
 10
109.0829999999999
 20
66.2218115555857
 30
0.0
 11
109.0829999999999
 21
64.4091940264864
 31
0.0
  0
LINE
  5
620
330
1E
100
AcDbEntity
  8
0
100
AcDbLine
 10
107.151
 20
66.44055768282311
 30
0.0
 11
109.0829999999999
 21
66.2218115555857
 31
0.0
  0
LINE
  5
621
330
1E
100
AcDbEntity
  8
0
100
AcDbLine
 10
107.151
 20
66.44055768282311
 30
0.0
 11
107.151
 21
64.6279401537238
 31
0.0
  0
LINE
  5
622
330
1E
100
AcDbEntity
  8
0
100
AcDbLine
 10
109.0829999999999
 20
64.4091940264864
 30
0.0
 11
109.0829999999999
 21
66.2218115555857
 31
0.0
  0
LINE
  5
623
330
1E
100
AcDbEntity
  8
0
100
AcDbLine
 10
130.6339999999999
 20
66.5324599033285
 30
0.0
 11
130.6339999999999
 21
68.3450774324278
 31
0.0
  0
LINE
  5
624
330
1E
100
AcDbEntity
  8
0
100
AcDbLine
 10
130.6339999999999
 20
66.5324599033285
 30
0.0
 11
131.6339999999999
 21
67.26447336350609
 31
0.0
  0
LINE
  5
625
330
1E
100
AcDbEntity
  8
0
100
AcDbLine
 10
130.6339999999999
 20
66.5324599033285
 30
0.0
 11
132.366
 21
66.1098437378775
 31
0.0
  0
LINE
  5
626
330
1E
100
AcDbEntity
  8
0
100
AcDbLine
 10
48.366
 20
69.07709089260539
 30
0.0
 11
48.366
 21
67.26447336350609
 31
0.0
  0
LINE
  5
627
330
1E
100
AcDbEntity
  8
0
100
AcDbLine
 10
48.366
 20
69.07709089260539
 30
0.0
 11
49.36600000000001
 21
68.3450774324278
 31
0.0
  0
LINE
  5
628
330
1E
100
AcDbEntity
  8
0
100
AcDbLine
 10
46.63399999999999
 20
68.65447472715451
 30
0.0
 11
46.63399999999999
 21
66.84185719805511
 31
0.0
  0
LINE
  5
629
330
1E
100
AcDbEntity
  8
0
100
AcDbLine
 10
46.63399999999999
 20
68.65447472715451
 30
0.0
 11
48.366
 21
69.07709089260539
 31
0.0
  0
LINE
  5
62A
330
1E
100
AcDbEntity
  8
0
100
AcDbLine
 10
130.6339999999999
 20
68.3450774324278
 30
0.0
 11
131.6339999999999
 21
69.07709089260539
 31
0.0
  0
LINE
  5
62B
330
1E
100
AcDbEntity
  8
0
100
AcDbLine
 10
130.6339999999999
 20
68.3450774324278
 30
0.0
 11
130.6339999999999
 21
66.5324599033285
 31
0.0
  0
LINE
  5
62C
330
1E
100
AcDbEntity
  8
0
100
AcDbLine
 10
131.6339999999999
 20
67.26447336350609
 30
0.0
 11
131.6339999999999
 21
69.07709089260539
 31
0.0
  0
LINE
  5
62D
330
1E
100
AcDbEntity
  8
0
100
AcDbLine
 10
131.6339999999999
 20
67.26447336350609
 30
0.0
 11
133.366
 21
66.84185719805511
 31
0.0
  0
LINE
  5
62E
330
1E
100
AcDbEntity
  8
0
100
AcDbLine
 10
67.55209999999999
 20
69.7159852160539
 30
0.0
 11
69.4839
 21
69.9347567002612
 31
0.0
  0
LINE
  5
62F
330
1E
100
AcDbEntity
  8
0
100
AcDbLine
 10
69.4839
 20
69.9347567002612
 30
0.0
 11
69.4839
 21
71.7473742293605
 31
0.0
  0
LINE
  5
630
330
1E
100
AcDbEntity
  8
0
100
AcDbLine
 10
68.9663
 20
70.75118773948759
 30
0.0
 11
68.9663
 21
72.5638052685869
 31
0.0
  0
LINE
  5
631
330
1E
100
AcDbEntity
  8
0
100
AcDbLine
 10
68.9663
 20
70.75118773948759
 30
0.0
 11
69.4839
 21
69.9347567002612
 31
0.0
  0
LINE
  5
632
330
1E
100
AcDbEntity
  8
0
100
AcDbLine
 10
67.0345
 20
70.5324289337652
 30
0.0
 11
67.55209999999999
 21
69.7159852160539
 31
0.0
  0
LINE
  5
633
330
1E
100
AcDbEntity
  8
0
100
AcDbLine
 10
67.0345
 20
70.5324289337652
 30
0.0
 11
67.0345
 21
72.34504646286459
 31
0.0
  0
LINE
  5
634
330
1E
100
AcDbEntity
  8
0
100
AcDbLine
 10
67.0345
 20
70.5324289337652
 30
0.0
 11
68.9663
 21
70.75118773948759
 31
0.0
  0
LINE
  5
635
330
1E
100
AcDbEntity
  8
0
100
AcDbLine
 10
91.0
 20
71.02060131880091
 30
0.0
 11
91.0
 21
71.86583364970279
 31
0.0
  0
LINE
  5
636
330
1E
100
AcDbEntity
  8
0
100
AcDbLine
 10
69.4839
 20
71.7473742293605
 30
0.0
 11
69.4839
 21
69.9347567002612
 31
0.0
  0
LINE
  5
637
330
1E
100
AcDbEntity
  8
0
100
AcDbLine
 10
68.9663
 20
72.5638052685869
 30
0.0
 11
68.9663
 21
70.75118773948759
 31
0.0
  0
LINE
  5
638
330
1E
100
AcDbEntity
  8
0
100
AcDbLine
 10
68.9663
 20
72.5638052685869
 30
0.0
 11
69.4839
 21
71.7473742293605
 31
0.0
  0
LINE
  5
639
330
1E
100
AcDbEntity
  8
0
100
AcDbLine
 10
67.0345
 20
72.34504646286459
 30
0.0
 11
67.0345
 21
70.5324289337652
 31
0.0
  0
LINE
  5
63A
330
1E
100
AcDbEntity
  8
0
100
AcDbLine
 10
67.0345
 20
72.34504646286459
 30
0.0
 11
68.9663
 21
72.5638052685869
 31
0.0
  0
LINE
  5
63B
330
1E
100
AcDbEntity
  8
0
100
AcDbLine
 10
91.0
 20
71.86583364970279
 30
0.0
 11
91.0
 21
73.67845117880221
 31
0.0
  0
LINE
  5
63C
330
1E
100
AcDbEntity
  8
0
100
AcDbLine
 10
91.0
 20
71.86583364970279
 30
0.0
 11
91.0
 21
71.02060131880091
 31
0.0
  0
LINE
  5
63D
330
1E
100
AcDbEntity
  8
0
100
AcDbLine
 10
89.0
 20
71.86583364970279
 30
0.0
 11
89.0
 21
73.67845117880221
 31
0.0
  0
LINE
  5
63E
330
1E
100
AcDbEntity
  8
0
100
AcDbLine
 10
89.0
 20
71.86583364970279
 30
0.0
 11
91.0
 21
71.86583364970279
 31
0.0
  0
LINE
  5
63F
330
1E
100
AcDbEntity
  8
0
100
AcDbLine
 10
89.0
 20
71.86583364970279
 30
0.0
 11
89.0
 21
71.02060131880091
 31
0.0
  0
LINE
  5
640
330
1E
100
AcDbEntity
  8
0
100
AcDbLine
 10
89.0
 20
71.02060131880091
 30
0.0
 11
89.0
 21
71.86583364970279
 31
0.0
  0
LINE
  5
641
330
1E
100
AcDbEntity
  8
0
100
AcDbLine
 10
89.0
 20
71.02060131880091
 30
0.0
 11
91.0
 21
71.02060131880091
 31
0.0
  0
LINE
  5
642
330
1E
100
AcDbEntity
  8
0
100
AcDbLine
 10
89.0
 20
71.02060131880091
 30
0.0
 11
89.0
 21
72.8332188479003
 31
0.0
  0
LINE
  5
643
330
1E
100
AcDbEntity
  8
0
100
AcDbLine
 10
110.516
 20
71.7473742293605
 30
0.0
 11
111.0339999999999
 21
72.5638052685869
 31
0.0
  0
LINE
  5
644
330
1E
100
AcDbEntity
  8
0
100
AcDbLine
 10
110.516
 20
71.7473742293605
 30
0.0
 11
110.516
 21
69.9347567002612
 31
0.0
  0
LINE
  5
645
330
1E
100
AcDbEntity
  8
0
100
AcDbLine
 10
110.516
 20
69.9347567002612
 30
0.0
 11
110.516
 21
71.7473742293605
 31
0.0
  0
LINE
  5
646
330
1E
100
AcDbEntity
  8
0
100
AcDbLine
 10
110.516
 20
69.9347567002612
 30
0.0
 11
111.0339999999999
 21
70.75118773948759
 31
0.0
  0
LINE
  5
647
330
1E
100
AcDbEntity
  8
0
100
AcDbLine
 10
110.516
 20
69.9347567002612
 30
0.0
 11
112.4479999999999
 21
69.7159852160539
 31
0.0
  0
LINE
  5
648
330
1E
100
AcDbEntity
  8
0
100
AcDbLine
 10
111.0339999999999
 20
70.75118773948759
 30
0.0
 11
111.0339999999999
 21
72.5638052685869
 31
0.0
  0
LINE
  5
649
330
1E
100
AcDbEntity
  8
0
100
AcDbLine
 10
111.0339999999999
 20
70.75118773948759
 30
0.0
 11
112.966
 21
70.5324289337652
 31
0.0
  0
LINE
  5
64A
330
1E
100
AcDbEntity
  8
0
100
AcDbLine
 10
89.0
 20
73.67845117880221
 30
0.0
 11
89.0
 21
72.8332188479003
 31
0.0
  0
LINE
  5
64B
330
1E
100
AcDbEntity
  8
0
100
AcDbLine
 10
89.0
 20
73.67845117880221
 30
0.0
 11
89.0
 21
71.86583364970279
 31
0.0
  0
LINE
  5
64C
330
1E
100
AcDbEntity
  8
0
100
AcDbLine
 10
89.0
 20
73.67845117880221
 30
0.0
 11
91.0
 21
73.67845117880221
 31
0.0
  0
LINE
  5
64D
330
1E
100
AcDbEntity
  8
0
100
AcDbLine
 10
91.0
 20
73.67845117880221
 30
0.0
 11
91.0
 21
71.86583364970279
 31
0.0
  0
LINE
  5
64E
330
1E
100
AcDbEntity
  8
0
100
AcDbLine
 10
89.0
 20
72.8332188479003
 30
0.0
 11
89.0
 21
71.02060131880091
 31
0.0
  0
LINE
  5
64F
330
1E
100
AcDbEntity
  8
0
100
AcDbLine
 10
89.0
 20
72.8332188479003
 30
0.0
 11
89.0
 21
73.67845117880221
 31
0.0
  0
LINE
  5
650
330
1E
100
AcDbEntity
  8
0
100
AcDbLine
 10
111.0339999999999
 20
72.5638052685869
 30
0.0
 11
112.966
 21
72.34504646286459
 31
0.0
  0
LINE
  5
651
330
1E
100
AcDbEntity
  8
0
100
AcDbLine
 10
111.0339999999999
 20
72.5638052685869
 30
0.0
 11
111.0339999999999
 21
70.75118773948759
 31
0.0
  0
LINE
  5
652
330
1E
100
AcDbEntity
  8
0
100
AcDbLine
 10
112.966
 20
72.34504646286459
 30
0.0
 11
112.966
 21
70.5324289337652
 31
0.0
  0
LINE
  5
653
330
1E
100
AcDbEntity
  8
0
100
AcDbLine
 10
112.966
 20
70.5324289337652
 30
0.0
 11
112.966
 21
72.34504646286459
 31
0.0
  0
LINE
  5
654
330
1E
100
AcDbEntity
  8
0
100
AcDbLine
 10
112.4479999999999
 20
69.7159852160539
 30
0.0
 11
112.966
 21
70.5324289337652
 31
0.0
  0
LINE
  5
655
330
1E
100
AcDbEntity
  8
0
100
AcDbLine
 10
131.6339999999999
 20
69.07709089260539
 30
0.0
 11
133.366
 21
68.65447472715451
 31
0.0
  0
LINE
  5
656
330
1E
100
AcDbEntity
  8
0
100
AcDbLine
 10
131.6339999999999
 20
69.07709089260539
 30
0.0
 11
131.6339999999999
 21
67.26447336350609
 31
0.0
  0
LINE
  5
657
330
1E
100
AcDbEntity
  8
0
100
AcDbLine
 10
133.366
 20
68.65447472715451
 30
0.0
 11
133.366
 21
66.84185719805511
 31
0.0
  0
LINE
  5
658
330
1E
100
AcDbEntity
  8
0
100
AcDbLine
 10
133.366
 20
66.84185719805511
 30
0.0
 11
133.366
 21
68.65447472715451
 31
0.0
  0
LINE
  5
659
330
1E
100
AcDbEntity
  8
0
100
AcDbLine
 10
132.366
 20
66.1098437378775
 30
0.0
 11
133.366
 21
66.84185719805511
 31
0.0
  0
LINE
  5
65A
330
1E
100
AcDbEntity
  8
0
100
AcDbLine
 10
112.9
 20
74.01654411116291
 30
0.0
 11
134.1999999999999
 21
70.3397834717397
 31
0.0
  0
LINE
  5
65B
330
1E
100
AcDbEntity
  8
0
100
AcDbLine
 10
167.9
 20
67.52272488572519
 30
0.0
 11
176.6999999999999
 21
58.3942157119848
 31
0.0
  0
LINE
  5
65C
330
1E
100
AcDbEntity
  8
0
100
AcDbLine
 10
167.1
 20
66.40510803845001
 30
0.0
 11
167.9
 21
65.71010735662579
 31
0.0
  0
LINE
  5
65D
330
1E
100
AcDbEntity
  8
0
100
AcDbLine
 10
153.6
 20
73.6975528836487
 30
0.0
 11
167.9
 21
65.71010735662579
 31
0.0
  0
LINE
  5
65E
330
1E
100
AcDbEntity
  8
0
100
AcDbLine
 10
167.9
 20
65.71010735662579
 30
0.0
 11
176.6999999999999
 21
56.58159818288551
 31
0.0
  0
LINE
  5
65F
330
1E
100
AcDbEntity
  8
0
100
AcDbLine
 10
134.6999999999999
 20
71.58418516865009
 30
0.0
 11
153.6
 21
65.5407740027017
 31
0.0
  0
LINE
  5
660
330
1E
100
AcDbEntity
  8
0
100
AcDbLine
 10
153.6
 20
65.5407740027017
 30
0.0
 11
167.9
 21
57.5533284756789
 31
0.0
  0
LINE
  5
661
330
1E
100
AcDbEntity
  8
0
100
AcDbLine
 10
134.1999999999999
 20
70.3397834717397
 30
0.0
 11
152.8
 21
64.29637230579121
 31
0.0
  0
LINE
  5
662
330
1E
100
AcDbEntity
  8
0
100
AcDbLine
 10
61.1518572884141
 20
120.117844140063
 30
0.0
 11
62.0
 21
126.478914476958
 31
0.0
  0
LINE
  5
663
330
1E
100
AcDbEntity
  8
0
100
AcDbLine
 10
60.6523657023909
 20
120.0316229662039
 30
0.0
 11
60.78451205005361
 21
120.9446340955089
 31
0.0
  0
LINE
  5
664
330
1E
100
AcDbEntity
  8
0
100
AcDbLine
 10
60.13769531178049
 20
119.942781659421
 30
0.0
 11
61.1
 21
126.678914476958
 31
0.0
  0
LINE
  5
665
330
1E
100
AcDbEntity
  8
0
100
AcDbLine
 10
64.90000000000001
 20
133.378914476958
 30
0.0
 11
69.5
 21
139.478914476958
 31
0.0
  0
LINE
  5
666
330
1E
100
AcDbEntity
  8
0
100
AcDbLine
 10
62.0
 20
126.478914476958
 30
0.0
 11
64.90000000000001
 21
133.378914476958
 31
0.0
  0
LINE
  5
667
330
1E
100
AcDbEntity
  8
0
100
AcDbLine
 10
64.0
 20
133.878914476958
 30
0.0
 11
68.79999999999999
 21
140.178914476958
 31
0.0
  0
LINE
  5
668
330
1E
100
AcDbEntity
  8
0
100
AcDbLine
 10
61.1
 20
126.678914476958
 30
0.0
 11
64.0
 21
133.878914476958
 31
0.0
  0
LINE
  5
669
330
1E
100
AcDbEntity
  8
0
100
AcDbLine
 10
66.90000000000001
 20
120.6186456521019
 30
0.0
 11
90.0
 21
122.0132789980899
 31
0.0
  0
LINE
  5
66A
330
1E
100
AcDbEntity
  8
0
100
AcDbLine
 10
66.90000000000001
 20
85.27260383466479
 30
0.0
 11
90.0
 21
86.6672371806529
 31
0.0
  0
LINE
  5
66B
330
1E
100
AcDbEntity
  8
0
100
AcDbLine
 10
66.90000000000001
 20
83.45998630556541
 30
0.0
 11
90.0
 21
84.8546196515535
 31
0.0
  0
LINE
  5
66C
330
1E
100
AcDbEntity
  8
0
100
AcDbLine
 10
90.0
 20
76.69784077060651
 30
0.0
 11
113.1
 21
75.30320742461841
 31
0.0
  0
LINE
  5
66D
330
1E
100
AcDbEntity
  8
0
100
AcDbLine
 10
152.8
 20
74.26576871583759
 30
0.0
 11
167.1
 21
66.40510803845001
 31
0.0
  0
LINE
  5
66E
330
1E
100
AcDbEntity
  8
0
100
AcDbLine
 10
134.6999999999999
 20
81.55358157869649
 30
0.0
 11
153.6
 21
75.510170412748
 31
0.0
  0
LINE
  5
66F
330
1E
100
AcDbEntity
  8
0
100
AcDbLine
 10
134.1999999999999
 20
80.309179881786
 30
0.0
 11
152.8
 21
74.26576871583759
 31
0.0
  0
LINE
  5
670
330
1E
100
AcDbEntity
  8
0
100
AcDbLine
 10
112.9
 20
83.9859405212092
 30
0.0
 11
134.1999999999999
 21
80.309179881786
 31
0.0
  0
LINE
  5
671
330
1E
100
AcDbEntity
  8
0
100
AcDbLine
 10
113.1
 20
83.45998630556541
 30
0.0
 11
134.6999999999999
 21
79.74096404959709
 31
0.0
  0
LINE
  5
672
330
1E
100
AcDbEntity
  8
0
100
AcDbLine
 10
180.0
 20
83.97782410750499
 30
0.0
 11
180.0
 21
48.63178229006799
 31
0.0
  0
LINE
  5
673
330
1E
100
AcDbEntity
  8
0
100
AcDbLine
 10
153.6
 20
75.510170412748
 30
0.0
 11
167.9
 21
67.52272488572519
 31
0.0
  0
LINE
  5
674
330
1E
100
AcDbEntity
  8
0
100
AcDbLine
 10
134.6999999999999
 20
79.74096404959709
 30
0.0
 11
153.6
 21
73.6975528836487
 31
0.0
  0
LINE
  5
675
330
1E
100
AcDbEntity
  8
0
100
AcDbLine
 10
113.1
 20
75.30320742461841
 30
0.0
 11
134.6999999999999
 21
71.58418516865009
 31
0.0
  0
LINE
  5
676
330
1E
100
AcDbEntity
  8
0
100
AcDbLine
 10
90.0
 20
75.3689158406059
 30
0.0
 11
112.9
 21
74.01654411116291
 31
0.0
  0
LINE
  5
677
330
1E
100
AcDbEntity
  8
0
100
AcDbLine
 10
79.0
 20
121.847360722784
 30
0.0
 11
79.0
 21
122.503014476958
 31
0.0
  0
LINE
  5
678
330
1E
100
AcDbEntity
  8
0
100
AcDbLine
 10
79.0
 20
122.503014476958
 30
0.0
 11
79.0
 21
121.847360722784
 31
0.0
  0
LINE
  5
679
330
1E
100
AcDbEntity
  8
0
100
AcDbLine
 10
79.0
 20
122.503014476958
 30
0.0
 11
79.0
 21
122.914414476958
 31
0.0
  0
LINE
  5
67A
330
1E
100
AcDbEntity
  8
0
100
AcDbLine
 10
90.0
 20
133.9374144769579
 30
0.0
 11
92.816
 21
133.540514476958
 31
0.0
  0
LINE
  5
67B
330
1E
100
AcDbEntity
  8
0
100
AcDbLine
 10
87.184
 20
133.540514476958
 30
0.0
 11
90.0
 21
133.9374144769579
 31
0.0
  0
LINE
  5
67C
330
1E
100
AcDbEntity
  8
0
100
AcDbLine
 10
84.54399999999999
 20
132.482314476958
 30
0.0
 11
87.184
 21
133.540514476958
 31
0.0
  0
LINE
  5
67D
330
1E
100
AcDbEntity
  8
0
100
AcDbLine
 10
82.21200000000001
 20
130.718714476958
 30
0.0
 11
84.54399999999999
 21
132.482314476958
 31
0.0
  0
LINE
  5
67E
330
1E
100
AcDbEntity
  8
0
100
AcDbLine
 10
80.45199999999999
 20
128.381814476958
 30
0.0
 11
82.21200000000001
 21
130.718714476958
 31
0.0
  0
LINE
  5
67F
330
1E
100
AcDbEntity
  8
0
100
AcDbLine
 10
79.396
 20
125.736414476958
 30
0.0
 11
80.45199999999999
 21
128.381814476958
 31
0.0
  0
LINE
  5
680
330
1E
100
AcDbEntity
  8
0
100
AcDbLine
 10
79.0
 20
122.914414476958
 30
0.0
 11
79.396
 21
125.736414476958
 31
0.0
  0
LINE
  5
681
330
1E
100
AcDbEntity
  8
0
100
AcDbLine
 10
79.0
 20
122.914414476958
 30
0.0
 11
79.396
 21
125.736414476958
 31
0.0
  0
LINE
  5
682
330
1E
100
AcDbEntity
  8
0
100
AcDbLine
 10
79.0
 20
122.914414476958
 30
0.0
 11
79.0
 21
122.503014476958
 31
0.0
  0
LINE
  5
683
330
1E
100
AcDbEntity
  8
0
100
AcDbLine
 10
75.59999999999999
 20
144.0789144769579
 30
0.0
 11
82.5
 21
146.978914476958
 31
0.0
  0
LINE
  5
684
330
1E
100
AcDbEntity
  8
0
100
AcDbLine
 10
69.5
 20
139.478914476958
 30
0.0
 11
75.59999999999999
 21
144.0789144769579
 31
0.0
  0
LINE
  5
685
330
1E
100
AcDbEntity
  8
0
100
AcDbLine
 10
82.5
 20
146.978914476958
 30
0.0
 11
90.0
 21
147.978914476958
 31
0.0
  0
LINE
  5
686
330
1E
100
AcDbEntity
  8
0
100
AcDbLine
 10
82.3
 20
147.878914476958
 30
0.0
 11
90.0
 21
148.978914476958
 31
0.0
  0
LINE
  5
687
330
1E
100
AcDbEntity
  8
0
100
AcDbLine
 10
75.09999999999999
 20
144.978914476958
 30
0.0
 11
82.3
 21
147.878914476958
 31
0.0
  0
LINE
  5
688
330
1E
100
AcDbEntity
  8
0
100
AcDbLine
 10
68.79999999999999
 20
140.178914476958
 30
0.0
 11
75.09999999999999
 21
144.978914476958
 31
0.0
  0
LINE
  5
689
330
1E
100
AcDbEntity
  8
0
100
AcDbLine
 10
90.0
 20
147.978914476958
 30
0.0
 11
97.5
 21
146.978914476958
 31
0.0
  0
LINE
  5
68A
330
1E
100
AcDbEntity
  8
0
100
AcDbLine
 10
90.0
 20
148.978914476958
 30
0.0
 11
97.70000000000001
 21
147.878914476958
 31
0.0
  0
LINE
  5
68B
330
1E
100
AcDbEntity
  8
0
100
AcDbLine
 10
90.0
 20
202.9789144769579
 30
0.0
 11
174.0
 21
202.9789144769579
 31
0.0
  0
LINE
  5
68C
330
1E
100
AcDbEntity
  8
0
100
AcDbLine
 10
90.0
 20
203.978914476958
 30
0.0
 11
175.0
 21
203.978914476958
 31
0.0
  0
LINE
  5
68D
330
1E
100
AcDbEntity
  8
0
100
AcDbLine
 10
90.0
 20
122.4969715971889
 30
0.0
 11
112.9
 21
121.1445998677459
 31
0.0
  0
LINE
  5
68E
330
1E
100
AcDbEntity
  8
0
100
AcDbLine
 10
90.0
 20
122.0132789980899
 30
0.0
 11
113.1
 21
120.6186456521019
 31
0.0
  0
LINE
  5
68F
330
1E
100
AcDbEntity
  8
0
100
AcDbLine
 10
90.0
 20
86.6672371806529
 30
0.0
 11
113.1
 21
85.27260383466479
 31
0.0
  0
LINE
  5
690
330
1E
100
AcDbEntity
  8
0
100
AcDbLine
 10
174.0
 20
96.54105011681942
 30
0.0
 11
174.0
 21
118.978914476958
 31
0.0
  0
LINE
  5
691
330
1E
100
AcDbEntity
  8
0
100
AcDbLine
 10
175.0
 20
95.50371952889429
 30
0.0
 11
175.0
 21
118.978914476958
 31
0.0
  0
LINE
  5
692
330
1E
100
AcDbEntity
  8
0
100
AcDbLine
 10
152.8
 20
111.424428062374
 30
0.0
 11
167.1
 21
103.563767384986
 31
0.0
  0
LINE
  5
693
330
1E
100
AcDbEntity
  8
0
100
AcDbLine
 10
97.788
 20
130.718714476958
 30
0.0
 11
99.54799999999998
 21
128.381814476958
 31
0.0
  0
LINE
  5
694
330
1E
100
AcDbEntity
  8
0
100
AcDbLine
 10
95.456
 20
132.482314476958
 30
0.0
 11
97.788
 21
130.718714476958
 31
0.0
  0
LINE
  5
695
330
1E
100
AcDbEntity
  8
0
100
AcDbLine
 10
92.816
 20
133.540514476958
 30
0.0
 11
95.456
 21
132.482314476958
 31
0.0
  0
LINE
  5
696
330
1E
100
AcDbEntity
  8
0
100
AcDbLine
 10
101.0
 20
121.847360722784
 30
0.0
 11
101.0
 21
122.503014476958
 31
0.0
  0
LINE
  5
697
330
1E
100
AcDbEntity
  8
0
100
AcDbLine
 10
101.0
 20
122.914414476958
 30
0.0
 11
101.0
 21
122.503014476958
 31
0.0
  0
LINE
  5
698
330
1E
100
AcDbEntity
  8
0
100
AcDbLine
 10
101.0
 20
122.503014476958
 30
0.0
 11
101.0
 21
122.914414476958
 31
0.0
  0
LINE
  5
699
330
1E
100
AcDbEntity
  8
0
100
AcDbLine
 10
101.0
 20
122.503014476958
 30
0.0
 11
101.0
 21
121.847360722784
 31
0.0
  0
LINE
  5
69A
330
1E
100
AcDbEntity
  8
0
100
AcDbLine
 10
100.604
 20
125.736414476958
 30
0.0
 11
101.0
 21
122.914414476958
 31
0.0
  0
LINE
  5
69B
330
1E
100
AcDbEntity
  8
0
100
AcDbLine
 10
99.54799999999998
 20
128.381814476958
 30
0.0
 11
100.604
 21
125.736414476958
 31
0.0
  0
LINE
  5
69C
330
1E
100
AcDbEntity
  8
0
100
AcDbLine
 10
99.54799999999998
 20
128.381814476958
 30
0.0
 11
100.604
 21
125.736414476958
 31
0.0
  0
LINE
  5
69D
330
1E
100
AcDbEntity
  8
0
100
AcDbLine
 10
104.4
 20
144.0789144769579
 30
0.0
 11
110.4999999999999
 21
139.478914476958
 31
0.0
  0
LINE
  5
69E
330
1E
100
AcDbEntity
  8
0
100
AcDbLine
 10
110.4999999999999
 20
139.478914476958
 30
0.0
 11
115.1
 21
133.378914476958
 31
0.0
  0
LINE
  5
69F
330
1E
100
AcDbEntity
  8
0
100
AcDbLine
 10
97.5
 20
146.978914476958
 30
0.0
 11
104.4
 21
144.0789144769579
 31
0.0
  0
LINE
  5
6A0
330
1E
100
AcDbEntity
  8
0
100
AcDbLine
 10
97.70000000000001
 20
147.878914476958
 30
0.0
 11
104.9
 21
144.978914476958
 31
0.0
  0
LINE
  5
6A1
330
1E
100
AcDbEntity
  8
0
100
AcDbLine
 10
104.9
 20
144.978914476958
 30
0.0
 11
111.2
 21
140.178914476958
 31
0.0
  0
LINE
  5
6A2
330
1E
100
AcDbEntity
  8
0
100
AcDbLine
 10
111.2
 20
140.178914476958
 30
0.0
 11
116.0
 21
133.878914476958
 31
0.0
  0
LINE
  5
6A3
330
1E
100
AcDbEntity
  8
0
100
AcDbLine
 10
112.9
 20
121.1445998677459
 30
0.0
 11
134.1999999999999
 21
117.467839228322
 31
0.0
  0
LINE
  5
6A4
330
1E
100
AcDbEntity
  8
0
100
AcDbLine
 10
115.1
 20
133.378914476958
 30
0.0
 11
118.0
 21
126.478914476958
 31
0.0
  0
LINE
  5
6A5
330
1E
100
AcDbEntity
  8
0
100
AcDbLine
 10
118.0
 20
126.478914476958
 30
0.0
 11
118.8481427115859
 21
120.117844140063
 31
0.0
  0
LINE
  5
6A6
330
1E
100
AcDbEntity
  8
0
100
AcDbLine
 10
116.0
 20
133.878914476958
 30
0.0
 11
118.9
 21
126.678914476958
 31
0.0
  0
LINE
  5
6A7
330
1E
100
AcDbEntity
  8
0
100
AcDbLine
 10
119.215487949946
 20
120.9446340955089
 30
0.0
 11
119.347634297609
 21
120.0316229662039
 31
0.0
  0
LINE
  5
6A8
330
1E
100
AcDbEntity
  8
0
100
AcDbLine
 10
118.9
 20
126.678914476958
 30
0.0
 11
119.8623046882199
 21
119.942781659421
 31
0.0
  0
LINE
  5
6A9
330
1E
100
AcDbEntity
  8
0
100
AcDbLine
 10
134.1999999999999
 20
117.467839228322
 30
0.0
 11
152.8
 21
111.424428062374
 31
0.0
  0
LINE
  5
6AA
330
1E
100
AcDbEntity
  8
0
100
AcDbLine
 10
113.1
 20
120.6186456521019
 30
0.0
 11
134.6999999999999
 21
116.899623396133
 31
0.0
  0
LINE
  5
6AB
330
1E
100
AcDbEntity
  8
0
100
AcDbLine
 10
134.6999999999999
 20
116.899623396133
 30
0.0
 11
153.6
 21
110.856212230185
 31
0.0
  0
LINE
  5
6AC
330
1E
100
AcDbEntity
  8
0
100
AcDbLine
 10
174.0
 20
202.9789144769579
 30
0.0
 11
174.0
 21
118.978914476958
 31
0.0
  0
LINE
  5
6AD
330
1E
100
AcDbEntity
  8
0
100
AcDbLine
 10
174.0
 20
202.9789144769579
 30
0.0
 11
175.0
 21
203.978914476958
 31
0.0
  0
LINE
  5
6AE
330
1E
100
AcDbEntity
  8
0
100
AcDbLine
 10
175.0
 20
203.978914476958
 30
0.0
 11
175.0
 21
118.978914476958
 31
0.0
  0
LINE
  5
6AF
330
1E
100
AcDbEntity
  8
0
100
AcDbLine
 10
174.0
 20
118.978914476958
 30
0.0
 11
174.0
 21
96.54105011681942
 31
0.0
  0
LINE
  5
6B0
330
1E
100
AcDbEntity
  8
0
100
AcDbLine
 10
174.0
 20
118.978914476958
 30
0.0
 11
174.0
 21
202.9789144769579
 31
0.0
  0
LINE
  5
6B1
330
1E
100
AcDbEntity
  8
0
100
AcDbLine
 10
175.0
 20
118.978914476958
 30
0.0
 11
175.0
 21
95.50371952889429
 31
0.0
  0
LINE
  5
6B2
330
1E
100
AcDbEntity
  8
0
100
AcDbLine
 10
175.0
 20
118.978914476958
 30
0.0
 11
175.0
 21
203.978914476958
 31
0.0
  0
LINE
  5
6B3
330
1E
100
AcDbEntity
  8
0
100
AcDbLine
 10
167.1
 20
103.563767384986
 30
0.0
 11
167.9
 21
102.868766703162
 31
0.0
  0
LINE
  5
6B4
330
1E
100
AcDbEntity
  8
0
100
AcDbLine
 10
153.6
 20
110.856212230185
 30
0.0
 11
167.9
 21
102.868766703162
 31
0.0
  0
LINE
  5
6B5
330
1E
100
AcDbEntity
  8
0
100
AcDbLine
 10
167.9
 20
102.868766703162
 30
0.0
 11
176.6999999999999
 21
93.74025752942181
 31
0.0
  0
LINE
  5
6B6
330
1E
100
AcDbEntity
  8
0
100
AcDbLine
 10
176.6999999999999
 20
93.74025752942181
 30
0.0
 11
180.0
 21
83.97782410750499
 31
0.0
  0
LINE
  5
6B7
330
1E
100
AcDbEntity
  8
0
100
AcDbLine
 10
113.1
 20
85.27260383466479
 30
0.0
 11
134.6999999999999
 21
81.55358157869649
 31
0.0
  0
LINE
  5
6B8
330
1E
100
AcDbEntity
  8
0
100
AcDbLine
 10
90.0
 20
85.33831225065229
 30
0.0
 11
112.9
 21
83.9859405212092
 31
0.0
  0
LINE
  5
6B9
330
1E
100
AcDbEntity
  8
0
100
AcDbLine
 10
90.0
 20
84.8546196515535
 30
0.0
 11
113.1
 21
83.45998630556541
 31
0.0
  0
LINE
  5
6BA
330
1E
100
AcDbEntity
  8
0
100
AcDbLine
 10
67.09999999999999
 20
121.1445998677459
 30
0.0
 11
90.0
 21
122.4969715971889
 31
0.0
  0
LINE
  5
6BB
330
1E
100
AcDbEntity
  8
0
100
AcDbLine
 10
67.09999999999999
 20
83.9859405212092
 30
0.0
 11
90.0
 21
85.33831225065229
 31
0.0
  0
LINE
  5
6BC
330
1E
100
AcDbEntity
  8
0
100
AcDbLine
 10
66.90000000000001
 20
75.30320742461841
 30
0.0
 11
90.0
 21
76.69784077060651
 31
0.0
  0
LINE
  5
6BD
330
1E
100
AcDbEntity
  8
0
100
AcDbLine
 10
67.09999999999999
 20
74.01654411116291
 30
0.0
 11
90.0
 21
75.3689158406059
 31
0.0
  0
LINE
  5
6BE
330
1E
100
AcDbEntity
  8
0
100
AcDbLine
 10
45.8
 20
70.3397834717397
 30
0.0
 11
67.09999999999999
 21
74.01654411116291
 31
0.0
  0
LINE
  5
6BF
330
1E
100
AcDbEntity
  8
0
100
AcDbLine
 10
27.2
 20
64.29637230579121
 30
0.0
 11
45.8
 21
70.3397834717397
 31
0.0
  0
LINE
  5
6C0
330
1E
100
AcDbEntity
  8
0
100
AcDbLine
 10
12.9
 20
56.4357116284037
 30
0.0
 11
27.2
 21
64.29637230579121
 31
0.0
  0
LINE
  5
6C1
330
1E
100
AcDbEntity
  8
0
100
AcDbLine
 10
4.2
 20
47.4339873042986
 30
0.0
 11
12.9
 21
56.4357116284037
 31
0.0
  0
LINE
  5
6C2
330
1E
100
AcDbEntity
  8
0
100
AcDbLine
 10
0.999999999999996
 20
37.7560771154721
 30
0.0
 11
4.2
 21
47.4339873042986
 31
0.0
  0
LINE
  5
6C3
330
1E
100
AcDbEntity
  8
0
100
AcDbLine
 10
0.999999999999996
 20
37.7560771154721
 30
0.0
 11
4.2
 21
28.0781669266455
 31
0.0
  0
ENDSEC
  0
SECTION
  2
OBJECTS
  0
DICTIONARY
  5
C
330
0
100
AcDbDictionary
  3
ACAD_GROUP
350
D
  3
ACAD_LAYOUT
350
19
  3
ACAD_MLINESTYLE
350
16
  3
ACAD_PLOTSETTINGS
350
18
  3
ACAD_PLOTSTYLENAME
350
E
  3
ACDBHEADERROUNDTRIPXREC
350
6CB
  3
ACDBVARIABLEDICTIONARY
350
6C8
  0
DICTIONARY
  5
6ED
330
1E
100
AcDbDictionary
280
     1
  3
ACAD_LAYOUTSELFREF
360
6EE
  0
DICTIONARY
  5
6EB
330
1A
100
AcDbDictionary
280
     1
  3
ACAD_LAYOUTSELFREF
360
6EC
  0
DICTIONARY
  5
D
102
{ACAD_REACTORS
330
C
102
}
330
C
100
AcDbDictionary
  0
DICTIONARY
  5
19
102
{ACAD_REACTORS
330
C
102
}
330
C
100
AcDbDictionary
  0
DICTIONARY
  5
16
102
{ACAD_REACTORS
330
C
102
}
330
C
100
AcDbDictionary
  3
STANDARD
350
17
  0
DICTIONARY
  5
18
102
{ACAD_REACTORS
330
C
102
}
330
C
100
AcDbDictionary
  0
ACDBDICTIONARYWDFLT
  5
E
102
{ACAD_REACTORS
330
C
102
}
330
C
100
AcDbDictionary
281
     1
  3
Normal
350
F
100
AcDbDictionaryWithDefault
340
F
  0
DICTIONARY
  5
6CB
102
{ACAD_REACTORS
330
C
102
}
330
C
100
AcDbDictionary
  3
CEPSNTYPE
350
6D5
  3
FINGERPRINTGUID
350
6D6
  3
HYPERLINKBASE
350
6CE
  3
INSUNITS
350
6D4
  3
LAYOUTDICT
350
6D0
  3
LWETCUNION
350
6D3
  3
PLOTSETDICT
350
6D1
  3
PLOTSTYLNAMDICT
350
6D2
  3
PSVPSCALE
350
6D8
  3
PUCSBASE
350
6DB
  3
PUCSORGBACK
350
6E1
  3
PUCSORGBOTTOM
350
6DD
  3
PUCSORGFRONT
350
6E0
  3
PUCSORGLEFT
350
6DE
  3
PUCSORGRIGHT
350
6DF
  3
PUCSORGTOP
350
6DC
  3
PUCSORTHOREF
350
6D9
  3
PUCSORTHOVIEW
350
6DA
  3
STYLESHEET
350
6CF
  3
TSTACKALIGN
350
6CC
  3
TSTACKSIZE
350
6CD
  3
UCSBASE
350
6E4
  3
UCSORGBACK
350
6EA
  3
UCSORGBOTTOM
350
6E6
  3
UCSORGFRONT
350
6E9
  3
UCSORGLEFT
350
6E7
  3
UCSORGRIGHT
350
6E8
  3
UCSORGTOP
350
6E5
  3
UCSORTHOREF
350
6E2
  3
UCSORTHOVIEW
350
6E3
  3
VERSIONGUID
350
6D7
  0
DICTIONARY
  5
6C8
102
{ACAD_REACTORS
330
C
102
}
330
C
100
AcDbDictionary
  3
DIMASSOC
350
6C9
  0
XRECORD
  5
6EE
102
{ACAD_REACTORS
330
6ED
102
}
330
6ED
100
AcDbXrecord
340
1E
  0
XRECORD
  5
6EC
102
{ACAD_REACTORS
330
6EB
102
}
330
6EB
100
AcDbXrecord
340
1A
  0
MLINESTYLE
  5
17
102
{ACAD_REACTORS
330
16
102
}
330
16
100
AcDbMlineStyle
  2
STANDARD
 70
     0
  3

 62
   256
 51
90.0
 52
90.0
 71
     2
 49
0.5
 62
   256
  6
BYLAYER
 49
-0.5
 62
   256
  6
BYLAYER
  0
ACDBPLACEHOLDER
  5
F
102
{ACAD_REACTORS
330
E
102
}
330
E
100
AcDbPlaceHolder
280
     0
  0
XRECORD
  5
6D5
102
{ACAD_REACTORS
330
6CB
102
}
330
6CB
100
AcDbXrecord
 90
        0
  0
XRECORD
  5
6D6
102
{ACAD_REACTORS
330
6CB
102
}
330
6CB
100
AcDbXrecord
  1
{97094DFD-1039-48E5-9F51-662B7D2953A6}
  0
XRECORD
  5
6CE
102
{ACAD_REACTORS
330
6CB
102
}
330
6CB
100
AcDbXrecord
  1

  0
XRECORD
  5
6D4
102
{ACAD_REACTORS
330
6CB
102
}
330
6CB
100
AcDbXrecord
 90
        0
  0
XRECORD
  5
6D0
102
{ACAD_REACTORS
330
6CB
102
}
330
6CB
100
AcDbXrecord
340
19
  0
XRECORD
  5
6D3
102
{ACAD_REACTORS
330
6CB
102
}
330
6CB
100
AcDbXrecord
 90
    10781
  0
XRECORD
  5
6D1
102
{ACAD_REACTORS
330
6CB
102
}
330
6CB
100
AcDbXrecord
340
18
  0
XRECORD
  5
6D2
102
{ACAD_REACTORS
330
6CB
102
}
330
6CB
100
AcDbXrecord
340
E
  0
XRECORD
  5
6D8
102
{ACAD_REACTORS
330
6CB
102
}
330
6CB
100
AcDbXrecord
 40
0.0
  0
XRECORD
  5
6DB
102
{ACAD_REACTORS
330
6CB
102
}
330
6CB
100
AcDbXrecord
340
0
  0
XRECORD
  5
6E1
102
{ACAD_REACTORS
330
6CB
102
}
330
6CB
100
AcDbXrecord
 10
0.0
 20
0.0
 30
0.0
  0
XRECORD
  5
6DD
102
{ACAD_REACTORS
330
6CB
102
}
330
6CB
100
AcDbXrecord
 10
0.0
 20
0.0
 30
0.0
  0
XRECORD
  5
6E0
102
{ACAD_REACTORS
330
6CB
102
}
330
6CB
100
AcDbXrecord
 10
0.0
 20
0.0
 30
0.0
  0
XRECORD
  5
6DE
102
{ACAD_REACTORS
330
6CB
102
}
330
6CB
100
AcDbXrecord
 10
0.0
 20
0.0
 30
0.0
  0
XRECORD
  5
6DF
102
{ACAD_REACTORS
330
6CB
102
}
330
6CB
100
AcDbXrecord
 10
0.0
 20
0.0
 30
0.0
  0
XRECORD
  5
6DC
102
{ACAD_REACTORS
330
6CB
102
}
330
6CB
100
AcDbXrecord
 10
0.0
 20
0.0
 30
0.0
  0
XRECORD
  5
6D9
102
{ACAD_REACTORS
330
6CB
102
}
330
6CB
100
AcDbXrecord
340
0
  0
XRECORD
  5
6DA
102
{ACAD_REACTORS
330
6CB
102
}
330
6CB
100
AcDbXrecord
 70
     0
  0
XRECORD
  5
6CF
102
{ACAD_REACTORS
330
6CB
102
}
330
6CB
100
AcDbXrecord
  1

  0
XRECORD
  5
6CC
102
{ACAD_REACTORS
330
6CB
102
}
330
6CB
100
AcDbXrecord
 90
        1
  0
XRECORD
  5
6CD
102
{ACAD_REACTORS
330
6CB
102
}
330
6CB
100
AcDbXrecord
 90
       70
  0
XRECORD
  5
6E4
102
{ACAD_REACTORS
330
6CB
102
}
330
6CB
100
AcDbXrecord
340
0
  0
XRECORD
  5
6EA
102
{ACAD_REACTORS
330
6CB
102
}
330
6CB
100
AcDbXrecord
 10
0.0
 20
0.0
 30
0.0
  0
XRECORD
  5
6E6
102
{ACAD_REACTORS
330
6CB
102
}
330
6CB
100
AcDbXrecord
 10
0.0
 20
0.0
 30
0.0
  0
XRECORD
  5
6E9
102
{ACAD_REACTORS
330
6CB
102
}
330
6CB
100
AcDbXrecord
 10
0.0
 20
0.0
 30
0.0
  0
XRECORD
  5
6E7
102
{ACAD_REACTORS
330
6CB
102
}
330
6CB
100
AcDbXrecord
 10
0.0
 20
0.0
 30
0.0
  0
XRECORD
  5
6E8
102
{ACAD_REACTORS
330
6CB
102
}
330
6CB
100
AcDbXrecord
 10
0.0
 20
0.0
 30
0.0
  0
XRECORD
  5
6E5
102
{ACAD_REACTORS
330
6CB
102
}
330
6CB
100
AcDbXrecord
 10
0.0
 20
0.0
 30
0.0
  0
XRECORD
  5
6E2
102
{ACAD_REACTORS
330
6CB
102
}
330
6CB
100
AcDbXrecord
340
0
  0
XRECORD
  5
6E3
102
{ACAD_REACTORS
330
6CB
102
}
330
6CB
100
AcDbXrecord
 70
     1
  0
XRECORD
  5
6D7
102
{ACAD_REACTORS
330
6CB
102
}
330
6CB
100
AcDbXrecord
  1
{0FA1A048-D53C-44AF-B306-A82A21840076}
  0
DICTIONARYVAR
  5
6C9
102
{ACAD_REACTORS
330
6C8
102
}
330
6C8
100
DictionaryVariables
280
     0
  1
1
  0
ENDSEC
  0
EOF
