  0
SECTION
  2
HEADER
  9
$ACADVER
  1
AC1009
  9
$INSBASE
 10
0.0
 20
0.0
 30
0.0
  9
$EXTMIN
 10
0.0000000000000069
 20
-0.0000000000000061
 30
0.0
  9
$EXTMAX
 10
178.0
 20
120.0
 30
0.0
  9
$LIMMIN
 10
0.0
 20
0.0
  9
$LIMMAX
 10
12.0
 20
9.0
  9
$ORTHOMODE
 70
     0
  9
$REGENMODE
 70
     1
  9
$FILLMODE
 70
     1
  9
$QTEXTMODE
 70
     0
  9
$MIRRTEXT
 70
     1
  9
$DRAGMODE
 70
     2
  9
$LTSCALE
 40
1.0
  9
$OSMODE
 70
    37
  9
$ATTMODE
 70
     1
  9
$TEXTSIZE
 40
0.2
  9
$TRACEWID
 40
0.05
  9
$TEXTSTYLE
  7
STANDARD
  9
$CLAYER
  8
0
  9
$CELTYPE
  6
CONTINUOUS
  9
$CECOLOR
 62
   256
  9
$DIMSCALE
 40
1.0
  9
$DIMASZ
 40
0.18
  9
$DIMEXO
 40
0.0625
  9
$DIMDLI
 40
0.38
  9
$DIMRND
 40
0.0
  9
$DIMDLE
 40
0.0
  9
$DIMEXE
 40
0.18
  9
$DIMTP
 40
0.0
  9
$DIMTM
 40
0.0
  9
$DIMTXT
 40
0.18
  9
$DIMCEN
 40
0.09
  9
$DIMTSZ
 40
0.0
  9
$DIMTOL
 70
     0
  9
$DIMLIM
 70
     0
  9
$DIMTIH
 70
     1
  9
$DIMTOH
 70
     1
  9
$DIMSE1
 70
     0
  9
$DIMSE2
 70
     0
  9
$DIMTAD
 70
     0
  9
$DIMZIN
 70
     0
  9
$DIMBLK
  1

  9
$DIMASO
 70
     1
  9
$DIMSHO
 70
     1
  9
$DIMPOST
  1

  9
$DIMAPOST
  1

  9
$DIMALT
 70
     0
  9
$DIMALTD
 70
     2
  9
$DIMALTF
 40
25.399999999999999
  9
$DIMLFAC
 40
1.0
  9
$DIMTOFL
 70
     0
  9
$DIMTVP
 40
0.0
  9
$DIMTIX
 70
     0
  9
$DIMSOXD
 70
     0
  9
$DIMSAH
 70
     0
  9
$DIMBLK1
  1

  9
$DIMBLK2
  1

  9
$DIMSTYLE
  2
STANDARD
  9
$DIMCLRD
 70
     0
  9
$DIMCLRE
 70
     0
  9
$DIMCLRT
 70
     0
  9
$DIMTFAC
 40
1.0
  9
$DIMGAP
 40
0.09
  9
$LUNITS
 70
     2
  9
$LUPREC
 70
     4
  9
$SKETCHINC
 40
0.1
  9
$FILLETRAD
 40
0.0
  9
$AUNITS
 70
     0
  9
$AUPREC
 70
     0
  9
$MENU
  1
.
  9
$ELEVATION
 40
0.0
  9
$PELEVATION
 40
0.0
  9
$THICKNESS
 40
0.0
  9
$LIMCHECK
 70
     0
  9
$BLIPMODE
 70
     0
  9
$CHAMFERA
 40
0.0
  9
$CHAMFERB
 40
0.0
  9
$SKPOLY
 70
     0
  9
$TDCREATE
 40
2454674.6268124189
  9
$TDUPDATE
 40
2454674.627860602
  9
$TDINDWG
 40
0.0010481829
  9
$TDUSRTIMER
 40
0.0010481829
  9
$USRTIMER
 70
     1
  9
$ANGBASE
 50
0.0
  9
$ANGDIR
 70
     0
  9
$PDMODE
 70
     0
  9
$PDSIZE
 40
0.0
  9
$PLINEWID
 40
0.0
  9
$COORDS
 70
     1
  9
$SPLFRAME
 70
     0
  9
$SPLINETYPE
 70
     6
  9
$SPLINESEGS
 70
     8
  9
$ATTDIA
 70
     0
  9
$ATTREQ
 70
     1
  9
$HANDLING
 70
 22529
  9
$HANDSEED
  5
178
  9
$SURFTAB1
 70
     6
  9
$SURFTAB2
 70
     6
  9
$SURFTYPE
 70
     6
  9
$SURFU
 70
     6
  9
$SURFV
 70
     6
  9
$UCSNAME
  2

  9
$UCSORG
 10
0.0
 20
0.0
 30
0.0
  9
$UCSXDIR
 10
1.0
 20
0.0
 30
0.0
  9
$UCSYDIR
 10
0.0
 20
1.0
 30
0.0
  9
$PUCSNAME
  2

  9
$PUCSORG
 10
0.0
 20
0.0
 30
0.0
  9
$PUCSXDIR
 10
1.0
 20
0.0
 30
0.0
  9
$PUCSYDIR
 10
0.0
 20
1.0
 30
0.0
  9
$USERI1
 70
     0
  9
$USERI2
 70
     0
  9
$USERI3
 70
     0
  9
$USERI4
 70
     0
  9
$USERI5
 70
     0
  9
$USERR1
 40
0.0
  9
$USERR2
 40
0.0
  9
$USERR3
 40
0.0
  9
$USERR4
 40
0.0
  9
$USERR5
 40
0.0
  9
$WORLDVIEW
 70
     1
  9
$SHADEDGE
 70
     3
  9
$SHADEDIF
 70
    70
  9
$TILEMODE
 70
     1
  9
$MAXACTVP
 70
    64
  9
$PLIMCHECK
 70
     0
  9
$PEXTMIN
 10
1.0000000000000000E+020
 20
1.0000000000000000E+020
 30
1.0000000000000000E+020
  9
$PEXTMAX
 10
-1.0000000000000000E+020
 20
-1.0000000000000000E+020
 30
-1.0000000000000000E+020
  9
$PLIMMIN
 10
0.0
 20
0.0
  9
$PLIMMAX
 10
12.0
 20
9.0
  9
$UNITMODE
 70
     0
  9
$VISRETAIN
 70
     1
  9
$PLINEGEN
 70
     0
  9
$PSLTSCALE
 70
     1
  0
ENDSEC
  0
SECTION
  2
TABLES
  0
TABLE
  2
VPORT
 70
     5
  0
VPORT
  2
*ACTIVE
 70
     0
 10
0.0
 20
0.0
 11
1.0
 21
1.0
 12
89.0
 22
60.0
 13
0.0
 23
0.0
 14
1.0
 24
1.0
 15
0.0
 25
0.0
 16
0.0
 26
0.0
 36
1.0
 17
0.0
 27
0.0
 37
0.0
 40
241.8414322250639
 41
2.0435339308578739
 42
50.0
 43
0.0
 44
0.0
 50
0.0
 51
0.0
 71
     0
 72
   100
 73
     1
 74
     3
 75
     0
 76
     0
 77
     0
 78
     0
  0
ENDTAB
  0
TABLE
  2
LTYPE
 70
     1
  0
LTYPE
  2
CONTINUOUS
 70
     0
  3
Solid line
 72
    65
 73
     0
 40
0.0
  0
ENDTAB
  0
TABLE
  2
LAYER
 70
     1
  0
LAYER
  2
0
 70
     0
 62
     7
  6
CONTINUOUS
  0
ENDTAB
  0
TABLE
  2
STYLE
 70
     1
  0
STYLE
  2
STANDARD
 70
     0
 40
0.0
 41
1.0
 50
0.0
 71
     0
 42
0.2
  3
txt
  4

  0
ENDTAB
  0
TABLE
  2
VIEW
 70
     0
  0
ENDTAB
  0
TABLE
  2
UCS
 70
     0
  0
ENDTAB
  0
TABLE
  2
APPID
 70
     1
  0
APPID
  2
ACAD
 70
     0
  0
ENDTAB
  0
TABLE
  2
DIMSTYLE
 70
     1
  0
DIMSTYLE
  2
STANDARD
 70
     0
  3

  4

  5

  6

  7

 40
1.0
 41
0.18
 42
0.0625
 43
0.38
 44
0.18
 45
0.0
 46
0.0
 47
0.0
 48
0.0
140
0.18
141
0.09
142
0.0
143
25.399999999999999
144
1.0
145
0.0
146
1.0
147
0.09
 71
     0
 72
     0
 73
     1
 74
     1
 75
     0
 76
     0
 77
     0
 78
     0
170
     0
171
     2
172
     0
173
     0
174
     0
175
     0
176
     0
177
     0
178
     0
  0
ENDTAB
  0
ENDSEC
  0
SECTION
  2
BLOCKS
  0
BLOCK
  8
0
  2
$MODEL_SPACE
 70
     0
 10
0.0
 20
0.0
 30
0.0
  3
$MODEL_SPACE
  1

  0
ENDBLK
  5
20
  8
0
  0
BLOCK
 67
     1
  8
0
  2
$PAPER_SPACE
 70
     0
 10
0.0
 20
0.0
 30
0.0
  3
$PAPER_SPACE
  1

  0
ENDBLK
  5
1C
 67
     1
  8
0
  0
ENDSEC
  0
SECTION
  2
ENTITIES
  0
LINE
  5
64
  8
0
 10
134.0
 20
49.999999999999893
 30
0.0
 11
146.0
 21
49.999999999999893
 31
0.0
  0
LINE
  5
65
  8
0
 10
134.0
 20
49.999999999999893
 30
0.0
 11
134.0
 21
59.999999999999893
 31
0.0
  0
LINE
  5
66
  8
0
 10
146.0
 20
47.731899999999889
 30
0.0
 11
146.0
 21
50.791799999999903
 31
0.0
  0
LINE
  5
67
  8
0
 10
146.0
 20
47.731899999999889
 30
0.0
 11
146.0
 21
46.691699999999891
 31
0.0
  0
LINE
  5
68
  8
0
 10
146.0
 20
47.731899999999889
 30
0.0
 11
146.0
 21
49.999999999999893
 31
0.0
  0
LINE
  5
69
  8
0
 10
146.0
 20
49.999999999999893
 30
0.0
 11
146.0
 21
47.731799999999893
 31
0.0
  0
LINE
  5
6A
  8
0
 10
146.0
 20
49.999999999999893
 30
0.0
 11
146.0
 21
47.731899999999889
 31
0.0
  0
LINE
  5
6B
  8
0
 10
146.0
 20
50.791799999999903
 30
0.0
 11
146.0
 21
53.445299999999897
 31
0.0
  0
LINE
  5
6C
  8
0
 10
146.0
 20
50.791799999999903
 30
0.0
 11
146.0
 21
47.731899999999889
 31
0.0
  0
LINE
  5
6D
  8
0
 10
146.0
 20
53.445299999999897
 30
0.0
 11
146.0
 21
55.736699999999892
 31
0.0
  0
LINE
  5
6E
  8
0
 10
146.0
 20
53.445299999999897
 30
0.0
 11
146.0
 21
50.791799999999903
 31
0.0
  0
LINE
  5
6F
  8
0
 10
146.0
 20
55.736699999999892
 30
0.0
 11
146.0
 21
57.934999999999903
 31
0.0
  0
LINE
  5
70
  8
0
 10
146.0
 20
55.736699999999892
 30
0.0
 11
146.0
 21
53.445299999999897
 31
0.0
  0
LINE
  5
71
  8
0
 10
146.0
 20
57.934999999999903
 30
0.0
 11
146.0
 21
59.999999999999893
 31
0.0
  0
LINE
  5
72
  8
0
 10
146.0
 20
57.934999999999903
 30
0.0
 11
146.0
 21
55.736699999999892
 31
0.0
  0
LINE
  5
73
  8
0
 10
146.0
 20
47.731799999999893
 30
0.0
 11
146.0
 21
49.999999999999893
 31
0.0
  0
LINE
  5
74
  8
0
 10
146.0
 20
47.731799999999893
 30
0.0
 11
146.0
 21
46.691699999999891
 31
0.0
  0
LINE
  5
75
  8
0
 10
146.09700000000001
 20
45.028899999999886
 30
0.0
 11
146.38720000000001
 21
44.387199999999893
 31
0.0
  0
LINE
  5
76
  8
0
 10
146.38720000000001
 20
44.387199999999893
 30
0.0
 11
147.02889999999999
 21
44.096999999999888
 31
0.0
  0
LINE
  5
77
  8
0
 10
146.0
 20
46.691699999999891
 30
0.0
 11
146.0
 21
47.731799999999893
 31
0.0
  0
LINE
  5
78
  8
0
 10
146.0
 20
46.691699999999891
 30
0.0
 11
146.0
 21
47.731899999999889
 31
0.0
  0
LINE
  5
79
  8
0
 10
146.0
 20
46.691699999999891
 30
0.0
 11
146.09700000000001
 21
45.028899999999886
 31
0.0
  0
LINE
  5
7A
  8
0
 10
134.0
 20
59.999999999999893
 30
0.0
 11
134.0
 21
69.999999999999901
 31
0.0
  0
LINE
  5
7B
  8
0
 10
134.0
 20
59.999999999999893
 30
0.0
 11
134.0
 21
49.999999999999893
 31
0.0
  0
LINE
  5
7D
  8
0
 10
147.53999999999999
 20
56.15999999999989
 30
0.0
 11
148.9799999999999
 21
52.559999999999889
 31
0.0
  0
LINE
  5
7E
  8
0
 10
147.0
 20
59.999999999999893
 30
0.0
 11
147.53999999999999
 21
63.83999999999989
 31
0.0
  0
LINE
  5
7F
  8
0
 10
147.0
 20
59.999999999999893
 30
0.0
 11
147.53999999999999
 21
56.15999999999989
 31
0.0
  0
LINE
  5
80
  8
0
 10
147.02889999999999
 20
44.096999999999888
 30
0.0
 11
148.6917
 21
43.999999999999893
 31
0.0
  0
LINE
  5
81
  8
0
 10
146.57599999999991
 20
55.903999999999897
 30
0.0
 11
148.11199999999991
 21
52.063999999999893
 31
0.0
  0
LINE
  5
82
  8
0
 10
146.0
 20
62.064999999999898
 30
0.0
 11
146.0
 21
59.999999999999893
 31
0.0
  0
LINE
  5
83
  8
0
 10
146.0
 20
62.064999999999898
 30
0.0
 11
146.0
 21
64.263299999999902
 31
0.0
  0
LINE
  5
84
  8
0
 10
146.0
 20
59.999999999999893
 30
0.0
 11
146.57599999999991
 21
64.09599999999989
 31
0.0
  0
LINE
  5
86
  8
0
 10
146.0
 20
59.999999999999893
 30
0.0
 11
146.57599999999991
 21
55.903999999999897
 31
0.0
  0
LINE
  5
87
  8
0
 10
146.0
 20
59.999999999999893
 30
0.0
 11
146.0
 21
62.064999999999898
 31
0.0
  0
LINE
  5
88
  8
0
 10
146.0
 20
59.999999999999893
 30
0.0
 11
146.0
 21
57.934999999999903
 31
0.0
  0
LINE
  5
89
  8
0
 10
149.7319
 20
43.999999999999893
 30
0.0
 11
152.79179999999991
 21
43.999999999999893
 31
0.0
  0
LINE
  5
8A
  8
0
 10
149.7319
 20
43.999999999999893
 30
0.0
 11
152.0
 21
43.999999999999893
 31
0.0
  0
LINE
  5
8B
  8
0
 10
149.73179999999991
 20
43.999999999999893
 30
0.0
 11
152.0
 21
43.999999999999893
 31
0.0
  0
LINE
  5
8C
  8
0
 10
148.9799999999999
 20
52.559999999999889
 30
0.0
 11
151.37999999999991
 21
49.379999999999889
 31
0.0
  0
LINE
  5
8D
  8
0
 10
148.6917
 20
43.999999999999893
 30
0.0
 11
149.73179999999991
 21
43.999999999999893
 31
0.0
  0
LINE
  5
8E
  8
0
 10
148.6917
 20
43.999999999999893
 30
0.0
 11
149.7319
 21
43.999999999999893
 31
0.0
  0
LINE
  5
8F
  8
0
 10
148.11199999999991
 20
52.063999999999893
 30
0.0
 11
150.672
 21
48.67199999999989
 31
0.0
  0
LINE
  5
90
  8
0
 10
148.50399999999991
 20
56.41599999999989
 30
0.0
 11
149.8479999999999
 21
53.055999999999898
 31
0.0
  0
LINE
  5
91
  8
0
 10
149.8479999999999
 20
53.055999999999898
 30
0.0
 11
152.08799999999999
 21
50.087999999999901
 31
0.0
  0
LINE
  5
92
  8
0
 10
148.0
 20
59.999999999999893
 30
0.0
 11
148.50399999999991
 21
63.583999999999889
 31
0.0
  0
LINE
  5
93
  8
0
 10
148.0
 20
59.999999999999893
 30
0.0
 11
148.50399999999991
 21
56.41599999999989
 31
0.0
  0
LINE
  5
94
  8
0
 10
147.53999999999999
 20
63.83999999999989
 30
0.0
 11
148.9799999999999
 21
67.439999999999898
 31
0.0
  0
LINE
  5
95
  8
0
 10
146.0
 20
66.554699999999897
 30
0.0
 11
146.0
 21
64.263299999999902
 31
0.0
  0
LINE
  5
96
  8
0
 10
146.0
 20
66.554699999999897
 30
0.0
 11
146.0
 21
69.208199999999891
 31
0.0
  0
LINE
  5
97
  8
0
 10
146.0
 20
64.263299999999902
 30
0.0
 11
146.0
 21
62.064999999999898
 31
0.0
  0
LINE
  5
98
  8
0
 10
146.0
 20
64.263299999999902
 30
0.0
 11
146.0
 21
66.554699999999897
 31
0.0
  0
LINE
  5
99
  8
0
 10
146.0
 20
69.208199999999891
 30
0.0
 11
146.0
 21
66.554699999999897
 31
0.0
  0
LINE
  5
9A
  8
0
 10
146.0
 20
69.208199999999891
 30
0.0
 11
146.0
 21
72.268199999999908
 31
0.0
  0
LINE
  5
9B
  8
0
 10
146.0
 20
69.208199999999891
 30
0.0
 11
146.0
 21
72.268099999999905
 31
0.0
  0
LINE
  5
9C
  8
0
 10
146.57599999999991
 20
64.09599999999989
 30
0.0
 11
148.11199999999991
 21
67.935999999999893
 31
0.0
  0
LINE
  5
9D
  8
0
 10
148.9799999999999
 20
67.439999999999898
 30
0.0
 11
151.37999999999991
 21
70.619999999999905
 31
0.0
  0
LINE
  5
9E
  8
0
 10
148.11199999999991
 20
67.935999999999893
 30
0.0
 11
150.672
 21
71.327999999999903
 31
0.0
  0
LINE
  5
9F
  8
0
 10
148.50399999999991
 20
63.583999999999889
 30
0.0
 11
149.8479999999999
 21
66.943999999999889
 31
0.0
  0
LINE
  5
A0
  8
0
 10
151.37999999999991
 20
49.379999999999889
 30
0.0
 11
154.56
 21
46.97999999999989
 31
0.0
  0
LINE
  5
A1
  8
0
 10
150.672
 20
48.67199999999989
 30
0.0
 11
154.06399999999991
 21
46.111999999999888
 31
0.0
  0
LINE
  5
A2
  8
0
 10
150.43199999999999
 20
56.927999999999898
 30
0.0
 11
151.584
 21
54.047999999999902
 31
0.0
  0
LINE
  5
A3
  8
0
 10
151.584
 20
54.047999999999902
 30
0.0
 11
153.50399999999991
 21
51.503999999999898
 31
0.0
  0
LINE
  5
A4
  8
0
 10
150.0
 20
59.999999999999893
 30
0.0
 11
150.43199999999999
 21
63.071999999999903
 31
0.0
  0
LINE
  5
A5
  8
0
 10
150.0
 20
59.999999999999893
 30
0.0
 11
150.43199999999999
 21
56.927999999999898
 31
0.0
  0
LINE
  5
A7
  8
0
 10
150.43199999999999
 20
63.071999999999903
 30
0.0
 11
151.584
 21
65.951999999999899
 31
0.0
  0
LINE
  5
A8
  8
0
 10
152.0
 20
31.999999999999901
 30
0.0
 11
152.0
 21
43.999999999999893
 31
0.0
  0
LINE
  5
A9
  8
0
 10
152.0
 20
31.999999999999901
 30
0.0
 11
162.0
 21
31.999999999999901
 31
0.0
  0
LINE
  5
AA
  8
0
 10
152.0
 20
43.999999999999893
 30
0.0
 11
152.0
 21
31.999999999999901
 31
0.0
  0
LINE
  5
AB
  8
0
 10
152.79179999999991
 20
43.999999999999893
 30
0.0
 11
155.4453
 21
43.999999999999893
 31
0.0
  0
LINE
  5
AC
  8
0
 10
154.56
 20
46.97999999999989
 30
0.0
 11
158.15999999999991
 21
45.539999999999893
 31
0.0
  0
LINE
  5
AD
  8
0
 10
154.06399999999991
 20
46.111999999999888
 30
0.0
 11
157.90399999999991
 21
44.575999999999887
 31
0.0
  0
LINE
  5
AE
  8
0
 10
153.50399999999991
 20
51.503999999999898
 30
0.0
 11
156.048
 21
49.583999999999897
 31
0.0
  0
LINE
  5
AF
  8
0
 10
152.08799999999999
 20
50.087999999999901
 30
0.0
 11
155.05600000000001
 21
47.847999999999892
 31
0.0
  0
LINE
  5
B0
  8
0
 10
155.05600000000001
 20
47.847999999999892
 30
0.0
 11
158.41599999999991
 21
46.503999999999891
 31
0.0
  0
LINE
  5
B1
  8
0
 10
151.584
 20
65.951999999999899
 30
0.0
 11
153.50399999999991
 21
68.495999999999896
 31
0.0
  0
LINE
  5
B2
  8
0
 10
153.50399999999991
 20
68.495999999999896
 30
0.0
 11
156.048
 21
70.415999999999912
 31
0.0
  0
LINE
  5
B3
  8
0
 10
149.8479999999999
 20
66.943999999999889
 30
0.0
 11
152.08799999999999
 21
69.911999999999892
 31
0.0
  0
LINE
  5
B4
  8
0
 10
146.0
 20
69.999999999999901
 30
0.0
 11
146.0
 21
72.268099999999905
 31
0.0
  0
LINE
  5
B5
  8
0
 10
146.0
 20
72.268099999999905
 30
0.0
 11
146.0
 21
69.208199999999891
 31
0.0
  0
LINE
  5
B6
  8
0
 10
146.0
 20
72.268099999999905
 30
0.0
 11
146.0
 21
73.308299999999903
 31
0.0
  0
LINE
  5
B7
  8
0
 10
146.0
 20
72.268099999999905
 30
0.0
 11
146.0
 21
69.999999999999901
 31
0.0
  0
LINE
  5
B8
  8
0
 10
146.0
 20
72.268199999999908
 30
0.0
 11
146.0
 21
69.208199999999891
 31
0.0
  0
LINE
  5
B9
  8
0
 10
146.0
 20
72.268199999999908
 30
0.0
 11
146.0
 21
73.308299999999903
 31
0.0
  0
LINE
  5
BA
  8
0
 10
146.0
 20
73.308299999999903
 30
0.0
 11
146.0
 21
72.268199999999908
 31
0.0
  0
LINE
  5
BB
  8
0
 10
146.0
 20
73.308299999999903
 30
0.0
 11
146.0
 21
72.268099999999905
 31
0.0
  0
LINE
  5
BC
  8
0
 10
146.0
 20
73.308299999999903
 30
0.0
 11
146.09700000000001
 21
74.971099999999907
 31
0.0
  0
LINE
  5
BD
  8
0
 10
134.0
 20
69.999999999999901
 30
0.0
 11
134.0
 21
59.999999999999893
 31
0.0
  0
LINE
  5
BE
  8
0
 10
134.0
 20
69.999999999999901
 30
0.0
 11
146.0
 21
69.999999999999901
 31
0.0
  0
LINE
  5
BF
  8
0
 10
151.37999999999991
 20
70.619999999999905
 30
0.0
 11
154.56
 21
73.019999999999911
 31
0.0
  0
LINE
  5
C0
  8
0
 10
154.56
 20
73.019999999999911
 30
0.0
 11
158.15999999999991
 21
74.459999999999894
 31
0.0
  0
LINE
  5
C1
  8
0
 10
150.672
 20
71.327999999999903
 30
0.0
 11
154.06399999999991
 21
73.887999999999906
 31
0.0
  0
LINE
  5
C2
  8
0
 10
152.08799999999999
 20
69.911999999999892
 30
0.0
 11
155.05600000000001
 21
72.151999999999902
 31
0.0
  0
LINE
  5
C3
  8
0
 10
155.4453
 20
43.999999999999893
 30
0.0
 11
157.73670000000001
 21
43.999999999999893
 31
0.0
  0
LINE
  5
C4
  8
0
 10
156.048
 20
49.583999999999897
 30
0.0
 11
158.928
 21
48.431999999999888
 31
0.0
  0
LINE
  5
C5
  8
0
 10
157.73670000000001
 20
43.999999999999893
 30
0.0
 11
159.935
 21
43.999999999999893
 31
0.0
  0
LINE
  5
C6
  8
0
 10
159.935
 20
43.999999999999893
 30
0.0
 11
162.0
 21
43.999999999999893
 31
0.0
  0
LINE
  5
C7
  8
0
 10
162.0
 20
31.999999999999901
 30
0.0
 11
172.0
 21
31.999999999999901
 31
0.0
  0
LINE
  5
CA
  8
0
 10
162.0
 20
43.999999999999893
 30
0.0
 11
166.09599999999989
 21
44.575999999999887
 31
0.0
  0
LINE
  5
CB
  8
0
 10
162.0
 20
43.999999999999893
 30
0.0
 11
164.06499999999991
 21
43.999999999999893
 31
0.0
  0
LINE
  5
CD
  8
0
 10
158.15999999999991
 20
45.539999999999893
 30
0.0
 11
162.0
 21
44.999999999999893
 31
0.0
  0
LINE
  5
CF
  8
0
 10
162.0
 20
44.999999999999893
 30
0.0
 11
165.84
 21
45.539999999999893
 31
0.0
  0
LINE
  5
D0
  8
0
 10
157.90399999999991
 20
44.575999999999887
 30
0.0
 11
162.0
 21
43.999999999999893
 31
0.0
  0
LINE
  5
D1
  8
0
 10
165.84
 20
45.539999999999893
 30
0.0
 11
169.43999999999991
 21
46.97999999999989
 31
0.0
  0
LINE
  5
D2
  8
0
 10
164.06499999999991
 20
43.999999999999893
 30
0.0
 11
166.2632999999999
 21
43.999999999999893
 31
0.0
  0
LINE
  5
D3
  8
0
 10
171.20820000000001
 20
43.999999999999893
 30
0.0
 11
174.26820000000001
 21
43.999999999999893
 31
0.0
  0
LINE
  5
D4
  8
0
 10
171.20820000000001
 20
43.999999999999893
 30
0.0
 11
174.2681
 21
43.999999999999893
 31
0.0
  0
LINE
  5
D5
  8
0
 10
168.55469999999991
 20
43.999999999999893
 30
0.0
 11
171.20820000000001
 21
43.999999999999893
 31
0.0
  0
LINE
  5
D6
  8
0
 10
166.2632999999999
 20
43.999999999999893
 30
0.0
 11
168.55469999999991
 21
43.999999999999893
 31
0.0
  0
LINE
  5
D7
  8
0
 10
172.0
 20
43.999999999999893
 30
0.0
 11
172.0
 21
31.999999999999901
 31
0.0
  0
LINE
  5
D8
  8
0
 10
172.0
 20
43.999999999999893
 30
0.0
 11
174.2681
 21
43.999999999999893
 31
0.0
  0
LINE
  5
D9
  8
0
 10
175.3083
 20
43.999999999999893
 30
0.0
 11
176.97110000000001
 21
44.096999999999888
 31
0.0
  0
LINE
  5
DA
  8
0
 10
174.26820000000001
 20
43.999999999999893
 30
0.0
 11
175.3083
 21
43.999999999999893
 31
0.0
  0
LINE
  5
DB
  8
0
 10
177.61279999999991
 20
44.387199999999893
 30
0.0
 11
177.90299999999991
 21
45.028899999999886
 31
0.0
  0
LINE
  5
DC
  8
0
 10
177.90299999999991
 20
45.028899999999886
 30
0.0
 11
178.0
 21
46.691699999999891
 31
0.0
  0
LINE
  5
DD
  8
0
 10
176.97110000000001
 20
44.096999999999888
 30
0.0
 11
177.61279999999991
 21
44.387199999999893
 31
0.0
  0
LINE
  5
DE
  8
0
 10
174.2681
 20
43.999999999999893
 30
0.0
 11
175.3083
 21
43.999999999999893
 31
0.0
  0
LINE
  5
DF
  8
0
 10
172.0
 20
31.999999999999901
 30
0.0
 11
172.0
 21
43.999999999999893
 31
0.0
  0
LINE
  5
E0
  8
0
 10
169.93599999999989
 20
46.111999999999888
 30
0.0
 11
173.328
 21
48.67199999999989
 31
0.0
  0
LINE
  5
E1
  8
0
 10
166.09599999999989
 20
44.575999999999887
 30
0.0
 11
169.93599999999989
 21
46.111999999999888
 31
0.0
  0
LINE
  5
E2
  8
0
 10
165.58399999999989
 20
46.503999999999891
 30
0.0
 11
168.94399999999999
 21
47.847999999999892
 31
0.0
  0
LINE
  5
E3
  8
0
 10
162.0
 20
45.999999999999893
 30
0.0
 11
165.58399999999989
 21
46.503999999999891
 31
0.0
  0
LINE
  5
E4
  8
0
 10
178.0
 20
46.691699999999891
 30
0.0
 11
178.0
 21
47.731899999999889
 31
0.0
  0
LINE
  5
E5
  8
0
 10
169.43999999999991
 20
46.97999999999989
 30
0.0
 11
172.62
 21
49.379999999999889
 31
0.0
  0
LINE
  5
E6
  8
0
 10
178.0
 20
47.731899999999889
 30
0.0
 11
178.0
 21
46.691699999999891
 31
0.0
  0
LINE
  5
E7
  8
0
 10
178.0
 20
47.731899999999889
 30
0.0
 11
178.0
 21
50.791799999999903
 31
0.0
  0
LINE
  5
EB
  8
0
 10
165.07199999999989
 20
71.567999999999884
 30
0.0
 11
167.952
 21
70.415999999999912
 31
0.0
  0
LINE
  5
EC
  8
0
 10
170.4959999999999
 20
68.495999999999896
 30
0.0
 11
172.41599999999991
 21
65.951999999999899
 31
0.0
  0
LINE
  5
ED
  8
0
 10
167.952
 20
70.415999999999912
 30
0.0
 11
170.4959999999999
 21
68.495999999999896
 31
0.0
  0
LINE
  5
EE
  8
0
 10
171.91200000000001
 20
69.911999999999892
 30
0.0
 11
174.15199999999999
 21
66.943999999999889
 31
0.0
  0
LINE
  5
EF
  8
0
 10
170.4959999999999
 20
51.503999999999898
 30
0.0
 11
172.41599999999991
 21
54.047999999999902
 31
0.0
  0
LINE
  5
F0
  8
0
 10
167.952
 20
49.583999999999897
 30
0.0
 11
170.4959999999999
 21
51.503999999999898
 31
0.0
  0
LINE
  5
F1
  8
0
 10
165.07199999999989
 20
48.431999999999888
 30
0.0
 11
167.952
 21
49.583999999999897
 31
0.0
  0
LINE
  5
F2
  8
0
 10
162.0
 20
47.999999999999893
 30
0.0
 11
165.07199999999989
 21
48.431999999999888
 31
0.0
  0
LINE
  5
F4
  8
0
 10
172.62
 20
49.379999999999889
 30
0.0
 11
175.02000000000001
 21
52.559999999999889
 31
0.0
  0
LINE
  5
F5
  8
0
 10
178.0
 20
50.791799999999903
 30
0.0
 11
178.0
 21
47.731899999999889
 31
0.0
  0
LINE
  5
F6
  8
0
 10
178.0
 20
50.791799999999903
 30
0.0
 11
178.0
 21
53.445299999999897
 31
0.0
  0
LINE
  5
F7
  8
0
 10
175.02000000000001
 20
52.559999999999889
 30
0.0
 11
176.46000000000001
 21
56.15999999999989
 31
0.0
  0
LINE
  5
F8
  8
0
 10
175.88799999999989
 20
52.063999999999893
 30
0.0
 11
177.42399999999989
 21
55.903999999999897
 31
0.0
  0
LINE
  5
F9
  8
0
 10
173.328
 20
48.67199999999989
 30
0.0
 11
175.88799999999989
 21
52.063999999999893
 31
0.0
  0
LINE
  5
FA
  8
0
 10
173.5679999999999
 20
63.071999999999903
 30
0.0
 11
174.0
 21
59.999999999999893
 31
0.0
  0
LINE
  5
FB
  8
0
 10
172.62
 20
70.619999999999905
 30
0.0
 11
175.02000000000001
 21
67.439999999999898
 31
0.0
  0
LINE
  5
FC
  8
0
 10
173.328
 20
71.327999999999903
 30
0.0
 11
175.88799999999989
 21
67.935999999999893
 31
0.0
  0
LINE
  5
FD
  8
0
 10
172.41599999999991
 20
65.951999999999899
 30
0.0
 11
173.5679999999999
 21
63.071999999999903
 31
0.0
  0
LINE
  5
FE
  8
0
 10
175.4959999999999
 20
63.583999999999889
 30
0.0
 11
176.0
 21
59.999999999999893
 31
0.0
  0
LINE
  5
FF
  8
0
 10
175.02000000000001
 20
67.439999999999898
 30
0.0
 11
176.46000000000001
 21
63.83999999999989
 31
0.0
  0
LINE
  5
100
  8
0
 10
174.15199999999999
 20
66.943999999999889
 30
0.0
 11
175.4959999999999
 21
63.583999999999889
 31
0.0
  0
LINE
  5
101
  8
0
 10
173.5679999999999
 20
56.927999999999898
 30
0.0
 11
174.0
 21
59.999999999999893
 31
0.0
  0
LINE
  5
102
  8
0
 10
172.41599999999991
 20
54.047999999999902
 30
0.0
 11
173.5679999999999
 21
56.927999999999898
 31
0.0
  0
LINE
  5
103
  8
0
 10
178.0
 20
53.445299999999897
 30
0.0
 11
178.0
 21
50.791799999999903
 31
0.0
  0
LINE
  5
104
  8
0
 10
178.0
 20
53.445299999999897
 30
0.0
 11
178.0
 21
55.736699999999892
 31
0.0
  0
LINE
  5
105
  8
0
 10
178.0
 20
55.736699999999892
 30
0.0
 11
178.0
 21
53.445299999999897
 31
0.0
  0
LINE
  5
106
  8
0
 10
178.0
 20
55.736699999999892
 30
0.0
 11
178.0
 21
57.934999999999903
 31
0.0
  0
LINE
  5
107
  8
0
 10
176.46000000000001
 20
63.83999999999989
 30
0.0
 11
177.0
 21
59.999999999999893
 31
0.0
  0
LINE
  5
108
  8
0
 10
176.46000000000001
 20
56.15999999999989
 30
0.0
 11
177.0
 21
59.999999999999893
 31
0.0
  0
LINE
  5
109
  8
0
 10
175.88799999999989
 20
67.935999999999893
 30
0.0
 11
177.42399999999989
 21
64.09599999999989
 31
0.0
  0
LINE
  5
10A
  8
0
 10
178.0
 20
62.064999999999898
 30
0.0
 11
178.0
 21
64.263299999999902
 31
0.0
  0
LINE
  5
10B
  8
0
 10
178.0
 20
62.064999999999898
 30
0.0
 11
178.0
 21
59.999999999999893
 31
0.0
  0
LINE
  5
10C
  8
0
 10
178.0
 20
57.934999999999903
 30
0.0
 11
178.0
 21
55.736699999999892
 31
0.0
  0
LINE
  5
10D
  8
0
 10
178.0
 20
57.934999999999903
 30
0.0
 11
178.0
 21
59.999999999999893
 31
0.0
  0
LINE
  5
10E
  8
0
 10
178.0
 20
59.999999999999893
 30
0.0
 11
178.0
 21
57.934999999999903
 31
0.0
  0
LINE
  5
10F
  8
0
 10
178.0
 20
59.999999999999893
 30
0.0
 11
178.0
 21
62.064999999999898
 31
0.0
  0
LINE
  5
110
  8
0
 10
178.0
 20
69.208199999999891
 30
0.0
 11
178.0
 21
72.268099999999905
 31
0.0
  0
LINE
  5
111
  8
0
 10
178.0
 20
69.208199999999891
 30
0.0
 11
178.0
 21
66.554699999999897
 31
0.0
  0
LINE
  5
112
  8
0
 10
178.0
 20
66.554699999999897
 30
0.0
 11
178.0
 21
69.208199999999891
 31
0.0
  0
LINE
  5
113
  8
0
 10
178.0
 20
66.554699999999897
 30
0.0
 11
178.0
 21
64.263299999999902
 31
0.0
  0
LINE
  5
114
  8
0
 10
178.0
 20
64.263299999999902
 30
0.0
 11
178.0
 21
66.554699999999897
 31
0.0
  0
LINE
  5
115
  8
0
 10
178.0
 20
64.263299999999902
 30
0.0
 11
178.0
 21
62.064999999999898
 31
0.0
  0
LINE
  5
116
  8
0
 10
177.42399999999989
 20
64.09599999999989
 30
0.0
 11
178.0
 21
59.999999999999893
 31
0.0
  0
LINE
  5
118
  8
0
 10
177.42399999999989
 20
55.903999999999897
 30
0.0
 11
178.0
 21
59.999999999999893
 31
0.0
  0
LINE
  5
119
  8
0
 10
175.4959999999999
 20
56.41599999999989
 30
0.0
 11
176.0
 21
59.999999999999893
 31
0.0
  0
LINE
  5
11A
  8
0
 10
174.15199999999999
 20
53.055999999999898
 30
0.0
 11
175.4959999999999
 21
56.41599999999989
 31
0.0
  0
LINE
  5
11B
  8
0
 10
171.91200000000001
 20
50.087999999999901
 30
0.0
 11
174.15199999999999
 21
53.055999999999898
 31
0.0
  0
LINE
  5
11C
  8
0
 10
168.94399999999999
 20
47.847999999999892
 30
0.0
 11
171.91200000000001
 21
50.087999999999901
 31
0.0
  0
LINE
  5
11D
  8
0
 10
158.928
 20
48.431999999999888
 30
0.0
 11
162.0
 21
47.999999999999893
 31
0.0
  0
LINE
  5
11E
  8
0
 10
158.41599999999991
 20
46.503999999999891
 30
0.0
 11
162.0
 21
45.999999999999893
 31
0.0
  0
LINE
  5
11F
  8
0
 10
156.048
 20
70.415999999999912
 30
0.0
 11
158.928
 21
71.567999999999884
 31
0.0
  0
LINE
  5
120
  8
0
 10
169.43999999999991
 20
73.019999999999911
 30
0.0
 11
172.62
 21
70.619999999999905
 31
0.0
  0
LINE
  5
121
  8
0
 10
178.0
 20
72.268099999999905
 30
0.0
 11
178.0
 21
69.208199999999891
 31
0.0
  0
LINE
  5
122
  8
0
 10
178.0
 20
72.268099999999905
 30
0.0
 11
178.0
 21
73.308299999999903
 31
0.0
  0
LINE
  5
123
  8
0
 10
178.0
 20
73.308299999999903
 30
0.0
 11
178.0
 21
72.268099999999905
 31
0.0
  0
LINE
  5
124
  8
0
 10
168.94399999999999
 20
72.151999999999902
 30
0.0
 11
171.91200000000001
 21
69.911999999999892
 31
0.0
  0
LINE
  5
125
  8
0
 10
165.58399999999989
 20
73.49599999999991
 30
0.0
 11
168.94399999999999
 21
72.151999999999902
 31
0.0
  0
LINE
  5
126
  8
0
 10
162.0
 20
71.999999999999901
 30
0.0
 11
165.07199999999989
 21
71.567999999999884
 31
0.0
  0
LINE
  5
128
  8
0
 10
158.928
 20
71.567999999999884
 30
0.0
 11
162.0
 21
71.999999999999901
 31
0.0
  0
LINE
  5
129
  8
0
 10
155.05600000000001
 20
72.151999999999902
 30
0.0
 11
158.41599999999991
 21
73.49599999999991
 31
0.0
  0
LINE
  5
12A
  8
0
 10
146.09700000000001
 20
74.971099999999907
 30
0.0
 11
146.38720000000001
 21
75.612799999999908
 31
0.0
  0
LINE
  5
12B
  8
0
 10
158.15999999999991
 20
74.459999999999894
 30
0.0
 11
162.0
 21
74.999999999999901
 31
0.0
  0
LINE
  5
12D
  8
0
 10
162.0
 20
74.999999999999901
 30
0.0
 11
165.84
 21
74.459999999999894
 31
0.0
  0
LINE
  5
12E
  8
0
 10
154.06399999999991
 20
73.887999999999906
 30
0.0
 11
157.90399999999991
 21
75.423999999999893
 31
0.0
  0
LINE
  5
12F
  8
0
 10
146.38720000000001
 20
75.612799999999908
 30
0.0
 11
147.02889999999999
 21
75.902999999999906
 31
0.0
  0
LINE
  5
130
  8
0
 10
148.6917
 20
75.999999999999901
 30
0.0
 11
149.7319
 21
75.999999999999901
 31
0.0
  0
LINE
  5
131
  8
0
 10
152.0
 20
75.999999999999901
 30
0.0
 11
152.0
 21
87.999999999999901
 31
0.0
  0
LINE
  5
132
  8
0
 10
152.79179999999991
 20
75.999999999999901
 30
0.0
 11
155.4453
 21
75.999999999999901
 31
0.0
  0
LINE
  5
133
  8
0
 10
155.4453
 20
75.999999999999901
 30
0.0
 11
157.73670000000001
 21
75.999999999999901
 31
0.0
  0
LINE
  5
134
  8
0
 10
157.73670000000001
 20
75.999999999999901
 30
0.0
 11
159.935
 21
75.999999999999901
 31
0.0
  0
LINE
  5
135
  8
0
 10
152.0
 20
87.999999999999901
 30
0.0
 11
152.0
 21
75.999999999999901
 31
0.0
  0
LINE
  5
136
  8
0
 10
152.0
 20
87.999999999999901
 30
0.0
 11
162.0
 21
87.999999999999901
 31
0.0
  0
LINE
  5
137
  8
0
 10
159.935
 20
75.999999999999901
 30
0.0
 11
162.0
 21
75.999999999999901
 31
0.0
  0
LINE
  5
138
  8
0
 10
149.7319
 20
75.999999999999901
 30
0.0
 11
152.79179999999991
 21
75.999999999999901
 31
0.0
  0
LINE
  5
139
  8
0
 10
147.02889999999999
 20
75.902999999999906
 30
0.0
 11
148.6917
 21
75.999999999999901
 31
0.0
  0
LINE
  5
13A
  8
0
 10
162.0
 20
87.999999999999901
 30
0.0
 11
172.0
 21
87.999999999999901
 31
0.0
  0
LINE
  5
13C
  8
0
 10
162.0
 20
75.999999999999901
 30
0.0
 11
166.09599999999989
 21
75.423999999999893
 31
0.0
  0
LINE
  5
13E
  8
0
 10
162.0
 20
75.999999999999901
 30
0.0
 11
164.06499999999991
 21
75.999999999999901
 31
0.0
  0
LINE
  5
140
  8
0
 10
157.90399999999991
 20
75.423999999999893
 30
0.0
 11
162.0
 21
75.999999999999901
 31
0.0
  0
LINE
  5
141
  8
0
 10
165.84
 20
74.459999999999894
 30
0.0
 11
169.43999999999991
 21
73.019999999999911
 31
0.0
  0
LINE
  5
142
  8
0
 10
177.90299999999991
 20
74.971099999999907
 30
0.0
 11
178.0
 21
73.308299999999903
 31
0.0
  0
LINE
  5
143
  8
0
 10
169.93599999999989
 20
73.887999999999906
 30
0.0
 11
173.328
 21
71.327999999999903
 31
0.0
  0
LINE
  5
144
  8
0
 10
171.20820000000001
 20
75.999999999999901
 30
0.0
 11
174.2681
 21
75.999999999999901
 31
0.0
  0
LINE
  5
145
  8
0
 10
168.55469999999991
 20
75.999999999999901
 30
0.0
 11
171.20820000000001
 21
75.999999999999901
 31
0.0
  0
LINE
  5
146
  8
0
 10
166.2632999999999
 20
75.999999999999901
 30
0.0
 11
168.55469999999991
 21
75.999999999999901
 31
0.0
  0
LINE
  5
147
  8
0
 10
164.06499999999991
 20
75.999999999999901
 30
0.0
 11
166.2632999999999
 21
75.999999999999901
 31
0.0
  0
LINE
  5
148
  8
0
 10
172.0
 20
75.999999999999901
 30
0.0
 11
172.0
 21
87.999999999999901
 31
0.0
  0
LINE
  5
149
  8
0
 10
176.97110000000001
 20
75.902999999999906
 30
0.0
 11
177.61279999999991
 21
75.612799999999908
 31
0.0
  0
LINE
  5
14A
  8
0
 10
177.61279999999991
 20
75.612799999999908
 30
0.0
 11
177.90299999999991
 21
74.971099999999907
 31
0.0
  0
LINE
  5
14B
  8
0
 10
175.3083
 20
75.999999999999901
 30
0.0
 11
176.97110000000001
 21
75.902999999999906
 31
0.0
  0
LINE
  5
14C
  8
0
 10
174.2681
 20
75.999999999999901
 30
0.0
 11
175.3083
 21
75.999999999999901
 31
0.0
  0
LINE
  5
14D
  8
0
 10
172.0
 20
87.999999999999901
 30
0.0
 11
172.0
 21
75.999999999999901
 31
0.0
  0
LINE
  5
14E
  8
0
 10
166.09599999999989
 20
75.423999999999893
 30
0.0
 11
169.93599999999989
 21
73.887999999999906
 31
0.0
  0
LINE
  5
14F
  8
0
 10
162.0
 20
73.999999999999901
 30
0.0
 11
165.58399999999989
 21
73.49599999999991
 31
0.0
  0
LINE
  5
150
  8
0
 10
158.41599999999991
 20
73.49599999999991
 30
0.0
 11
162.0
 21
73.999999999999901
 31
0.0
  0
ENDSEC
  0
EOF
