  0
SECTION
  2
HEADER
  9
$ACADVER
  1
AC1009
  9
$INSBASE
 10
0.0
 20
0.0
 30
0.0
  9
$EXTMIN
 10
0.0
 20
-0.0000000000000023
 30
0.0
  9
$EXTMAX
 10
273.0
 20
56.0
 30
0.0
  9
$LIMMIN
 10
0.0
 20
0.0
  9
$LIMMAX
 10
12.0
 20
9.0
  9
$ORTHOMODE
 70
     0
  9
$REGENMODE
 70
     1
  9
$FILLMODE
 70
     1
  9
$QTEXTMODE
 70
     0
  9
$MIRRTEXT
 70
     1
  9
$DRAGMODE
 70
     2
  9
$LTSCALE
 40
1.0
  9
$OSMODE
 70
    37
  9
$ATTMODE
 70
     1
  9
$TEXTSIZE
 40
0.2
  9
$TRACEWID
 40
0.05
  9
$TEXTSTYLE
  7
STANDARD
  9
$CLAYER
  8
0
  9
$CELTYPE
  6
CONTINUOUS
  9
$CECOLOR
 62
   256
  9
$DIMSCALE
 40
1.0
  9
$DIMASZ
 40
0.18
  9
$DIMEXO
 40
0.0625
  9
$DIMDLI
 40
0.38
  9
$DIMRND
 40
0.0
  9
$DIMDLE
 40
0.0
  9
$DIMEXE
 40
0.18
  9
$DIMTP
 40
0.0
  9
$DIMTM
 40
0.0
  9
$DIMTXT
 40
0.18
  9
$DIMCEN
 40
0.09
  9
$DIMTSZ
 40
0.0
  9
$DIMTOL
 70
     0
  9
$DIMLIM
 70
     0
  9
$DIMTIH
 70
     1
  9
$DIMTOH
 70
     1
  9
$DIMSE1
 70
     0
  9
$DIMSE2
 70
     0
  9
$DIMTAD
 70
     0
  9
$DIMZIN
 70
     0
  9
$DIMBLK
  1

  9
$DIMASO
 70
     1
  9
$DIMSHO
 70
     1
  9
$DIMPOST
  1

  9
$DIMAPOST
  1

  9
$DIMALT
 70
     0
  9
$DIMALTD
 70
     2
  9
$DIMALTF
 40
25.399999999999999
  9
$DIMLFAC
 40
1.0
  9
$DIMTOFL
 70
     0
  9
$DIMTVP
 40
0.0
  9
$DIMTIX
 70
     0
  9
$DIMSOXD
 70
     0
  9
$DIMSAH
 70
     0
  9
$DIMBLK1
  1

  9
$DIMBLK2
  1

  9
$DIMSTYLE
  2
STANDARD
  9
$DIMCLRD
 70
     0
  9
$DIMCLRE
 70
     0
  9
$DIMCLRT
 70
     0
  9
$DIMTFAC
 40
1.0
  9
$DIMGAP
 40
0.09
  9
$LUNITS
 70
     2
  9
$LUPREC
 70
     4
  9
$SKETCHINC
 40
0.1
  9
$FILLETRAD
 40
0.0
  9
$AUNITS
 70
     0
  9
$AUPREC
 70
     0
  9
$MENU
  1
.
  9
$ELEVATION
 40
0.0
  9
$PELEVATION
 40
0.0
  9
$THICKNESS
 40
0.0
  9
$LIMCHECK
 70
     0
  9
$BLIPMODE
 70
     0
  9
$CHAMFERA
 40
0.0
  9
$CHAMFERB
 40
0.0
  9
$SKPOLY
 70
     0
  9
$TDCREATE
 40
2454674.6313758679
  9
$TDUPDATE
 40
2454674.63246853
  9
$TDINDWG
 40
0.001092662
  9
$TDUSRTIMER
 40
0.001092662
  9
$USRTIMER
 70
     1
  9
$ANGBASE
 50
0.0
  9
$ANGDIR
 70
     0
  9
$PDMODE
 70
     0
  9
$PDSIZE
 40
0.0
  9
$PLINEWID
 40
0.0
  9
$COORDS
 70
     1
  9
$SPLFRAME
 70
     0
  9
$SPLINETYPE
 70
     6
  9
$SPLINESEGS
 70
     8
  9
$ATTDIA
 70
     0
  9
$ATTREQ
 70
     1
  9
$HANDLING
 70
 22529
  9
$HANDSEED
  5
26B
  9
$SURFTAB1
 70
     6
  9
$SURFTAB2
 70
     6
  9
$SURFTYPE
 70
     6
  9
$SURFU
 70
     6
  9
$SURFV
 70
     6
  9
$UCSNAME
  2

  9
$UCSORG
 10
0.0
 20
0.0
 30
0.0
  9
$UCSXDIR
 10
1.0
 20
0.0
 30
0.0
  9
$UCSYDIR
 10
0.0
 20
1.0
 30
0.0
  9
$PUCSNAME
  2

  9
$PUCSORG
 10
0.0
 20
0.0
 30
0.0
  9
$PUCSXDIR
 10
1.0
 20
0.0
 30
0.0
  9
$PUCSYDIR
 10
0.0
 20
1.0
 30
0.0
  9
$USERI1
 70
     0
  9
$USERI2
 70
     0
  9
$USERI3
 70
     0
  9
$USERI4
 70
     0
  9
$USERI5
 70
     0
  9
$USERR1
 40
0.0
  9
$USERR2
 40
0.0
  9
$USERR3
 40
0.0
  9
$USERR4
 40
0.0
  9
$USERR5
 40
0.0
  9
$WORLDVIEW
 70
     1
  9
$SHADEDGE
 70
     3
  9
$SHADEDIF
 70
    70
  9
$TILEMODE
 70
     1
  9
$MAXACTVP
 70
    64
  9
$PLIMCHECK
 70
     0
  9
$PEXTMIN
 10
1.0000000000000000E+020
 20
1.0000000000000000E+020
 30
1.0000000000000000E+020
  9
$PEXTMAX
 10
-1.0000000000000000E+020
 20
-1.0000000000000000E+020
 30
-1.0000000000000000E+020
  9
$PLIMMIN
 10
0.0
 20
0.0
  9
$PLIMMAX
 10
12.0
 20
9.0
  9
$UNITMODE
 70
     0
  9
$VISRETAIN
 70
     1
  9
$PLINEGEN
 70
     0
  9
$PSLTSCALE
 70
     1
  0
ENDSEC
  0
SECTION
  2
TABLES
  0
TABLE
  2
VPORT
 70
     3
  0
VPORT
  2
*ACTIVE
 70
     0
 10
0.0
 20
0.0
 11
1.0
 21
1.0
 12
136.49999999999989
 22
27.999999999999989
 13
0.0
 23
0.0
 14
1.0
 24
1.0
 15
0.0
 25
0.0
 16
0.0
 26
0.0
 36
1.0
 17
0.0
 27
0.0
 37
0.0
 40
134.09401674191739
 41
2.0435339308578739
 42
50.0
 43
0.0
 44
0.0
 50
0.0
 51
0.0
 71
     0
 72
   100
 73
     1
 74
     3
 75
     0
 76
     0
 77
     0
 78
     0
  0
ENDTAB
  0
TABLE
  2
LTYPE
 70
     1
  0
LTYPE
  2
CONTINUOUS
 70
     0
  3
Solid line
 72
    65
 73
     0
 40
0.0
  0
ENDTAB
  0
TABLE
  2
LAYER
 70
     1
  0
LAYER
  2
0
 70
     0
 62
     7
  6
CONTINUOUS
  0
ENDTAB
  0
TABLE
  2
STYLE
 70
     1
  0
STYLE
  2
STANDARD
 70
     0
 40
0.0
 41
1.0
 50
0.0
 71
     0
 42
0.2
  3
txt
  4

  0
ENDTAB
  0
TABLE
  2
VIEW
 70
     0
  0
ENDTAB
  0
TABLE
  2
UCS
 70
     0
  0
ENDTAB
  0
TABLE
  2
APPID
 70
     1
  0
APPID
  2
ACAD
 70
     0
  0
ENDTAB
  0
TABLE
  2
DIMSTYLE
 70
     1
  0
DIMSTYLE
  2
STANDARD
 70
     0
  3

  4

  5

  6

  7

 40
1.0
 41
0.18
 42
0.0625
 43
0.38
 44
0.18
 45
0.0
 46
0.0
 47
0.0
 48
0.0
140
0.18
141
0.09
142
0.0
143
25.399999999999999
144
1.0
145
0.0
146
1.0
147
0.09
 71
     0
 72
     0
 73
     1
 74
     1
 75
     0
 76
     0
 77
     0
 78
     0
170
     0
171
     2
172
     0
173
     0
174
     0
175
     0
176
     0
177
     0
178
     0
  0
ENDTAB
  0
ENDSEC
  0
SECTION
  2
BLOCKS
  0
BLOCK
  8
0
  2
$MODEL_SPACE
 70
     0
 10
0.0
 20
0.0
 30
0.0
  3
$MODEL_SPACE
  1

  0
ENDBLK
  5
20
  8
0
  0
BLOCK
 67
     1
  8
0
  2
$PAPER_SPACE
 70
     0
 10
0.0
 20
0.0
 30
0.0
  3
$PAPER_SPACE
  1

  0
ENDBLK
  5
1C
 67
     1
  8
0
  0
ENDSEC
  0
SECTION
  2
ENTITIES
  0
LINE
  5
22
  8
0
 10
0.0
 20
-0.0000000000000023
 30
0.0
 11
20.0
 21
-0.0000000000000023
 31
0.0
  0
LINE
  5
23
  8
0
 10
0.0
 20
-0.0000000000000023
 30
0.0
 11
0.0
 21
12.0
 31
0.0
  0
LINE
  5
24
  8
0
 10
0.0
 20
-0.0000000000000017
 30
0.0
 11
0.0
 21
12.0
 31
0.0
  0
LINE
  5
25
  8
0
 10
0.0
 20
-0.0000000000000017
 30
0.0
 11
20.0
 21
-0.0000000000000017
 31
0.0
  0
LINE
  5
26
  8
0
 10
0.0
 20
12.0
 30
0.0
 11
13.0
 21
12.0
 31
0.0
  0
LINE
  5
27
  8
0
 10
0.0
 20
12.0
 30
0.0
 11
0.0
 21
-0.0000000000000016
 31
0.0
  0
LINE
  5
28
  8
0
 10
12.0
 20
12.3872
 30
0.0
 11
12.0
 21
13.0289
 31
0.0
  0
LINE
  5
29
  8
0
 10
12.0
 20
12.3872
 30
0.0
 11
12.0
 21
12.097
 31
0.0
  0
LINE
  5
2A
  8
0
 10
12.0
 20
12.097
 30
0.0
 11
12.0
 21
12.3872
 31
0.0
  0
LINE
  5
2B
  8
0
 10
12.0
 20
12.097
 30
0.0
 11
12.0
 21
12.0
 31
0.0
  0
LINE
  5
2C
  8
0
 10
12.0
 20
12.097
 30
0.0
 11
12.0
 21
12.0
 31
0.0
  0
LINE
  5
2D
  8
0
 10
12.0
 20
12.097
 30
0.0
 11
12.0
 21
12.3872
 31
0.0
  0
LINE
  5
2E
  8
0
 10
12.0
 20
12.3872
 30
0.0
 11
26.0
 21
12.3872
 31
0.0
  0
LINE
  5
2F
  8
0
 10
12.0
 20
12.3872
 30
0.0
 11
12.0
 21
12.097
 31
0.0
  0
LINE
  5
30
  8
0
 10
12.0
 20
12.3872
 30
0.0
 11
12.0
 21
13.0289
 31
0.0
  0
LINE
  5
31
  8
0
 10
12.0
 20
12.0
 30
0.0
 11
240.0
 21
12.0
 31
0.0
  0
LINE
  5
32
  8
0
 10
12.0
 20
13.0289
 30
0.0
 11
12.0
 21
14.691700000000001
 31
0.0
  0
LINE
  5
33
  8
0
 10
12.0
 20
13.0289
 30
0.0
 11
12.0
 21
12.3872
 31
0.0
  0
LINE
  5
34
  8
0
 10
12.0
 20
13.0289
 30
0.0
 11
12.0
 21
12.3872
 31
0.0
  0
LINE
  5
35
  8
0
 10
12.0
 20
13.0289
 30
0.0
 11
12.0
 21
14.691700000000001
 31
0.0
  0
LINE
  5
36
  8
0
 10
12.0
 20
12.576000000000001
 30
0.0
 11
12.0
 21
14.112
 31
0.0
  0
LINE
  5
37
  8
0
 10
12.0
 20
12.576000000000001
 30
0.0
 11
12.0
 21
12.0
 31
0.0
  0
LINE
  5
38
  8
0
 10
12.0
 20
12.576000000000001
 30
0.0
 11
12.0
 21
14.112
 31
0.0
  0
LINE
  5
39
  8
0
 10
20.0
 20
-0.0000000000000016
 30
0.0
 11
26.0
 21
12.0
 31
0.0
  0
LINE
  5
3A
  8
0
 10
20.0
 20
-0.0000000000000017
 30
0.0
 11
26.0
 21
12.0
 31
0.0
  0
LINE
  5
3B
  8
0
 10
27.800000000000001
 20
12.0
 30
0.0
 11
28.4163
 21
12.0
 31
0.0
  0
LINE
  5
3C
  8
0
 10
28.4163
 20
12.0
 30
0.0
 11
29.6966
 21
12.0
 31
0.0
  0
LINE
  5
3D
  8
0
 10
30.976500000000001
 20
12.0
 30
0.0
 11
31.0396
 21
12.0
 31
0.0
  0
LINE
  5
3F
  8
0
 10
30.378299999999999
 20
12.0
 30
0.0
 11
30.726500000000001
 21
12.0
 31
0.0
  0
LINE
  5
41
  8
0
 10
30.726500000000001
 20
12.0
 30
0.0
 11
30.976500000000001
 21
12.0
 31
0.0
  0
LINE
  5
44
  8
0
 10
29.6966
 20
12.0
 30
0.0
 11
30.378299999999999
 21
12.0
 31
0.0
  0
LINE
  5
47
  8
0
 10
28.4163
 20
12.0
 30
0.0
 11
29.6966
 21
12.0
 31
0.0
  0
LINE
  5
48
  8
0
 10
27.800000000000001
 20
12.0
 30
0.0
 11
28.4163
 21
12.0
 31
0.0
  0
LINE
  5
49
  8
0
 10
232.96000000000001
 20
12.0
 30
0.0
 11
233.02299999999991
 21
12.0
 31
0.0
  0
LINE
  5
4A
  8
0
 10
235.584
 20
12.0
 30
0.0
 11
236.19999999999999
 21
12.0
 31
0.0
  0
LINE
  5
4C
  8
0
 10
233.62200000000001
 20
12.0
 30
0.0
 11
234.303
 21
12.0
 31
0.0
  0
LINE
  5
4D
  8
0
 10
233.273
 20
12.0
 30
0.0
 11
233.62200000000001
 21
12.0
 31
0.0
  0
LINE
  5
4E
  8
0
 10
233.02299999999991
 20
12.0
 30
0.0
 11
233.273
 21
12.0
 31
0.0
  0
LINE
  5
4F
  8
0
 10
234.303
 20
12.0
 30
0.0
 11
235.584
 21
12.0
 31
0.0
  0
LINE
  5
50
  8
0
 10
234.303
 20
12.0
 30
0.0
 11
235.584
 21
12.0
 31
0.0
  0
LINE
  5
51
  8
0
 10
250.0
 20
-0.0000000000000011
 30
0.0
 11
261.0
 21
-0.0000000000000011
 31
0.0
  0
LINE
  5
52
  8
0
 10
261.0
 20
-0.0000000000000011
 30
0.0
 11
261.0
 21
12.0
 31
0.0
  0
LINE
  5
53
  8
0
 10
250.0
 20
-0.0000000000000017
 30
0.0
 11
261.0
 21
-0.0000000000000017
 31
0.0
  0
LINE
  5
54
  8
0
 10
261.0
 20
12.0
 30
0.0
 11
262.0
 21
12.0
 31
0.0
  0
LINE
  5
55
  8
0
 10
240.0
 20
12.0
 30
0.0
 11
250.0
 21
-0.0000000000000017
 31
0.0
  0
LINE
  5
56
  8
0
 10
240.0
 20
12.0
 30
0.0
 11
250.0
 21
-0.0000000000000016
 31
0.0
  0
LINE
  5
57
  8
0
 10
240.0
 20
12.0
 30
0.0
 11
250.0
 21
-0.0000000000000011
 31
0.0
  0
LINE
  5
58
  8
0
 10
236.19999999999999
 20
12.0
 30
0.0
 11
240.0
 21
12.0
 31
0.0
  0
LINE
  5
59
  8
0
 10
262.0
 20
12.0
 30
0.0
 11
262.0
 21
12.097
 31
0.0
  0
LINE
  5
5A
  8
0
 10
235.584
 20
12.0
 30
0.0
 11
236.19999999999999
 21
12.0
 31
0.0
  0
LINE
  5
5C
  8
0
 10
26.0
 20
12.3872
 30
0.0
 11
27.800000000000001
 21
14.691700000000001
 31
0.0
  0
LINE
  5
73
  8
0
 10
261.0
 20
12.0
 30
0.0
 11
261.0
 21
0.0
 31
0.0
  0
LINE
  5
74
  8
0
 10
262.0
 20
12.097
 30
0.0
 11
262.0
 21
12.3872
 31
0.0
  0
LINE
  5
75
  8
0
 10
262.0
 20
12.097
 30
0.0
 11
262.0
 21
12.0
 31
0.0
  0
LINE
  5
76
  8
0
 10
262.0
 20
12.3872
 30
0.0
 11
262.0
 21
13.0289
 31
0.0
  0
LINE
  5
77
  8
0
 10
262.0
 20
12.3872
 30
0.0
 11
262.0
 21
12.097
 31
0.0
  0
LINE
  5
78
  8
0
 10
238.0
 20
12.3872
 30
0.0
 11
262.0
 21
12.3872
 31
0.0
  0
LINE
  5
79
  8
0
 10
262.0
 20
13.0289
 30
0.0
 11
262.0
 21
14.691700000000001
 31
0.0
  0
LINE
  5
7A
  8
0
 10
262.0
 20
13.0289
 30
0.0
 11
262.0
 21
12.3872
 31
0.0
  0
LINE
  5
7D
  8
0
 10
261.0
 20
12.0
 30
0.0
 11
262.0
 21
12.0
 31
0.0
  0
LINE
  5
7E
  8
0
 10
12.0
 20
12.0
 30
0.0
 11
12.0
 21
12.576000000000001
 31
0.0
  0
LINE
  5
7F
  8
0
 10
12.0
 20
12.0
 30
0.0
 11
261.0
 21
12.0
 31
0.0
  0
LINE
  5
80
  8
0
 10
12.0
 20
12.0
 30
0.0
 11
12.0
 21
28.0
 31
0.0
  0
LINE
  5
81
  8
0
 10
12.0
 20
12.0
 30
0.0
 11
12.0
 21
12.097
 31
0.0
  0
LINE
  5
82
  8
0
 10
12.0
 20
12.0
 30
0.0
 11
12.0
 21
12.097
 31
0.0
  0
LINE
  5
83
  8
0
 10
12.0
 20
14.691700000000001
 30
0.0
 11
12.0
 21
15.7319
 31
0.0
  0
LINE
  5
84
  8
0
 10
12.0
 20
14.691700000000001
 30
0.0
 11
12.0
 21
13.0289
 31
0.0
  0
LINE
  5
85
  8
0
 10
12.0
 20
15.7319
 30
0.0
 11
12.0
 21
18.791799999999991
 31
0.0
  0
LINE
  5
86
  8
0
 10
12.0
 20
15.7319
 30
0.0
 11
12.0
 21
14.691700000000001
 31
0.0
  0
LINE
  5
87
  8
0
 10
12.0
 20
14.691700000000001
 30
0.0
 11
12.0
 21
13.0289
 31
0.0
  0
LINE
  5
88
  8
0
 10
12.0
 20
14.691700000000001
 30
0.0
 11
12.0
 21
15.7319
 31
0.0
  0
LINE
  5
89
  8
0
 10
12.0
 20
15.7319
 30
0.0
 11
12.0
 21
14.691700000000001
 31
0.0
  0
LINE
  5
8A
  8
0
 10
12.0
 20
15.7319
 30
0.0
 11
12.0
 21
18.791799999999991
 31
0.0
  0
LINE
  5
8B
  8
0
 10
12.0
 20
16.672000000000001
 30
0.0
 11
12.0
 21
14.112
 31
0.0
  0
LINE
  5
8C
  8
0
 10
12.0
 20
16.672000000000001
 30
0.0
 11
12.0
 21
20.064
 31
0.0
  0
LINE
  5
8D
  8
0
 10
12.0
 20
14.112
 30
0.0
 11
12.0
 21
12.576000000000001
 31
0.0
  0
LINE
  5
8E
  8
0
 10
12.0
 20
14.112
 30
0.0
 11
12.0
 21
16.672000000000001
 31
0.0
  0
LINE
  5
8F
  8
0
 10
12.0
 20
18.791799999999991
 30
0.0
 11
12.0
 21
21.4453
 31
0.0
  0
LINE
  5
90
  8
0
 10
12.0
 20
18.791799999999991
 30
0.0
 11
12.0
 21
15.7319
 31
0.0
  0
LINE
  5
91
  8
0
 10
12.0
 20
21.4453
 30
0.0
 11
12.0
 21
23.736699999999999
 31
0.0
  0
LINE
  5
92
  8
0
 10
12.0
 20
21.4453
 30
0.0
 11
12.0
 21
18.791799999999991
 31
0.0
  0
LINE
  5
93
  8
0
 10
12.0
 20
18.791799999999991
 30
0.0
 11
12.0
 21
15.7319
 31
0.0
  0
LINE
  5
94
  8
0
 10
12.0
 20
18.791799999999991
 30
0.0
 11
12.0
 21
21.4453
 31
0.0
  0
LINE
  5
95
  8
0
 10
12.0
 20
23.736699999999999
 30
0.0
 11
12.0
 21
25.934999999999999
 31
0.0
  0
LINE
  5
96
  8
0
 10
12.0
 20
23.736699999999999
 30
0.0
 11
12.0
 21
21.4453
 31
0.0
  0
LINE
  5
97
  8
0
 10
12.0
 20
21.4453
 30
0.0
 11
12.0
 21
18.791799999999991
 31
0.0
  0
LINE
  5
98
  8
0
 10
12.0
 20
21.4453
 30
0.0
 11
12.0
 21
23.736699999999999
 31
0.0
  0
LINE
  5
99
  8
0
 10
12.0
 20
23.736699999999999
 30
0.0
 11
12.0
 21
21.4453
 31
0.0
  0
LINE
  5
9A
  8
0
 10
12.0
 20
23.736699999999999
 30
0.0
 11
12.0
 21
25.934999999999999
 31
0.0
  0
LINE
  5
9B
  8
0
 10
12.0
 20
23.904
 30
0.0
 11
12.0
 21
20.064
 31
0.0
  0
LINE
  5
9C
  8
0
 10
12.0
 20
23.904
 30
0.0
 11
12.0
 21
28.0
 31
0.0
  0
LINE
  5
9D
  8
0
 10
12.0
 20
20.064
 30
0.0
 11
12.0
 21
16.672000000000001
 31
0.0
  0
LINE
  5
9E
  8
0
 10
12.0
 20
20.064
 30
0.0
 11
12.0
 21
23.904
 31
0.0
  0
LINE
  5
9F
  8
0
 10
12.0
 20
25.934999999999999
 30
0.0
 11
12.0
 21
28.0
 31
0.0
  0
LINE
  5
A0
  8
0
 10
12.0
 20
25.934999999999999
 30
0.0
 11
12.0
 21
23.736699999999999
 31
0.0
  0
LINE
  5
A1
  8
0
 10
12.0
 20
25.934999999999999
 30
0.0
 11
12.0
 21
23.736699999999999
 31
0.0
  0
LINE
  5
A2
  8
0
 10
12.0
 20
25.934999999999999
 30
0.0
 11
12.0
 21
28.0
 31
0.0
  0
LINE
  5
A3
  8
0
 10
0.0
 20
28.0
 30
0.0
 11
0.0
 21
38.0
 31
0.0
  0
LINE
  5
A4
  8
0
 10
0.0
 20
28.0
 30
0.0
 11
13.0
 21
28.0
 31
0.0
  0
LINE
  5
A5
  8
0
 10
0.0
 20
28.0
 30
0.0
 11
20.0
 21
28.0
 31
0.0
  0
LINE
  5
A6
  8
0
 10
12.0
 20
23.904
 30
0.0
 11
12.0
 21
28.0
 31
0.0
  0
LINE
  5
A7
  8
0
 10
12.0
 20
23.904
 30
0.0
 11
12.0
 21
20.064
 31
0.0
  0
LINE
  5
A8
  8
0
 10
12.0
 20
20.064
 30
0.0
 11
12.0
 21
23.904
 31
0.0
  0
LINE
  5
A9
  8
0
 10
12.0
 20
20.064
 30
0.0
 11
12.0
 21
16.672000000000001
 31
0.0
  0
LINE
  5
AA
  8
0
 10
12.0
 20
16.672000000000001
 30
0.0
 11
12.0
 21
20.064
 31
0.0
  0
LINE
  5
AB
  8
0
 10
12.0
 20
16.672000000000001
 30
0.0
 11
12.0
 21
14.112
 31
0.0
  0
LINE
  5
AC
  8
0
 10
12.0
 20
14.112
 30
0.0
 11
12.0
 21
16.672000000000001
 31
0.0
  0
LINE
  5
AD
  8
0
 10
12.0
 20
14.112
 30
0.0
 11
12.0
 21
12.576000000000001
 31
0.0
  0
LINE
  5
AE
  8
0
 10
0.0
 20
38.0
 30
0.0
 11
0.0
 21
28.0
 31
0.0
  0
LINE
  5
AF
  8
0
 10
0.0
 20
38.0
 30
0.0
 11
20.0
 21
38.0
 31
0.0
  0
LINE
  5
B0
  8
0
 10
12.0
 20
28.0
 30
0.0
 11
12.0
 21
12.0
 31
0.0
  0
LINE
  5
B1
  8
0
 10
12.0
 20
28.0
 30
0.0
 11
12.0
 21
23.904
 31
0.0
  0
LINE
  5
B2
  8
0
 10
12.0
 20
28.0
 30
0.0
 11
12.0
 21
23.904
 31
0.0
  0
LINE
  5
B3
  8
0
 10
12.0
 20
28.0
 30
0.0
 11
12.0
 21
25.934999999999999
 31
0.0
  0
LINE
  5
B4
  8
0
 10
12.0
 20
28.0
 30
0.0
 11
12.0
 21
25.934999999999999
 31
0.0
  0
LINE
  5
B5
  8
0
 10
12.0
 20
38.0
 30
0.0
 11
12.0
 21
39.328000000000003
 31
0.0
  0
LINE
  5
B6
  8
0
 10
12.0
 20
38.0
 30
0.0
 11
12.0
 21
44.0
 31
0.0
  0
LINE
  5
B7
  8
0
 10
12.0
 20
38.0
 30
0.0
 11
12.0
 21
40.268099999999997
 31
0.0
  0
LINE
  5
B8
  8
0
 10
12.0
 20
41.308300000000003
 30
0.0
 11
12.0
 21
42.971099999999993
 31
0.0
  0
LINE
  5
B9
  8
0
 10
12.0
 20
41.308300000000003
 30
0.0
 11
12.0
 21
40.268099999999997
 31
0.0
  0
LINE
  5
BA
  8
0
 10
12.0
 20
40.268099999999997
 30
0.0
 11
12.0
 21
41.308300000000003
 31
0.0
  0
LINE
  5
BB
  8
0
 10
12.0
 20
40.268099999999997
 30
0.0
 11
12.0
 21
38.0
 31
0.0
  0
LINE
  5
BC
  8
0
 10
12.0
 20
39.328000000000003
 30
0.0
 11
12.0
 21
41.887999999999998
 31
0.0
  0
LINE
  5
BD
  8
0
 10
12.0
 20
39.328000000000003
 30
0.0
 11
12.0
 21
38.0
 31
0.0
  0
LINE
  5
C6
  8
0
 10
27.800000000000001
 20
14.691700000000001
 30
0.0
 11
28.4163
 21
15.731799999999989
 31
0.0
  0
LINE
  5
D3
  8
0
 10
29.6966
 20
18.791799999999991
 30
0.0
 11
30.378299999999999
 21
21.4453
 31
0.0
  0
LINE
  5
D9
  8
0
 10
28.4163
 20
15.731799999999989
 30
0.0
 11
29.6966
 21
18.791799999999991
 31
0.0
  0
LINE
  5
E0
  8
0
 10
30.378299999999999
 20
21.4453
 30
0.0
 11
30.726500000000001
 21
23.736699999999999
 31
0.0
  0
LINE
  5
E8
  8
0
 10
30.976500000000001
 20
25.934999999999999
 30
0.0
 11
31.0396
 21
28.0
 31
0.0
  0
LINE
  5
E9
  8
0
 10
30.726500000000001
 20
23.736699999999999
 30
0.0
 11
30.976500000000001
 21
25.934999999999999
 31
0.0
  0
LINE
  5
EF
  8
0
 10
233.62200000000001
 20
21.4453
 30
0.0
 11
234.303
 21
18.791799999999991
 31
0.0
  0
LINE
  5
F0
  8
0
 10
233.273
 20
23.736699999999999
 30
0.0
 11
233.62200000000001
 21
21.4453
 31
0.0
  0
LINE
  5
F1
  8
0
 10
233.02299999999991
 20
25.934999999999999
 30
0.0
 11
233.273
 21
23.736699999999999
 31
0.0
  0
LINE
  5
F9
  8
0
 10
262.0
 20
14.691700000000001
 30
0.0
 11
262.0
 21
15.7319
 31
0.0
  0
LINE
  5
FA
  8
0
 10
262.0
 20
14.691700000000001
 30
0.0
 11
262.0
 21
13.0289
 31
0.0
  0
LINE
  5
FB
  8
0
 10
234.303
 20
18.791799999999991
 30
0.0
 11
235.584
 21
15.731799999999989
 31
0.0
  0
LINE
  5
FD
  8
0
 10
261.0
 20
18.0
 30
0.0
 11
261.0
 21
28.0
 31
0.0
  0
LINE
  5
FE
  8
0
 10
250.0
 20
18.0
 30
0.0
 11
250.0
 21
28.0
 31
0.0
  0
LINE
  5
FF
  8
0
 10
250.0
 20
18.0
 30
0.0
 11
261.0
 21
18.0
 31
0.0
  0
LINE
  5
100
  8
0
 10
240.0
 20
18.0
 30
0.0
 11
240.0
 21
28.0
 31
0.0
  0
LINE
  5
101
  8
0
 10
240.0
 20
18.0
 30
0.0
 11
250.0
 21
18.0
 31
0.0
  0
LINE
  5
102
  8
0
 10
262.0
 20
15.7319
 30
0.0
 11
262.0
 21
18.791799999999991
 31
0.0
  0
LINE
  5
103
  8
0
 10
262.0
 20
15.7319
 30
0.0
 11
262.0
 21
14.691700000000001
 31
0.0
  0
LINE
  5
104
  8
0
 10
262.0
 20
18.791799999999991
 30
0.0
 11
262.0
 21
21.4453
 31
0.0
  0
LINE
  5
105
  8
0
 10
262.0
 20
18.791799999999991
 30
0.0
 11
262.0
 21
15.7319
 31
0.0
  0
LINE
  5
106
  8
0
 10
262.0
 20
21.4453
 30
0.0
 11
262.0
 21
23.736699999999999
 31
0.0
  0
LINE
  5
107
  8
0
 10
262.0
 20
21.4453
 30
0.0
 11
262.0
 21
18.791799999999991
 31
0.0
  0
LINE
  5
108
  8
0
 10
262.0
 20
23.736699999999999
 30
0.0
 11
262.0
 21
25.934999999999999
 31
0.0
  0
LINE
  5
109
  8
0
 10
262.0
 20
23.736699999999999
 30
0.0
 11
262.0
 21
21.4453
 31
0.0
  0
LINE
  5
10A
  8
0
 10
261.0
 20
28.0
 30
0.0
 11
261.0
 21
18.0
 31
0.0
  0
LINE
  5
10B
  8
0
 10
250.0
 20
28.0
 30
0.0
 11
250.0
 21
18.0
 31
0.0
  0
LINE
  5
10C
  8
0
 10
250.0
 20
28.0
 30
0.0
 11
261.0
 21
28.0
 31
0.0
  0
LINE
  5
10D
  8
0
 10
240.0
 20
28.0
 30
0.0
 11
250.0
 21
28.0
 31
0.0
  0
LINE
  5
10E
  8
0
 10
240.0
 20
28.0
 30
0.0
 11
240.0
 21
18.0
 31
0.0
  0
LINE
  5
10F
  8
0
 10
262.0
 20
25.934999999999999
 30
0.0
 11
262.0
 21
28.0
 31
0.0
  0
LINE
  5
110
  8
0
 10
262.0
 20
25.934999999999999
 30
0.0
 11
262.0
 21
23.736699999999999
 31
0.0
  0
LINE
  5
113
  8
0
 10
235.584
 20
15.731799999999989
 30
0.0
 11
236.19999999999999
 21
14.691700000000001
 31
0.0
  0
LINE
  5
11C
  8
0
 10
262.0
 20
28.0
 30
0.0
 11
262.0
 21
30.065000000000001
 31
0.0
  0
LINE
  5
11D
  8
0
 10
262.0
 20
28.0
 30
0.0
 11
262.0
 21
25.934999999999999
 31
0.0
  0
LINE
  5
11E
  8
0
 10
232.96000000000001
 20
28.0
 30
0.0
 11
233.02299999999991
 21
30.065000000000001
 31
0.0
  0
LINE
  5
11F
  8
0
 10
232.96000000000001
 20
28.0
 30
0.0
 11
233.02299999999991
 21
25.934999999999999
 31
0.0
  0
LINE
  5
120
  8
0
 10
26.0
 20
28.0
 30
0.0
 11
26.0
 21
38.0
 31
0.0
  0
LINE
  5
122
  8
0
 10
30.976500000000001
 20
30.065000000000001
 30
0.0
 11
31.0396
 21
28.0
 31
0.0
  0
LINE
  5
123
  8
0
 10
30.378299999999999
 20
34.554699999999997
 30
0.0
 11
30.726500000000001
 21
32.263300000000001
 31
0.0
  0
LINE
  5
129
  8
0
 10
30.726500000000001
 20
32.263300000000001
 30
0.0
 11
30.976500000000001
 21
30.065000000000001
 31
0.0
  0
LINE
  5
136
  8
0
 10
233.62200000000001
 20
34.554699999999997
 30
0.0
 11
234.303
 21
37.208199999999991
 31
0.0
  0
LINE
  5
137
  8
0
 10
233.273
 20
32.263300000000001
 30
0.0
 11
233.62200000000001
 21
34.554699999999997
 31
0.0
  0
LINE
  5
138
  8
0
 10
233.02299999999991
 20
30.065000000000001
 30
0.0
 11
233.273
 21
32.263300000000001
 31
0.0
  0
LINE
  5
13C
  8
0
 10
29.6966
 20
37.208199999999991
 30
0.0
 11
30.378299999999999
 21
34.554699999999997
 31
0.0
  0
LINE
  5
141
  8
0
 10
262.0
 20
37.208199999999991
 30
0.0
 11
262.0
 21
34.554699999999997
 31
0.0
  0
LINE
  5
142
  8
0
 10
262.0
 20
37.208199999999991
 30
0.0
 11
262.0
 21
40.268099999999997
 31
0.0
  0
LINE
  5
143
  8
0
 10
262.0
 20
34.554699999999997
 30
0.0
 11
262.0
 21
32.263300000000001
 31
0.0
  0
LINE
  5
144
  8
0
 10
262.0
 20
34.554699999999997
 30
0.0
 11
262.0
 21
37.208199999999991
 31
0.0
  0
LINE
  5
145
  8
0
 10
262.0
 20
32.263300000000001
 30
0.0
 11
262.0
 21
30.065000000000001
 31
0.0
  0
LINE
  5
146
  8
0
 10
262.0
 20
32.263300000000001
 30
0.0
 11
262.0
 21
34.554699999999997
 31
0.0
  0
LINE
  5
147
  8
0
 10
262.0
 20
30.065000000000001
 30
0.0
 11
262.0
 21
28.0
 31
0.0
  0
LINE
  5
148
  8
0
 10
262.0
 20
30.065000000000001
 30
0.0
 11
262.0
 21
32.263300000000001
 31
0.0
  0
LINE
  5
149
  8
0
 10
234.303
 20
37.208199999999991
 30
0.0
 11
235.584
 21
40.268199999999993
 31
0.0
  0
LINE
  5
153
  8
0
 10
28.4163
 20
40.268199999999993
 30
0.0
 11
29.6966
 21
37.208199999999991
 31
0.0
  0
LINE
  5
15F
  8
0
 10
27.800000000000001
 20
41.308300000000003
 30
0.0
 11
28.4163
 21
40.268199999999993
 31
0.0
  0
LINE
  5
16D
  8
0
 10
262.0
 20
40.268099999999997
 30
0.0
 11
262.0
 21
37.208199999999991
 31
0.0
  0
LINE
  5
16E
  8
0
 10
262.0
 20
40.268099999999997
 30
0.0
 11
262.0
 21
41.308300000000003
 31
0.0
  0
LINE
  5
16F
  8
0
 10
262.0
 20
41.308300000000003
 30
0.0
 11
262.0
 21
40.268099999999997
 31
0.0
  0
LINE
  5
170
  8
0
 10
262.0
 20
41.308300000000003
 30
0.0
 11
262.0
 21
42.971099999999993
 31
0.0
  0
LINE
  5
171
  8
0
 10
235.584
 20
40.268199999999993
 30
0.0
 11
236.19999999999999
 21
41.308300000000003
 31
0.0
  0
LINE
  5
177
  8
0
 10
26.0
 20
38.0
 30
0.0
 11
26.0
 21
28.0
 31
0.0
  0
LINE
  5
178
  8
0
 10
20.0
 20
38.0
 30
0.0
 11
26.0
 21
38.0
 31
0.0
  0
LINE
  5
179
  8
0
 10
20.0
 20
38.0
 30
0.0
 11
20.0
 21
28.0
 31
0.0
  0
LINE
  5
17A
  8
0
 10
20.0
 20
28.0
 30
0.0
 11
20.0
 21
38.0
 31
0.0
  0
LINE
  5
17B
  8
0
 10
20.0
 20
28.0
 30
0.0
 11
26.0
 21
28.0
 31
0.0
  0
LINE
  5
17C
  8
0
 10
12.0
 20
41.887999999999998
 30
0.0
 11
12.0
 21
43.423999999999999
 31
0.0
  0
LINE
  5
17D
  8
0
 10
12.0
 20
41.887999999999998
 30
0.0
 11
12.0
 21
39.328000000000003
 31
0.0
  0
LINE
  5
17E
  8
0
 10
262.0
 20
14.0
 30
0.0
 11
265.0
 21
14.0
 31
0.0
  0
LINE
  5
17F
  8
0
 10
267.0
 20
13.0
 30
0.0
 11
267.0
 21
13.539999999999999
 31
0.0
  0
LINE
  5
180
  8
0
 10
265.0
 20
14.0
 30
0.0
 11
265.0
 21
13.539999999999999
 31
0.0
  0
LINE
  5
181
  8
0
 10
267.0
 20
13.539999999999999
 30
0.0
 11
267.0
 21
13.0
 31
0.0
  0
LINE
  5
182
  8
0
 10
267.0
 20
13.539999999999999
 30
0.0
 11
267.0
 21
14.98
 31
0.0
  0
LINE
  5
183
  8
0
 10
265.0
 20
13.539999999999999
 30
0.0
 11
265.0
 21
14.98
 31
0.0
  0
LINE
  5
184
  8
0
 10
265.0
 20
13.539999999999999
 30
0.0
 11
265.0
 21
13.0
 31
0.0
  0
LINE
  5
185
  8
0
 10
265.0
 20
13.539999999999999
 30
0.0
 11
265.0
 21
14.0
 31
0.0
  0
LINE
  5
186
  8
0
 10
265.0
 20
13.0
 30
0.0
 11
265.0
 21
13.539999999999999
 31
0.0
  0
LINE
  5
187
  8
0
 10
265.0
 20
13.0
 30
0.0
 11
267.0
 21
13.0
 31
0.0
  0
LINE
  5
188
  8
0
 10
271.0
 20
13.0
 30
0.0
 11
271.0
 21
13.539999999999999
 31
0.0
  0
LINE
  5
189
  8
0
 10
269.0
 20
14.0
 30
0.0
 11
269.0
 21
13.539999999999999
 31
0.0
  0
LINE
  5
18A
  8
0
 10
271.0
 20
13.539999999999999
 30
0.0
 11
271.0
 21
13.0
 31
0.0
  0
LINE
  5
18B
  8
0
 10
271.0
 20
13.539999999999999
 30
0.0
 11
271.0
 21
14.98
 31
0.0
  0
LINE
  5
18C
  8
0
 10
269.0
 20
13.539999999999999
 30
0.0
 11
269.0
 21
14.98
 31
0.0
  0
LINE
  5
18D
  8
0
 10
269.0
 20
13.539999999999999
 30
0.0
 11
269.0
 21
13.0
 31
0.0
  0
LINE
  5
18E
  8
0
 10
269.0
 20
13.539999999999999
 30
0.0
 11
269.0
 21
14.0
 31
0.0
  0
LINE
  5
18F
  8
0
 10
269.0
 20
13.0
 30
0.0
 11
269.0
 21
13.539999999999999
 31
0.0
  0
LINE
  5
190
  8
0
 10
269.0
 20
13.0
 30
0.0
 11
271.0
 21
13.0
 31
0.0
  0
LINE
  5
191
  8
0
 10
267.0
 20
14.0
 30
0.0
 11
269.0
 21
14.0
 31
0.0
  0
LINE
  5
192
  8
0
 10
265.0
 20
17.379999999999988
 30
0.0
 11
265.0
 21
20.559999999999999
 31
0.0
  0
LINE
  5
193
  8
0
 10
265.0
 20
17.379999999999988
 30
0.0
 11
265.0
 21
14.98
 31
0.0
  0
LINE
  5
194
  8
0
 10
267.0
 20
17.379999999999988
 30
0.0
 11
267.0
 21
14.98
 31
0.0
  0
LINE
  5
195
  8
0
 10
267.0
 20
17.379999999999988
 30
0.0
 11
267.0
 21
20.559999999999999
 31
0.0
  0
LINE
  5
196
  8
0
 10
267.0
 20
14.98
 30
0.0
 11
267.0
 21
13.539999999999999
 31
0.0
  0
LINE
  5
197
  8
0
 10
267.0
 20
14.98
 30
0.0
 11
267.0
 21
17.379999999999988
 31
0.0
  0
LINE
  5
198
  8
0
 10
265.0
 20
14.98
 30
0.0
 11
265.0
 21
17.379999999999988
 31
0.0
  0
LINE
  5
199
  8
0
 10
265.0
 20
14.98
 30
0.0
 11
265.0
 21
13.539999999999999
 31
0.0
  0
LINE
  5
19A
  8
0
 10
265.0
 20
24.16
 30
0.0
 11
265.0
 21
28.0
 31
0.0
  0
LINE
  5
19B
  8
0
 10
265.0
 20
24.16
 30
0.0
 11
265.0
 21
20.559999999999999
 31
0.0
  0
LINE
  5
19C
  8
0
 10
267.0
 20
24.16
 30
0.0
 11
267.0
 21
20.559999999999999
 31
0.0
  0
LINE
  5
19D
  8
0
 10
267.0
 20
24.16
 30
0.0
 11
267.0
 21
28.0
 31
0.0
  0
LINE
  5
19E
  8
0
 10
267.0
 20
20.559999999999999
 30
0.0
 11
267.0
 21
17.379999999999988
 31
0.0
  0
LINE
  5
19F
  8
0
 10
267.0
 20
20.559999999999999
 30
0.0
 11
267.0
 21
24.16
 31
0.0
  0
LINE
  5
1A0
  8
0
 10
265.0
 20
20.559999999999999
 30
0.0
 11
265.0
 21
24.16
 31
0.0
  0
LINE
  5
1A1
  8
0
 10
265.0
 20
20.559999999999999
 30
0.0
 11
265.0
 21
17.379999999999988
 31
0.0
  0
LINE
  5
1A2
  8
0
 10
265.0
 20
28.0
 30
0.0
 11
265.0
 21
31.84
 31
0.0
  0
LINE
  5
1A3
  8
0
 10
265.0
 20
28.0
 30
0.0
 11
265.0
 21
24.16
 31
0.0
  0
LINE
  5
1A4
  8
0
 10
267.0
 20
28.0
 30
0.0
 11
267.0
 21
31.84
 31
0.0
  0
LINE
  5
1A5
  8
0
 10
267.0
 20
28.0
 30
0.0
 11
267.0
 21
24.16
 31
0.0
  0
LINE
  5
1A6
  8
0
 10
269.0
 20
24.16
 30
0.0
 11
269.0
 21
28.0
 31
0.0
  0
LINE
  5
1A7
  8
0
 10
269.0
 20
24.16
 30
0.0
 11
269.0
 21
20.559999999999999
 31
0.0
  0
LINE
  5
1A8
  8
0
 10
269.0
 20
20.559999999999999
 30
0.0
 11
269.0
 21
24.16
 31
0.0
  0
LINE
  5
1A9
  8
0
 10
269.0
 20
20.559999999999999
 30
0.0
 11
269.0
 21
17.379999999999988
 31
0.0
  0
LINE
  5
1AA
  8
0
 10
269.0
 20
17.379999999999988
 30
0.0
 11
269.0
 21
20.559999999999999
 31
0.0
  0
LINE
  5
1AB
  8
0
 10
269.0
 20
17.379999999999988
 30
0.0
 11
269.0
 21
14.98
 31
0.0
  0
LINE
  5
1AC
  8
0
 10
271.0
 20
24.16
 30
0.0
 11
271.0
 21
20.559999999999999
 31
0.0
  0
LINE
  5
1AD
  8
0
 10
271.0
 20
24.16
 30
0.0
 11
271.0
 21
28.0
 31
0.0
  0
LINE
  5
1AE
  8
0
 10
271.0
 20
20.559999999999999
 30
0.0
 11
271.0
 21
17.379999999999988
 31
0.0
  0
LINE
  5
1AF
  8
0
 10
271.0
 20
20.559999999999999
 30
0.0
 11
271.0
 21
24.16
 31
0.0
  0
LINE
  5
1B0
  8
0
 10
271.0
 20
17.379999999999988
 30
0.0
 11
271.0
 21
14.98
 31
0.0
  0
LINE
  5
1B1
  8
0
 10
271.0
 20
17.379999999999988
 30
0.0
 11
271.0
 21
20.559999999999999
 31
0.0
  0
LINE
  5
1B2
  8
0
 10
271.0
 20
14.98
 30
0.0
 11
271.0
 21
13.539999999999999
 31
0.0
  0
LINE
  5
1B3
  8
0
 10
271.0
 20
14.98
 30
0.0
 11
271.0
 21
17.379999999999988
 31
0.0
  0
LINE
  5
1B4
  8
0
 10
269.0
 20
14.98
 30
0.0
 11
269.0
 21
17.379999999999988
 31
0.0
  0
LINE
  5
1B5
  8
0
 10
269.0
 20
14.98
 30
0.0
 11
269.0
 21
13.539999999999999
 31
0.0
  0
LINE
  5
1B6
  8
0
 10
265.0
 20
31.84
 30
0.0
 11
265.0
 21
28.0
 31
0.0
  0
LINE
  5
1B7
  8
0
 10
265.0
 20
31.84
 30
0.0
 11
265.0
 21
35.439999999999998
 31
0.0
  0
LINE
  5
1B8
  8
0
 10
267.0
 20
31.84
 30
0.0
 11
267.0
 21
35.439999999999998
 31
0.0
  0
LINE
  5
1B9
  8
0
 10
267.0
 20
31.84
 30
0.0
 11
267.0
 21
28.0
 31
0.0
  0
LINE
  5
1BA
  8
0
 10
269.0
 20
28.0
 30
0.0
 11
269.0
 21
31.84
 31
0.0
  0
LINE
  5
1BB
  8
0
 10
269.0
 20
28.0
 30
0.0
 11
269.0
 21
24.16
 31
0.0
  0
LINE
  5
1BC
  8
0
 10
271.0
 20
28.0
 30
0.0
 11
271.0
 21
31.84
 31
0.0
  0
LINE
  5
1BD
  8
0
 10
271.0
 20
28.0
 30
0.0
 11
271.0
 21
24.16
 31
0.0
  0
LINE
  5
1BE
  8
0
 10
265.0
 20
35.439999999999998
 30
0.0
 11
265.0
 21
31.84
 31
0.0
  0
LINE
  5
1BF
  8
0
 10
265.0
 20
35.439999999999998
 30
0.0
 11
265.0
 21
38.619999999999997
 31
0.0
  0
LINE
  5
1C0
  8
0
 10
267.0
 20
35.439999999999998
 30
0.0
 11
267.0
 21
38.619999999999997
 31
0.0
  0
LINE
  5
1C1
  8
0
 10
267.0
 20
35.439999999999998
 30
0.0
 11
267.0
 21
31.84
 31
0.0
  0
LINE
  5
1C2
  8
0
 10
269.0
 20
31.84
 30
0.0
 11
269.0
 21
28.0
 31
0.0
  0
LINE
  5
1C3
  8
0
 10
269.0
 20
31.84
 30
0.0
 11
269.0
 21
35.439999999999998
 31
0.0
  0
LINE
  5
1C4
  8
0
 10
271.0
 20
31.84
 30
0.0
 11
271.0
 21
35.439999999999998
 31
0.0
  0
LINE
  5
1C5
  8
0
 10
271.0
 20
31.84
 30
0.0
 11
271.0
 21
28.0
 31
0.0
  0
LINE
  5
1C6
  8
0
 10
265.0
 20
38.619999999999997
 30
0.0
 11
265.0
 21
35.439999999999998
 31
0.0
  0
LINE
  5
1C7
  8
0
 10
265.0
 20
38.619999999999997
 30
0.0
 11
265.0
 21
41.020000000000003
 31
0.0
  0
LINE
  5
1C8
  8
0
 10
267.0
 20
38.619999999999997
 30
0.0
 11
267.0
 21
41.020000000000003
 31
0.0
  0
LINE
  5
1C9
  8
0
 10
267.0
 20
38.619999999999997
 30
0.0
 11
267.0
 21
35.439999999999998
 31
0.0
  0
LINE
  5
1CA
  8
0
 10
269.0
 20
35.439999999999998
 30
0.0
 11
269.0
 21
31.84
 31
0.0
  0
LINE
  5
1CB
  8
0
 10
269.0
 20
35.439999999999998
 30
0.0
 11
269.0
 21
38.619999999999997
 31
0.0
  0
LINE
  5
1CC
  8
0
 10
271.0
 20
35.439999999999998
 30
0.0
 11
271.0
 21
38.619999999999997
 31
0.0
  0
LINE
  5
1CD
  8
0
 10
271.0
 20
35.439999999999998
 30
0.0
 11
271.0
 21
31.84
 31
0.0
  0
LINE
  5
1CE
  8
0
 10
265.0
 20
41.020000000000003
 30
0.0
 11
265.0
 21
38.619999999999997
 31
0.0
  0
LINE
  5
1CF
  8
0
 10
265.0
 20
41.020000000000003
 30
0.0
 11
265.0
 21
42.460000000000001
 31
0.0
  0
LINE
  5
1D0
  8
0
 10
267.0
 20
41.020000000000003
 30
0.0
 11
267.0
 21
42.460000000000001
 31
0.0
  0
LINE
  5
1D1
  8
0
 10
267.0
 20
41.020000000000003
 30
0.0
 11
267.0
 21
38.619999999999997
 31
0.0
  0
LINE
  5
1D2
  8
0
 10
269.0
 20
38.619999999999997
 30
0.0
 11
269.0
 21
35.439999999999998
 31
0.0
  0
LINE
  5
1D3
  8
0
 10
269.0
 20
38.619999999999997
 30
0.0
 11
269.0
 21
41.020000000000003
 31
0.0
  0
LINE
  5
1D4
  8
0
 10
271.0
 20
38.619999999999997
 30
0.0
 11
271.0
 21
41.020000000000003
 31
0.0
  0
LINE
  5
1D5
  8
0
 10
271.0
 20
38.619999999999997
 30
0.0
 11
271.0
 21
35.439999999999998
 31
0.0
  0
LINE
  5
1D6
  8
0
 10
265.0
 20
42.0
 30
0.0
 11
265.0
 21
42.460000000000001
 31
0.0
  0
LINE
  5
1D7
  8
0
 10
269.0
 20
42.0
 30
0.0
 11
269.0
 21
42.460000000000001
 31
0.0
  0
LINE
  5
1D8
  8
0
 10
269.0
 20
41.020000000000003
 30
0.0
 11
269.0
 21
38.619999999999997
 31
0.0
  0
LINE
  5
1D9
  8
0
 10
269.0
 20
41.020000000000003
 30
0.0
 11
269.0
 21
42.460000000000001
 31
0.0
  0
LINE
  5
1DA
  8
0
 10
271.0
 20
41.020000000000003
 30
0.0
 11
271.0
 21
42.460000000000001
 31
0.0
  0
LINE
  5
1DB
  8
0
 10
271.0
 20
41.020000000000003
 30
0.0
 11
271.0
 21
38.619999999999997
 31
0.0
  0
LINE
  5
1DC
  8
0
 10
271.0
 20
14.0
 30
0.0
 11
273.0
 21
14.0
 31
0.0
  0
LINE
  5
1DD
  8
0
 10
262.0
 20
42.0
 30
0.0
 11
265.0
 21
42.0
 31
0.0
  0
LINE
  5
1DE
  8
0
 10
12.0
 20
42.971099999999993
 30
0.0
 11
12.0
 21
43.612799999999993
 31
0.0
  0
LINE
  5
1DF
  8
0
 10
12.0
 20
42.971099999999993
 30
0.0
 11
12.0
 21
41.308300000000003
 31
0.0
  0
LINE
  5
1E0
  8
0
 10
12.0
 20
43.612799999999993
 30
0.0
 11
12.0
 21
43.902999999999992
 31
0.0
  0
LINE
  5
1E1
  8
0
 10
12.0
 20
43.612799999999993
 30
0.0
 11
26.0
 21
43.612799999999993
 31
0.0
  0
LINE
  5
1E2
  8
0
 10
12.0
 20
43.612799999999993
 30
0.0
 11
12.0
 21
42.971099999999993
 31
0.0
  0
LINE
  5
1E3
  8
0
 10
12.0
 20
43.902999999999992
 30
0.0
 11
12.0
 21
44.0
 31
0.0
  0
LINE
  5
1E4
  8
0
 10
12.0
 20
43.902999999999992
 30
0.0
 11
12.0
 21
43.612799999999993
 31
0.0
  0
LINE
  5
1E5
  8
0
 10
0.0
 20
44.0
 30
0.0
 11
12.0
 21
44.0
 31
0.0
  0
LINE
  5
1E6
  8
0
 10
0.0
 20
44.0
 30
0.0
 11
12.0
 21
44.0
 31
0.0
  0
LINE
  5
1E7
  8
0
 10
0.0
 20
44.0
 30
0.0
 11
0.0
 21
56.0
 31
0.0
  0
LINE
  5
1E8
  8
0
 10
0.0
 20
44.0
 30
0.0
 11
12.0
 21
44.0
 31
0.0
  0
LINE
  5
1E9
  8
0
 10
0.0
 20
56.0
 30
0.0
 11
0.0
 21
44.0
 31
0.0
  0
LINE
  5
1EA
  8
0
 10
0.0
 20
56.0
 30
0.0
 11
20.0
 21
56.0
 31
0.0
  0
LINE
  5
1EB
  8
0
 10
12.0
 20
44.0
 30
0.0
 11
12.0
 21
38.0
 31
0.0
  0
LINE
  5
1EC
  8
0
 10
12.0
 20
44.0
 30
0.0
 11
12.0
 21
43.423999999999999
 31
0.0
  0
LINE
  5
1ED
  8
0
 10
12.0
 20
44.0
 30
0.0
 11
27.800000000000001
 21
44.0
 31
0.0
  0
LINE
  5
1EE
  8
0
 10
12.0
 20
44.0
 30
0.0
 11
12.0
 21
43.902999999999992
 31
0.0
  0
LINE
  5
1EF
  8
0
 10
26.0
 20
43.612799999999993
 30
0.0
 11
27.800000000000001
 21
41.308300000000003
 31
0.0
  0
LINE
  5
1FB
  8
0
 10
30.976500000000001
 20
44.0
 30
0.0
 11
31.0396
 21
44.0
 31
0.0
  0
LINE
  5
1FD
  8
0
 10
30.378299999999999
 20
44.0
 30
0.0
 11
30.726500000000001
 21
44.0
 31
0.0
  0
LINE
  5
1FF
  8
0
 10
30.726500000000001
 20
44.0
 30
0.0
 11
30.976500000000001
 21
44.0
 31
0.0
  0
LINE
  5
202
  8
0
 10
29.6966
 20
44.0
 30
0.0
 11
30.378299999999999
 21
44.0
 31
0.0
  0
LINE
  5
205
  8
0
 10
28.4163
 20
44.0
 30
0.0
 11
29.6966
 21
44.0
 31
0.0
  0
LINE
  5
206
  8
0
 10
27.800000000000001
 20
44.0
 30
0.0
 11
28.4163
 21
44.0
 31
0.0
  0
LINE
  5
217
  8
0
 10
232.96000000000001
 20
44.0
 30
0.0
 11
233.02299999999991
 21
44.0
 31
0.0
  0
LINE
  5
218
  8
0
 10
233.62200000000001
 20
44.0
 30
0.0
 11
234.303
 21
44.0
 31
0.0
  0
LINE
  5
219
  8
0
 10
233.273
 20
44.0
 30
0.0
 11
233.62200000000001
 21
44.0
 31
0.0
  0
LINE
  5
21A
  8
0
 10
233.02299999999991
 20
44.0
 30
0.0
 11
233.273
 21
44.0
 31
0.0
  0
LINE
  5
21B
  8
0
 10
234.303
 20
44.0
 30
0.0
 11
235.584
 21
44.0
 31
0.0
  0
LINE
  5
21F
  8
0
 10
262.0
 20
43.612799999999993
 30
0.0
 11
262.0
 21
42.971099999999993
 31
0.0
  0
LINE
  5
220
  8
0
 10
262.0
 20
43.612799999999993
 30
0.0
 11
262.0
 21
43.902999999999992
 31
0.0
  0
LINE
  5
221
  8
0
 10
262.0
 20
42.971099999999993
 30
0.0
 11
262.0
 21
41.308300000000003
 31
0.0
  0
LINE
  5
222
  8
0
 10
262.0
 20
42.971099999999993
 30
0.0
 11
262.0
 21
43.612799999999993
 31
0.0
  0
LINE
  5
223
  8
0
 10
261.0
 20
44.0
 30
0.0
 11
261.0
 21
56.0
 31
0.0
  0
LINE
  5
224
  8
0
 10
240.0
 20
44.0
 30
0.0
 11
250.0
 21
56.0
 31
0.0
  0
LINE
  5
225
  8
0
 10
238.0
 20
43.612799999999993
 30
0.0
 11
262.0
 21
43.612799999999993
 31
0.0
  0
LINE
  5
226
  8
0
 10
265.0
 20
42.460000000000001
 30
0.0
 11
265.0
 21
41.020000000000003
 31
0.0
  0
LINE
  5
227
  8
0
 10
265.0
 20
42.460000000000001
 30
0.0
 11
265.0
 21
43.0
 31
0.0
  0
LINE
  5
228
  8
0
 10
265.0
 20
42.460000000000001
 30
0.0
 11
265.0
 21
42.0
 31
0.0
  0
LINE
  5
229
  8
0
 10
267.0
 20
42.460000000000001
 30
0.0
 11
267.0
 21
43.0
 31
0.0
  0
LINE
  5
22A
  8
0
 10
267.0
 20
42.460000000000001
 30
0.0
 11
267.0
 21
41.020000000000003
 31
0.0
  0
LINE
  5
22B
  8
0
 10
267.0
 20
43.0
 30
0.0
 11
267.0
 21
42.460000000000001
 31
0.0
  0
LINE
  5
22C
  8
0
 10
265.0
 20
43.0
 30
0.0
 11
267.0
 21
43.0
 31
0.0
  0
LINE
  5
22D
  8
0
 10
265.0
 20
43.0
 30
0.0
 11
265.0
 21
42.460000000000001
 31
0.0
  0
LINE
  5
22E
  8
0
 10
271.0
 20
43.0
 30
0.0
 11
271.0
 21
42.460000000000001
 31
0.0
  0
LINE
  5
22F
  8
0
 10
269.0
 20
42.460000000000001
 30
0.0
 11
269.0
 21
41.020000000000003
 31
0.0
  0
LINE
  5
230
  8
0
 10
269.0
 20
42.460000000000001
 30
0.0
 11
269.0
 21
43.0
 31
0.0
  0
LINE
  5
231
  8
0
 10
269.0
 20
42.460000000000001
 30
0.0
 11
269.0
 21
42.0
 31
0.0
  0
LINE
  5
232
  8
0
 10
271.0
 20
42.460000000000001
 30
0.0
 11
271.0
 21
43.0
 31
0.0
  0
LINE
  5
233
  8
0
 10
271.0
 20
42.460000000000001
 30
0.0
 11
271.0
 21
41.020000000000003
 31
0.0
  0
LINE
  5
234
  8
0
 10
269.0
 20
43.0
 30
0.0
 11
271.0
 21
43.0
 31
0.0
  0
LINE
  5
235
  8
0
 10
269.0
 20
43.0
 30
0.0
 11
269.0
 21
42.460000000000001
 31
0.0
  0
LINE
  5
236
  8
0
 10
262.0
 20
43.902999999999992
 30
0.0
 11
262.0
 21
43.612799999999993
 31
0.0
  0
LINE
  5
237
  8
0
 10
262.0
 20
43.902999999999992
 30
0.0
 11
262.0
 21
44.0
 31
0.0
  0
LINE
  5
238
  8
0
 10
262.0
 20
44.0
 30
0.0
 11
262.0
 21
43.902999999999992
 31
0.0
  0
LINE
  5
239
  8
0
 10
235.584
 20
44.0
 30
0.0
 11
236.19999999999999
 21
44.0
 31
0.0
  0
LINE
  5
23B
  8
0
 10
236.19999999999999
 20
44.0
 30
0.0
 11
262.0
 21
44.0
 31
0.0
  0
LINE
  5
23C
  8
0
 10
31.0396
 20
44.0
 30
0.0
 11
232.96000000000001
 21
44.0
 31
0.0
  0
LINE
  5
23D
  8
0
 10
250.0
 20
56.0
 30
0.0
 11
261.0
 21
56.0
 31
0.0
  0
LINE
  5
23E
  8
0
 10
261.0
 20
56.0
 30
0.0
 11
261.0
 21
44.0
 31
0.0
  0
LINE
  5
23F
  8
0
 10
20.0
 20
56.0
 30
0.0
 11
26.0
 21
44.0
 31
0.0
  0
LINE
  5
240
  8
0
 10
31.0396
 20
44.0
 30
0.0
 11
232.96000000000001
 21
44.0
 31
0.0
  0
LINE
  5
241
  8
0
 10
12.0
 20
43.423999999999999
 30
0.0
 11
12.0
 21
44.0
 31
0.0
  0
LINE
  5
242
  8
0
 10
12.0
 20
43.423999999999999
 30
0.0
 11
12.0
 21
41.887999999999998
 31
0.0
  0
LINE
  5
243
  8
0
 10
267.0
 20
42.0
 30
0.0
 11
269.0
 21
42.0
 31
0.0
  0
LINE
  5
244
  8
0
 10
273.0
 20
14.0
 30
0.0
 11
273.0
 21
14.504
 31
0.0
  0
LINE
  5
245
  8
0
 10
273.0
 20
24.416
 30
0.0
 11
273.0
 21
21.05599999999999
 31
0.0
  0
LINE
  5
246
  8
0
 10
273.0
 20
24.416
 30
0.0
 11
273.0
 21
28.0
 31
0.0
  0
LINE
  5
247
  8
0
 10
273.0
 20
21.05599999999999
 30
0.0
 11
273.0
 21
18.088000000000001
 31
0.0
  0
LINE
  5
248
  8
0
 10
273.0
 20
21.05599999999999
 30
0.0
 11
273.0
 21
24.416
 31
0.0
  0
LINE
  5
249
  8
0
 10
273.0
 20
18.088000000000001
 30
0.0
 11
273.0
 21
15.84799999999999
 31
0.0
  0
LINE
  5
24A
  8
0
 10
273.0
 20
18.088000000000001
 30
0.0
 11
273.0
 21
21.05599999999999
 31
0.0
  0
LINE
  5
24B
  8
0
 10
273.0
 20
15.84799999999999
 30
0.0
 11
273.0
 21
14.504
 31
0.0
  0
LINE
  5
24C
  8
0
 10
273.0
 20
15.84799999999999
 30
0.0
 11
273.0
 21
18.088000000000001
 31
0.0
  0
LINE
  5
24D
  8
0
 10
273.0
 20
14.504
 30
0.0
 11
273.0
 21
14.0
 31
0.0
  0
LINE
  5
24E
  8
0
 10
273.0
 20
14.504
 30
0.0
 11
273.0
 21
15.84799999999999
 31
0.0
  0
LINE
  5
24F
  8
0
 10
273.0
 20
28.0
 30
0.0
 11
273.0
 21
31.584
 31
0.0
  0
LINE
  5
250
  8
0
 10
273.0
 20
28.0
 30
0.0
 11
273.0
 21
24.416
 31
0.0
  0
LINE
  5
251
  8
0
 10
273.0
 20
31.584
 30
0.0
 11
273.0
 21
34.944000000000003
 31
0.0
  0
LINE
  5
252
  8
0
 10
273.0
 20
31.584
 30
0.0
 11
273.0
 21
28.0
 31
0.0
  0
LINE
  5
253
  8
0
 10
273.0
 20
34.944000000000003
 30
0.0
 11
273.0
 21
37.911999999999992
 31
0.0
  0
LINE
  5
254
  8
0
 10
273.0
 20
34.944000000000003
 30
0.0
 11
273.0
 21
31.584
 31
0.0
  0
LINE
  5
255
  8
0
 10
273.0
 20
37.911999999999992
 30
0.0
 11
273.0
 21
40.152000000000001
 31
0.0
  0
LINE
  5
256
  8
0
 10
273.0
 20
37.911999999999992
 30
0.0
 11
273.0
 21
34.944000000000003
 31
0.0
  0
LINE
  5
257
  8
0
 10
273.0
 20
40.152000000000001
 30
0.0
 11
273.0
 21
41.496000000000002
 31
0.0
  0
LINE
  5
258
  8
0
 10
273.0
 20
40.152000000000001
 30
0.0
 11
273.0
 21
37.911999999999992
 31
0.0
  0
LINE
  5
259
  8
0
 10
273.0
 20
42.0
 30
0.0
 11
273.0
 21
41.496000000000002
 31
0.0
  0
LINE
  5
25A
  8
0
 10
273.0
 20
41.496000000000002
 30
0.0
 11
273.0
 21
42.0
 31
0.0
  0
LINE
  5
25B
  8
0
 10
273.0
 20
41.496000000000002
 30
0.0
 11
273.0
 21
40.152000000000001
 31
0.0
  0
LINE
  5
25C
  8
0
 10
271.0
 20
42.0
 30
0.0
 11
273.0
 21
42.0
 31
0.0
  0
LINE
  5
261
  8
0
 10
236.19999999999999
 20
41.308300000000003
 30
0.0
 11
238.0
 21
43.612799999999993
 31
0.0
  0
LINE
  5
262
  8
0
 10
236.19999999999999
 20
14.691700000000001
 30
0.0
 11
238.0
 21
12.3872
 31
0.0
  0
ENDSEC
  0
EOF
