  0
SECTION
  2
HEADER
  9
$ACADVER
  1
AC1009
  9
$INSBASE
 10
0.0
 20
0.0
 30
0.0
  9
$EXTMIN
 10
0.0
 20
0.0000000000000069
 30
0.0
  9
$EXTMAX
 10
120.0
 20
178.0
 30
0.0
  9
$LIMMIN
 10
0.0
 20
0.0
  9
$LIMMAX
 10
12.0
 20
9.0
  9
$ORTHOMODE
 70
     0
  9
$REGENMODE
 70
     1
  9
$FILLMODE
 70
     1
  9
$QTEXTMODE
 70
     0
  9
$MIRRTEXT
 70
     1
  9
$DRAGMODE
 70
     2
  9
$LTSCALE
 40
1.0
  9
$OSMODE
 70
    37
  9
$ATTMODE
 70
     1
  9
$TEXTSIZE
 40
0.2
  9
$TRACEWID
 40
0.05
  9
$TEXTSTYLE
  7
STANDARD
  9
$CLAYER
  8
0
  9
$CELTYPE
  6
CONTINUOUS
  9
$CECOLOR
 62
   256
  9
$DIMSCALE
 40
1.0
  9
$DIMASZ
 40
0.18
  9
$DIMEXO
 40
0.0625
  9
$DIMDLI
 40
0.38
  9
$DIMRND
 40
0.0
  9
$DIMDLE
 40
0.0
  9
$DIMEXE
 40
0.18
  9
$DIMTP
 40
0.0
  9
$DIMTM
 40
0.0
  9
$DIMTXT
 40
0.18
  9
$DIMCEN
 40
0.09
  9
$DIMTSZ
 40
0.0
  9
$DIMTOL
 70
     0
  9
$DIMLIM
 70
     0
  9
$DIMTIH
 70
     1
  9
$DIMTOH
 70
     1
  9
$DIMSE1
 70
     0
  9
$DIMSE2
 70
     0
  9
$DIMTAD
 70
     0
  9
$DIMZIN
 70
     0
  9
$DIMBLK
  1

  9
$DIMASO
 70
     1
  9
$DIMSHO
 70
     1
  9
$DIMPOST
  1

  9
$DIMAPOST
  1

  9
$DIMALT
 70
     0
  9
$DIMALTD
 70
     2
  9
$DIMALTF
 40
25.399999999999999
  9
$DIMLFAC
 40
1.0
  9
$DIMTOFL
 70
     0
  9
$DIMTVP
 40
0.0
  9
$DIMTIX
 70
     0
  9
$DIMSOXD
 70
     0
  9
$DIMSAH
 70
     0
  9
$DIMBLK1
  1

  9
$DIMBLK2
  1

  9
$DIMSTYLE
  2
STANDARD
  9
$DIMCLRD
 70
     0
  9
$DIMCLRE
 70
     0
  9
$DIMCLRT
 70
     0
  9
$DIMTFAC
 40
1.0
  9
$DIMGAP
 40
0.09
  9
$LUNITS
 70
     2
  9
$LUPREC
 70
     4
  9
$SKETCHINC
 40
0.1
  9
$FILLETRAD
 40
0.0
  9
$AUNITS
 70
     0
  9
$AUPREC
 70
     0
  9
$MENU
  1
.
  9
$ELEVATION
 40
0.0
  9
$PELEVATION
 40
0.0
  9
$THICKNESS
 40
0.0
  9
$LIMCHECK
 70
     0
  9
$BLIPMODE
 70
     0
  9
$CHAMFERA
 40
0.0
  9
$CHAMFERB
 40
0.0
  9
$SKPOLY
 70
     0
  9
$TDCREATE
 40
2454674.6205975111
  9
$TDUPDATE
 40
2454674.6236384138
  9
$TDINDWG
 40
0.0030409028
  9
$TDUSRTIMER
 40
0.0030409028
  9
$USRTIMER
 70
     1
  9
$ANGBASE
 50
0.0
  9
$ANGDIR
 70
     0
  9
$PDMODE
 70
     0
  9
$PDSIZE
 40
0.0
  9
$PLINEWID
 40
0.0
  9
$COORDS
 70
     1
  9
$SPLFRAME
 70
     0
  9
$SPLINETYPE
 70
     6
  9
$SPLINESEGS
 70
     8
  9
$ATTDIA
 70
     0
  9
$ATTREQ
 70
     1
  9
$HANDLING
 70
 22529
  9
$HANDSEED
  5
24A
  9
$SURFTAB1
 70
     6
  9
$SURFTAB2
 70
     6
  9
$SURFTYPE
 70
     6
  9
$SURFU
 70
     6
  9
$SURFV
 70
     6
  9
$UCSNAME
  2

  9
$UCSORG
 10
0.0
 20
0.0
 30
0.0
  9
$UCSXDIR
 10
1.0
 20
0.0
 30
0.0
  9
$UCSYDIR
 10
0.0
 20
1.0
 30
0.0
  9
$PUCSNAME
  2

  9
$PUCSORG
 10
0.0
 20
0.0
 30
0.0
  9
$PUCSXDIR
 10
1.0
 20
0.0
 30
0.0
  9
$PUCSYDIR
 10
0.0
 20
1.0
 30
0.0
  9
$USERI1
 70
     0
  9
$USERI2
 70
     0
  9
$USERI3
 70
     0
  9
$USERI4
 70
     0
  9
$USERI5
 70
     0
  9
$USERR1
 40
0.0
  9
$USERR2
 40
0.0
  9
$USERR3
 40
0.0
  9
$USERR4
 40
0.0
  9
$USERR5
 40
0.0
  9
$WORLDVIEW
 70
     1
  9
$SHADEDGE
 70
     3
  9
$SHADEDIF
 70
    70
  9
$TILEMODE
 70
     1
  9
$MAXACTVP
 70
    64
  9
$PLIMCHECK
 70
     0
  9
$PEXTMIN
 10
1.0000000000000000E+020
 20
1.0000000000000000E+020
 30
1.0000000000000000E+020
  9
$PEXTMAX
 10
-1.0000000000000000E+020
 20
-1.0000000000000000E+020
 30
-1.0000000000000000E+020
  9
$PLIMMIN
 10
0.0
 20
0.0
  9
$PLIMMAX
 10
12.0
 20
9.0
  9
$UNITMODE
 70
     0
  9
$VISRETAIN
 70
     1
  9
$PLINEGEN
 70
     0
  9
$PSLTSCALE
 70
     1
  0
ENDSEC
  0
SECTION
  2
TABLES
  0
TABLE
  2
VPORT
 70
     3
  0
VPORT
  2
*ACTIVE
 70
     0
 10
0.0
 20
0.0
 11
1.0
 21
1.0
 12
60.0
 22
89.0
 13
0.0
 23
0.0
 14
1.0
 24
1.0
 15
0.0
 25
0.0
 16
0.0
 26
0.0
 36
1.0
 17
0.0
 27
0.0
 37
0.0
 40
179.3657289002557
 41
2.0435339308578739
 42
50.0
 43
0.0
 44
0.0
 50
0.0
 51
0.0
 71
     0
 72
   100
 73
     1
 74
     3
 75
     0
 76
     0
 77
     0
 78
     0
  0
ENDTAB
  0
TABLE
  2
LTYPE
 70
     1
  0
LTYPE
  2
CONTINUOUS
 70
     0
  3
Solid line
 72
    65
 73
     0
 40
0.0
  0
ENDTAB
  0
TABLE
  2
LAYER
 70
     1
  0
LAYER
  2
0
 70
     0
 62
     7
  6
CONTINUOUS
  0
ENDTAB
  0
TABLE
  2
STYLE
 70
     1
  0
STYLE
  2
STANDARD
 70
     0
 40
0.0
 41
1.0
 50
0.0
 71
     0
 42
0.2
  3
txt
  4

  0
ENDTAB
  0
TABLE
  2
VIEW
 70
     0
  0
ENDTAB
  0
TABLE
  2
UCS
 70
     0
  0
ENDTAB
  0
TABLE
  2
APPID
 70
     1
  0
APPID
  2
ACAD
 70
     0
  0
ENDTAB
  0
TABLE
  2
DIMSTYLE
 70
     1
  0
DIMSTYLE
  2
STANDARD
 70
     0
  3

  4

  5

  6

  7

 40
1.0
 41
0.18
 42
0.0625
 43
0.38
 44
0.18
 45
0.0
 46
0.0
 47
0.0
 48
0.0
140
0.18
141
0.09
142
0.0
143
25.399999999999999
144
1.0
145
0.0
146
1.0
147
0.09
 71
     0
 72
     0
 73
     1
 74
     1
 75
     0
 76
     0
 77
     0
 78
     0
170
     0
171
     2
172
     0
173
     0
174
     0
175
     0
176
     0
177
     0
178
     0
  0
ENDTAB
  0
ENDSEC
  0
SECTION
  2
BLOCKS
  0
BLOCK
  8
0
  2
$MODEL_SPACE
 70
     0
 10
0.0
 20
0.0
 30
0.0
  3
$MODEL_SPACE
  1

  0
ENDBLK
  5
20
  8
0
  0
BLOCK
 67
     1
  8
0
  2
$PAPER_SPACE
 70
     0
 10
0.0
 20
0.0
 30
0.0
  3
$PAPER_SPACE
  1

  0
ENDBLK
  5
1C
 67
     1
  8
0
  0
ENDSEC
  0
SECTION
  2
ENTITIES
  0
LINE
  5
22
  8
0
 10
0.0
 20
79.0
 30
0.0
 11
0.0
 21
1.0000000000000091
 31
0.0
  0
LINE
  5
23
  8
0
 10
0.0
 20
79.0
 30
0.0
 11
0.3
 21
79.700000000000003
 31
0.0
  0
LINE
  5
24
  8
0
 10
0.0
 20
1.0000000000000091
 30
0.0
 11
0.0
 21
79.0
 31
0.0
  0
LINE
  5
25
  8
0
 10
0.0
 20
1.0000000000000091
 30
0.0
 11
0.3
 21
0.300000000000007
 31
0.0
  0
LINE
  5
26
  8
0
 10
0.0
 20
1.0000000000000091
 30
0.0
 11
0.3
 21
0.300000000000007
 31
0.0
  0
LINE
  5
27
  8
0
 10
0.0
 20
81.0
 30
0.0
 11
0.0
 21
100.0
 31
0.0
  0
LINE
  5
28
  8
0
 10
0.3
 20
79.700000000000003
 30
0.0
 11
1.0
 21
80.0
 31
0.0
  0
LINE
  5
29
  8
0
 10
0.3
 20
0.300000000000007
 30
0.0
 11
1.0
 21
0.0000000000000069
 31
0.0
  0
LINE
  5
2A
  8
0
 10
0.3
 20
79.700000000000003
 30
0.0
 11
0.5
 21
79.700000000000003
 31
0.0
  0
LINE
  5
2B
  8
0
 10
0.3
 20
79.700000000000003
 30
0.0
 11
1.0
 21
80.0
 31
0.0
  0
LINE
  5
2C
  8
0
 10
0.3
 20
79.0
 30
0.0
 11
0.3
 21
1.0000000000000091
 31
0.0
  0
LINE
  5
2D
  8
0
 10
0.3
 20
79.0
 30
0.0
 11
0.5
 21
79.700000000000003
 31
0.0
  0
LINE
  5
2E
  8
0
 10
0.3
 20
1.0000000000000091
 30
0.0
 11
0.5
 21
0.300000000000008
 31
0.0
  0
LINE
  5
2F
  8
0
 10
0.3
 20
1.0000000000000091
 30
0.0
 11
0.5
 21
0.300000000000007
 31
0.0
  0
LINE
  5
30
  8
0
 10
0.3
 20
1.0000000000000091
 30
0.0
 11
0.3
 21
79.0
 31
0.0
  0
LINE
  5
31
  8
0
 10
0.3
 20
0.300000000000008
 30
0.0
 11
0.5
 21
0.300000000000008
 31
0.0
  0
LINE
  5
32
  8
0
 10
0.3
 20
0.300000000000007
 30
0.0
 11
1.0
 21
0.0000000000000069
 31
0.0
  0
LINE
  5
33
  8
0
 10
0.3
 20
80.299999999999983
 30
0.0
 11
1.0
 21
80.0
 31
0.0
  0
LINE
  5
34
  8
0
 10
0.3
 20
80.299999999999983
 30
0.0
 11
1.0
 21
80.0
 31
0.0
  0
LINE
  5
35
  8
0
 10
0.0
 20
81.0
 30
0.0
 11
0.3
 21
80.299999999999983
 31
0.0
  0
LINE
  5
36
  8
0
 10
0.0
 20
100.0
 30
0.0
 11
0.3
 21
100.7
 31
0.0
  0
LINE
  5
37
  8
0
 10
0.0
 20
100.0
 30
0.0
 11
0.0
 21
81.0
 31
0.0
  0
LINE
  5
38
  8
0
 10
0.3
 20
80.299999999999983
 30
0.0
 11
0.5
 21
80.5
 31
0.0
  0
LINE
  5
39
  8
0
 10
0.3
 20
100.7
 30
0.0
 11
0.5
 21
100.5
 31
0.0
  0
LINE
  5
3A
  8
0
 10
0.3
 20
100.7
 30
0.0
 11
1.0
 21
101.0
 31
0.0
  0
LINE
  5
3B
  8
0
 10
0.3
 20
100.7
 30
0.0
 11
1.0
 21
101.0
 31
0.0
  0
LINE
  5
3C
  8
0
 10
0.3
 20
100.0
 30
0.0
 11
0.5
 21
100.5
 31
0.0
  0
LINE
  5
3D
  8
0
 10
0.3
 20
100.0
 30
0.0
 11
0.3
 21
81.0
 31
0.0
  0
LINE
  5
3E
  8
0
 10
0.999999999999996
 20
0.0000000000000069
 30
0.0
 11
119.0
 21
0.0000000000000069
 31
0.0
  0
LINE
  5
3F
  8
0
 10
0.5
 20
0.300000000000008
 30
0.0
 11
1.0
 21
0.300000000000008
 31
0.0
  0
LINE
  5
40
  8
0
 10
0.999999999999996
 20
80.0
 30
0.0
 11
119.0
 21
80.0
 31
0.0
  0
LINE
  5
41
  8
0
 10
0.5
 20
79.700000000000003
 30
0.0
 11
1.0
 21
79.700000000000003
 31
0.0
  0
LINE
  5
42
  8
0
 10
0.999999999999996
 20
79.700000000000003
 30
0.0
 11
119.0
 21
79.700000000000003
 31
0.0
  0
LINE
  5
43
  8
0
 10
0.999999999999996
 20
0.300000000000008
 30
0.0
 11
119.0
 21
0.300000000000008
 31
0.0
  0
LINE
  5
44
  8
0
 10
1.0
 20
80.0
 30
0.0
 11
119.0
 21
80.0
 31
0.0
  0
LINE
  5
45
  8
0
 10
1.0
 20
79.700000000000003
 30
0.0
 11
119.0
 21
79.700000000000003
 31
0.0
  0
LINE
  5
46
  8
0
 10
1.0
 20
0.300000000000008
 30
0.0
 11
119.0
 21
0.300000000000008
 31
0.0
  0
LINE
  5
47
  8
0
 10
1.0
 20
0.0000000000000075
 30
0.0
 11
119.0
 21
0.0000000000000075
 31
0.0
  0
LINE
  5
48
  8
0
 10
1.0
 20
0.0000000000000069
 30
0.0
 11
119.0
 21
0.0000000000000069
 31
0.0
  0
LINE
  5
49
  8
0
 10
0.999999999999996
 20
80.299999999999983
 30
0.0
 11
119.0
 21
80.299999999999983
 31
0.0
  0
LINE
  5
4A
  8
0
 10
119.0
 20
79.700000000000003
 30
0.0
 11
119.5
 21
79.700000000000003
 31
0.0
  0
LINE
  5
4B
  8
0
 10
119.0
 20
0.300000000000008
 30
0.0
 11
119.5
 21
0.300000000000008
 31
0.0
  0
LINE
  5
4C
  8
0
 10
119.5
 20
79.700000000000003
 30
0.0
 11
119.7
 21
79.700000000000003
 31
0.0
  0
LINE
  5
4D
  8
0
 10
119.5
 20
79.700000000000003
 30
0.0
 11
119.7
 21
79.0
 31
0.0
  0
LINE
  5
4E
  8
0
 10
119.5
 20
0.300000000000007
 30
0.0
 11
119.7
 21
1.0000000000000091
 31
0.0
  0
LINE
  5
4F
  8
0
 10
119.7
 20
0.300000000000007
 30
0.0
 11
120.0
 21
1.0000000000000091
 31
0.0
  0
LINE
  5
50
  8
0
 10
119.7
 20
79.700000000000003
 30
0.0
 11
120.0
 21
79.0
 31
0.0
  0
LINE
  5
51
  8
0
 10
119.7
 20
1.0000000000000091
 30
0.0
 11
119.7
 21
79.0
 31
0.0
  0
LINE
  5
52
  8
0
 10
119.7
 20
79.0
 30
0.0
 11
119.7
 21
1.0000000000000091
 31
0.0
  0
LINE
  5
53
  8
0
 10
120.0
 20
1.0000000000000091
 30
0.0
 11
120.0
 21
79.0
 31
0.0
  0
LINE
  5
54
  8
0
 10
120.0
 20
79.0
 30
0.0
 11
120.0
 21
1.0000000000000091
 31
0.0
  0
LINE
  5
55
  8
0
 10
119.7
 20
0.300000000000007
 30
0.0
 11
120.0
 21
1.0000000000000091
 31
0.0
  0
LINE
  5
56
  8
0
 10
119.5
 20
0.300000000000008
 30
0.0
 11
119.7
 21
0.300000000000008
 31
0.0
  0
LINE
  5
57
  8
0
 10
119.5
 20
0.300000000000008
 30
0.0
 11
119.7
 21
1.0000000000000091
 31
0.0
  0
LINE
  5
58
  8
0
 10
119.7
 20
80.299999999999983
 30
0.0
 11
120.0
 21
81.0
 31
0.0
  0
LINE
  5
59
  8
0
 10
119.0
 20
80.0
 30
0.0
 11
119.7
 21
80.299999999999983
 31
0.0
  0
LINE
  5
5A
  8
0
 10
119.0
 20
80.0
 30
0.0
 11
119.7
 21
79.700000000000003
 31
0.0
  0
LINE
  5
5B
  8
0
 10
119.5
 20
80.5
 30
0.0
 11
119.7
 21
81.0
 31
0.0
  0
LINE
  5
5C
  8
0
 10
119.5
 20
80.5
 30
0.0
 11
119.7
 21
80.299999999999983
 31
0.0
  0
LINE
  5
5D
  8
0
 10
119.0
 20
80.299999999999983
 30
0.0
 11
119.5
 21
80.5
 31
0.0
  0
LINE
  5
5E
  8
0
 10
1.0
 20
80.299999999999983
 30
0.0
 11
119.0
 21
80.299999999999983
 31
0.0
  0
LINE
  5
5F
  8
0
 10
119.7
 20
100.0
 30
0.0
 11
119.7
 21
81.0
 31
0.0
  0
LINE
  5
60
  8
0
 10
0.5
 20
100.5
 30
0.0
 11
1.0
 21
100.7
 31
0.0
  0
LINE
  5
61
  8
0
 10
0.3
 20
100.7
 30
0.0
 11
0.5
 21
100.5
 31
0.0
  0
LINE
  5
62
  8
0
 10
1.0
 20
100.7
 30
0.0
 11
119.0
 21
100.7
 31
0.0
  0
LINE
  5
63
  8
0
 10
1.0
 20
101.0
 30
0.0
 11
119.0
 21
101.0
 31
0.0
  0
LINE
  5
64
  8
0
 10
26.0
 20
142.0
 30
0.0
 11
43.0
 21
142.0
 31
0.0
  0
LINE
  5
65
  8
0
 10
26.0
 20
142.0
 30
0.0
 11
26.0
 21
142.61199999999999
 31
0.0
  0
LINE
  5
66
  8
0
 10
26.0
 20
142.61199999999999
 30
0.0
 11
26.0
 21
142.0
 31
0.0
  0
LINE
  5
67
  8
0
 10
26.0
 20
142.61199999999999
 30
0.0
 11
26.0
 21
144.24399999999989
 31
0.0
  0
LINE
  5
68
  8
0
 10
26.0
 20
144.4285999999999
 30
0.0
 11
26.0
 21
144.95310000000001
 31
0.0
  0
LINE
  5
69
  8
0
 10
26.0
 20
144.95310000000001
 30
0.0
 11
26.0
 21
146.352
 31
0.0
  0
LINE
  5
6A
  8
0
 10
26.0
 20
144.95310000000001
 30
0.0
 11
26.0
 21
144.4285999999999
 31
0.0
  0
LINE
  5
6B
  8
0
 10
26.0
 20
146.352
 30
0.0
 11
26.0
 21
148.68339999999989
 31
0.0
  0
LINE
  5
6C
  8
0
 10
26.0
 20
146.352
 30
0.0
 11
26.0
 21
144.95310000000001
 31
0.0
  0
LINE
  5
6D
  8
0
 10
26.0
 20
148.68339999999989
 30
0.0
 11
26.0
 21
151.77260000000001
 31
0.0
  0
LINE
  5
6E
  8
0
 10
26.0
 20
148.68339999999989
 30
0.0
 11
26.0
 21
146.352
 31
0.0
  0
LINE
  5
6F
  8
0
 10
26.0
 20
144.24399999999989
 30
0.0
 11
26.0
 21
142.61199999999999
 31
0.0
  0
LINE
  5
70
  8
0
 10
26.0
 20
144.24399999999989
 30
0.0
 11
26.0
 21
146.964
 31
0.0
  0
LINE
  5
71
  8
0
 10
26.0
 20
146.964
 30
0.0
 11
26.0
 21
144.24399999999989
 31
0.0
  0
LINE
  5
72
  8
0
 10
26.0
 20
146.964
 30
0.0
 11
26.0
 21
150.5679999999999
 31
0.0
  0
LINE
  5
73
  8
0
 10
26.0
 20
151.77260000000001
 30
0.0
 11
26.0
 21
155.2697
 31
0.0
  0
LINE
  5
74
  8
0
 10
26.0
 20
151.77260000000001
 30
0.0
 11
26.0
 21
148.68339999999989
 31
0.0
  0
LINE
  5
75
  8
0
 10
26.0
 20
155.2697
 30
0.0
 11
26.0
 21
159.0
 31
0.0
  0
LINE
  5
76
  8
0
 10
26.0
 20
155.2697
 30
0.0
 11
26.0
 21
151.77260000000001
 31
0.0
  0
LINE
  5
77
  8
0
 10
26.0
 20
150.5679999999999
 30
0.0
 11
26.0
 21
146.964
 31
0.0
  0
LINE
  5
78
  8
0
 10
26.0
 20
150.5679999999999
 30
0.0
 11
26.0
 21
154.648
 31
0.0
  0
LINE
  5
79
  8
0
 10
43.0
 20
124.0
 30
0.0
 11
43.611999999999988
 21
124.0
 31
0.0
  0
LINE
  5
7A
  8
0
 10
43.0
 20
124.0
 30
0.0
 11
43.0
 21
142.0
 31
0.0
  0
LINE
  5
7B
  8
0
 10
44.576000000000001
 20
124.0
 30
0.0
 11
46.111999999999988
 21
124.0
 31
0.0
  0
LINE
  5
7C
  8
0
 10
44.0
 20
124.0
 30
0.0
 11
44.576000000000001
 21
124.0
 31
0.0
  0
LINE
  5
7D
  8
0
 10
46.111999999999988
 20
124.0
 30
0.0
 11
48.671999999999997
 21
124.0
 31
0.0
  0
LINE
  5
7E
  8
0
 10
45.428600000000003
 20
124.0
 30
0.0
 11
45.953099999999999
 21
124.0
 31
0.0
  0
LINE
  5
7F
  8
0
 10
45.953099999999999
 20
124.0
 30
0.0
 11
47.35199999999999
 21
124.0
 31
0.0
  0
LINE
  5
80
  8
0
 10
43.611999999999988
 20
124.0
 30
0.0
 11
45.243999999999993
 21
124.0
 31
0.0
  0
LINE
  5
81
  8
0
 10
39.0
 20
156.0
 30
0.0
 11
40.536000000000001
 21
156.0
 31
0.0
  0
LINE
  5
82
  8
0
 10
40.536000000000001
 20
156.0
 30
0.0
 11
41.975999999999999
 21
156.0
 31
0.0
  0
LINE
  5
83
  8
0
 10
41.975999999999999
 20
156.0
 30
0.0
 11
43.396599999999999
 21
156.0
 31
0.0
  0
LINE
  5
84
  8
0
 10
37.463999999999992
 20
156.0
 30
0.0
 11
39.0
 21
156.0
 31
0.0
  0
LINE
  5
85
  8
0
 10
36.024000000000001
 20
156.0
 30
0.0
 11
45.5625
 21
156.0
 31
0.0
  0
LINE
  5
86
  8
0
 10
36.024000000000001
 20
156.0
 30
0.0
 11
37.463999999999992
 21
156.0
 31
0.0
  0
LINE
  5
87
  8
0
 10
34.751999999999988
 20
156.0
 30
0.0
 11
36.024000000000001
 21
156.0
 31
0.0
  0
LINE
  5
88
  8
0
 10
33.792000000000002
 20
156.0
 30
0.0
 11
34.751999999999988
 21
156.0
 31
0.0
  0
LINE
  5
89
  8
0
 10
33.216000000000001
 20
156.0
 30
0.0
 11
33.792000000000002
 21
156.0
 31
0.0
  0
LINE
  5
8A
  8
0
 10
33.0
 20
156.0
 30
0.0
 11
33.216000000000001
 21
156.0
 31
0.0
  0
LINE
  5
8B
  8
0
 10
33.0
 20
156.0
 30
0.0
 11
33.0
 21
166.0
 31
0.0
  0
LINE
  5
8C
  8
0
 10
45.575999999999993
 20
155.90399999999991
 30
0.0
 11
47.111999999999988
 21
152.06399999999999
 31
0.0
  0
LINE
  5
8D
  8
0
 10
43.396599999999999
 20
156.0
 30
0.0
 11
45.0
 21
156.0
 31
0.0
  0
LINE
  5
8E
  8
0
 10
46.539999999999992
 20
156.16
 30
0.0
 11
47.979999999999997
 21
152.56
 31
0.0
  0
LINE
  5
8F
  8
0
 10
45.0
 20
156.0
 30
0.0
 11
45.5625
 21
156.0
 31
0.0
  0
LINE
  5
90
  8
0
 10
43.0
 20
142.0
 30
0.0
 11
43.0
 21
124.0
 31
0.0
  0
LINE
  5
91
  8
0
 10
45.243999999999993
 20
124.0
 30
0.0
 11
47.963999999999999
 21
124.0
 31
0.0
  0
LINE
  5
92
  8
0
 10
26.0
 20
154.648
 30
0.0
 11
26.0
 21
150.5679999999999
 31
0.0
  0
LINE
  5
93
  8
0
 10
26.0
 20
154.648
 30
0.0
 11
26.0
 21
159.0
 31
0.0
  0
LINE
  5
94
  8
0
 10
26.0
 20
166.22739999999999
 30
0.0
 11
26.0
 21
162.73029999999989
 31
0.0
  0
LINE
  5
95
  8
0
 10
26.0
 20
166.22739999999999
 30
0.0
 11
26.0
 21
169.0
 31
0.0
  0
LINE
  5
96
  8
0
 10
26.0
 20
162.73029999999989
 30
0.0
 11
26.0
 21
159.0
 31
0.0
  0
LINE
  5
97
  8
0
 10
26.0
 20
162.73029999999989
 30
0.0
 11
26.0
 21
166.22739999999999
 31
0.0
  0
LINE
  5
98
  8
0
 10
22.0
 20
171.0
 30
0.0
 11
22.0
 21
169.28849999999991
 31
0.0
  0
LINE
  5
99
  8
0
 10
22.0
 20
171.0
 30
0.0
 11
22.247060000000001
 21
171.0
 31
0.0
  0
LINE
  5
9A
  8
0
 10
22.308820000000001
 20
169.0
 30
0.0
 11
22.555879999999991
 21
169.0
 31
0.0
  0
LINE
  5
9B
  8
0
 10
23.21471
 20
169.0
 30
0.0
 11
24.264710000000001
 21
169.0
 31
0.0
  0
LINE
  5
9C
  8
0
 10
22.555879999999991
 20
169.0
 30
0.0
 11
23.21471
 21
169.0
 31
0.0
  0
LINE
  5
9D
  8
0
 10
24.264710000000001
 20
169.0
 30
0.0
 11
25.664709999999989
 21
169.0
 31
0.0
  0
LINE
  5
9E
  8
0
 10
25.664709999999989
 20
169.0
 30
0.0
 11
26.0
 21
169.0
 31
0.0
  0
LINE
  5
9F
  8
0
 10
24.264710000000001
 20
169.0
 30
0.0
 11
25.664709999999989
 21
169.0
 31
0.0
  0
LINE
  5
A0
  8
0
 10
25.664709999999989
 20
169.0
 30
0.0
 11
27.270589999999999
 21
169.0
 31
0.0
  0
LINE
  5
A1
  8
0
 10
23.21471
 20
169.0
 30
0.0
 11
24.264710000000001
 21
169.0
 31
0.0
  0
LINE
  5
A2
  8
0
 10
23.029409999999999
 20
169.09620000000001
 30
0.0
 11
24.12059
 21
169.09620000000001
 31
0.0
  0
LINE
  5
A3
  8
0
 10
22.350000000000001
 20
169.09620000000001
 30
0.0
 11
23.029409999999999
 21
169.09620000000001
 31
0.0
  0
LINE
  5
A4
  8
0
 10
24.12059
 20
169.09620000000001
 30
0.0
 11
25.56176
 21
169.09620000000001
 31
0.0
  0
LINE
  5
A5
  8
0
 10
25.56176
 20
169.09620000000001
 30
0.0
 11
27.229410000000001
 21
169.09620000000001
 31
0.0
  0
LINE
  5
A6
  8
0
 10
22.555879999999991
 20
169.0
 30
0.0
 11
23.21471
 21
169.0
 31
0.0
  0
LINE
  5
A7
  8
0
 10
22.308820000000001
 20
169.0
 30
0.0
 11
22.555879999999991
 21
169.0
 31
0.0
  0
LINE
  5
A8
  8
0
 10
22.94706
 20
171.0
 30
0.0
 11
24.058820000000001
 21
171.0
 31
0.0
  0
LINE
  5
A9
  8
0
 10
22.247060000000001
 20
171.0
 30
0.0
 11
22.94706
 21
171.0
 31
0.0
  0
LINE
  5
AA
  8
0
 10
24.058820000000001
 20
171.0
 30
0.0
 11
25.520589999999991
 21
171.0
 31
0.0
  0
LINE
  5
AB
  8
0
 10
25.520589999999991
 20
171.0
 30
0.0
 11
27.208819999999999
 21
171.0
 31
0.0
  0
LINE
  5
AC
  8
0
 10
22.10294
 20
169.09620000000001
 30
0.0
 11
22.308820000000001
 21
169.0
 31
0.0
  0
LINE
  5
AD
  8
0
 10
22.10294
 20
169.09620000000001
 30
0.0
 11
22.350000000000001
 21
169.09620000000001
 31
0.0
  0
LINE
  5
AE
  8
0
 10
22.10294
 20
169.09620000000001
 30
0.0
 11
22.308820000000001
 21
169.0
 31
0.0
  0
LINE
  5
AF
  8
0
 10
22.0
 20
169.28849999999991
 30
0.0
 11
22.0
 21
171.0
 31
0.0
  0
LINE
  5
B0
  8
0
 10
22.0
 20
169.28849999999991
 30
0.0
 11
22.10294
 21
169.09620000000001
 31
0.0
  0
LINE
  5
B1
  8
0
 10
24.039999999999988
 20
171.0
 30
0.0
 11
26.440000000000001
 21
171.0
 31
0.0
  0
LINE
  5
B2
  8
0
 10
21.920000000000002
 20
171.0
 30
0.0
 11
22.0
 21
171.0
 31
0.0
  0
LINE
  5
B3
  8
0
 10
21.920000000000002
 20
171.0
 30
0.0
 11
24.039999999999988
 21
171.0
 31
0.0
  0
LINE
  5
B4
  8
0
 10
20.32
 20
171.0
 30
0.0
 11
21.920000000000002
 21
171.0
 31
0.0
  0
LINE
  5
B5
  8
0
 10
19.359999999999989
 20
171.0
 30
0.0
 11
20.32
 21
171.0
 31
0.0
  0
LINE
  5
B6
  8
0
 10
19.359999999999989
 20
171.0
 30
0.0
 11
22.0
 21
171.0
 31
0.0
  0
LINE
  5
B7
  8
0
 10
19.0
 20
176.0
 30
0.0
 11
19.0
 21
171.0
 31
0.0
  0
LINE
  5
B8
  8
0
 10
22.0
 20
176.0
 30
0.0
 11
22.0
 21
177.7115
 31
0.0
  0
LINE
  5
B9
  8
0
 10
24.039999999999988
 20
176.0
 30
0.0
 11
26.440000000000001
 21
176.0
 31
0.0
  0
LINE
  5
BA
  8
0
 10
21.920000000000002
 20
176.0
 30
0.0
 11
24.039999999999988
 21
176.0
 31
0.0
  0
LINE
  5
BB
  8
0
 10
20.32
 20
176.0
 30
0.0
 11
21.920000000000002
 21
176.0
 31
0.0
  0
LINE
  5
BC
  8
0
 10
23.029409999999999
 20
177.9037999999999
 30
0.0
 11
24.12059
 21
177.9037999999999
 31
0.0
  0
LINE
  5
BD
  8
0
 10
22.350000000000001
 20
177.9037999999999
 30
0.0
 11
23.029409999999999
 21
177.9037999999999
 31
0.0
  0
LINE
  5
BE
  8
0
 10
24.12059
 20
177.9037999999999
 30
0.0
 11
25.56176
 21
177.9037999999999
 31
0.0
  0
LINE
  5
BF
  8
0
 10
25.56176
 20
177.9037999999999
 30
0.0
 11
27.229410000000001
 21
177.9037999999999
 31
0.0
  0
LINE
  5
C0
  8
0
 10
23.21471
 20
178.0
 30
0.0
 11
24.264710000000001
 21
178.0
 31
0.0
  0
LINE
  5
C1
  8
0
 10
22.555879999999991
 20
178.0
 30
0.0
 11
23.21471
 21
178.0
 31
0.0
  0
LINE
  5
C2
  8
0
 10
22.308820000000001
 20
178.0
 30
0.0
 11
22.555879999999991
 21
178.0
 31
0.0
  0
LINE
  5
C3
  8
0
 10
24.264710000000001
 20
178.0
 30
0.0
 11
25.664709999999989
 21
178.0
 31
0.0
  0
LINE
  5
C4
  8
0
 10
25.664709999999989
 20
178.0
 30
0.0
 11
27.270589999999999
 21
178.0
 31
0.0
  0
LINE
  5
C5
  8
0
 10
22.10294
 20
177.9037999999999
 30
0.0
 11
22.308820000000001
 21
178.0
 31
0.0
  0
LINE
  5
C6
  8
0
 10
22.10294
 20
177.9037999999999
 30
0.0
 11
22.350000000000001
 21
177.9037999999999
 31
0.0
  0
LINE
  5
C7
  8
0
 10
22.0
 20
177.7115
 30
0.0
 11
22.0
 21
176.0
 31
0.0
  0
LINE
  5
C8
  8
0
 10
22.0
 20
177.7115
 30
0.0
 11
22.10294
 21
177.9037999999999
 31
0.0
  0
LINE
  5
C9
  8
0
 10
19.359999999999989
 20
176.0
 30
0.0
 11
20.32
 21
176.0
 31
0.0
  0
LINE
  5
CA
  8
0
 10
19.0
 20
176.0
 30
0.0
 11
19.359999999999989
 21
176.0
 31
0.0
  0
LINE
  5
CB
  8
0
 10
19.0
 20
176.0
 30
0.0
 11
19.0
 21
171.0
 31
0.0
  0
LINE
  5
CC
  8
0
 10
19.0
 20
171.0
 30
0.0
 11
19.359999999999989
 21
171.0
 31
0.0
  0
LINE
  5
CD
  8
0
 10
19.0
 20
171.0
 30
0.0
 11
19.0
 21
176.0
 31
0.0
  0
LINE
  5
CE
  8
0
 10
19.0
 20
171.0
 30
0.0
 11
19.0
 21
176.0
 31
0.0
  0
LINE
  5
CF
  8
0
 10
26.0
 20
169.0
 30
0.0
 11
26.0
 21
166.22739999999999
 31
0.0
  0
LINE
  5
D0
  8
0
 10
26.0
 20
169.0
 30
0.0
 11
26.0
 21
167.43199999999999
 31
0.0
  0
LINE
  5
D1
  8
0
 10
26.0
 20
169.0
 30
0.0
 11
26.0
 21
159.0
 31
0.0
  0
LINE
  5
D2
  8
0
 10
26.0
 20
167.43199999999999
 30
0.0
 11
26.0
 21
169.0
 31
0.0
  0
LINE
  5
D3
  8
0
 10
26.0
 20
167.43199999999999
 30
0.0
 11
26.0
 21
163.352
 31
0.0
  0
LINE
  5
D4
  8
0
 10
27.229410000000001
 20
169.09620000000001
 30
0.0
 11
29.0
 21
169.09620000000001
 31
0.0
  0
LINE
  5
D5
  8
0
 10
27.208819999999999
 20
171.0
 30
0.0
 11
29.0
 21
171.0
 31
0.0
  0
LINE
  5
D6
  8
0
 10
29.0
 20
169.09620000000001
 30
0.0
 11
30.770600000000002
 21
169.09620000000001
 31
0.0
  0
LINE
  5
D7
  8
0
 10
29.0
 20
169.0
 30
0.0
 11
30.729399999999998
 21
169.0
 31
0.0
  0
LINE
  5
D8
  8
0
 10
27.270589999999999
 20
169.0
 30
0.0
 11
29.0
 21
169.0
 31
0.0
  0
LINE
  5
D9
  8
0
 10
29.0
 20
171.0
 30
0.0
 11
49.424452830188699
 21
171.0
 31
0.0
  0
LINE
  5
DA
  8
0
 10
29.0
 20
171.0
 30
0.0
 11
30.7912
 21
171.0
 31
0.0
  0
LINE
  5
DB
  8
0
 10
39.0
 20
166.0
 30
0.0
 11
40.536000000000001
 21
166.0
 31
0.0
  0
LINE
  5
DC
  8
0
 10
40.536000000000001
 20
166.0
 30
0.0
 11
41.975999999999999
 21
166.0
 31
0.0
  0
LINE
  5
DD
  8
0
 10
46.0
 20
160.0
 30
0.0
 11
46.539999999999992
 21
156.16
 31
0.0
  0
LINE
  5
DE
  8
0
 10
46.0
 20
160.0
 30
0.0
 11
46.539999999999992
 21
163.84
 31
0.0
  0
LINE
  5
DF
  8
0
 10
45.575999999999993
 20
164.09599999999989
 30
0.0
 11
47.111999999999988
 21
167.93599999999989
 31
0.0
  0
LINE
  5
E0
  8
0
 10
45.0
 20
160.0
 30
0.0
 11
45.575999999999993
 21
155.90399999999991
 31
0.0
  0
LINE
  5
E1
  8
0
 10
45.0
 20
160.0
 30
0.0
 11
45.575999999999993
 21
164.09599999999989
 31
0.0
  0
LINE
  5
E2
  8
0
 10
41.975999999999999
 20
166.0
 30
0.0
 11
43.331200000000003
 21
166.0
 31
0.0
  0
LINE
  5
E3
  8
0
 10
43.331200000000003
 20
166.0
 30
0.0
 11
45.0
 21
166.0
 31
0.0
  0
LINE
  5
E4
  8
0
 10
37.463999999999992
 20
166.0
 30
0.0
 11
39.0
 21
166.0
 31
0.0
  0
LINE
  5
E5
  8
0
 10
36.024000000000001
 20
166.0
 30
0.0
 11
37.463999999999992
 21
166.0
 31
0.0
  0
LINE
  5
E6
  8
0
 10
34.751999999999988
 20
166.0
 30
0.0
 11
36.024000000000001
 21
166.0
 31
0.0
  0
LINE
  5
E7
  8
0
 10
33.792000000000002
 20
166.0
 30
0.0
 11
34.751999999999988
 21
166.0
 31
0.0
  0
LINE
  5
E8
  8
0
 10
33.216000000000001
 20
166.0
 30
0.0
 11
33.792000000000002
 21
166.0
 31
0.0
  0
LINE
  5
E9
  8
0
 10
33.0
 20
166.0
 30
0.0
 11
33.216000000000001
 21
166.0
 31
0.0
  0
LINE
  5
EA
  8
0
 10
33.0
 20
166.0
 30
0.0
 11
33.0
 21
156.0
 31
0.0
  0
LINE
  5
EB
  8
0
 10
46.539999999999992
 20
163.84
 30
0.0
 11
47.979999999999997
 21
167.44
 31
0.0
  0
LINE
  5
EC
  8
0
 10
46.337600000000002
 20
166.0
 30
0.0
 11
47.111999999999988
 21
167.93599999999989
 31
0.0
  0
LINE
  5
ED
  8
0
 10
33.735300000000002
 20
169.0
 30
0.0
 11
34.785299999999999
 21
169.0
 31
0.0
  0
LINE
  5
EE
  8
0
 10
34.785299999999999
 20
169.0
 30
0.0
 11
35.444099999999999
 21
169.0
 31
0.0
  0
LINE
  5
EF
  8
0
 10
35.691200000000002
 20
169.0
 30
0.0
 11
35.897100000000002
 21
169.09620000000001
 31
0.0
  0
LINE
  5
F0
  8
0
 10
35.444099999999999
 20
169.0
 30
0.0
 11
35.691200000000002
 21
169.0
 31
0.0
  0
LINE
  5
F1
  8
0
 10
32.438200000000002
 20
169.09620000000001
 30
0.0
 11
33.87939999999999
 21
169.09620000000001
 31
0.0
  0
LINE
  5
F2
  8
0
 10
30.770600000000002
 20
169.09620000000001
 30
0.0
 11
32.438200000000002
 21
169.09620000000001
 31
0.0
  0
LINE
  5
F3
  8
0
 10
33.87939999999999
 20
169.09620000000001
 30
0.0
 11
34.97059999999999
 21
169.09620000000001
 31
0.0
  0
LINE
  5
F4
  8
0
 10
34.97059999999999
 20
169.09620000000001
 30
0.0
 11
35.649999999999991
 21
169.09620000000001
 31
0.0
  0
LINE
  5
F5
  8
0
 10
33.941200000000002
 20
171.0
 30
0.0
 11
35.052900000000001
 21
171.0
 31
0.0
  0
LINE
  5
F6
  8
0
 10
35.649999999999991
 20
169.09620000000001
 30
0.0
 11
35.897100000000002
 21
169.09620000000001
 31
0.0
  0
LINE
  5
F7
  8
0
 10
35.052900000000001
 20
171.0
 30
0.0
 11
35.75289999999999
 21
171.0
 31
0.0
  0
LINE
  5
F8
  8
0
 10
35.75289999999999
 20
171.0
 30
0.0
 11
36.0
 21
171.0
 31
0.0
  0
LINE
  5
F9
  8
0
 10
32.479399999999991
 20
171.0
 30
0.0
 11
33.941200000000002
 21
171.0
 31
0.0
  0
LINE
  5
FA
  8
0
 10
30.7912
 20
171.0
 30
0.0
 11
32.479399999999991
 21
171.0
 31
0.0
  0
LINE
  5
FB
  8
0
 10
36.0
 20
169.28849999999991
 30
0.0
 11
36.0
 21
171.0
 31
0.0
  0
LINE
  5
FC
  8
0
 10
35.897100000000002
 20
169.09620000000001
 30
0.0
 11
36.0
 21
169.28849999999991
 31
0.0
  0
LINE
  5
FD
  8
0
 10
32.335299999999997
 20
169.0
 30
0.0
 11
33.735300000000002
 21
169.0
 31
0.0
  0
LINE
  5
FE
  8
0
 10
30.729399999999998
 20
169.0
 30
0.0
 11
32.335299999999997
 21
169.0
 31
0.0
  0
LINE
  5
FF
  8
0
 10
45.0
 20
166.0
 30
0.0
 11
45.0
 21
173.88799999999989
 31
0.0
  0
LINE
  5
100
  8
0
 10
45.0
 20
166.0
 30
0.0
 11
46.337600000000002
 21
166.0
 31
0.0
  0
LINE
  5
101
  8
0
 10
29.0
 20
171.0
 30
0.0
 11
49.424452830188699
 21
171.0
 31
0.0
  0
LINE
  5
102
  8
0
 10
29.0
 20
176.0
 30
0.0
 11
61.0
 21
176.0
 31
0.0
  0
LINE
  5
103
  8
0
 10
36.0
 20
176.0
 30
0.0
 11
36.0
 21
177.7115
 31
0.0
  0
LINE
  5
104
  8
0
 10
45.0
 20
173.88799999999989
 30
0.0
 11
45.0
 21
166.0
 31
0.0
  0
LINE
  5
105
  8
0
 10
45.0
 20
173.88799999999989
 30
0.0
 11
53.064
 21
173.88799999999989
 31
0.0
  0
LINE
  5
106
  8
0
 10
29.0
 20
176.0
 30
0.0
 11
61.0
 21
176.0
 31
0.0
  0
LINE
  5
107
  8
0
 10
36.0
 20
171.0
 30
0.0
 11
45.0
 21
171.0
 31
0.0
  0
LINE
  5
108
  8
0
 10
36.0
 20
171.0
 30
0.0
 11
36.0
 21
169.28849999999991
 31
0.0
  0
LINE
  5
109
  8
0
 10
26.440000000000001
 20
171.0
 30
0.0
 11
29.0
 21
171.0
 31
0.0
  0
LINE
  5
10A
  8
0
 10
27.270589999999999
 20
178.0
 30
0.0
 11
29.0
 21
178.0
 31
0.0
  0
LINE
  5
10B
  8
0
 10
27.229410000000001
 20
177.9037999999999
 30
0.0
 11
29.0
 21
177.9037999999999
 31
0.0
  0
LINE
  5
10C
  8
0
 10
29.0
 20
178.0
 30
0.0
 11
30.729399999999998
 21
178.0
 31
0.0
  0
LINE
  5
10D
  8
0
 10
33.87939999999999
 20
177.9037999999999
 30
0.0
 11
34.97059999999999
 21
177.9037999999999
 31
0.0
  0
LINE
  5
10E
  8
0
 10
34.97059999999999
 20
177.9037999999999
 30
0.0
 11
35.649999999999991
 21
177.9037999999999
 31
0.0
  0
LINE
  5
10F
  8
0
 10
35.649999999999991
 20
177.9037999999999
 30
0.0
 11
35.897100000000002
 21
177.9037999999999
 31
0.0
  0
LINE
  5
110
  8
0
 10
32.438200000000002
 20
177.9037999999999
 30
0.0
 11
33.87939999999999
 21
177.9037999999999
 31
0.0
  0
LINE
  5
111
  8
0
 10
33.735300000000002
 20
178.0
 30
0.0
 11
34.785299999999999
 21
178.0
 31
0.0
  0
LINE
  5
112
  8
0
 10
34.785299999999999
 20
178.0
 30
0.0
 11
35.444099999999999
 21
178.0
 31
0.0
  0
LINE
  5
113
  8
0
 10
35.444099999999999
 20
178.0
 30
0.0
 11
35.691200000000002
 21
178.0
 31
0.0
  0
LINE
  5
114
  8
0
 10
32.335299999999997
 20
178.0
 30
0.0
 11
33.735300000000002
 21
178.0
 31
0.0
  0
LINE
  5
115
  8
0
 10
30.729399999999998
 20
178.0
 30
0.0
 11
32.335299999999997
 21
178.0
 31
0.0
  0
LINE
  5
116
  8
0
 10
30.770600000000002
 20
177.9037999999999
 30
0.0
 11
32.438200000000002
 21
177.9037999999999
 31
0.0
  0
LINE
  5
117
  8
0
 10
29.0
 20
177.9037999999999
 30
0.0
 11
30.770600000000002
 21
177.9037999999999
 31
0.0
  0
LINE
  5
118
  8
0
 10
35.691200000000002
 20
178.0
 30
0.0
 11
35.897100000000002
 21
177.9037999999999
 31
0.0
  0
LINE
  5
119
  8
0
 10
36.0
 20
177.7115
 30
0.0
 11
36.0
 21
176.0
 31
0.0
  0
LINE
  5
11A
  8
0
 10
35.897100000000002
 20
177.9037999999999
 30
0.0
 11
36.0
 21
177.7115
 31
0.0
  0
LINE
  5
11B
  8
0
 10
26.440000000000001
 20
176.0
 30
0.0
 11
29.0
 21
176.0
 31
0.0
  0
LINE
  5
11C
  8
0
 10
26.0
 20
163.352
 30
0.0
 11
26.0
 21
159.0
 31
0.0
  0
LINE
  5
11D
  8
0
 10
26.0
 20
163.352
 30
0.0
 11
26.0
 21
167.43199999999999
 31
0.0
  0
LINE
  5
11E
  8
0
 10
26.0
 20
159.0
 30
0.0
 11
26.0
 21
154.648
 31
0.0
  0
LINE
  5
11F
  8
0
 10
26.0
 20
159.0
 30
0.0
 11
26.0
 21
155.2697
 31
0.0
  0
LINE
  5
120
  8
0
 10
26.0
 20
159.0
 30
0.0
 11
33.0
 21
159.0
 31
0.0
  0
LINE
  5
121
  8
0
 10
26.0
 20
159.0
 30
0.0
 11
26.0
 21
162.73029999999989
 31
0.0
  0
LINE
  5
122
  8
0
 10
26.0
 20
159.0
 30
0.0
 11
26.0
 21
163.352
 31
0.0
  0
LINE
  5
123
  8
0
 10
26.0
 20
159.0
 30
0.0
 11
26.0
 21
169.0
 31
0.0
  0
LINE
  5
124
  8
0
 10
48.671999999999997
 20
124.0
 30
0.0
 11
52.063999999999993
 21
124.0
 31
0.0
  0
LINE
  5
125
  8
0
 10
47.35199999999999
 20
124.0
 30
0.0
 11
49.683399999999999
 21
124.0
 31
0.0
  0
LINE
  5
126
  8
0
 10
47.979999999999997
 20
152.56
 30
0.0
 11
50.380000000000003
 21
149.38
 31
0.0
  0
LINE
  5
127
  8
0
 10
47.111999999999988
 20
152.06399999999999
 30
0.0
 11
49.671999999999997
 21
148.672
 31
0.0
  0
LINE
  5
128
  8
0
 10
47.963999999999999
 20
124.0
 30
0.0
 11
51.567999999999998
 21
124.0
 31
0.0
  0
LINE
  5
129
  8
0
 10
52.063999999999993
 20
124.0
 30
0.0
 11
55.903999999999989
 21
124.0
 31
0.0
  0
LINE
  5
12A
  8
0
 10
49.683399999999999
 20
124.0
 30
0.0
 11
52.772599999999997
 21
124.0
 31
0.0
  0
LINE
  5
12B
  8
0
 10
52.772599999999997
 20
124.0
 30
0.0
 11
56.2697
 21
124.0
 31
0.0
  0
LINE
  5
12C
  8
0
 10
53.560000000000002
 20
146.97999999999999
 30
0.0
 11
57.159999999999997
 21
145.53999999999999
 31
0.0
  0
LINE
  5
12D
  8
0
 10
50.380000000000003
 20
149.38
 30
0.0
 11
53.560000000000002
 21
146.97999999999999
 31
0.0
  0
LINE
  5
12E
  8
0
 10
53.064
 20
146.11199999999999
 30
0.0
 11
56.904000000000003
 21
144.57599999999991
 31
0.0
  0
LINE
  5
12F
  8
0
 10
49.671999999999997
 20
148.672
 30
0.0
 11
53.064
 21
146.11199999999999
 31
0.0
  0
LINE
  5
130
  8
0
 10
51.567999999999998
 20
124.0
 30
0.0
 11
55.648000000000003
 21
124.0
 31
0.0
  0
LINE
  5
131
  8
0
 10
55.903999999999989
 20
124.0
 30
0.0
 11
60.0
 21
124.0
 31
0.0
  0
LINE
  5
132
  8
0
 10
64.096000000000004
 20
124.0
 30
0.0
 11
67.936000000000007
 21
124.0
 31
0.0
  0
LINE
  5
133
  8
0
 10
63.730299999999993
 20
124.0
 30
0.0
 11
67.227400000000003
 21
124.0
 31
0.0
  0
LINE
  5
134
  8
0
 10
64.352000000000004
 20
124.0
 30
0.0
 11
68.432000000000002
 21
124.0
 31
0.0
  0
LINE
  5
135
  8
0
 10
60.0
 20
124.0
 30
0.0
 11
64.352000000000004
 21
124.0
 31
0.0
  0
LINE
  5
136
  8
0
 10
60.0
 20
124.0
 30
0.0
 11
63.730299999999993
 21
124.0
 31
0.0
  0
LINE
  5
137
  8
0
 10
60.0
 20
124.0
 30
0.0
 11
64.096000000000004
 21
124.0
 31
0.0
  0
LINE
  5
138
  8
0
 10
61.0
 20
145.0
 30
0.0
 11
64.840000000000003
 21
145.53999999999999
 31
0.0
  0
LINE
  5
139
  8
0
 10
57.159999999999997
 20
145.53999999999999
 30
0.0
 11
61.0
 21
145.0
 31
0.0
  0
LINE
  5
13A
  8
0
 10
56.904000000000003
 20
144.57599999999991
 30
0.0
 11
61.0
 21
144.0
 31
0.0
  0
LINE
  5
13B
  8
0
 10
61.0
 20
132.0
 30
0.0
 11
71.0
 21
132.0
 31
0.0
  0
LINE
  5
13C
  8
0
 10
61.0
 20
132.0
 30
0.0
 11
61.0
 21
144.0
 31
0.0
  0
LINE
  5
13D
  8
0
 10
61.0
 20
144.0
 30
0.0
 11
61.0
 21
132.0
 31
0.0
  0
LINE
  5
13E
  8
0
 10
61.0
 20
144.0
 30
0.0
 11
65.096000000000004
 21
144.57599999999991
 31
0.0
  0
LINE
  5
13F
  8
0
 10
56.2697
 20
124.0
 30
0.0
 11
60.0
 21
124.0
 31
0.0
  0
LINE
  5
140
  8
0
 10
55.648000000000003
 20
124.0
 30
0.0
 11
60.0
 21
124.0
 31
0.0
  0
LINE
  5
141
  8
0
 10
61.0
 20
146.0
 30
0.0
 11
64.584000000000003
 21
146.50399999999991
 31
0.0
  0
LINE
  5
142
  8
0
 10
67.936000000000007
 20
124.0
 30
0.0
 11
71.328000000000003
 21
124.0
 31
0.0
  0
LINE
  5
143
  8
0
 10
71.328000000000003
 20
124.0
 30
0.0
 11
73.888000000000005
 21
124.0
 31
0.0
  0
LINE
  5
144
  8
0
 10
70.316599999999994
 20
124.0
 30
0.0
 11
72.647999999999996
 21
124.0
 31
0.0
  0
LINE
  5
145
  8
0
 10
67.227400000000003
 20
124.0
 30
0.0
 11
70.316599999999994
 21
124.0
 31
0.0
  0
LINE
  5
146
  8
0
 10
73.888000000000005
 20
124.0
 30
0.0
 11
75.423999999999992
 21
124.0
 31
0.0
  0
LINE
  5
147
  8
0
 10
75.423999999999992
 20
124.0
 30
0.0
 11
76.0
 21
124.0
 31
0.0
  0
LINE
  5
148
  8
0
 10
74.046899999999994
 20
124.0
 30
0.0
 11
74.571399999999997
 21
124.0
 31
0.0
  0
LINE
  5
149
  8
0
 10
72.647999999999996
 20
124.0
 30
0.0
 11
74.046899999999994
 21
124.0
 31
0.0
  0
LINE
  5
14A
  8
0
 10
76.388000000000005
 20
124.0
 30
0.0
 11
77.0
 21
124.0
 31
0.0
  0
LINE
  5
14B
  8
0
 10
77.0
 20
124.0
 30
0.0
 11
77.0
 21
142.0
 31
0.0
  0
LINE
  5
14C
  8
0
 10
74.756
 20
124.0
 30
0.0
 11
76.388000000000005
 21
124.0
 31
0.0
  0
LINE
  5
14D
  8
0
 10
72.036000000000001
 20
124.0
 30
0.0
 11
74.756
 21
124.0
 31
0.0
  0
LINE
  5
14E
  8
0
 10
64.840000000000003
 20
145.53999999999999
 30
0.0
 11
68.439999999999998
 21
146.97999999999999
 31
0.0
  0
LINE
  5
14F
  8
0
 10
65.096000000000004
 20
144.57599999999991
 30
0.0
 11
68.936000000000007
 21
146.11199999999999
 31
0.0
  0
LINE
  5
150
  8
0
 10
68.936000000000007
 20
146.11199999999999
 30
0.0
 11
72.328000000000003
 21
148.672
 31
0.0
  0
LINE
  5
151
  8
0
 10
71.0
 20
132.0
 30
0.0
 11
71.0
 21
147.66973584905699
 31
0.0
  0
LINE
  5
152
  8
0
 10
96.0
 20
142.0
 30
0.0
 11
96.0
 21
142.61199999999999
 31
0.0
  0
LINE
  5
153
  8
0
 10
96.0
 20
142.61199999999999
 30
0.0
 11
96.0
 21
144.24399999999989
 31
0.0
  0
LINE
  5
154
  8
0
 10
96.0
 20
142.61199999999999
 30
0.0
 11
96.0
 21
142.0
 31
0.0
  0
LINE
  5
155
  8
0
 10
96.0
 20
144.24399999999989
 30
0.0
 11
96.0
 21
146.964
 31
0.0
  0
LINE
  5
156
  8
0
 10
96.0
 20
144.24399999999989
 30
0.0
 11
96.0
 21
142.61199999999999
 31
0.0
  0
LINE
  5
157
  8
0
 10
77.0
 20
142.0
 30
0.0
 11
77.0
 21
124.0
 31
0.0
  0
LINE
  5
158
  8
0
 10
77.0
 20
142.0
 30
0.0
 11
96.0
 21
142.0
 31
0.0
  0
LINE
  5
159
  8
0
 10
68.432000000000002
 20
124.0
 30
0.0
 11
72.036000000000001
 21
124.0
 31
0.0
  0
LINE
  5
15A
  8
0
 10
64.584000000000003
 20
146.50399999999991
 30
0.0
 11
67.944000000000003
 21
147.8479999999999
 31
0.0
  0
LINE
  5
15B
  8
0
 10
68.439999999999998
 20
146.97999999999999
 30
0.0
 11
71.620000000000005
 21
149.38
 31
0.0
  0
LINE
  5
15C
  8
0
 10
71.0
 20
147.66973584905699
 30
0.0
 11
71.0
 21
132.0
 31
0.0
  0
LINE
  5
15D
  8
0
 10
96.0
 20
146.964
 30
0.0
 11
96.0
 21
150.5679999999999
 31
0.0
  0
LINE
  5
15E
  8
0
 10
96.0
 20
146.964
 30
0.0
 11
96.0
 21
144.24399999999989
 31
0.0
  0
LINE
  5
15F
  8
0
 10
64.072000000000003
 20
148.43199999999999
 30
0.0
 11
66.951999999999984
 21
149.584
 31
0.0
  0
LINE
  5
160
  8
0
 10
67.944000000000003
 20
147.8479999999999
 30
0.0
 11
70.911999999999992
 21
150.08799999999991
 31
0.0
  0
LINE
  5
161
  8
0
 10
61.0
 20
148.0
 30
0.0
 11
64.072000000000003
 21
148.43199999999999
 31
0.0
  0
LINE
  5
162
  8
0
 10
71.620000000000005
 20
149.38
 30
0.0
 11
74.019999999999996
 21
152.56
 31
0.0
  0
LINE
  5
163
  8
0
 10
72.328000000000003
 20
148.672
 30
0.0
 11
74.888000000000005
 21
152.06399999999999
 31
0.0
  0
LINE
  5
164
  8
0
 10
70.911999999999992
 20
150.08799999999991
 30
0.0
 11
73.152000000000001
 21
153.05600000000001
 31
0.0
  0
LINE
  5
165
  8
0
 10
66.951999999999984
 20
149.584
 30
0.0
 11
69.496000000000009
 21
151.50399999999991
 31
0.0
  0
LINE
  5
166
  8
0
 10
57.927999999999997
 20
148.43199999999999
 30
0.0
 11
61.0
 21
148.0
 31
0.0
  0
LINE
  5
167
  8
0
 10
55.048000000000002
 20
149.584
 30
0.0
 11
57.927999999999997
 21
148.43199999999999
 31
0.0
  0
LINE
  5
168
  8
0
 10
57.415999999999997
 20
146.50399999999991
 30
0.0
 11
61.0
 21
146.0
 31
0.0
  0
LINE
  5
169
  8
0
 10
54.055999999999997
 20
147.8479999999999
 30
0.0
 11
57.415999999999997
 21
146.50399999999991
 31
0.0
  0
LINE
  5
16A
  8
0
 10
96.0
 20
150.5679999999999
 30
0.0
 11
96.0
 21
154.648
 31
0.0
  0
LINE
  5
16B
  8
0
 10
96.0
 20
150.5679999999999
 30
0.0
 11
96.0
 21
146.964
 31
0.0
  0
LINE
  5
16C
  8
0
 10
69.496000000000009
 20
151.50399999999991
 30
0.0
 11
71.415999999999997
 21
154.048
 31
0.0
  0
LINE
  5
16D
  8
0
 10
74.019999999999996
 20
152.56
 30
0.0
 11
75.459999999999994
 21
156.16
 31
0.0
  0
LINE
  5
16E
  8
0
 10
74.888000000000005
 20
152.06399999999999
 30
0.0
 11
76.423999999999992
 21
155.90399999999991
 31
0.0
  0
LINE
  5
16F
  8
0
 10
75.459999999999994
 20
156.16
 30
0.0
 11
76.0
 21
160.0
 31
0.0
  0
LINE
  5
170
  8
0
 10
76.423999999999992
 20
155.90399999999991
 30
0.0
 11
77.0
 21
160.0
 31
0.0
  0
LINE
  5
171
  8
0
 10
83.0
 20
156.0
 30
0.0
 11
84.535999999999987
 21
156.0
 31
0.0
  0
LINE
  5
172
  8
0
 10
84.535999999999987
 20
156.0
 30
0.0
 11
85.975999999999985
 21
156.0
 31
0.0
  0
LINE
  5
173
  8
0
 10
85.975999999999985
 20
156.0
 30
0.0
 11
87.248000000000005
 21
156.0
 31
0.0
  0
LINE
  5
174
  8
0
 10
87.248000000000005
 20
156.0
 30
0.0
 11
88.207999999999998
 21
156.0
 31
0.0
  0
LINE
  5
175
  8
0
 10
88.207999999999998
 20
156.0
 30
0.0
 11
88.783999999999992
 21
156.0
 31
0.0
  0
LINE
  5
176
  8
0
 10
89.0
 20
156.0
 30
0.0
 11
89.0
 21
166.0
 31
0.0
  0
LINE
  5
177
  8
0
 10
88.783999999999992
 20
156.0
 30
0.0
 11
89.0
 21
156.0
 31
0.0
  0
LINE
  5
178
  8
0
 10
81.463999999999984
 20
156.0
 30
0.0
 11
83.0
 21
156.0
 31
0.0
  0
LINE
  5
179
  8
0
 10
80.023999999999987
 20
156.0
 30
0.0
 11
81.463999999999984
 21
156.0
 31
0.0
  0
LINE
  5
17A
  8
0
 10
78.603399999999993
 20
156.0
 30
0.0
 11
80.023999999999987
 21
156.0
 31
0.0
  0
LINE
  5
17B
  8
0
 10
77.0
 20
156.0
 30
0.0
 11
78.603399999999993
 21
156.0
 31
0.0
  0
LINE
  5
17C
  8
0
 10
76.4375
 20
156.0
 30
0.0
 11
77.0
 21
156.0
 31
0.0
  0
LINE
  5
17D
  8
0
 10
76.4375
 20
156.0
 30
0.0
 11
85.975999999999985
 21
156.0
 31
0.0
  0
LINE
  5
17E
  8
0
 10
96.0
 20
154.648
 30
0.0
 11
96.0
 21
159.0
 31
0.0
  0
LINE
  5
17F
  8
0
 10
96.0
 20
154.648
 30
0.0
 11
96.0
 21
150.5679999999999
 31
0.0
  0
LINE
  5
180
  8
0
 10
73.152000000000001
 20
153.05600000000001
 30
0.0
 11
74.496000000000009
 21
156.416
 31
0.0
  0
LINE
  5
181
  8
0
 10
74.496000000000009
 20
156.416
 30
0.0
 11
75.0
 21
160.0
 31
0.0
  0
LINE
  5
182
  8
0
 10
71.415999999999997
 20
154.048
 30
0.0
 11
72.567999999999998
 21
156.928
 31
0.0
  0
LINE
  5
183
  8
0
 10
52.503999999999991
 20
151.50399999999991
 30
0.0
 11
55.048000000000002
 21
149.584
 31
0.0
  0
LINE
  5
184
  8
0
 10
50.583999999999989
 20
154.048
 30
0.0
 11
52.503999999999991
 21
151.50399999999991
 31
0.0
  0
LINE
  5
185
  8
0
 10
51.088000000000001
 20
150.08799999999991
 30
0.0
 11
54.055999999999997
 21
147.8479999999999
 31
0.0
  0
LINE
  5
186
  8
0
 10
48.847999999999999
 20
153.05600000000001
 30
0.0
 11
51.088000000000001
 21
150.08799999999991
 31
0.0
  0
LINE
  5
187
  8
0
 10
47.979999999999997
 20
167.44
 30
0.0
 11
50.380000000000003
 21
170.62
 31
0.0
  0
LINE
  5
188
  8
0
 10
47.111999999999988
 20
167.93599999999989
 30
0.0
 11
49.671999999999997
 21
171.328
 31
0.0
  0
LINE
  5
189
  8
0
 10
48.847999999999999
 20
166.94399999999999
 30
0.0
 11
51.088000000000001
 21
169.91200000000001
 31
0.0
  0
LINE
  5
18A
  8
0
 10
47.503999999999991
 20
163.58399999999989
 30
0.0
 11
48.847999999999999
 21
166.94399999999999
 31
0.0
  0
LINE
  5
18B
  8
0
 10
72.567999999999998
 20
156.928
 30
0.0
 11
73.0
 21
160.0
 31
0.0
  0
LINE
  5
18C
  8
0
 10
50.583999999999989
 20
165.952
 30
0.0
 11
52.503999999999991
 21
168.4959999999999
 31
0.0
  0
LINE
  5
18D
  8
0
 10
49.432000000000002
 20
163.072
 30
0.0
 11
50.583999999999989
 21
165.952
 31
0.0
  0
LINE
  5
18E
  8
0
 10
52.503999999999991
 20
168.4959999999999
 30
0.0
 11
55.048000000000002
 21
170.41599999999991
 31
0.0
  0
LINE
  5
18F
  8
0
 10
51.088000000000001
 20
169.91200000000001
 30
0.0
 11
54.055999999999997
 21
172.15199999999999
 31
0.0
  0
LINE
  5
190
  8
0
 10
69.496000000000009
 20
168.4959999999999
 30
0.0
 11
71.415999999999997
 21
165.952
 31
0.0
  0
LINE
  5
191
  8
0
 10
71.415999999999997
 20
165.952
 30
0.0
 11
72.567999999999998
 21
163.072
 31
0.0
  0
LINE
  5
192
  8
0
 10
72.567999999999998
 20
163.072
 30
0.0
 11
73.0
 21
160.0
 31
0.0
  0
LINE
  5
193
  8
0
 10
50.380000000000003
 20
170.62
 30
0.0
 11
53.560000000000002
 21
173.02000000000001
 31
0.0
  0
LINE
  5
194
  8
0
 10
49.671999999999997
 20
171.328
 30
0.0
 11
53.064
 21
173.88799999999989
 31
0.0
  0
LINE
  5
195
  8
0
 10
55.048000000000002
 20
170.41599999999991
 30
0.0
 11
57.927999999999997
 21
171.5679999999999
 31
0.0
  0
LINE
  5
196
  8
0
 10
57.927999999999997
 20
171.5679999999999
 30
0.0
 11
61.0
 21
172.0
 31
0.0
  0
LINE
  5
197
  8
0
 10
53.560000000000002
 20
173.02000000000001
 30
0.0
 11
57.159999999999997
 21
174.46000000000001
 31
0.0
  0
LINE
  5
198
  8
0
 10
57.415999999999997
 20
173.4959999999999
 30
0.0
 11
61.0
 21
174.0
 31
0.0
  0
LINE
  5
199
  8
0
 10
54.055999999999997
 20
172.15199999999999
 30
0.0
 11
57.415999999999997
 21
173.4959999999999
 31
0.0
  0
LINE
  5
19A
  8
0
 10
61.0
 20
172.0
 30
0.0
 11
64.072000000000003
 21
171.5679999999999
 31
0.0
  0
LINE
  5
19B
  8
0
 10
64.072000000000003
 20
171.5679999999999
 30
0.0
 11
66.951999999999984
 21
170.41599999999991
 31
0.0
  0
LINE
  5
19C
  8
0
 10
66.951999999999984
 20
170.41599999999991
 30
0.0
 11
69.496000000000009
 21
168.4959999999999
 31
0.0
  0
LINE
  5
19D
  8
0
 10
57.159999999999997
 20
174.46000000000001
 30
0.0
 11
61.0
 21
175.0
 31
0.0
  0
LINE
  5
19E
  8
0
 10
61.0
 20
175.0
 30
0.0
 11
64.840000000000003
 21
174.46000000000001
 31
0.0
  0
LINE
  5
19F
  8
0
 10
56.904000000000003
 20
175.42400000000001
 30
0.0
 11
61.0
 21
176.0
 31
0.0
  0
LINE
  5
1A0
  8
0
 10
53.064
 20
173.88799999999989
 30
0.0
 11
56.904000000000003
 21
175.42400000000001
 31
0.0
  0
LINE
  5
1A1
  8
0
 10
61.0
 20
176.0
 30
0.0
 11
93.0
 21
176.0
 31
0.0
  0
LINE
  5
1A2
  8
0
 10
61.0
 20
176.0
 30
0.0
 11
65.096000000000004
 21
175.42400000000001
 31
0.0
  0
LINE
  5
1A3
  8
0
 10
64.840000000000003
 20
174.46000000000001
 30
0.0
 11
68.439999999999998
 21
173.02000000000001
 31
0.0
  0
LINE
  5
1A4
  8
0
 10
65.096000000000004
 20
175.42400000000001
 30
0.0
 11
68.936000000000007
 21
173.88799999999989
 31
0.0
  0
LINE
  5
1A5
  8
0
 10
61.0
 20
174.0
 30
0.0
 11
64.584000000000003
 21
173.4959999999999
 31
0.0
  0
LINE
  5
1A6
  8
0
 10
64.584000000000003
 20
173.4959999999999
 30
0.0
 11
67.944000000000003
 21
172.15199999999999
 31
0.0
  0
LINE
  5
1A7
  8
0
 10
71.620000000000005
 20
170.62
 30
0.0
 11
74.019999999999996
 21
167.44
 31
0.0
  0
LINE
  5
1A8
  8
0
 10
68.439999999999998
 20
173.02000000000001
 30
0.0
 11
71.620000000000005
 21
170.62
 31
0.0
  0
LINE
  5
1A9
  8
0
 10
72.328000000000003
 20
171.328
 30
0.0
 11
74.888000000000005
 21
167.93599999999989
 31
0.0
  0
LINE
  5
1AA
  8
0
 10
72.575547169811301
 20
171.0
 30
0.0
 11
93.0
 21
171.0
 31
0.0
  0
LINE
  5
1AB
  8
0
 10
68.936000000000007
 20
173.88799999999989
 30
0.0
 11
77.0
 21
173.88799999999989
 31
0.0
  0
LINE
  5
1AC
  8
0
 10
68.936000000000007
 20
173.88799999999989
 30
0.0
 11
72.328000000000003
 21
171.328
 31
0.0
  0
LINE
  5
1AD
  8
0
 10
67.944000000000003
 20
172.15199999999999
 30
0.0
 11
70.911999999999992
 21
169.91200000000001
 31
0.0
  0
LINE
  5
1AE
  8
0
 10
70.911999999999992
 20
169.91200000000001
 30
0.0
 11
73.152000000000001
 21
166.94399999999999
 31
0.0
  0
LINE
  5
1AF
  8
0
 10
89.0
 20
159.0
 30
0.0
 11
96.0
 21
159.0
 31
0.0
  0
LINE
  5
1B0
  8
0
 10
96.0
 20
159.0
 30
0.0
 11
96.0
 21
154.648
 31
0.0
  0
LINE
  5
1B1
  8
0
 10
96.0
 20
159.0
 30
0.0
 11
96.0
 21
169.0
 31
0.0
  0
LINE
  5
1B2
  8
0
 10
75.459999999999994
 20
163.84
 30
0.0
 11
76.0
 21
160.0
 31
0.0
  0
LINE
  5
1B3
  8
0
 10
76.423999999999992
 20
164.09599999999989
 30
0.0
 11
77.0
 21
160.0
 31
0.0
  0
LINE
  5
1B4
  8
0
 10
83.0
 20
166.0
 30
0.0
 11
84.535999999999987
 21
166.0
 31
0.0
  0
LINE
  5
1B5
  8
0
 10
84.535999999999987
 20
166.0
 30
0.0
 11
85.975999999999985
 21
166.0
 31
0.0
  0
LINE
  5
1B6
  8
0
 10
85.975999999999985
 20
166.0
 30
0.0
 11
87.248000000000005
 21
166.0
 31
0.0
  0
LINE
  5
1B7
  8
0
 10
87.248000000000005
 20
166.0
 30
0.0
 11
88.207999999999998
 21
166.0
 31
0.0
  0
LINE
  5
1B8
  8
0
 10
88.207999999999998
 20
166.0
 30
0.0
 11
88.783999999999992
 21
166.0
 31
0.0
  0
LINE
  5
1B9
  8
0
 10
89.0
 20
166.0
 30
0.0
 11
89.0
 21
156.0
 31
0.0
  0
LINE
  5
1BA
  8
0
 10
88.783999999999992
 20
166.0
 30
0.0
 11
89.0
 21
166.0
 31
0.0
  0
LINE
  5
1BB
  8
0
 10
81.463999999999984
 20
166.0
 30
0.0
 11
83.0
 21
166.0
 31
0.0
  0
LINE
  5
1BC
  8
0
 10
80.023999999999987
 20
166.0
 30
0.0
 11
81.463999999999984
 21
166.0
 31
0.0
  0
LINE
  5
1BD
  8
0
 10
78.668800000000005
 20
166.0
 30
0.0
 11
80.023999999999987
 21
166.0
 31
0.0
  0
LINE
  5
1BE
  8
0
 10
75.662400000000005
 20
166.0
 30
0.0
 11
77.0
 21
166.0
 31
0.0
  0
LINE
  5
1BF
  8
0
 10
74.019999999999996
 20
167.44
 30
0.0
 11
75.459999999999994
 21
163.84
 31
0.0
  0
LINE
  5
1C0
  8
0
 10
87.214699999999993
 20
169.0
 30
0.0
 11
88.264700000000005
 21
169.0
 31
0.0
  0
LINE
  5
1C1
  8
0
 10
86.555899999999994
 20
169.0
 30
0.0
 11
87.214699999999993
 21
169.0
 31
0.0
  0
LINE
  5
1C2
  8
0
 10
86.308800000000005
 20
169.0
 30
0.0
 11
86.555899999999994
 21
169.0
 31
0.0
  0
LINE
  5
1C3
  8
0
 10
88.264700000000005
 20
169.0
 30
0.0
 11
89.664699999999996
 21
169.0
 31
0.0
  0
LINE
  5
1C4
  8
0
 10
89.664699999999996
 20
169.0
 30
0.0
 11
91.270600000000002
 21
169.0
 31
0.0
  0
LINE
  5
1C5
  8
0
 10
91.270600000000002
 20
169.0
 30
0.0
 11
93.0
 21
169.0
 31
0.0
  0
LINE
  5
1C6
  8
0
 10
86.0
 20
169.28849999999991
 30
0.0
 11
86.102900000000005
 21
169.09620000000001
 31
0.0
  0
LINE
  5
1C7
  8
0
 10
86.0
 20
169.28849999999991
 30
0.0
 11
86.0
 21
171.0
 31
0.0
  0
LINE
  5
1C8
  8
0
 10
87.029399999999995
 20
169.09620000000001
 30
0.0
 11
88.120599999999996
 21
169.09620000000001
 31
0.0
  0
LINE
  5
1C9
  8
0
 10
86.349999999999994
 20
169.09620000000001
 30
0.0
 11
87.029399999999995
 21
169.09620000000001
 31
0.0
  0
LINE
  5
1CA
  8
0
 10
88.120599999999996
 20
169.09620000000001
 30
0.0
 11
89.561800000000005
 21
169.09620000000001
 31
0.0
  0
LINE
  5
1CB
  8
0
 10
89.561800000000005
 20
169.09620000000001
 30
0.0
 11
91.229399999999984
 21
169.09620000000001
 31
0.0
  0
LINE
  5
1CC
  8
0
 10
93.0
 20
169.09620000000001
 30
0.0
 11
94.770599999999988
 21
169.09620000000001
 31
0.0
  0
LINE
  5
1CD
  8
0
 10
91.229399999999984
 20
169.09620000000001
 30
0.0
 11
93.0
 21
169.09620000000001
 31
0.0
  0
LINE
  5
1CE
  8
0
 10
86.947100000000006
 20
171.0
 30
0.0
 11
88.058800000000005
 21
171.0
 31
0.0
  0
LINE
  5
1CF
  8
0
 10
86.247100000000003
 20
171.0
 30
0.0
 11
86.947100000000006
 21
171.0
 31
0.0
  0
LINE
  5
1D0
  8
0
 10
88.058800000000005
 20
171.0
 30
0.0
 11
89.520600000000016
 21
171.0
 31
0.0
  0
LINE
  5
1D1
  8
0
 10
89.520600000000016
 20
171.0
 30
0.0
 11
91.208799999999997
 21
171.0
 31
0.0
  0
LINE
  5
1D2
  8
0
 10
91.208799999999997
 20
171.0
 30
0.0
 11
93.0
 21
171.0
 31
0.0
  0
LINE
  5
1D3
  8
0
 10
86.102900000000005
 20
169.09620000000001
 30
0.0
 11
86.308800000000005
 21
169.0
 31
0.0
  0
LINE
  5
1D4
  8
0
 10
86.102900000000005
 20
169.09620000000001
 30
0.0
 11
86.349999999999994
 21
169.09620000000001
 31
0.0
  0
LINE
  5
1D5
  8
0
 10
86.0
 20
171.0
 30
0.0
 11
86.0
 21
169.28849999999991
 31
0.0
  0
LINE
  5
1D6
  8
0
 10
86.0
 20
171.0
 30
0.0
 11
86.247100000000003
 21
171.0
 31
0.0
  0
LINE
  5
1D7
  8
0
 10
93.0
 20
169.0
 30
0.0
 11
94.729399999999984
 21
169.0
 31
0.0
  0
LINE
  5
1D8
  8
0
 10
74.888000000000005
 20
167.93599999999989
 30
0.0
 11
76.423999999999992
 21
164.09599999999989
 31
0.0
  0
LINE
  5
1D9
  8
0
 10
77.0
 20
171.0
 30
0.0
 11
86.0
 21
171.0
 31
0.0
  0
LINE
  5
1DA
  8
0
 10
94.770599999999988
 20
169.09620000000001
 30
0.0
 11
96.438199999999995
 21
169.09620000000001
 31
0.0
  0
LINE
  5
1DB
  8
0
 10
94.791199999999989
 20
171.0
 30
0.0
 11
96.479399999999998
 21
171.0
 31
0.0
  0
LINE
  5
1DC
  8
0
 10
94.729399999999984
 20
169.0
 30
0.0
 11
96.335300000000004
 21
169.0
 31
0.0
  0
LINE
  5
1DD
  8
0
 10
96.0
 20
169.0
 30
0.0
 11
96.335300000000004
 21
169.0
 31
0.0
  0
LINE
  5
1DE
  8
0
 10
93.0
 20
171.0
 30
0.0
 11
95.560000000000002
 21
171.0
 31
0.0
  0
LINE
  5
1DF
  8
0
 10
93.0
 20
171.0
 30
0.0
 11
94.791199999999989
 21
171.0
 31
0.0
  0
LINE
  5
1E0
  8
0
 10
95.560000000000002
 20
171.0
 30
0.0
 11
97.959999999999994
 21
171.0
 31
0.0
  0
LINE
  5
1E1
  8
0
 10
96.335300000000004
 20
169.0
 30
0.0
 11
97.735299999999995
 21
169.0
 31
0.0
  0
LINE
  5
1E2
  8
0
 10
97.735299999999995
 20
169.0
 30
0.0
 11
98.785300000000007
 21
169.0
 31
0.0
  0
LINE
  5
1E3
  8
0
 10
96.335300000000004
 20
169.0
 30
0.0
 11
97.735299999999995
 21
169.0
 31
0.0
  0
LINE
  5
1E4
  8
0
 10
97.735299999999995
 20
169.0
 30
0.0
 11
98.785300000000007
 21
169.0
 31
0.0
  0
LINE
  5
1E5
  8
0
 10
96.438199999999995
 20
169.09620000000001
 30
0.0
 11
97.879400000000004
 21
169.09620000000001
 31
0.0
  0
LINE
  5
1E6
  8
0
 10
97.879400000000004
 20
169.09620000000001
 30
0.0
 11
98.970600000000005
 21
169.09620000000001
 31
0.0
  0
LINE
  5
1E7
  8
0
 10
98.970600000000005
 20
169.09620000000001
 30
0.0
 11
99.650000000000006
 21
169.09620000000001
 31
0.0
  0
LINE
  5
1E8
  8
0
 10
97.941199999999995
 20
171.0
 30
0.0
 11
99.052899999999994
 21
171.0
 31
0.0
  0
LINE
  5
1E9
  8
0
 10
99.052899999999994
 20
171.0
 30
0.0
 11
99.752900000000011
 21
171.0
 31
0.0
  0
LINE
  5
1EA
  8
0
 10
96.479399999999998
 20
171.0
 30
0.0
 11
97.941199999999995
 21
171.0
 31
0.0
  0
LINE
  5
1EB
  8
0
 10
98.785300000000007
 20
169.0
 30
0.0
 11
99.444100000000006
 21
169.0
 31
0.0
  0
LINE
  5
1EC
  8
0
 10
99.444100000000006
 20
169.0
 30
0.0
 11
99.691199999999995
 21
169.0
 31
0.0
  0
LINE
  5
1ED
  8
0
 10
98.785300000000007
 20
169.0
 30
0.0
 11
99.444100000000006
 21
169.0
 31
0.0
  0
LINE
  5
1EE
  8
0
 10
99.650000000000006
 20
169.09620000000001
 30
0.0
 11
99.897099999999995
 21
169.09620000000001
 31
0.0
  0
LINE
  5
1EF
  8
0
 10
99.691199999999995
 20
169.0
 30
0.0
 11
99.897099999999995
 21
169.09620000000001
 31
0.0
  0
LINE
  5
1F0
  8
0
 10
99.752900000000011
 20
171.0
 30
0.0
 11
100.0
 21
171.0
 31
0.0
  0
LINE
  5
1F1
  8
0
 10
99.897099999999995
 20
169.09620000000001
 30
0.0
 11
100.0
 21
169.28849999999991
 31
0.0
  0
LINE
  5
1F2
  8
0
 10
100.0
 20
169.28849999999991
 30
0.0
 11
100.0
 21
171.0
 31
0.0
  0
LINE
  5
1F3
  8
0
 10
99.691199999999995
 20
169.0
 30
0.0
 11
99.897099999999995
 21
169.09620000000001
 31
0.0
  0
LINE
  5
1F4
  8
0
 10
99.444100000000006
 20
169.0
 30
0.0
 11
99.691199999999995
 21
169.0
 31
0.0
  0
LINE
  5
1F5
  8
0
 10
97.959999999999994
 20
171.0
 30
0.0
 11
100.0799999999999
 21
171.0
 31
0.0
  0
LINE
  5
1F6
  8
0
 10
96.0
 20
169.0
 30
0.0
 11
96.0
 21
159.0
 31
0.0
  0
LINE
  5
1F7
  8
0
 10
100.0799999999999
 20
171.0
 30
0.0
 11
101.68000000000001
 21
171.0
 31
0.0
  0
LINE
  5
1F8
  8
0
 10
101.68000000000001
 20
171.0
 30
0.0
 11
102.6399999999999
 21
171.0
 31
0.0
  0
LINE
  5
1F9
  8
0
 10
86.0
 20
176.0
 30
0.0
 11
86.0
 21
177.7115
 31
0.0
  0
LINE
  5
1FA
  8
0
 10
93.0
 20
176.0
 30
0.0
 11
95.560000000000002
 21
176.0
 31
0.0
  0
LINE
  5
1FB
  8
0
 10
95.560000000000002
 20
176.0
 30
0.0
 11
97.959999999999994
 21
176.0
 31
0.0
  0
LINE
  5
1FC
  8
0
 10
100.0
 20
176.0
 30
0.0
 11
100.0
 21
177.7115
 31
0.0
  0
LINE
  5
1FD
  8
0
 10
97.959999999999994
 20
176.0
 30
0.0
 11
100.0799999999999
 21
176.0
 31
0.0
  0
LINE
  5
1FE
  8
0
 10
100.0799999999999
 20
176.0
 30
0.0
 11
101.68000000000001
 21
176.0
 31
0.0
  0
LINE
  5
1FF
  8
0
 10
101.68000000000001
 20
176.0
 30
0.0
 11
102.6399999999999
 21
176.0
 31
0.0
  0
LINE
  5
200
  8
0
 10
87.029399999999995
 20
177.9037999999999
 30
0.0
 11
88.120599999999996
 21
177.9037999999999
 31
0.0
  0
LINE
  5
201
  8
0
 10
86.349999999999994
 20
177.9037999999999
 30
0.0
 11
87.029399999999995
 21
177.9037999999999
 31
0.0
  0
LINE
  5
202
  8
0
 10
88.120599999999996
 20
177.9037999999999
 30
0.0
 11
89.561800000000005
 21
177.9037999999999
 31
0.0
  0
LINE
  5
203
  8
0
 10
89.561800000000005
 20
177.9037999999999
 30
0.0
 11
91.229399999999984
 21
177.9037999999999
 31
0.0
  0
LINE
  5
204
  8
0
 10
97.879400000000004
 20
177.9037999999999
 30
0.0
 11
98.970600000000005
 21
177.9037999999999
 31
0.0
  0
LINE
  5
205
  8
0
 10
98.970600000000005
 20
177.9037999999999
 30
0.0
 11
99.650000000000006
 21
177.9037999999999
 31
0.0
  0
LINE
  5
206
  8
0
 10
99.650000000000006
 20
177.9037999999999
 30
0.0
 11
99.897099999999995
 21
177.9037999999999
 31
0.0
  0
LINE
  5
207
  8
0
 10
96.438199999999995
 20
177.9037999999999
 30
0.0
 11
97.879400000000004
 21
177.9037999999999
 31
0.0
  0
LINE
  5
208
  8
0
 10
94.770599999999988
 20
177.9037999999999
 30
0.0
 11
96.438199999999995
 21
177.9037999999999
 31
0.0
  0
LINE
  5
209
  8
0
 10
93.0
 20
177.9037999999999
 30
0.0
 11
94.770599999999988
 21
177.9037999999999
 31
0.0
  0
LINE
  5
20A
  8
0
 10
91.229399999999984
 20
177.9037999999999
 30
0.0
 11
93.0
 21
177.9037999999999
 31
0.0
  0
LINE
  5
20B
  8
0
 10
99.897099999999995
 20
177.9037999999999
 30
0.0
 11
100.0
 21
177.7115
 31
0.0
  0
LINE
  5
20C
  8
0
 10
100.0
 20
177.7115
 30
0.0
 11
100.0
 21
176.0
 31
0.0
  0
LINE
  5
20D
  8
0
 10
87.214699999999993
 20
178.0
 30
0.0
 11
88.264700000000005
 21
178.0
 31
0.0
  0
LINE
  5
20E
  8
0
 10
86.555899999999994
 20
178.0
 30
0.0
 11
87.214699999999993
 21
178.0
 31
0.0
  0
LINE
  5
20F
  8
0
 10
86.308800000000005
 20
178.0
 30
0.0
 11
86.555899999999994
 21
178.0
 31
0.0
  0
LINE
  5
210
  8
0
 10
88.264700000000005
 20
178.0
 30
0.0
 11
89.664699999999996
 21
178.0
 31
0.0
  0
LINE
  5
211
  8
0
 10
97.735299999999995
 20
178.0
 30
0.0
 11
98.785300000000007
 21
178.0
 31
0.0
  0
LINE
  5
212
  8
0
 10
98.785300000000007
 20
178.0
 30
0.0
 11
99.444100000000006
 21
178.0
 31
0.0
  0
LINE
  5
213
  8
0
 10
99.444100000000006
 20
178.0
 30
0.0
 11
99.691199999999995
 21
178.0
 31
0.0
  0
LINE
  5
214
  8
0
 10
96.335300000000004
 20
178.0
 30
0.0
 11
97.735299999999995
 21
178.0
 31
0.0
  0
LINE
  5
215
  8
0
 10
94.729399999999984
 20
178.0
 30
0.0
 11
96.335300000000004
 21
178.0
 31
0.0
  0
LINE
  5
216
  8
0
 10
93.0
 20
178.0
 30
0.0
 11
94.729399999999984
 21
178.0
 31
0.0
  0
LINE
  5
217
  8
0
 10
89.664699999999996
 20
178.0
 30
0.0
 11
91.270600000000002
 21
178.0
 31
0.0
  0
LINE
  5
218
  8
0
 10
91.270600000000002
 20
178.0
 30
0.0
 11
93.0
 21
178.0
 31
0.0
  0
LINE
  5
219
  8
0
 10
99.691199999999995
 20
178.0
 30
0.0
 11
99.897099999999995
 21
177.9037999999999
 31
0.0
  0
LINE
  5
21A
  8
0
 10
86.102900000000005
 20
177.9037999999999
 30
0.0
 11
86.308800000000005
 21
178.0
 31
0.0
  0
LINE
  5
21B
  8
0
 10
86.102900000000005
 20
177.9037999999999
 30
0.0
 11
86.349999999999994
 21
177.9037999999999
 31
0.0
  0
LINE
  5
21C
  8
0
 10
86.0
 20
177.7115
 30
0.0
 11
86.102900000000005
 21
177.9037999999999
 31
0.0
  0
LINE
  5
21D
  8
0
 10
86.0
 20
177.7115
 30
0.0
 11
86.0
 21
176.0
 31
0.0
  0
LINE
  5
21E
  8
0
 10
102.6399999999999
 20
176.0
 30
0.0
 11
103.0
 21
176.0
 31
0.0
  0
LINE
  5
21F
  8
0
 10
77.0
 20
173.88799999999989
 30
0.0
 11
77.0
 21
166.0
 31
0.0
  0
LINE
  5
220
  8
0
 10
100.0
 20
171.0
 30
0.0
 11
102.6399999999999
 21
171.0
 31
0.0
  0
LINE
  5
221
  8
0
 10
100.0
 20
171.0
 30
0.0
 11
100.0799999999999
 21
171.0
 31
0.0
  0
LINE
  5
222
  8
0
 10
100.0
 20
171.0
 30
0.0
 11
100.0
 21
169.28849999999991
 31
0.0
  0
LINE
  5
223
  8
0
 10
103.0
 20
171.0
 30
0.0
 11
103.0
 21
176.0
 31
0.0
  0
LINE
  5
224
  8
0
 10
103.0
 20
176.0
 30
0.0
 11
103.0
 21
171.0
 31
0.0
  0
LINE
  5
225
  8
0
 10
102.6399999999999
 20
171.0
 30
0.0
 11
103.0
 21
171.0
 31
0.0
  0
LINE
  5
226
  8
0
 10
77.0
 20
166.0
 30
0.0
 11
77.0
 21
173.88799999999989
 31
0.0
  0
LINE
  5
227
  8
0
 10
77.0
 20
166.0
 30
0.0
 11
78.668800000000005
 21
166.0
 31
0.0
  0
LINE
  5
228
  8
0
 10
73.152000000000001
 20
166.94399999999999
 30
0.0
 11
74.496000000000009
 21
163.58399999999989
 31
0.0
  0
LINE
  5
229
  8
0
 10
74.496000000000009
 20
163.58399999999989
 30
0.0
 11
75.0
 21
160.0
 31
0.0
  0
LINE
  5
22A
  8
0
 10
49.432000000000002
 20
156.928
 30
0.0
 11
50.583999999999989
 21
154.048
 31
0.0
  0
LINE
  5
22B
  8
0
 10
49.0
 20
160.0
 30
0.0
 11
49.432000000000002
 21
156.928
 31
0.0
  0
LINE
  5
22C
  8
0
 10
49.0
 20
160.0
 30
0.0
 11
49.432000000000002
 21
163.072
 31
0.0
  0
LINE
  5
22D
  8
0
 10
47.503999999999991
 20
156.416
 30
0.0
 11
48.847999999999999
 21
153.05600000000001
 31
0.0
  0
LINE
  5
22E
  8
0
 10
47.0
 20
160.0
 30
0.0
 11
47.503999999999991
 21
156.416
 31
0.0
  0
LINE
  5
22F
  8
0
 10
47.0
 20
160.0
 30
0.0
 11
47.503999999999991
 21
163.58399999999989
 31
0.0
  0
LINE
  5
230
  8
0
 10
0.999999999999996
 20
101.0
 30
0.0
 11
119.0
 21
101.0
 31
0.0
  0
LINE
  5
231
  8
0
 10
119.0
 20
101.0
 30
0.0
 11
119.7
 21
100.7
 31
0.0
  0
LINE
  5
232
  8
0
 10
0.999999999999996
 20
100.7
 30
0.0
 11
119.0
 21
100.7
 31
0.0
  0
LINE
  5
233
  8
0
 10
119.7
 20
100.7
 30
0.0
 11
120.0
 21
100.0
 31
0.0
  0
LINE
  5
234
  8
0
 10
119.0
 20
100.7
 30
0.0
 11
119.5
 21
100.5
 31
0.0
  0
LINE
  5
235
  8
0
 10
119.5
 20
100.5
 30
0.0
 11
119.7
 21
100.0
 31
0.0
  0
LINE
  5
236
  8
0
 10
119.5
 20
100.5
 30
0.0
 11
119.7
 21
100.7
 31
0.0
  0
LINE
  5
237
  8
0
 10
120.0
 20
100.0
 30
0.0
 11
120.0
 21
81.0
 31
0.0
  0
LINE
  5
238
  8
0
 10
120.0
 20
81.0
 30
0.0
 11
120.0
 21
100.0
 31
0.0
  0
LINE
  5
239
  8
0
 10
119.7
 20
81.0
 30
0.0
 11
119.7
 21
100.0
 31
0.0
  0
LINE
  5
23A
  8
0
 10
0.5
 20
80.5
 30
0.0
 11
1.0
 21
80.299999999999983
 31
0.0
  0
LINE
  5
23B
  8
0
 10
0.3
 20
81.0
 30
0.0
 11
0.5
 21
80.5
 31
0.0
  0
LINE
  5
23C
  8
0
 10
0.3
 20
81.0
 30
0.0
 11
0.3
 21
100.0
 31
0.0
  0
LINE
  5
241
  8
0
 10
119.0
 20
0.0000000000000069
 30
0.0
 11
119.7
 21
0.300000000000007
 31
0.0
  0
ENDSEC
  0
EOF
