  0
SECTION
  2
HEADER
  9
$ACADVER
  1
AC1009
  9
$INSBASE
 10
0.0
 20
0.0
 30
0.0
  9
$EXTMIN
 10
19.0
 20
124.0
 30
0.0
  9
$EXTMAX
 10
103.0
 20
178.0
 30
0.0
  9
$LIMMIN
 10
0.0
 20
0.0
  9
$LIMMAX
 10
12.0
 20
9.0
  9
$ORTHOMODE
 70
     0
  9
$REGENMODE
 70
     1
  9
$FILLMODE
 70
     1
  9
$QTEXTMODE
 70
     0
  9
$MIRRTEXT
 70
     1
  9
$DRAGMODE
 70
     2
  9
$LTSCALE
 40
1.0
  9
$OSMODE
 70
    37
  9
$ATTMODE
 70
     1
  9
$TEXTSIZE
 40
0.2
  9
$TRACEWID
 40
0.05
  9
$TEXTSTYLE
  7
STANDARD
  9
$CLAYER
  8
0
  9
$CELTYPE
  6
CONTINUOUS
  9
$CECOLOR
 62
   256
  9
$DIMSCALE
 40
1.0
  9
$DIMASZ
 40
0.18
  9
$DIMEXO
 40
0.0625
  9
$DIMDLI
 40
0.38
  9
$DIMRND
 40
0.0
  9
$DIMDLE
 40
0.0
  9
$DIMEXE
 40
0.18
  9
$DIMTP
 40
0.0
  9
$DIMTM
 40
0.0
  9
$DIMTXT
 40
0.18
  9
$DIMCEN
 40
0.09
  9
$DIMTSZ
 40
0.0
  9
$DIMTOL
 70
     0
  9
$DIMLIM
 70
     0
  9
$DIMTIH
 70
     1
  9
$DIMTOH
 70
     1
  9
$DIMSE1
 70
     0
  9
$DIMSE2
 70
     0
  9
$DIMTAD
 70
     0
  9
$DIMZIN
 70
     0
  9
$DIMBLK
  1

  9
$DIMASO
 70
     1
  9
$DIMSHO
 70
     1
  9
$DIMPOST
  1

  9
$DIMAPOST
  1

  9
$DIMALT
 70
     0
  9
$DIMALTD
 70
     2
  9
$DIMALTF
 40
25.399999999999999
  9
$DIMLFAC
 40
1.0
  9
$DIMTOFL
 70
     0
  9
$DIMTVP
 40
0.0
  9
$DIMTIX
 70
     0
  9
$DIMSOXD
 70
     0
  9
$DIMSAH
 70
     0
  9
$DIMBLK1
  1

  9
$DIMBLK2
  1

  9
$DIMSTYLE
  2
STANDARD
  9
$DIMCLRD
 70
     0
  9
$DIMCLRE
 70
     0
  9
$DIMCLRT
 70
     0
  9
$DIMTFAC
 40
1.0
  9
$DIMGAP
 40
0.09
  9
$LUNITS
 70
     2
  9
$LUPREC
 70
     4
  9
$SKETCHINC
 40
0.1
  9
$FILLETRAD
 40
0.0
  9
$AUNITS
 70
     0
  9
$AUPREC
 70
     0
  9
$MENU
  1
.
  9
$ELEVATION
 40
0.0
  9
$PELEVATION
 40
0.0
  9
$THICKNESS
 40
0.0
  9
$LIMCHECK
 70
     0
  9
$BLIPMODE
 70
     0
  9
$CHAMFERA
 40
0.0
  9
$CHAMFERB
 40
0.0
  9
$SKPOLY
 70
     0
  9
$TDCREATE
 40
2454674.6205975111
  9
$TDUPDATE
 40
2454674.6242672112
  9
$TDINDWG
 40
0.0032505093
  9
$TDUSRTIMER
 40
0.0032505093
  9
$USRTIMER
 70
     1
  9
$ANGBASE
 50
0.0
  9
$ANGDIR
 70
     0
  9
$PDMODE
 70
     0
  9
$PDSIZE
 40
0.0
  9
$PLINEWID
 40
0.0
  9
$COORDS
 70
     1
  9
$SPLFRAME
 70
     0
  9
$SPLINETYPE
 70
     6
  9
$SPLINESEGS
 70
     8
  9
$ATTDIA
 70
     0
  9
$ATTREQ
 70
     1
  9
$HANDLING
 70
 22529
  9
$HANDSEED
  5
499
  9
$SURFTAB1
 70
     6
  9
$SURFTAB2
 70
     6
  9
$SURFTYPE
 70
     6
  9
$SURFU
 70
     6
  9
$SURFV
 70
     6
  9
$UCSNAME
  2

  9
$UCSORG
 10
0.0
 20
0.0
 30
0.0
  9
$UCSXDIR
 10
1.0
 20
0.0
 30
0.0
  9
$UCSYDIR
 10
0.0
 20
1.0
 30
0.0
  9
$PUCSNAME
  2

  9
$PUCSORG
 10
0.0
 20
0.0
 30
0.0
  9
$PUCSXDIR
 10
1.0
 20
0.0
 30
0.0
  9
$PUCSYDIR
 10
0.0
 20
1.0
 30
0.0
  9
$USERI1
 70
     0
  9
$USERI2
 70
     0
  9
$USERI3
 70
     0
  9
$USERI4
 70
     0
  9
$USERI5
 70
     0
  9
$USERR1
 40
0.0
  9
$USERR2
 40
0.0
  9
$USERR3
 40
0.0
  9
$USERR4
 40
0.0
  9
$USERR5
 40
0.0
  9
$WORLDVIEW
 70
     1
  9
$SHADEDGE
 70
     3
  9
$SHADEDIF
 70
    70
  9
$TILEMODE
 70
     1
  9
$MAXACTVP
 70
    64
  9
$PLIMCHECK
 70
     0
  9
$PEXTMIN
 10
1.0000000000000000E+020
 20
1.0000000000000000E+020
 30
1.0000000000000000E+020
  9
$PEXTMAX
 10
-1.0000000000000000E+020
 20
-1.0000000000000000E+020
 30
-1.0000000000000000E+020
  9
$PLIMMIN
 10
0.0
 20
0.0
  9
$PLIMMAX
 10
12.0
 20
9.0
  9
$UNITMODE
 70
     0
  9
$VISRETAIN
 70
     1
  9
$PLINEGEN
 70
     0
  9
$PSLTSCALE
 70
     1
  0
ENDSEC
  0
SECTION
  2
TABLES
  0
TABLE
  2
VPORT
 70
     3
  0
VPORT
  2
*ACTIVE
 70
     0
 10
0.0
 20
0.0
 11
1.0
 21
1.0
 12
61.0
 22
151.0
 13
0.0
 23
0.0
 14
1.0
 24
1.0
 15
0.0
 25
0.0
 16
0.0
 26
0.0
 36
1.0
 17
0.0
 27
0.0
 37
0.0
 40
54.41432225063938
 41
2.0435339308578739
 42
50.0
 43
0.0
 44
0.0
 50
0.0
 51
0.0
 71
     0
 72
   100
 73
     1
 74
     3
 75
     0
 76
     0
 77
     0
 78
     0
  0
ENDTAB
  0
TABLE
  2
LTYPE
 70
     1
  0
LTYPE
  2
CONTINUOUS
 70
     0
  3
Solid line
 72
    65
 73
     0
 40
0.0
  0
ENDTAB
  0
TABLE
  2
LAYER
 70
     1
  0
LAYER
  2
0
 70
     0
 62
     7
  6
CONTINUOUS
  0
ENDTAB
  0
TABLE
  2
STYLE
 70
     1
  0
STYLE
  2
STANDARD
 70
     0
 40
0.0
 41
1.0
 50
0.0
 71
     0
 42
0.2
  3
txt
  4

  0
ENDTAB
  0
TABLE
  2
VIEW
 70
     0
  0
ENDTAB
  0
TABLE
  2
UCS
 70
     0
  0
ENDTAB
  0
TABLE
  2
APPID
 70
     1
  0
APPID
  2
ACAD
 70
     0
  0
ENDTAB
  0
TABLE
  2
DIMSTYLE
 70
     1
  0
DIMSTYLE
  2
STANDARD
 70
     0
  3

  4

  5

  6

  7

 40
1.0
 41
0.18
 42
0.0625
 43
0.38
 44
0.18
 45
0.0
 46
0.0
 47
0.0
 48
0.0
140
0.18
141
0.09
142
0.0
143
25.399999999999999
144
1.0
145
0.0
146
1.0
147
0.09
 71
     0
 72
     0
 73
     1
 74
     1
 75
     0
 76
     0
 77
     0
 78
     0
170
     0
171
     2
172
     0
173
     0
174
     0
175
     0
176
     0
177
     0
178
     0
  0
ENDTAB
  0
ENDSEC
  0
SECTION
  2
BLOCKS
  0
BLOCK
  8
0
  2
$MODEL_SPACE
 70
     0
 10
0.0
 20
0.0
 30
0.0
  3
$MODEL_SPACE
  1

  0
ENDBLK
  5
269
  8
0
  0
BLOCK
 67
     1
  8
0
  2
$PAPER_SPACE
 70
     0
 10
0.0
 20
0.0
 30
0.0
  3
$PAPER_SPACE
  1

  0
ENDBLK
  5
265
 67
     1
  8
0
  0
ENDSEC
  0
SECTION
  2
ENTITIES
  0
LINE
  5
2B6
  8
0
 10
26.0
 20
142.0
 30
0.0
 11
43.0
 21
142.0
 31
0.0
  0
LINE
  5
2B7
  8
0
 10
26.0
 20
142.0
 30
0.0
 11
26.0
 21
142.61199999999999
 31
0.0
  0
LINE
  5
2B8
  8
0
 10
26.0
 20
142.61199999999999
 30
0.0
 11
26.0
 21
142.0
 31
0.0
  0
LINE
  5
2B9
  8
0
 10
26.0
 20
142.61199999999999
 30
0.0
 11
26.0
 21
144.2439999999998
 31
0.0
  0
LINE
  5
2BA
  8
0
 10
26.0
 20
144.4285999999999
 30
0.0
 11
26.0
 21
144.95310000000001
 31
0.0
  0
LINE
  5
2BB
  8
0
 10
26.0
 20
144.95310000000001
 30
0.0
 11
26.0
 21
146.352
 31
0.0
  0
LINE
  5
2BC
  8
0
 10
26.0
 20
144.95310000000001
 30
0.0
 11
26.0
 21
144.4285999999999
 31
0.0
  0
LINE
  5
2BD
  8
0
 10
26.0
 20
146.352
 30
0.0
 11
26.0
 21
148.68339999999981
 31
0.0
  0
LINE
  5
2BE
  8
0
 10
26.0
 20
146.352
 30
0.0
 11
26.0
 21
144.95310000000001
 31
0.0
  0
LINE
  5
2BF
  8
0
 10
26.0
 20
148.68339999999981
 30
0.0
 11
26.0
 21
151.77260000000001
 31
0.0
  0
LINE
  5
2C0
  8
0
 10
26.0
 20
148.68339999999981
 30
0.0
 11
26.0
 21
146.352
 31
0.0
  0
LINE
  5
2C1
  8
0
 10
26.0
 20
144.2439999999998
 30
0.0
 11
26.0
 21
142.61199999999999
 31
0.0
  0
LINE
  5
2C2
  8
0
 10
26.0
 20
144.2439999999998
 30
0.0
 11
26.0
 21
146.964
 31
0.0
  0
LINE
  5
2C3
  8
0
 10
26.0
 20
146.964
 30
0.0
 11
26.0
 21
144.2439999999998
 31
0.0
  0
LINE
  5
2C4
  8
0
 10
26.0
 20
146.964
 30
0.0
 11
26.0
 21
150.5679999999999
 31
0.0
  0
LINE
  5
2C5
  8
0
 10
26.0
 20
151.77260000000001
 30
0.0
 11
26.0
 21
155.2697
 31
0.0
  0
LINE
  5
2C6
  8
0
 10
26.0
 20
151.77260000000001
 30
0.0
 11
26.0
 21
148.68339999999981
 31
0.0
  0
LINE
  5
2C7
  8
0
 10
26.0
 20
155.2697
 30
0.0
 11
26.0
 21
159.0
 31
0.0
  0
LINE
  5
2C8
  8
0
 10
26.0
 20
155.2697
 30
0.0
 11
26.0
 21
151.77260000000001
 31
0.0
  0
LINE
  5
2C9
  8
0
 10
26.0
 20
150.5679999999999
 30
0.0
 11
26.0
 21
146.964
 31
0.0
  0
LINE
  5
2CA
  8
0
 10
26.0
 20
150.5679999999999
 30
0.0
 11
26.0
 21
154.648
 31
0.0
  0
LINE
  5
2CB
  8
0
 10
43.0
 20
124.0
 30
0.0
 11
43.611999999999988
 21
124.0
 31
0.0
  0
LINE
  5
2CC
  8
0
 10
43.0
 20
124.0
 30
0.0
 11
43.0
 21
142.0
 31
0.0
  0
LINE
  5
2CD
  8
0
 10
44.576000000000001
 20
124.0
 30
0.0
 11
46.111999999999988
 21
124.0
 31
0.0
  0
LINE
  5
2CE
  8
0
 10
44.0
 20
124.0
 30
0.0
 11
44.576000000000001
 21
124.0
 31
0.0
  0
LINE
  5
2CF
  8
0
 10
46.111999999999988
 20
124.0
 30
0.0
 11
48.671999999999997
 21
124.0
 31
0.0
  0
LINE
  5
2D0
  8
0
 10
45.428600000000003
 20
124.0
 30
0.0
 11
45.953099999999999
 21
124.0
 31
0.0
  0
LINE
  5
2D1
  8
0
 10
45.953099999999999
 20
124.0
 30
0.0
 11
47.351999999999983
 21
124.0
 31
0.0
  0
LINE
  5
2D2
  8
0
 10
43.611999999999988
 20
124.0
 30
0.0
 11
45.243999999999993
 21
124.0
 31
0.0
  0
LINE
  5
2D3
  8
0
 10
39.0
 20
156.0
 30
0.0
 11
40.536000000000001
 21
156.0
 31
0.0
  0
LINE
  5
2D4
  8
0
 10
40.536000000000001
 20
156.0
 30
0.0
 11
41.975999999999999
 21
156.0
 31
0.0
  0
LINE
  5
2D5
  8
0
 10
41.975999999999999
 20
156.0
 30
0.0
 11
43.396599999999999
 21
156.0
 31
0.0
  0
LINE
  5
2D6
  8
0
 10
37.463999999999992
 20
156.0
 30
0.0
 11
39.0
 21
156.0
 31
0.0
  0
LINE
  5
2D7
  8
0
 10
36.024000000000001
 20
156.0
 30
0.0
 11
45.5625
 21
156.0
 31
0.0
  0
LINE
  5
2D8
  8
0
 10
36.024000000000001
 20
156.0
 30
0.0
 11
37.463999999999992
 21
156.0
 31
0.0
  0
LINE
  5
2D9
  8
0
 10
34.751999999999988
 20
156.0
 30
0.0
 11
36.024000000000001
 21
156.0
 31
0.0
  0
LINE
  5
2DA
  8
0
 10
33.792000000000002
 20
156.0
 30
0.0
 11
34.751999999999988
 21
156.0
 31
0.0
  0
LINE
  5
2DB
  8
0
 10
33.216000000000001
 20
156.0
 30
0.0
 11
33.792000000000002
 21
156.0
 31
0.0
  0
LINE
  5
2DC
  8
0
 10
33.0
 20
156.0
 30
0.0
 11
33.216000000000001
 21
156.0
 31
0.0
  0
LINE
  5
2DD
  8
0
 10
33.0
 20
156.0
 30
0.0
 11
33.0
 21
166.0
 31
0.0
  0
LINE
  5
2DE
  8
0
 10
45.575999999999993
 20
155.90399999999991
 30
0.0
 11
47.111999999999981
 21
152.06399999999999
 31
0.0
  0
LINE
  5
2DF
  8
0
 10
43.396599999999999
 20
156.0
 30
0.0
 11
45.0
 21
156.0
 31
0.0
  0
LINE
  5
2E0
  8
0
 10
46.539999999999992
 20
156.16
 30
0.0
 11
47.979999999999997
 21
152.56
 31
0.0
  0
LINE
  5
2E1
  8
0
 10
45.0
 20
156.0
 30
0.0
 11
45.5625
 21
156.0
 31
0.0
  0
LINE
  5
2E2
  8
0
 10
43.0
 20
142.0
 30
0.0
 11
43.0
 21
124.0
 31
0.0
  0
LINE
  5
2E3
  8
0
 10
45.243999999999993
 20
124.0
 30
0.0
 11
47.963999999999999
 21
124.0
 31
0.0
  0
LINE
  5
2E4
  8
0
 10
26.0
 20
154.648
 30
0.0
 11
26.0
 21
150.5679999999999
 31
0.0
  0
LINE
  5
2E5
  8
0
 10
26.0
 20
154.648
 30
0.0
 11
26.0
 21
159.0
 31
0.0
  0
LINE
  5
2E6
  8
0
 10
26.0
 20
166.22739999999999
 30
0.0
 11
26.0
 21
162.7302999999998
 31
0.0
  0
LINE
  5
2E7
  8
0
 10
26.0
 20
166.22739999999999
 30
0.0
 11
26.0
 21
169.0
 31
0.0
  0
LINE
  5
2E8
  8
0
 10
26.0
 20
162.7302999999998
 30
0.0
 11
26.0
 21
159.0
 31
0.0
  0
LINE
  5
2E9
  8
0
 10
26.0
 20
162.7302999999998
 30
0.0
 11
26.0
 21
166.22739999999999
 31
0.0
  0
LINE
  5
2EA
  8
0
 10
22.0
 20
171.0
 30
0.0
 11
22.0
 21
169.28849999999991
 31
0.0
  0
LINE
  5
2EB
  8
0
 10
22.0
 20
171.0
 30
0.0
 11
22.247060000000001
 21
171.0
 31
0.0
  0
LINE
  5
2EC
  8
0
 10
22.308820000000001
 20
169.0
 30
0.0
 11
22.555879999999991
 21
169.0
 31
0.0
  0
LINE
  5
2ED
  8
0
 10
23.21471
 20
169.0
 30
0.0
 11
24.264710000000001
 21
169.0
 31
0.0
  0
LINE
  5
2EE
  8
0
 10
22.555879999999991
 20
169.0
 30
0.0
 11
23.21471
 21
169.0
 31
0.0
  0
LINE
  5
2EF
  8
0
 10
24.264710000000001
 20
169.0
 30
0.0
 11
25.664709999999989
 21
169.0
 31
0.0
  0
LINE
  5
2F0
  8
0
 10
25.664709999999989
 20
169.0
 30
0.0
 11
26.0
 21
169.0
 31
0.0
  0
LINE
  5
2F1
  8
0
 10
24.264710000000001
 20
169.0
 30
0.0
 11
25.664709999999989
 21
169.0
 31
0.0
  0
LINE
  5
2F2
  8
0
 10
25.664709999999989
 20
169.0
 30
0.0
 11
27.270589999999999
 21
169.0
 31
0.0
  0
LINE
  5
2F3
  8
0
 10
23.21471
 20
169.0
 30
0.0
 11
24.264710000000001
 21
169.0
 31
0.0
  0
LINE
  5
2F4
  8
0
 10
23.029409999999999
 20
169.09620000000001
 30
0.0
 11
24.12059
 21
169.09620000000001
 31
0.0
  0
LINE
  5
2F5
  8
0
 10
22.350000000000001
 20
169.09620000000001
 30
0.0
 11
23.029409999999999
 21
169.09620000000001
 31
0.0
  0
LINE
  5
2F6
  8
0
 10
24.12059
 20
169.09620000000001
 30
0.0
 11
25.56176
 21
169.09620000000001
 31
0.0
  0
LINE
  5
2F7
  8
0
 10
25.56176
 20
169.09620000000001
 30
0.0
 11
27.229410000000001
 21
169.09620000000001
 31
0.0
  0
LINE
  5
2F8
  8
0
 10
22.555879999999991
 20
169.0
 30
0.0
 11
23.21471
 21
169.0
 31
0.0
  0
LINE
  5
2F9
  8
0
 10
22.308820000000001
 20
169.0
 30
0.0
 11
22.555879999999991
 21
169.0
 31
0.0
  0
LINE
  5
2FA
  8
0
 10
22.94706
 20
171.0
 30
0.0
 11
24.058820000000001
 21
171.0
 31
0.0
  0
LINE
  5
2FB
  8
0
 10
22.247060000000001
 20
171.0
 30
0.0
 11
22.94706
 21
171.0
 31
0.0
  0
LINE
  5
2FC
  8
0
 10
24.058820000000001
 20
171.0
 30
0.0
 11
25.520589999999991
 21
171.0
 31
0.0
  0
LINE
  5
2FD
  8
0
 10
25.520589999999991
 20
171.0
 30
0.0
 11
27.208819999999999
 21
171.0
 31
0.0
  0
LINE
  5
2FE
  8
0
 10
22.10294
 20
169.09620000000001
 30
0.0
 11
22.308820000000001
 21
169.0
 31
0.0
  0
LINE
  5
2FF
  8
0
 10
22.10294
 20
169.09620000000001
 30
0.0
 11
22.350000000000001
 21
169.09620000000001
 31
0.0
  0
LINE
  5
300
  8
0
 10
22.10294
 20
169.09620000000001
 30
0.0
 11
22.308820000000001
 21
169.0
 31
0.0
  0
LINE
  5
301
  8
0
 10
22.0
 20
169.28849999999991
 30
0.0
 11
22.0
 21
171.0
 31
0.0
  0
LINE
  5
302
  8
0
 10
22.0
 20
169.28849999999991
 30
0.0
 11
22.10294
 21
169.09620000000001
 31
0.0
  0
LINE
  5
303
  8
0
 10
24.039999999999988
 20
171.0
 30
0.0
 11
26.440000000000001
 21
171.0
 31
0.0
  0
LINE
  5
304
  8
0
 10
21.920000000000002
 20
171.0
 30
0.0
 11
22.0
 21
171.0
 31
0.0
  0
LINE
  5
305
  8
0
 10
21.920000000000002
 20
171.0
 30
0.0
 11
24.039999999999988
 21
171.0
 31
0.0
  0
LINE
  5
306
  8
0
 10
20.32
 20
171.0
 30
0.0
 11
21.920000000000002
 21
171.0
 31
0.0
  0
LINE
  5
307
  8
0
 10
19.359999999999989
 20
171.0
 30
0.0
 11
20.32
 21
171.0
 31
0.0
  0
LINE
  5
308
  8
0
 10
19.359999999999989
 20
171.0
 30
0.0
 11
22.0
 21
171.0
 31
0.0
  0
LINE
  5
309
  8
0
 10
19.0
 20
176.0
 30
0.0
 11
19.0
 21
171.0
 31
0.0
  0
LINE
  5
30A
  8
0
 10
22.0
 20
176.0
 30
0.0
 11
22.0
 21
177.7115
 31
0.0
  0
LINE
  5
30B
  8
0
 10
24.039999999999988
 20
176.0
 30
0.0
 11
26.440000000000001
 21
176.0
 31
0.0
  0
LINE
  5
30C
  8
0
 10
21.920000000000002
 20
176.0
 30
0.0
 11
24.039999999999988
 21
176.0
 31
0.0
  0
LINE
  5
30D
  8
0
 10
20.32
 20
176.0
 30
0.0
 11
21.920000000000002
 21
176.0
 31
0.0
  0
LINE
  5
30E
  8
0
 10
23.029409999999999
 20
177.9037999999999
 30
0.0
 11
24.12059
 21
177.9037999999999
 31
0.0
  0
LINE
  5
30F
  8
0
 10
22.350000000000001
 20
177.9037999999999
 30
0.0
 11
23.029409999999999
 21
177.9037999999999
 31
0.0
  0
LINE
  5
310
  8
0
 10
24.12059
 20
177.9037999999999
 30
0.0
 11
25.56176
 21
177.9037999999999
 31
0.0
  0
LINE
  5
311
  8
0
 10
25.56176
 20
177.9037999999999
 30
0.0
 11
27.229410000000001
 21
177.9037999999999
 31
0.0
  0
LINE
  5
312
  8
0
 10
23.21471
 20
178.0
 30
0.0
 11
24.264710000000001
 21
178.0
 31
0.0
  0
LINE
  5
313
  8
0
 10
22.555879999999991
 20
178.0
 30
0.0
 11
23.21471
 21
178.0
 31
0.0
  0
LINE
  5
314
  8
0
 10
22.308820000000001
 20
178.0
 30
0.0
 11
22.555879999999991
 21
178.0
 31
0.0
  0
LINE
  5
315
  8
0
 10
24.264710000000001
 20
178.0
 30
0.0
 11
25.664709999999989
 21
178.0
 31
0.0
  0
LINE
  5
316
  8
0
 10
25.664709999999989
 20
178.0
 30
0.0
 11
27.270589999999999
 21
178.0
 31
0.0
  0
LINE
  5
317
  8
0
 10
22.10294
 20
177.9037999999999
 30
0.0
 11
22.308820000000001
 21
178.0
 31
0.0
  0
LINE
  5
318
  8
0
 10
22.10294
 20
177.9037999999999
 30
0.0
 11
22.350000000000001
 21
177.9037999999999
 31
0.0
  0
LINE
  5
319
  8
0
 10
22.0
 20
177.7115
 30
0.0
 11
22.0
 21
176.0
 31
0.0
  0
LINE
  5
31A
  8
0
 10
22.0
 20
177.7115
 30
0.0
 11
22.10294
 21
177.9037999999999
 31
0.0
  0
LINE
  5
31B
  8
0
 10
19.359999999999989
 20
176.0
 30
0.0
 11
20.32
 21
176.0
 31
0.0
  0
LINE
  5
31C
  8
0
 10
19.0
 20
176.0
 30
0.0
 11
19.359999999999989
 21
176.0
 31
0.0
  0
LINE
  5
31D
  8
0
 10
19.0
 20
176.0
 30
0.0
 11
19.0
 21
171.0
 31
0.0
  0
LINE
  5
31E
  8
0
 10
19.0
 20
171.0
 30
0.0
 11
19.359999999999989
 21
171.0
 31
0.0
  0
LINE
  5
31F
  8
0
 10
19.0
 20
171.0
 30
0.0
 11
19.0
 21
176.0
 31
0.0
  0
LINE
  5
320
  8
0
 10
19.0
 20
171.0
 30
0.0
 11
19.0
 21
176.0
 31
0.0
  0
LINE
  5
321
  8
0
 10
26.0
 20
169.0
 30
0.0
 11
26.0
 21
166.22739999999999
 31
0.0
  0
LINE
  5
322
  8
0
 10
26.0
 20
169.0
 30
0.0
 11
26.0
 21
167.4319999999999
 31
0.0
  0
LINE
  5
323
  8
0
 10
26.0
 20
169.0
 30
0.0
 11
26.0
 21
159.0
 31
0.0
  0
LINE
  5
324
  8
0
 10
26.0
 20
167.4319999999999
 30
0.0
 11
26.0
 21
169.0
 31
0.0
  0
LINE
  5
325
  8
0
 10
26.0
 20
167.4319999999999
 30
0.0
 11
26.0
 21
163.352
 31
0.0
  0
LINE
  5
326
  8
0
 10
27.229410000000001
 20
169.09620000000001
 30
0.0
 11
29.0
 21
169.09620000000001
 31
0.0
  0
LINE
  5
327
  8
0
 10
27.208819999999999
 20
171.0
 30
0.0
 11
29.0
 21
171.0
 31
0.0
  0
LINE
  5
328
  8
0
 10
29.0
 20
169.09620000000001
 30
0.0
 11
30.770600000000002
 21
169.09620000000001
 31
0.0
  0
LINE
  5
329
  8
0
 10
29.0
 20
169.0
 30
0.0
 11
30.729399999999998
 21
169.0
 31
0.0
  0
LINE
  5
32A
  8
0
 10
27.270589999999999
 20
169.0
 30
0.0
 11
29.0
 21
169.0
 31
0.0
  0
LINE
  5
32B
  8
0
 10
29.0
 20
171.0
 30
0.0
 11
49.424452830188699
 21
171.0
 31
0.0
  0
LINE
  5
32C
  8
0
 10
29.0
 20
171.0
 30
0.0
 11
30.7912
 21
171.0
 31
0.0
  0
LINE
  5
32D
  8
0
 10
39.0
 20
166.0
 30
0.0
 11
40.536000000000001
 21
166.0
 31
0.0
  0
LINE
  5
32E
  8
0
 10
40.536000000000001
 20
166.0
 30
0.0
 11
41.975999999999999
 21
166.0
 31
0.0
  0
LINE
  5
32F
  8
0
 10
46.0
 20
160.0
 30
0.0
 11
46.539999999999992
 21
156.16
 31
0.0
  0
LINE
  5
330
  8
0
 10
46.0
 20
160.0
 30
0.0
 11
46.539999999999992
 21
163.84
 31
0.0
  0
LINE
  5
331
  8
0
 10
45.575999999999993
 20
164.0959999999998
 30
0.0
 11
47.111999999999981
 21
167.93599999999981
 31
0.0
  0
LINE
  5
332
  8
0
 10
45.0
 20
160.0
 30
0.0
 11
45.575999999999993
 21
155.90399999999991
 31
0.0
  0
LINE
  5
333
  8
0
 10
45.0
 20
160.0
 30
0.0
 11
45.575999999999993
 21
164.0959999999998
 31
0.0
  0
LINE
  5
334
  8
0
 10
41.975999999999999
 20
166.0
 30
0.0
 11
43.331200000000003
 21
166.0
 31
0.0
  0
LINE
  5
335
  8
0
 10
43.331200000000003
 20
166.0
 30
0.0
 11
45.0
 21
166.0
 31
0.0
  0
LINE
  5
336
  8
0
 10
37.463999999999992
 20
166.0
 30
0.0
 11
39.0
 21
166.0
 31
0.0
  0
LINE
  5
337
  8
0
 10
36.024000000000001
 20
166.0
 30
0.0
 11
37.463999999999992
 21
166.0
 31
0.0
  0
LINE
  5
338
  8
0
 10
34.751999999999988
 20
166.0
 30
0.0
 11
36.024000000000001
 21
166.0
 31
0.0
  0
LINE
  5
339
  8
0
 10
33.792000000000002
 20
166.0
 30
0.0
 11
34.751999999999988
 21
166.0
 31
0.0
  0
LINE
  5
33A
  8
0
 10
33.216000000000001
 20
166.0
 30
0.0
 11
33.792000000000002
 21
166.0
 31
0.0
  0
LINE
  5
33B
  8
0
 10
33.0
 20
166.0
 30
0.0
 11
33.216000000000001
 21
166.0
 31
0.0
  0
LINE
  5
33C
  8
0
 10
33.0
 20
166.0
 30
0.0
 11
33.0
 21
156.0
 31
0.0
  0
LINE
  5
33D
  8
0
 10
46.539999999999992
 20
163.84
 30
0.0
 11
47.979999999999997
 21
167.44
 31
0.0
  0
LINE
  5
33E
  8
0
 10
46.337600000000002
 20
166.0
 30
0.0
 11
47.111999999999981
 21
167.93599999999981
 31
0.0
  0
LINE
  5
33F
  8
0
 10
33.735300000000002
 20
169.0
 30
0.0
 11
34.785299999999999
 21
169.0
 31
0.0
  0
LINE
  5
340
  8
0
 10
34.785299999999999
 20
169.0
 30
0.0
 11
35.444099999999999
 21
169.0
 31
0.0
  0
LINE
  5
341
  8
0
 10
35.691200000000002
 20
169.0
 30
0.0
 11
35.897100000000002
 21
169.09620000000001
 31
0.0
  0
LINE
  5
342
  8
0
 10
35.444099999999999
 20
169.0
 30
0.0
 11
35.691200000000002
 21
169.0
 31
0.0
  0
LINE
  5
343
  8
0
 10
32.438200000000002
 20
169.09620000000001
 30
0.0
 11
33.87939999999999
 21
169.09620000000001
 31
0.0
  0
LINE
  5
344
  8
0
 10
30.770600000000002
 20
169.09620000000001
 30
0.0
 11
32.438200000000002
 21
169.09620000000001
 31
0.0
  0
LINE
  5
345
  8
0
 10
33.87939999999999
 20
169.09620000000001
 30
0.0
 11
34.97059999999999
 21
169.09620000000001
 31
0.0
  0
LINE
  5
346
  8
0
 10
34.97059999999999
 20
169.09620000000001
 30
0.0
 11
35.649999999999991
 21
169.09620000000001
 31
0.0
  0
LINE
  5
347
  8
0
 10
33.941200000000002
 20
171.0
 30
0.0
 11
35.052900000000001
 21
171.0
 31
0.0
  0
LINE
  5
348
  8
0
 10
35.649999999999991
 20
169.09620000000001
 30
0.0
 11
35.897100000000002
 21
169.09620000000001
 31
0.0
  0
LINE
  5
349
  8
0
 10
35.052900000000001
 20
171.0
 30
0.0
 11
35.752899999999983
 21
171.0
 31
0.0
  0
LINE
  5
34A
  8
0
 10
35.752899999999983
 20
171.0
 30
0.0
 11
36.0
 21
171.0
 31
0.0
  0
LINE
  5
34B
  8
0
 10
32.479399999999991
 20
171.0
 30
0.0
 11
33.941200000000002
 21
171.0
 31
0.0
  0
LINE
  5
34C
  8
0
 10
30.7912
 20
171.0
 30
0.0
 11
32.479399999999991
 21
171.0
 31
0.0
  0
LINE
  5
34D
  8
0
 10
36.0
 20
169.28849999999991
 30
0.0
 11
36.0
 21
171.0
 31
0.0
  0
LINE
  5
34E
  8
0
 10
35.897100000000002
 20
169.09620000000001
 30
0.0
 11
36.0
 21
169.28849999999991
 31
0.0
  0
LINE
  5
34F
  8
0
 10
32.335299999999997
 20
169.0
 30
0.0
 11
33.735300000000002
 21
169.0
 31
0.0
  0
LINE
  5
350
  8
0
 10
30.729399999999998
 20
169.0
 30
0.0
 11
32.335299999999997
 21
169.0
 31
0.0
  0
LINE
  5
351
  8
0
 10
45.0
 20
166.0
 30
0.0
 11
45.0
 21
173.88799999999981
 31
0.0
  0
LINE
  5
352
  8
0
 10
45.0
 20
166.0
 30
0.0
 11
46.337600000000002
 21
166.0
 31
0.0
  0
LINE
  5
353
  8
0
 10
29.0
 20
171.0
 30
0.0
 11
49.424452830188699
 21
171.0
 31
0.0
  0
LINE
  5
354
  8
0
 10
29.0
 20
176.0
 30
0.0
 11
61.0
 21
176.0
 31
0.0
  0
LINE
  5
355
  8
0
 10
36.0
 20
176.0
 30
0.0
 11
36.0
 21
177.7115
 31
0.0
  0
LINE
  5
356
  8
0
 10
45.0
 20
173.88799999999981
 30
0.0
 11
45.0
 21
166.0
 31
0.0
  0
LINE
  5
357
  8
0
 10
45.0
 20
173.88799999999981
 30
0.0
 11
53.064
 21
173.88799999999981
 31
0.0
  0
LINE
  5
358
  8
0
 10
29.0
 20
176.0
 30
0.0
 11
61.0
 21
176.0
 31
0.0
  0
LINE
  5
359
  8
0
 10
36.0
 20
171.0
 30
0.0
 11
45.0
 21
171.0
 31
0.0
  0
LINE
  5
35A
  8
0
 10
36.0
 20
171.0
 30
0.0
 11
36.0
 21
169.28849999999991
 31
0.0
  0
LINE
  5
35B
  8
0
 10
26.440000000000001
 20
171.0
 30
0.0
 11
29.0
 21
171.0
 31
0.0
  0
LINE
  5
35C
  8
0
 10
27.270589999999999
 20
178.0
 30
0.0
 11
29.0
 21
178.0
 31
0.0
  0
LINE
  5
35D
  8
0
 10
27.229410000000001
 20
177.9037999999999
 30
0.0
 11
29.0
 21
177.9037999999999
 31
0.0
  0
LINE
  5
35E
  8
0
 10
29.0
 20
178.0
 30
0.0
 11
30.729399999999998
 21
178.0
 31
0.0
  0
LINE
  5
35F
  8
0
 10
33.87939999999999
 20
177.9037999999999
 30
0.0
 11
34.97059999999999
 21
177.9037999999999
 31
0.0
  0
LINE
  5
360
  8
0
 10
34.97059999999999
 20
177.9037999999999
 30
0.0
 11
35.649999999999991
 21
177.9037999999999
 31
0.0
  0
LINE
  5
361
  8
0
 10
35.649999999999991
 20
177.9037999999999
 30
0.0
 11
35.897100000000002
 21
177.9037999999999
 31
0.0
  0
LINE
  5
362
  8
0
 10
32.438200000000002
 20
177.9037999999999
 30
0.0
 11
33.87939999999999
 21
177.9037999999999
 31
0.0
  0
LINE
  5
363
  8
0
 10
33.735300000000002
 20
178.0
 30
0.0
 11
34.785299999999999
 21
178.0
 31
0.0
  0
LINE
  5
364
  8
0
 10
34.785299999999999
 20
178.0
 30
0.0
 11
35.444099999999999
 21
178.0
 31
0.0
  0
LINE
  5
365
  8
0
 10
35.444099999999999
 20
178.0
 30
0.0
 11
35.691200000000002
 21
178.0
 31
0.0
  0
LINE
  5
366
  8
0
 10
32.335299999999997
 20
178.0
 30
0.0
 11
33.735300000000002
 21
178.0
 31
0.0
  0
LINE
  5
367
  8
0
 10
30.729399999999998
 20
178.0
 30
0.0
 11
32.335299999999997
 21
178.0
 31
0.0
  0
LINE
  5
368
  8
0
 10
30.770600000000002
 20
177.9037999999999
 30
0.0
 11
32.438200000000002
 21
177.9037999999999
 31
0.0
  0
LINE
  5
369
  8
0
 10
29.0
 20
177.9037999999999
 30
0.0
 11
30.770600000000002
 21
177.9037999999999
 31
0.0
  0
LINE
  5
36A
  8
0
 10
35.691200000000002
 20
178.0
 30
0.0
 11
35.897100000000002
 21
177.9037999999999
 31
0.0
  0
LINE
  5
36B
  8
0
 10
36.0
 20
177.7115
 30
0.0
 11
36.0
 21
176.0
 31
0.0
  0
LINE
  5
36C
  8
0
 10
35.897100000000002
 20
177.9037999999999
 30
0.0
 11
36.0
 21
177.7115
 31
0.0
  0
LINE
  5
36D
  8
0
 10
26.440000000000001
 20
176.0
 30
0.0
 11
29.0
 21
176.0
 31
0.0
  0
LINE
  5
36E
  8
0
 10
26.0
 20
163.352
 30
0.0
 11
26.0
 21
159.0
 31
0.0
  0
LINE
  5
36F
  8
0
 10
26.0
 20
163.352
 30
0.0
 11
26.0
 21
167.4319999999999
 31
0.0
  0
LINE
  5
370
  8
0
 10
26.0
 20
159.0
 30
0.0
 11
26.0
 21
154.648
 31
0.0
  0
LINE
  5
371
  8
0
 10
26.0
 20
159.0
 30
0.0
 11
26.0
 21
155.2697
 31
0.0
  0
LINE
  5
372
  8
0
 10
26.0
 20
159.0
 30
0.0
 11
33.0
 21
159.0
 31
0.0
  0
LINE
  5
373
  8
0
 10
26.0
 20
159.0
 30
0.0
 11
26.0
 21
162.7302999999998
 31
0.0
  0
LINE
  5
374
  8
0
 10
26.0
 20
159.0
 30
0.0
 11
26.0
 21
163.352
 31
0.0
  0
LINE
  5
375
  8
0
 10
26.0
 20
159.0
 30
0.0
 11
26.0
 21
169.0
 31
0.0
  0
LINE
  5
376
  8
0
 10
48.671999999999997
 20
124.0
 30
0.0
 11
52.063999999999993
 21
124.0
 31
0.0
  0
LINE
  5
377
  8
0
 10
47.351999999999983
 20
124.0
 30
0.0
 11
49.683399999999999
 21
124.0
 31
0.0
  0
LINE
  5
378
  8
0
 10
47.979999999999997
 20
152.56
 30
0.0
 11
50.380000000000003
 21
149.38
 31
0.0
  0
LINE
  5
379
  8
0
 10
47.111999999999981
 20
152.06399999999999
 30
0.0
 11
49.671999999999997
 21
148.672
 31
0.0
  0
LINE
  5
37A
  8
0
 10
47.963999999999999
 20
124.0
 30
0.0
 11
51.567999999999998
 21
124.0
 31
0.0
  0
LINE
  5
37B
  8
0
 10
52.063999999999993
 20
124.0
 30
0.0
 11
55.903999999999982
 21
124.0
 31
0.0
  0
LINE
  5
37C
  8
0
 10
49.683399999999999
 20
124.0
 30
0.0
 11
52.772599999999997
 21
124.0
 31
0.0
  0
LINE
  5
37D
  8
0
 10
52.772599999999997
 20
124.0
 30
0.0
 11
56.2697
 21
124.0
 31
0.0
  0
LINE
  5
37E
  8
0
 10
53.560000000000002
 20
146.97999999999999
 30
0.0
 11
57.159999999999997
 21
145.53999999999999
 31
0.0
  0
LINE
  5
37F
  8
0
 10
50.380000000000003
 20
149.38
 30
0.0
 11
53.560000000000002
 21
146.97999999999999
 31
0.0
  0
LINE
  5
380
  8
0
 10
53.064
 20
146.11199999999999
 30
0.0
 11
56.904000000000003
 21
144.57599999999991
 31
0.0
  0
LINE
  5
381
  8
0
 10
49.671999999999997
 20
148.672
 30
0.0
 11
53.064
 21
146.11199999999999
 31
0.0
  0
LINE
  5
382
  8
0
 10
51.567999999999998
 20
124.0
 30
0.0
 11
55.648000000000003
 21
124.0
 31
0.0
  0
LINE
  5
383
  8
0
 10
55.903999999999982
 20
124.0
 30
0.0
 11
60.0
 21
124.0
 31
0.0
  0
LINE
  5
384
  8
0
 10
64.096000000000004
 20
124.0
 30
0.0
 11
67.936000000000007
 21
124.0
 31
0.0
  0
LINE
  5
385
  8
0
 10
63.730299999999993
 20
124.0
 30
0.0
 11
67.227400000000003
 21
124.0
 31
0.0
  0
LINE
  5
386
  8
0
 10
64.352000000000004
 20
124.0
 30
0.0
 11
68.432000000000002
 21
124.0
 31
0.0
  0
LINE
  5
387
  8
0
 10
60.0
 20
124.0
 30
0.0
 11
64.352000000000004
 21
124.0
 31
0.0
  0
LINE
  5
388
  8
0
 10
60.0
 20
124.0
 30
0.0
 11
63.730299999999993
 21
124.0
 31
0.0
  0
LINE
  5
389
  8
0
 10
60.0
 20
124.0
 30
0.0
 11
64.096000000000004
 21
124.0
 31
0.0
  0
LINE
  5
38A
  8
0
 10
61.0
 20
145.0
 30
0.0
 11
64.840000000000003
 21
145.53999999999999
 31
0.0
  0
LINE
  5
38B
  8
0
 10
57.159999999999997
 20
145.53999999999999
 30
0.0
 11
61.0
 21
145.0
 31
0.0
  0
LINE
  5
38C
  8
0
 10
56.904000000000003
 20
144.57599999999991
 30
0.0
 11
61.0
 21
144.0
 31
0.0
  0
LINE
  5
38D
  8
0
 10
61.0
 20
132.0
 30
0.0
 11
71.0
 21
132.0
 31
0.0
  0
LINE
  5
38E
  8
0
 10
61.0
 20
132.0
 30
0.0
 11
61.0
 21
144.0
 31
0.0
  0
LINE
  5
38F
  8
0
 10
61.0
 20
144.0
 30
0.0
 11
61.0
 21
132.0
 31
0.0
  0
LINE
  5
390
  8
0
 10
61.0
 20
144.0
 30
0.0
 11
65.096000000000004
 21
144.57599999999991
 31
0.0
  0
LINE
  5
391
  8
0
 10
56.2697
 20
124.0
 30
0.0
 11
60.0
 21
124.0
 31
0.0
  0
LINE
  5
392
  8
0
 10
55.648000000000003
 20
124.0
 30
0.0
 11
60.0
 21
124.0
 31
0.0
  0
LINE
  5
393
  8
0
 10
61.0
 20
146.0
 30
0.0
 11
64.584000000000003
 21
146.50399999999991
 31
0.0
  0
LINE
  5
394
  8
0
 10
67.936000000000007
 20
124.0
 30
0.0
 11
71.328000000000003
 21
124.0
 31
0.0
  0
LINE
  5
395
  8
0
 10
71.328000000000003
 20
124.0
 30
0.0
 11
73.888000000000005
 21
124.0
 31
0.0
  0
LINE
  5
396
  8
0
 10
70.316599999999994
 20
124.0
 30
0.0
 11
72.647999999999982
 21
124.0
 31
0.0
  0
LINE
  5
397
  8
0
 10
67.227400000000003
 20
124.0
 30
0.0
 11
70.316599999999994
 21
124.0
 31
0.0
  0
LINE
  5
398
  8
0
 10
73.888000000000005
 20
124.0
 30
0.0
 11
75.423999999999964
 21
124.0
 31
0.0
  0
LINE
  5
399
  8
0
 10
75.423999999999964
 20
124.0
 30
0.0
 11
76.0
 21
124.0
 31
0.0
  0
LINE
  5
39A
  8
0
 10
74.04689999999998
 20
124.0
 30
0.0
 11
74.571399999999983
 21
124.0
 31
0.0
  0
LINE
  5
39B
  8
0
 10
72.647999999999982
 20
124.0
 30
0.0
 11
74.04689999999998
 21
124.0
 31
0.0
  0
LINE
  5
39C
  8
0
 10
76.388000000000005
 20
124.0
 30
0.0
 11
77.0
 21
124.0
 31
0.0
  0
LINE
  5
39D
  8
0
 10
77.0
 20
124.0
 30
0.0
 11
77.0
 21
142.0
 31
0.0
  0
LINE
  5
39E
  8
0
 10
74.756
 20
124.0
 30
0.0
 11
76.388000000000005
 21
124.0
 31
0.0
  0
LINE
  5
39F
  8
0
 10
72.036000000000001
 20
124.0
 30
0.0
 11
74.756
 21
124.0
 31
0.0
  0
LINE
  5
3A0
  8
0
 10
64.840000000000003
 20
145.53999999999999
 30
0.0
 11
68.439999999999998
 21
146.97999999999999
 31
0.0
  0
LINE
  5
3A1
  8
0
 10
65.096000000000004
 20
144.57599999999991
 30
0.0
 11
68.936000000000007
 21
146.11199999999999
 31
0.0
  0
LINE
  5
3A2
  8
0
 10
68.936000000000007
 20
146.11199999999999
 30
0.0
 11
72.328000000000003
 21
148.672
 31
0.0
  0
LINE
  5
3A3
  8
0
 10
71.0
 20
132.0
 30
0.0
 11
71.0
 21
147.66973584905699
 31
0.0
  0
LINE
  5
3A4
  8
0
 10
96.0
 20
142.0
 30
0.0
 11
96.0
 21
142.61199999999999
 31
0.0
  0
LINE
  5
3A5
  8
0
 10
96.0
 20
142.61199999999999
 30
0.0
 11
96.0
 21
144.2439999999998
 31
0.0
  0
LINE
  5
3A6
  8
0
 10
96.0
 20
142.61199999999999
 30
0.0
 11
96.0
 21
142.0
 31
0.0
  0
LINE
  5
3A7
  8
0
 10
96.0
 20
144.2439999999998
 30
0.0
 11
96.0
 21
146.964
 31
0.0
  0
LINE
  5
3A8
  8
0
 10
96.0
 20
144.2439999999998
 30
0.0
 11
96.0
 21
142.61199999999999
 31
0.0
  0
LINE
  5
3A9
  8
0
 10
77.0
 20
142.0
 30
0.0
 11
77.0
 21
124.0
 31
0.0
  0
LINE
  5
3AA
  8
0
 10
77.0
 20
142.0
 30
0.0
 11
96.0
 21
142.0
 31
0.0
  0
LINE
  5
3AB
  8
0
 10
68.432000000000002
 20
124.0
 30
0.0
 11
72.036000000000001
 21
124.0
 31
0.0
  0
LINE
  5
3AC
  8
0
 10
64.584000000000003
 20
146.50399999999991
 30
0.0
 11
67.944000000000003
 21
147.8479999999999
 31
0.0
  0
LINE
  5
3AD
  8
0
 10
68.439999999999998
 20
146.97999999999999
 30
0.0
 11
71.620000000000019
 21
149.38
 31
0.0
  0
LINE
  5
3AE
  8
0
 10
71.0
 20
147.66973584905699
 30
0.0
 11
71.0
 21
132.0
 31
0.0
  0
LINE
  5
3AF
  8
0
 10
96.0
 20
146.964
 30
0.0
 11
96.0
 21
150.5679999999999
 31
0.0
  0
LINE
  5
3B0
  8
0
 10
96.0
 20
146.964
 30
0.0
 11
96.0
 21
144.2439999999998
 31
0.0
  0
LINE
  5
3B1
  8
0
 10
64.072000000000003
 20
148.4319999999999
 30
0.0
 11
66.951999999999984
 21
149.584
 31
0.0
  0
LINE
  5
3B2
  8
0
 10
67.944000000000003
 20
147.8479999999999
 30
0.0
 11
70.911999999999964
 21
150.08799999999991
 31
0.0
  0
LINE
  5
3B3
  8
0
 10
61.0
 20
148.0
 30
0.0
 11
64.072000000000003
 21
148.4319999999999
 31
0.0
  0
LINE
  5
3B4
  8
0
 10
71.620000000000019
 20
149.38
 30
0.0
 11
74.019999999999982
 21
152.56
 31
0.0
  0
LINE
  5
3B5
  8
0
 10
72.328000000000003
 20
148.672
 30
0.0
 11
74.888000000000005
 21
152.06399999999999
 31
0.0
  0
LINE
  5
3B6
  8
0
 10
70.911999999999964
 20
150.08799999999991
 30
0.0
 11
73.152000000000001
 21
153.05600000000001
 31
0.0
  0
LINE
  5
3B7
  8
0
 10
66.951999999999984
 20
149.584
 30
0.0
 11
69.496000000000009
 21
151.50399999999991
 31
0.0
  0
LINE
  5
3B8
  8
0
 10
57.92799999999999
 20
148.4319999999999
 30
0.0
 11
61.0
 21
148.0
 31
0.0
  0
LINE
  5
3B9
  8
0
 10
55.048000000000002
 20
149.584
 30
0.0
 11
57.92799999999999
 21
148.4319999999999
 31
0.0
  0
LINE
  5
3BA
  8
0
 10
57.415999999999997
 20
146.50399999999991
 30
0.0
 11
61.0
 21
146.0
 31
0.0
  0
LINE
  5
3BB
  8
0
 10
54.05599999999999
 20
147.8479999999999
 30
0.0
 11
57.415999999999997
 21
146.50399999999991
 31
0.0
  0
LINE
  5
3BC
  8
0
 10
96.0
 20
150.5679999999999
 30
0.0
 11
96.0
 21
154.648
 31
0.0
  0
LINE
  5
3BD
  8
0
 10
96.0
 20
150.5679999999999
 30
0.0
 11
96.0
 21
146.964
 31
0.0
  0
LINE
  5
3BE
  8
0
 10
69.496000000000009
 20
151.50399999999991
 30
0.0
 11
71.415999999999997
 21
154.048
 31
0.0
  0
LINE
  5
3BF
  8
0
 10
74.019999999999982
 20
152.56
 30
0.0
 11
75.45999999999998
 21
156.16
 31
0.0
  0
LINE
  5
3C0
  8
0
 10
74.888000000000005
 20
152.06399999999999
 30
0.0
 11
76.423999999999978
 21
155.90399999999991
 31
0.0
  0
LINE
  5
3C1
  8
0
 10
75.45999999999998
 20
156.16
 30
0.0
 11
76.0
 21
160.0
 31
0.0
  0
LINE
  5
3C2
  8
0
 10
76.423999999999978
 20
155.90399999999991
 30
0.0
 11
77.0
 21
160.0
 31
0.0
  0
LINE
  5
3C3
  8
0
 10
83.0
 20
156.0
 30
0.0
 11
84.535999999999987
 21
156.0
 31
0.0
  0
LINE
  5
3C4
  8
0
 10
84.535999999999987
 20
156.0
 30
0.0
 11
85.975999999999985
 21
156.0
 31
0.0
  0
LINE
  5
3C5
  8
0
 10
85.975999999999985
 20
156.0
 30
0.0
 11
87.248000000000005
 21
156.0
 31
0.0
  0
LINE
  5
3C6
  8
0
 10
87.248000000000005
 20
156.0
 30
0.0
 11
88.207999999999998
 21
156.0
 31
0.0
  0
LINE
  5
3C7
  8
0
 10
88.207999999999998
 20
156.0
 30
0.0
 11
88.783999999999963
 21
156.0
 31
0.0
  0
LINE
  5
3C8
  8
0
 10
89.0
 20
156.0
 30
0.0
 11
89.0
 21
166.0
 31
0.0
  0
LINE
  5
3C9
  8
0
 10
88.783999999999963
 20
156.0
 30
0.0
 11
89.0
 21
156.0
 31
0.0
  0
LINE
  5
3CA
  8
0
 10
81.463999999999984
 20
156.0
 30
0.0
 11
83.0
 21
156.0
 31
0.0
  0
LINE
  5
3CB
  8
0
 10
80.023999999999987
 20
156.0
 30
0.0
 11
81.463999999999984
 21
156.0
 31
0.0
  0
LINE
  5
3CC
  8
0
 10
78.603399999999979
 20
156.0
 30
0.0
 11
80.023999999999987
 21
156.0
 31
0.0
  0
LINE
  5
3CD
  8
0
 10
77.0
 20
156.0
 30
0.0
 11
78.603399999999979
 21
156.0
 31
0.0
  0
LINE
  5
3CE
  8
0
 10
76.4375
 20
156.0
 30
0.0
 11
77.0
 21
156.0
 31
0.0
  0
LINE
  5
3CF
  8
0
 10
76.4375
 20
156.0
 30
0.0
 11
85.975999999999985
 21
156.0
 31
0.0
  0
LINE
  5
3D0
  8
0
 10
96.0
 20
154.648
 30
0.0
 11
96.0
 21
159.0
 31
0.0
  0
LINE
  5
3D1
  8
0
 10
96.0
 20
154.648
 30
0.0
 11
96.0
 21
150.5679999999999
 31
0.0
  0
LINE
  5
3D2
  8
0
 10
73.152000000000001
 20
153.05600000000001
 30
0.0
 11
74.496000000000024
 21
156.416
 31
0.0
  0
LINE
  5
3D3
  8
0
 10
74.496000000000024
 20
156.416
 30
0.0
 11
75.0
 21
160.0
 31
0.0
  0
LINE
  5
3D4
  8
0
 10
71.415999999999997
 20
154.048
 30
0.0
 11
72.567999999999998
 21
156.928
 31
0.0
  0
LINE
  5
3D5
  8
0
 10
52.503999999999991
 20
151.50399999999991
 30
0.0
 11
55.048000000000002
 21
149.584
 31
0.0
  0
LINE
  5
3D6
  8
0
 10
50.583999999999982
 20
154.048
 30
0.0
 11
52.503999999999991
 21
151.50399999999991
 31
0.0
  0
LINE
  5
3D7
  8
0
 10
51.088000000000001
 20
150.08799999999991
 30
0.0
 11
54.05599999999999
 21
147.8479999999999
 31
0.0
  0
LINE
  5
3D8
  8
0
 10
48.847999999999999
 20
153.05600000000001
 30
0.0
 11
51.088000000000001
 21
150.08799999999991
 31
0.0
  0
LINE
  5
3D9
  8
0
 10
47.979999999999997
 20
167.44
 30
0.0
 11
50.380000000000003
 21
170.62
 31
0.0
  0
LINE
  5
3DA
  8
0
 10
47.111999999999981
 20
167.93599999999981
 30
0.0
 11
49.671999999999997
 21
171.328
 31
0.0
  0
LINE
  5
3DB
  8
0
 10
48.847999999999999
 20
166.9439999999999
 30
0.0
 11
51.088000000000001
 21
169.91200000000001
 31
0.0
  0
LINE
  5
3DC
  8
0
 10
47.503999999999991
 20
163.5839999999998
 30
0.0
 11
48.847999999999999
 21
166.9439999999999
 31
0.0
  0
LINE
  5
3DD
  8
0
 10
72.567999999999998
 20
156.928
 30
0.0
 11
73.0
 21
160.0
 31
0.0
  0
LINE
  5
3DE
  8
0
 10
50.583999999999982
 20
165.952
 30
0.0
 11
52.503999999999991
 21
168.49599999999981
 31
0.0
  0
LINE
  5
3DF
  8
0
 10
49.432000000000002
 20
163.072
 30
0.0
 11
50.583999999999982
 21
165.952
 31
0.0
  0
LINE
  5
3E0
  8
0
 10
52.503999999999991
 20
168.49599999999981
 30
0.0
 11
55.048000000000002
 21
170.41599999999991
 31
0.0
  0
LINE
  5
3E1
  8
0
 10
51.088000000000001
 20
169.91200000000001
 30
0.0
 11
54.05599999999999
 21
172.1519999999999
 31
0.0
  0
LINE
  5
3E2
  8
0
 10
69.496000000000009
 20
168.49599999999981
 30
0.0
 11
71.415999999999997
 21
165.952
 31
0.0
  0
LINE
  5
3E3
  8
0
 10
71.415999999999997
 20
165.952
 30
0.0
 11
72.567999999999998
 21
163.072
 31
0.0
  0
LINE
  5
3E4
  8
0
 10
72.567999999999998
 20
163.072
 30
0.0
 11
73.0
 21
160.0
 31
0.0
  0
LINE
  5
3E5
  8
0
 10
50.380000000000003
 20
170.62
 30
0.0
 11
53.560000000000002
 21
173.02000000000001
 31
0.0
  0
LINE
  5
3E6
  8
0
 10
49.671999999999997
 20
171.328
 30
0.0
 11
53.064
 21
173.88799999999981
 31
0.0
  0
LINE
  5
3E7
  8
0
 10
55.048000000000002
 20
170.41599999999991
 30
0.0
 11
57.92799999999999
 21
171.56799999999981
 31
0.0
  0
LINE
  5
3E8
  8
0
 10
57.92799999999999
 20
171.56799999999981
 30
0.0
 11
61.0
 21
172.0
 31
0.0
  0
LINE
  5
3E9
  8
0
 10
53.560000000000002
 20
173.02000000000001
 30
0.0
 11
57.159999999999997
 21
174.46000000000001
 31
0.0
  0
LINE
  5
3EA
  8
0
 10
57.415999999999997
 20
173.4959999999999
 30
0.0
 11
61.0
 21
174.0
 31
0.0
  0
LINE
  5
3EB
  8
0
 10
54.05599999999999
 20
172.1519999999999
 30
0.0
 11
57.415999999999997
 21
173.4959999999999
 31
0.0
  0
LINE
  5
3EC
  8
0
 10
61.0
 20
172.0
 30
0.0
 11
64.072000000000003
 21
171.56799999999981
 31
0.0
  0
LINE
  5
3ED
  8
0
 10
64.072000000000003
 20
171.56799999999981
 30
0.0
 11
66.951999999999984
 21
170.41599999999991
 31
0.0
  0
LINE
  5
3EE
  8
0
 10
66.951999999999984
 20
170.41599999999991
 30
0.0
 11
69.496000000000009
 21
168.49599999999981
 31
0.0
  0
LINE
  5
3EF
  8
0
 10
57.159999999999997
 20
174.46000000000001
 30
0.0
 11
61.0
 21
175.0
 31
0.0
  0
LINE
  5
3F0
  8
0
 10
61.0
 20
175.0
 30
0.0
 11
64.840000000000003
 21
174.46000000000001
 31
0.0
  0
LINE
  5
3F1
  8
0
 10
56.904000000000003
 20
175.42400000000001
 30
0.0
 11
61.0
 21
176.0
 31
0.0
  0
LINE
  5
3F2
  8
0
 10
53.064
 20
173.88799999999981
 30
0.0
 11
56.904000000000003
 21
175.42400000000001
 31
0.0
  0
LINE
  5
3F3
  8
0
 10
61.0
 20
176.0
 30
0.0
 11
93.0
 21
176.0
 31
0.0
  0
LINE
  5
3F4
  8
0
 10
61.0
 20
176.0
 30
0.0
 11
65.096000000000004
 21
175.42400000000001
 31
0.0
  0
LINE
  5
3F5
  8
0
 10
64.840000000000003
 20
174.46000000000001
 30
0.0
 11
68.439999999999998
 21
173.02000000000001
 31
0.0
  0
LINE
  5
3F6
  8
0
 10
65.096000000000004
 20
175.42400000000001
 30
0.0
 11
68.936000000000007
 21
173.88799999999981
 31
0.0
  0
LINE
  5
3F7
  8
0
 10
61.0
 20
174.0
 30
0.0
 11
64.584000000000003
 21
173.4959999999999
 31
0.0
  0
LINE
  5
3F8
  8
0
 10
64.584000000000003
 20
173.4959999999999
 30
0.0
 11
67.944000000000003
 21
172.1519999999999
 31
0.0
  0
LINE
  5
3F9
  8
0
 10
71.620000000000019
 20
170.62
 30
0.0
 11
74.019999999999982
 21
167.44
 31
0.0
  0
LINE
  5
3FA
  8
0
 10
68.439999999999998
 20
173.02000000000001
 30
0.0
 11
71.620000000000019
 21
170.62
 31
0.0
  0
LINE
  5
3FB
  8
0
 10
72.328000000000003
 20
171.328
 30
0.0
 11
74.888000000000005
 21
167.93599999999981
 31
0.0
  0
LINE
  5
3FC
  8
0
 10
72.575547169811301
 20
171.0
 30
0.0
 11
93.0
 21
171.0
 31
0.0
  0
LINE
  5
3FD
  8
0
 10
68.936000000000007
 20
173.88799999999981
 30
0.0
 11
77.0
 21
173.88799999999981
 31
0.0
  0
LINE
  5
3FE
  8
0
 10
68.936000000000007
 20
173.88799999999981
 30
0.0
 11
72.328000000000003
 21
171.328
 31
0.0
  0
LINE
  5
3FF
  8
0
 10
67.944000000000003
 20
172.1519999999999
 30
0.0
 11
70.911999999999964
 21
169.91200000000001
 31
0.0
  0
LINE
  5
400
  8
0
 10
70.911999999999964
 20
169.91200000000001
 30
0.0
 11
73.152000000000001
 21
166.9439999999999
 31
0.0
  0
LINE
  5
401
  8
0
 10
89.0
 20
159.0
 30
0.0
 11
96.0
 21
159.0
 31
0.0
  0
LINE
  5
402
  8
0
 10
96.0
 20
159.0
 30
0.0
 11
96.0
 21
154.648
 31
0.0
  0
LINE
  5
403
  8
0
 10
96.0
 20
159.0
 30
0.0
 11
96.0
 21
169.0
 31
0.0
  0
LINE
  5
404
  8
0
 10
75.45999999999998
 20
163.84
 30
0.0
 11
76.0
 21
160.0
 31
0.0
  0
LINE
  5
405
  8
0
 10
76.423999999999978
 20
164.0959999999998
 30
0.0
 11
77.0
 21
160.0
 31
0.0
  0
LINE
  5
406
  8
0
 10
83.0
 20
166.0
 30
0.0
 11
84.535999999999987
 21
166.0
 31
0.0
  0
LINE
  5
407
  8
0
 10
84.535999999999987
 20
166.0
 30
0.0
 11
85.975999999999985
 21
166.0
 31
0.0
  0
LINE
  5
408
  8
0
 10
85.975999999999985
 20
166.0
 30
0.0
 11
87.248000000000005
 21
166.0
 31
0.0
  0
LINE
  5
409
  8
0
 10
87.248000000000005
 20
166.0
 30
0.0
 11
88.207999999999998
 21
166.0
 31
0.0
  0
LINE
  5
40A
  8
0
 10
88.207999999999998
 20
166.0
 30
0.0
 11
88.783999999999963
 21
166.0
 31
0.0
  0
LINE
  5
40B
  8
0
 10
89.0
 20
166.0
 30
0.0
 11
89.0
 21
156.0
 31
0.0
  0
LINE
  5
40C
  8
0
 10
88.783999999999963
 20
166.0
 30
0.0
 11
89.0
 21
166.0
 31
0.0
  0
LINE
  5
40D
  8
0
 10
81.463999999999984
 20
166.0
 30
0.0
 11
83.0
 21
166.0
 31
0.0
  0
LINE
  5
40E
  8
0
 10
80.023999999999987
 20
166.0
 30
0.0
 11
81.463999999999984
 21
166.0
 31
0.0
  0
LINE
  5
40F
  8
0
 10
78.668800000000005
 20
166.0
 30
0.0
 11
80.023999999999987
 21
166.0
 31
0.0
  0
LINE
  5
410
  8
0
 10
75.662400000000005
 20
166.0
 30
0.0
 11
77.0
 21
166.0
 31
0.0
  0
LINE
  5
411
  8
0
 10
74.019999999999982
 20
167.44
 30
0.0
 11
75.45999999999998
 21
163.84
 31
0.0
  0
LINE
  5
412
  8
0
 10
87.214699999999979
 20
169.0
 30
0.0
 11
88.264700000000005
 21
169.0
 31
0.0
  0
LINE
  5
413
  8
0
 10
86.55589999999998
 20
169.0
 30
0.0
 11
87.214699999999979
 21
169.0
 31
0.0
  0
LINE
  5
414
  8
0
 10
86.308800000000005
 20
169.0
 30
0.0
 11
86.55589999999998
 21
169.0
 31
0.0
  0
LINE
  5
415
  8
0
 10
88.264700000000005
 20
169.0
 30
0.0
 11
89.664699999999996
 21
169.0
 31
0.0
  0
LINE
  5
416
  8
0
 10
89.664699999999996
 20
169.0
 30
0.0
 11
91.270600000000002
 21
169.0
 31
0.0
  0
LINE
  5
417
  8
0
 10
91.270600000000002
 20
169.0
 30
0.0
 11
93.0
 21
169.0
 31
0.0
  0
LINE
  5
418
  8
0
 10
86.0
 20
169.28849999999991
 30
0.0
 11
86.102900000000005
 21
169.09620000000001
 31
0.0
  0
LINE
  5
419
  8
0
 10
86.0
 20
169.28849999999991
 30
0.0
 11
86.0
 21
171.0
 31
0.0
  0
LINE
  5
41A
  8
0
 10
87.029399999999981
 20
169.09620000000001
 30
0.0
 11
88.120599999999982
 21
169.09620000000001
 31
0.0
  0
LINE
  5
41B
  8
0
 10
86.34999999999998
 20
169.09620000000001
 30
0.0
 11
87.029399999999981
 21
169.09620000000001
 31
0.0
  0
LINE
  5
41C
  8
0
 10
88.120599999999982
 20
169.09620000000001
 30
0.0
 11
89.561800000000005
 21
169.09620000000001
 31
0.0
  0
LINE
  5
41D
  8
0
 10
89.561800000000005
 20
169.09620000000001
 30
0.0
 11
91.229399999999984
 21
169.09620000000001
 31
0.0
  0
LINE
  5
41E
  8
0
 10
93.0
 20
169.09620000000001
 30
0.0
 11
94.770599999999988
 21
169.09620000000001
 31
0.0
  0
LINE
  5
41F
  8
0
 10
91.229399999999984
 20
169.09620000000001
 30
0.0
 11
93.0
 21
169.09620000000001
 31
0.0
  0
LINE
  5
420
  8
0
 10
86.947100000000006
 20
171.0
 30
0.0
 11
88.058800000000005
 21
171.0
 31
0.0
  0
LINE
  5
421
  8
0
 10
86.247100000000003
 20
171.0
 30
0.0
 11
86.947100000000006
 21
171.0
 31
0.0
  0
LINE
  5
422
  8
0
 10
88.058800000000005
 20
171.0
 30
0.0
 11
89.520600000000016
 21
171.0
 31
0.0
  0
LINE
  5
423
  8
0
 10
89.520600000000016
 20
171.0
 30
0.0
 11
91.208799999999997
 21
171.0
 31
0.0
  0
LINE
  5
424
  8
0
 10
91.208799999999997
 20
171.0
 30
0.0
 11
93.0
 21
171.0
 31
0.0
  0
LINE
  5
425
  8
0
 10
86.102900000000005
 20
169.09620000000001
 30
0.0
 11
86.308800000000005
 21
169.0
 31
0.0
  0
LINE
  5
426
  8
0
 10
86.102900000000005
 20
169.09620000000001
 30
0.0
 11
86.34999999999998
 21
169.09620000000001
 31
0.0
  0
LINE
  5
427
  8
0
 10
86.0
 20
171.0
 30
0.0
 11
86.0
 21
169.28849999999991
 31
0.0
  0
LINE
  5
428
  8
0
 10
86.0
 20
171.0
 30
0.0
 11
86.247100000000003
 21
171.0
 31
0.0
  0
LINE
  5
429
  8
0
 10
93.0
 20
169.0
 30
0.0
 11
94.729399999999984
 21
169.0
 31
0.0
  0
LINE
  5
42A
  8
0
 10
74.888000000000005
 20
167.93599999999981
 30
0.0
 11
76.423999999999978
 21
164.0959999999998
 31
0.0
  0
LINE
  5
42B
  8
0
 10
77.0
 20
171.0
 30
0.0
 11
86.0
 21
171.0
 31
0.0
  0
LINE
  5
42C
  8
0
 10
94.770599999999988
 20
169.09620000000001
 30
0.0
 11
96.438199999999995
 21
169.09620000000001
 31
0.0
  0
LINE
  5
42D
  8
0
 10
94.791199999999989
 20
171.0
 30
0.0
 11
96.479399999999998
 21
171.0
 31
0.0
  0
LINE
  5
42E
  8
0
 10
94.729399999999984
 20
169.0
 30
0.0
 11
96.335300000000004
 21
169.0
 31
0.0
  0
LINE
  5
42F
  8
0
 10
96.0
 20
169.0
 30
0.0
 11
96.335300000000004
 21
169.0
 31
0.0
  0
LINE
  5
430
  8
0
 10
93.0
 20
171.0
 30
0.0
 11
95.560000000000002
 21
171.0
 31
0.0
  0
LINE
  5
431
  8
0
 10
93.0
 20
171.0
 30
0.0
 11
94.791199999999989
 21
171.0
 31
0.0
  0
LINE
  5
432
  8
0
 10
95.560000000000002
 20
171.0
 30
0.0
 11
97.959999999999994
 21
171.0
 31
0.0
  0
LINE
  5
433
  8
0
 10
96.335300000000004
 20
169.0
 30
0.0
 11
97.735299999999995
 21
169.0
 31
0.0
  0
LINE
  5
434
  8
0
 10
97.735299999999995
 20
169.0
 30
0.0
 11
98.785300000000007
 21
169.0
 31
0.0
  0
LINE
  5
435
  8
0
 10
96.335300000000004
 20
169.0
 30
0.0
 11
97.735299999999995
 21
169.0
 31
0.0
  0
LINE
  5
436
  8
0
 10
97.735299999999995
 20
169.0
 30
0.0
 11
98.785300000000007
 21
169.0
 31
0.0
  0
LINE
  5
437
  8
0
 10
96.438199999999995
 20
169.09620000000001
 30
0.0
 11
97.879400000000004
 21
169.09620000000001
 31
0.0
  0
LINE
  5
438
  8
0
 10
97.879400000000004
 20
169.09620000000001
 30
0.0
 11
98.970600000000005
 21
169.09620000000001
 31
0.0
  0
LINE
  5
439
  8
0
 10
98.970600000000005
 20
169.09620000000001
 30
0.0
 11
99.650000000000006
 21
169.09620000000001
 31
0.0
  0
LINE
  5
43A
  8
0
 10
97.941199999999995
 20
171.0
 30
0.0
 11
99.052899999999994
 21
171.0
 31
0.0
  0
LINE
  5
43B
  8
0
 10
99.052899999999994
 20
171.0
 30
0.0
 11
99.752900000000011
 21
171.0
 31
0.0
  0
LINE
  5
43C
  8
0
 10
96.479399999999998
 20
171.0
 30
0.0
 11
97.941199999999995
 21
171.0
 31
0.0
  0
LINE
  5
43D
  8
0
 10
98.785300000000007
 20
169.0
 30
0.0
 11
99.444100000000006
 21
169.0
 31
0.0
  0
LINE
  5
43E
  8
0
 10
99.444100000000006
 20
169.0
 30
0.0
 11
99.691199999999995
 21
169.0
 31
0.0
  0
LINE
  5
43F
  8
0
 10
98.785300000000007
 20
169.0
 30
0.0
 11
99.444100000000006
 21
169.0
 31
0.0
  0
LINE
  5
440
  8
0
 10
99.650000000000006
 20
169.09620000000001
 30
0.0
 11
99.897099999999995
 21
169.09620000000001
 31
0.0
  0
LINE
  5
441
  8
0
 10
99.691199999999995
 20
169.0
 30
0.0
 11
99.897099999999995
 21
169.09620000000001
 31
0.0
  0
LINE
  5
442
  8
0
 10
99.752900000000011
 20
171.0
 30
0.0
 11
100.0
 21
171.0
 31
0.0
  0
LINE
  5
443
  8
0
 10
99.897099999999995
 20
169.09620000000001
 30
0.0
 11
100.0
 21
169.28849999999991
 31
0.0
  0
LINE
  5
444
  8
0
 10
100.0
 20
169.28849999999991
 30
0.0
 11
100.0
 21
171.0
 31
0.0
  0
LINE
  5
445
  8
0
 10
99.691199999999995
 20
169.0
 30
0.0
 11
99.897099999999995
 21
169.09620000000001
 31
0.0
  0
LINE
  5
446
  8
0
 10
99.444100000000006
 20
169.0
 30
0.0
 11
99.691199999999995
 21
169.0
 31
0.0
  0
LINE
  5
447
  8
0
 10
97.959999999999994
 20
171.0
 30
0.0
 11
100.0799999999999
 21
171.0
 31
0.0
  0
LINE
  5
448
  8
0
 10
96.0
 20
169.0
 30
0.0
 11
96.0
 21
159.0
 31
0.0
  0
LINE
  5
449
  8
0
 10
100.0799999999999
 20
171.0
 30
0.0
 11
101.68000000000001
 21
171.0
 31
0.0
  0
LINE
  5
44A
  8
0
 10
101.68000000000001
 20
171.0
 30
0.0
 11
102.6399999999999
 21
171.0
 31
0.0
  0
LINE
  5
44B
  8
0
 10
86.0
 20
176.0
 30
0.0
 11
86.0
 21
177.7115
 31
0.0
  0
LINE
  5
44C
  8
0
 10
93.0
 20
176.0
 30
0.0
 11
95.560000000000002
 21
176.0
 31
0.0
  0
LINE
  5
44D
  8
0
 10
95.560000000000002
 20
176.0
 30
0.0
 11
97.959999999999994
 21
176.0
 31
0.0
  0
LINE
  5
44E
  8
0
 10
100.0
 20
176.0
 30
0.0
 11
100.0
 21
177.7115
 31
0.0
  0
LINE
  5
44F
  8
0
 10
97.959999999999994
 20
176.0
 30
0.0
 11
100.0799999999999
 21
176.0
 31
0.0
  0
LINE
  5
450
  8
0
 10
100.0799999999999
 20
176.0
 30
0.0
 11
101.68000000000001
 21
176.0
 31
0.0
  0
LINE
  5
451
  8
0
 10
101.68000000000001
 20
176.0
 30
0.0
 11
102.6399999999999
 21
176.0
 31
0.0
  0
LINE
  5
452
  8
0
 10
87.029399999999981
 20
177.9037999999999
 30
0.0
 11
88.120599999999982
 21
177.9037999999999
 31
0.0
  0
LINE
  5
453
  8
0
 10
86.34999999999998
 20
177.9037999999999
 30
0.0
 11
87.029399999999981
 21
177.9037999999999
 31
0.0
  0
LINE
  5
454
  8
0
 10
88.120599999999982
 20
177.9037999999999
 30
0.0
 11
89.561800000000005
 21
177.9037999999999
 31
0.0
  0
LINE
  5
455
  8
0
 10
89.561800000000005
 20
177.9037999999999
 30
0.0
 11
91.229399999999984
 21
177.9037999999999
 31
0.0
  0
LINE
  5
456
  8
0
 10
97.879400000000004
 20
177.9037999999999
 30
0.0
 11
98.970600000000005
 21
177.9037999999999
 31
0.0
  0
LINE
  5
457
  8
0
 10
98.970600000000005
 20
177.9037999999999
 30
0.0
 11
99.650000000000006
 21
177.9037999999999
 31
0.0
  0
LINE
  5
458
  8
0
 10
99.650000000000006
 20
177.9037999999999
 30
0.0
 11
99.897099999999995
 21
177.9037999999999
 31
0.0
  0
LINE
  5
459
  8
0
 10
96.438199999999995
 20
177.9037999999999
 30
0.0
 11
97.879400000000004
 21
177.9037999999999
 31
0.0
  0
LINE
  5
45A
  8
0
 10
94.770599999999988
 20
177.9037999999999
 30
0.0
 11
96.438199999999995
 21
177.9037999999999
 31
0.0
  0
LINE
  5
45B
  8
0
 10
93.0
 20
177.9037999999999
 30
0.0
 11
94.770599999999988
 21
177.9037999999999
 31
0.0
  0
LINE
  5
45C
  8
0
 10
91.229399999999984
 20
177.9037999999999
 30
0.0
 11
93.0
 21
177.9037999999999
 31
0.0
  0
LINE
  5
45D
  8
0
 10
99.897099999999995
 20
177.9037999999999
 30
0.0
 11
100.0
 21
177.7115
 31
0.0
  0
LINE
  5
45E
  8
0
 10
100.0
 20
177.7115
 30
0.0
 11
100.0
 21
176.0
 31
0.0
  0
LINE
  5
45F
  8
0
 10
87.214699999999979
 20
178.0
 30
0.0
 11
88.264700000000005
 21
178.0
 31
0.0
  0
LINE
  5
460
  8
0
 10
86.55589999999998
 20
178.0
 30
0.0
 11
87.214699999999979
 21
178.0
 31
0.0
  0
LINE
  5
461
  8
0
 10
86.308800000000005
 20
178.0
 30
0.0
 11
86.55589999999998
 21
178.0
 31
0.0
  0
LINE
  5
462
  8
0
 10
88.264700000000005
 20
178.0
 30
0.0
 11
89.664699999999996
 21
178.0
 31
0.0
  0
LINE
  5
463
  8
0
 10
97.735299999999995
 20
178.0
 30
0.0
 11
98.785300000000007
 21
178.0
 31
0.0
  0
LINE
  5
464
  8
0
 10
98.785300000000007
 20
178.0
 30
0.0
 11
99.444100000000006
 21
178.0
 31
0.0
  0
LINE
  5
465
  8
0
 10
99.444100000000006
 20
178.0
 30
0.0
 11
99.691199999999995
 21
178.0
 31
0.0
  0
LINE
  5
466
  8
0
 10
96.335300000000004
 20
178.0
 30
0.0
 11
97.735299999999995
 21
178.0
 31
0.0
  0
LINE
  5
467
  8
0
 10
94.729399999999984
 20
178.0
 30
0.0
 11
96.335300000000004
 21
178.0
 31
0.0
  0
LINE
  5
468
  8
0
 10
93.0
 20
178.0
 30
0.0
 11
94.729399999999984
 21
178.0
 31
0.0
  0
LINE
  5
469
  8
0
 10
89.664699999999996
 20
178.0
 30
0.0
 11
91.270600000000002
 21
178.0
 31
0.0
  0
LINE
  5
46A
  8
0
 10
91.270600000000002
 20
178.0
 30
0.0
 11
93.0
 21
178.0
 31
0.0
  0
LINE
  5
46B
  8
0
 10
99.691199999999995
 20
178.0
 30
0.0
 11
99.897099999999995
 21
177.9037999999999
 31
0.0
  0
LINE
  5
46C
  8
0
 10
86.102900000000005
 20
177.9037999999999
 30
0.0
 11
86.308800000000005
 21
178.0
 31
0.0
  0
LINE
  5
46D
  8
0
 10
86.102900000000005
 20
177.9037999999999
 30
0.0
 11
86.34999999999998
 21
177.9037999999999
 31
0.0
  0
LINE
  5
46E
  8
0
 10
86.0
 20
177.7115
 30
0.0
 11
86.102900000000005
 21
177.9037999999999
 31
0.0
  0
LINE
  5
46F
  8
0
 10
86.0
 20
177.7115
 30
0.0
 11
86.0
 21
176.0
 31
0.0
  0
LINE
  5
470
  8
0
 10
102.6399999999999
 20
176.0
 30
0.0
 11
103.0
 21
176.0
 31
0.0
  0
LINE
  5
471
  8
0
 10
77.0
 20
173.88799999999981
 30
0.0
 11
77.0
 21
166.0
 31
0.0
  0
LINE
  5
472
  8
0
 10
100.0
 20
171.0
 30
0.0
 11
102.6399999999999
 21
171.0
 31
0.0
  0
LINE
  5
473
  8
0
 10
100.0
 20
171.0
 30
0.0
 11
100.0799999999999
 21
171.0
 31
0.0
  0
LINE
  5
474
  8
0
 10
100.0
 20
171.0
 30
0.0
 11
100.0
 21
169.28849999999991
 31
0.0
  0
LINE
  5
475
  8
0
 10
103.0
 20
171.0
 30
0.0
 11
103.0
 21
176.0
 31
0.0
  0
LINE
  5
476
  8
0
 10
103.0
 20
176.0
 30
0.0
 11
103.0
 21
171.0
 31
0.0
  0
LINE
  5
477
  8
0
 10
102.6399999999999
 20
171.0
 30
0.0
 11
103.0
 21
171.0
 31
0.0
  0
LINE
  5
478
  8
0
 10
77.0
 20
166.0
 30
0.0
 11
77.0
 21
173.88799999999981
 31
0.0
  0
LINE
  5
479
  8
0
 10
77.0
 20
166.0
 30
0.0
 11
78.668800000000005
 21
166.0
 31
0.0
  0
LINE
  5
47A
  8
0
 10
73.152000000000001
 20
166.9439999999999
 30
0.0
 11
74.496000000000024
 21
163.5839999999998
 31
0.0
  0
LINE
  5
47B
  8
0
 10
74.496000000000024
 20
163.5839999999998
 30
0.0
 11
75.0
 21
160.0
 31
0.0
  0
LINE
  5
47C
  8
0
 10
49.432000000000002
 20
156.928
 30
0.0
 11
50.583999999999982
 21
154.048
 31
0.0
  0
LINE
  5
47D
  8
0
 10
49.0
 20
160.0
 30
0.0
 11
49.432000000000002
 21
156.928
 31
0.0
  0
LINE
  5
47E
  8
0
 10
49.0
 20
160.0
 30
0.0
 11
49.432000000000002
 21
163.072
 31
0.0
  0
LINE
  5
47F
  8
0
 10
47.503999999999991
 20
156.416
 30
0.0
 11
48.847999999999999
 21
153.05600000000001
 31
0.0
  0
LINE
  5
480
  8
0
 10
47.0
 20
160.0
 30
0.0
 11
47.503999999999991
 21
156.416
 31
0.0
  0
LINE
  5
481
  8
0
 10
47.0
 20
160.0
 30
0.0
 11
47.503999999999991
 21
163.5839999999998
 31
0.0
  0
ENDSEC
  0
EOF
