  0
SECTION
  2
HEADER
  9
$ACADVER
  1
AC1015
  9
$ACADMAINTVER
 70
    13
  9
$DWGCODEPAGE
  3
ANSI_1252
  9
$INSBASE
 10
0.0
 20
0.0
 30
0.0
  9
$EXTMIN
 10
0.0
 20
0.0000000000000049
 30
0.0
  9
$EXTMAX
 10
122.0
 20
134.0
 30
0.0
  9
$LIMMIN
 10
0.0
 20
0.0
  9
$LIMMAX
 10
12.0
 20
9.0
  9
$ORTHOMODE
 70
     0
  9
$REGENMODE
 70
     1
  9
$FILLMODE
 70
     1
  9
$QTEXTMODE
 70
     0
  9
$MIRRTEXT
 70
     1
  9
$LTSCALE
 40
1.0
  9
$ATTMODE
 70
     1
  9
$TEXTSIZE
 40
0.2
  9
$TRACEWID
 40
0.05
  9
$TEXTSTYLE
  7
Standard
  9
$CLAYER
  8
0
  9
$CELTYPE
  6
Continuous
  9
$CECOLOR
 62
   256
  9
$CELTSCALE
 40
1.0
  9
$DISPSILH
 70
     0
  9
$DIMSCALE
 40
1.0
  9
$DIMASZ
 40
0.18
  9
$DIMEXO
 40
0.0625
  9
$DIMDLI
 40
0.38
  9
$DIMRND
 40
0.0
  9
$DIMDLE
 40
0.0
  9
$DIMEXE
 40
0.18
  9
$DIMTP
 40
0.0
  9
$DIMTM
 40
0.0
  9
$DIMTXT
 40
0.18
  9
$DIMCEN
 40
0.09
  9
$DIMTSZ
 40
0.0
  9
$DIMTOL
 70
     0
  9
$DIMLIM
 70
     0
  9
$DIMTIH
 70
     1
  9
$DIMTOH
 70
     1
  9
$DIMSE1
 70
     0
  9
$DIMSE2
 70
     0
  9
$DIMTAD
 70
     0
  9
$DIMZIN
 70
     0
  9
$DIMBLK
  1

  9
$DIMASO
 70
     1
  9
$DIMSHO
 70
     1
  9
$DIMPOST
  1

  9
$DIMAPOST
  1

  9
$DIMALT
 70
     0
  9
$DIMALTD
 70
     2
  9
$DIMALTF
 40
25.4
  9
$DIMLFAC
 40
1.0
  9
$DIMTOFL
 70
     0
  9
$DIMTVP
 40
0.0
  9
$DIMTIX
 70
     0
  9
$DIMSOXD
 70
     0
  9
$DIMSAH
 70
     0
  9
$DIMBLK1
  1

  9
$DIMBLK2
  1

  9
$DIMSTYLE
  2
Standard
  9
$DIMCLRD
 70
     0
  9
$DIMCLRE
 70
     0
  9
$DIMCLRT
 70
     0
  9
$DIMTFAC
 40
1.0
  9
$DIMGAP
 40
0.09
  9
$DIMJUST
 70
     0
  9
$DIMSD1
 70
     0
  9
$DIMSD2
 70
     0
  9
$DIMTOLJ
 70
     1
  9
$DIMTZIN
 70
     0
  9
$DIMALTZ
 70
     0
  9
$DIMALTTZ
 70
     0
  9
$DIMUPT
 70
     0
  9
$DIMDEC
 70
     4
  9
$DIMTDEC
 70
     4
  9
$DIMALTU
 70
     2
  9
$DIMALTTD
 70
     2
  9
$DIMTXSTY
  7
Standard
  9
$DIMAUNIT
 70
     0
  9
$DIMADEC
 70
     0
  9
$DIMALTRND
 40
0.0
  9
$DIMAZIN
 70
     0
  9
$DIMDSEP
 70
    46
  9
$DIMATFIT
 70
     3
  9
$DIMFRAC
 70
     0
  9
$DIMLDRBLK
  1

  9
$DIMLUNIT
 70
     2
  9
$DIMLWD
 70
    -2
  9
$DIMLWE
 70
    -2
  9
$DIMTMOVE
 70
     0
  9
$LUNITS
 70
     2
  9
$LUPREC
 70
     4
  9
$SKETCHINC
 40
0.1
  9
$FILLETRAD
 40
0.0
  9
$AUNITS
 70
     0
  9
$AUPREC
 70
     0
  9
$MENU
  1
.
  9
$ELEVATION
 40
0.0
  9
$PELEVATION
 40
0.0
  9
$THICKNESS
 40
0.0
  9
$LIMCHECK
 70
     0
  9
$CHAMFERA
 40
0.0
  9
$CHAMFERB
 40
0.0
  9
$CHAMFERC
 40
0.0
  9
$CHAMFERD
 40
0.0
  9
$SKPOLY
 70
     0
  9
$TDCREATE
 40
2454726.897221840
  9
$TDUCREATE
 40
2454726.813888507
  9
$TDUPDATE
 40
2454726.898135462
  9
$TDUUPDATE
 40
2454726.814802130
  9
$TDINDWG
 40
0.0009136227
  9
$TDUSRTIMER
 40
0.0009136227
  9
$USRTIMER
 70
     1
  9
$ANGBASE
 50
0.0
  9
$ANGDIR
 70
     0
  9
$PDMODE
 70
     0
  9
$PDSIZE
 40
0.0
  9
$PLINEWID
 40
0.0
  9
$SPLFRAME
 70
     0
  9
$SPLINETYPE
 70
     6
  9
$SPLINESEGS
 70
     8
  9
$HANDSEED
  5
3E9
  9
$SURFTAB1
 70
     6
  9
$SURFTAB2
 70
     6
  9
$SURFTYPE
 70
     6
  9
$SURFU
 70
     6
  9
$SURFV
 70
     6
  9
$UCSBASE
  2

  9
$UCSNAME
  2

  9
$UCSORG
 10
0.0
 20
0.0
 30
0.0
  9
$UCSXDIR
 10
1.0
 20
0.0
 30
0.0
  9
$UCSYDIR
 10
0.0
 20
1.0
 30
0.0
  9
$UCSORTHOREF
  2

  9
$UCSORTHOVIEW
 70
     1
  9
$UCSORGTOP
 10
0.0
 20
0.0
 30
0.0
  9
$UCSORGBOTTOM
 10
0.0
 20
0.0
 30
0.0
  9
$UCSORGLEFT
 10
0.0
 20
0.0
 30
0.0
  9
$UCSORGRIGHT
 10
0.0
 20
0.0
 30
0.0
  9
$UCSORGFRONT
 10
0.0
 20
0.0
 30
0.0
  9
$UCSORGBACK
 10
0.0
 20
0.0
 30
0.0
  9
$PUCSBASE
  2

  9
$PUCSNAME
  2

  9
$PUCSORG
 10
0.0
 20
0.0
 30
0.0
  9
$PUCSXDIR
 10
1.0
 20
0.0
 30
0.0
  9
$PUCSYDIR
 10
0.0
 20
1.0
 30
0.0
  9
$PUCSORTHOREF
  2

  9
$PUCSORTHOVIEW
 70
     0
  9
$PUCSORGTOP
 10
0.0
 20
0.0
 30
0.0
  9
$PUCSORGBOTTOM
 10
0.0
 20
0.0
 30
0.0
  9
$PUCSORGLEFT
 10
0.0
 20
0.0
 30
0.0
  9
$PUCSORGRIGHT
 10
0.0
 20
0.0
 30
0.0
  9
$PUCSORGFRONT
 10
0.0
 20
0.0
 30
0.0
  9
$PUCSORGBACK
 10
0.0
 20
0.0
 30
0.0
  9
$USERI1
 70
     0
  9
$USERI2
 70
     0
  9
$USERI3
 70
     0
  9
$USERI4
 70
     0
  9
$USERI5
 70
     0
  9
$USERR1
 40
0.0
  9
$USERR2
 40
0.0
  9
$USERR3
 40
0.0
  9
$USERR4
 40
0.0
  9
$USERR5
 40
0.0
  9
$WORLDVIEW
 70
     1
  9
$SHADEDGE
 70
     3
  9
$SHADEDIF
 70
    70
  9
$TILEMODE
 70
     1
  9
$MAXACTVP
 70
    64
  9
$PINSBASE
 10
0.0
 20
0.0
 30
0.0
  9
$PLIMCHECK
 70
     0
  9
$PEXTMIN
 10
1.000000000000000E+20
 20
1.000000000000000E+20
 30
1.000000000000000E+20
  9
$PEXTMAX
 10
-1.000000000000000E+20
 20
-1.000000000000000E+20
 30
-1.000000000000000E+20
  9
$PLIMMIN
 10
0.0
 20
0.0
  9
$PLIMMAX
 10
12.0
 20
9.0
  9
$UNITMODE
 70
     0
  9
$VISRETAIN
 70
     1
  9
$PLINEGEN
 70
     0
  9
$PSLTSCALE
 70
     1
  9
$TREEDEPTH
 70
  3020
  9
$CMLSTYLE
  2
Standard
  9
$CMLJUST
 70
     0
  9
$CMLSCALE
 40
1.0
  9
$PROXYGRAPHICS
 70
     1
  9
$MEASUREMENT
 70
     0
  9
$CELWEIGHT
370
    -1
  9
$ENDCAPS
280
     0
  9
$JOINSTYLE
280
     0
  9
$LWDISPLAY
290
     0
  9
$INSUNITS
 70
     0
  9
$HYPERLINKBASE
  1

  9
$STYLESHEET
  1

  9
$XEDIT
290
     1
  9
$CEPSNTYPE
380
     0
  9
$PSTYLEMODE
290
     1
  9
$FINGERPRINTGUID
  2
{FEA58691-7C5D-48A4-B574-7724DCD5712A}
  9
$VERSIONGUID
  2
{6AC9B2AC-A416-4DAC-8F6A-39519062ED57}
  9
$EXTNAMES
290
     1
  9
$PSVPSCALE
 40
0.0
  9
$OLESTARTUP
290
     0
  0
ENDSEC
  0
SECTION
  2
CLASSES
  0
CLASS
  1
ACDBDICTIONARYWDFLT
  2
AcDbDictionaryWithDefault
  3
AutoCAD 2000
 90
        0
280
     0
281
     0
  0
CLASS
  1
ACDBPLACEHOLDER
  2
AcDbPlaceHolder
  3
AutoCAD 2000
 90
        0
280
     0
281
     0
  0
CLASS
  1
LAYOUT
  2
AcDbLayout
  3
AutoCAD 2000
 90
        0
280
     0
281
     0
  0
CLASS
  1
DICTIONARYVAR
  2
AcDbDictionaryVar
  3
AutoCAD 2000
 90
        0
280
     0
281
     0
  0
ENDSEC
  0
SECTION
  2
TABLES
  0
TABLE
  2
VPORT
  5
8
330
0
100
AcDbSymbolTable
 70
     3
  0
VPORT
  5
3E8
330
8
100
AcDbSymbolTableRecord
100
AcDbViewportTableRecord
  2
*Active
 70
     0
 10
0.0
 20
0.0
 11
1.0
 21
1.0
 12
61.0
 22
67.0
 13
0.0
 23
0.0
 14
1.0
 24
1.0
 15
0.0
 25
0.0
 16
0.0
 26
0.0
 36
1.0
 17
0.0
 27
0.0
 37
0.0
 40
135.0281329923273
 41
2.078104993597951
 42
50.0
 43
0.0
 44
0.0
 50
0.0
 51
0.0
 71
     0
 72
   100
 73
     1
 74
     3
 75
     0
 76
     0
 77
     0
 78
     0
281
     0
 65
     1
110
0.0
120
0.0
130
0.0
111
1.0
121
0.0
131
0.0
112
0.0
122
1.0
132
0.0
 79
     1
146
0.0
  0
ENDTAB
  0
TABLE
  2
LTYPE
  5
5
330
0
100
AcDbSymbolTable
 70
     1
  0
LTYPE
  5
13
330
5
100
AcDbSymbolTableRecord
100
AcDbLinetypeTableRecord
  2
ByBlock
 70
     0
  3

 72
    65
 73
     0
 40
0.0
  0
LTYPE
  5
14
330
5
100
AcDbSymbolTableRecord
100
AcDbLinetypeTableRecord
  2
ByLayer
 70
     0
  3

 72
    65
 73
     0
 40
0.0
  0
LTYPE
  5
15
330
5
100
AcDbSymbolTableRecord
100
AcDbLinetypeTableRecord
  2
Continuous
 70
     0
  3
Solid line
 72
    65
 73
     0
 40
0.0
  0
ENDTAB
  0
TABLE
  2
LAYER
  5
2
330
0
100
AcDbSymbolTable
 70
     1
  0
LAYER
  5
10
330
2
100
AcDbSymbolTableRecord
100
AcDbLayerTableRecord
  2
0
 70
     0
 62
     7
  6
Continuous
370
    -3
390
F
  0
ENDTAB
  0
TABLE
  2
STYLE
  5
3
330
0
100
AcDbSymbolTable
 70
     1
  0
STYLE
  5
11
330
3
100
AcDbSymbolTableRecord
100
AcDbTextStyleTableRecord
  2
Standard
 70
     0
 40
0.0
 41
1.0
 50
0.0
 71
     0
 42
0.2
  3
txt
  4

  0
ENDTAB
  0
TABLE
  2
VIEW
  5
6
330
0
100
AcDbSymbolTable
 70
     0
  0
ENDTAB
  0
TABLE
  2
UCS
  5
7
330
0
100
AcDbSymbolTable
 70
     0
  0
ENDTAB
  0
TABLE
  2
APPID
  5
9
330
0
100
AcDbSymbolTable
 70
     1
  0
APPID
  5
12
330
9
100
AcDbSymbolTableRecord
100
AcDbRegAppTableRecord
  2
ACAD
 70
     0
  0
ENDTAB
  0
TABLE
  2
DIMSTYLE
  5
A
330
0
100
AcDbSymbolTable
 70
     1
100
AcDbDimStyleTable
 71
     0
  0
DIMSTYLE
105
3E1
330
A
100
AcDbSymbolTableRecord
100
AcDbDimStyleTableRecord
  2
Standard
 70
     0
340
11
  0
ENDTAB
  0
TABLE
  2
BLOCK_RECORD
  5
1
330
0
100
AcDbSymbolTable
 70
     0
  0
BLOCK_RECORD
  5
1E
330
1
100
AcDbSymbolTableRecord
100
AcDbBlockTableRecord
  2
*Model_Space
340
21
  0
BLOCK_RECORD
  5
1A
330
1
100
AcDbSymbolTableRecord
100
AcDbBlockTableRecord
  2
*Paper_Space
340
1D
  0
ENDTAB
  0
ENDSEC
  0
SECTION
  2
BLOCKS
  0
BLOCK
  5
1F
330
1E
100
AcDbEntity
  8
0
100
AcDbBlockBegin
  2
*Model_Space
 70
     0
 10
0.0
 20
0.0
 30
0.0
  3
*Model_Space
  1

  0
ENDBLK
  5
20
330
1E
100
AcDbEntity
  8
0
100
AcDbBlockEnd
  0
BLOCK
  5
1B
330
1A
100
AcDbEntity
 67
     1
  8
0
100
AcDbBlockBegin
  2
*Paper_Space
 70
     0
 10
0.0
 20
0.0
 30
0.0
  3
*Paper_Space
  1

  0
ENDBLK
  5
1C
330
1A
100
AcDbEntity
 67
     1
  8
0
100
AcDbBlockEnd
  0
ENDSEC
  0
SECTION
  2
ENTITIES
  0
LINE
  5
23
330
1E
100
AcDbEntity
  8
0
100
AcDbLine
 10
0.0
 20
5.500000000000009
 30
0.0
 11
0.116279
 21
4.682560000000009
 31
0.0
  0
LINE
  5
24
330
1E
100
AcDbEntity
  8
0
100
AcDbLine
 10
0.0
 20
5.500000000000009
 30
0.0
 11
0.0
 21
17.5
 31
0.0
  0
LINE
  5
25
330
1E
100
AcDbEntity
  8
0
100
AcDbLine
 10
0.0
 20
5.500000000000009
 30
0.0
 11
0.0
 21
17.5
 31
0.0
  0
LINE
  5
26
330
1E
100
AcDbEntity
  8
0
100
AcDbLine
 10
0.0
 20
5.500000000000009
 30
0.0
 11
0.116279
 21
4.682560000000009
 31
0.0
  0
LINE
  5
27
330
1E
100
AcDbEntity
  8
0
100
AcDbLine
 10
0.0
 20
5.500000000000009
 30
0.0
 11
0.0
 21
17.5
 31
0.0
  0
LINE
  5
28
330
1E
100
AcDbEntity
  8
0
100
AcDbLine
 10
0.0
 20
5.500000000000009
 30
0.0
 11
0.116279
 21
4.682560000000009
 31
0.0
  0
LINE
  5
29
330
1E
100
AcDbEntity
  8
0
100
AcDbLine
 10
0.0
 20
5.500000000000009
 30
0.0
 11
0.0
 21
17.5
 31
0.0
  0
LINE
  5
2A
330
1E
100
AcDbEntity
  8
0
100
AcDbLine
 10
0.0
 20
17.5
 30
0.0
 11
0.116279
 21
18.31739999999999
 31
0.0
  0
LINE
  5
2B
330
1E
100
AcDbEntity
  8
0
100
AcDbLine
 10
0.0
 20
17.5
 30
0.0
 11
0.0
 21
5.500000000000009
 31
0.0
  0
LINE
  5
2C
330
1E
100
AcDbEntity
  8
0
100
AcDbLine
 10
0.0
 20
17.5
 30
0.0
 11
0.116279
 21
18.31739999999999
 31
0.0
  0
LINE
  5
2D
330
1E
100
AcDbEntity
  8
0
100
AcDbLine
 10
0.0
 20
17.5
 30
0.0
 11
0.0
 21
5.5
 31
0.0
  0
LINE
  5
2E
330
1E
100
AcDbEntity
  8
0
100
AcDbLine
 10
0.0
 20
17.5
 30
0.0
 11
0.0
 21
5.500000000000009
 31
0.0
  0
LINE
  5
2F
330
1E
100
AcDbEntity
  8
0
100
AcDbLine
 10
0.0
 20
17.5
 30
0.0
 11
0.0
 21
5.500000000000009
 31
0.0
  0
LINE
  5
30
330
1E
100
AcDbEntity
  8
0
100
AcDbLine
 10
1.0
 20
3.500000000000009
 30
0.0
 11
1.0
 21
3.573980000000009
 31
0.0
  0
LINE
  5
31
330
1E
100
AcDbEntity
  8
0
100
AcDbLine
 10
1.0
 20
3.500000000000009
 30
0.0
 11
1.0
 21
3.573980000000009
 31
0.0
  0
LINE
  5
32
330
1E
100
AcDbEntity
  8
0
100
AcDbLine
 10
1.0
 20
3.500000000000009
 30
0.0
 11
1.0
 21
3.573980000000009
 31
0.0
  0
LINE
  5
33
330
1E
100
AcDbEntity
  8
0
100
AcDbLine
 10
1.0
 20
3.500000000000009
 30
0.0
 11
1.0
 21
3.573980000000009
 31
0.0
  0
LINE
  5
34
330
1E
100
AcDbEntity
  8
0
100
AcDbLine
 10
1.0
 20
3.500000000000009
 30
0.0
 11
1.0
 21
3.573980000000009
 31
0.0
  0
LINE
  5
35
330
1E
100
AcDbEntity
  8
0
100
AcDbLine
 10
1.0
 20
3.500000000000009
 30
0.0
 11
1.0
 21
3.573980000000009
 31
0.0
  0
LINE
  5
36
330
1E
100
AcDbEntity
  8
0
100
AcDbLine
 10
1.0
 20
3.500000000000009
 30
0.0
 11
1.0
 21
3.573980000000009
 31
0.0
  0
LINE
  5
37
330
1E
100
AcDbEntity
  8
0
100
AcDbLine
 10
1.0
 20
3.500000000000009
 30
0.0
 11
1.0
 21
3.573980000000009
 31
0.0
  0
LINE
  5
38
330
1E
100
AcDbEntity
  8
0
100
AcDbLine
 10
0.523255
 20
3.946870000000009
 30
0.0
 11
1.0
 21
3.500000000000009
 31
0.0
  0
LINE
  5
39
330
1E
100
AcDbEntity
  8
0
100
AcDbLine
 10
0.523255
 20
3.946870000000009
 30
0.0
 11
1.0
 21
3.500000000000009
 31
0.0
  0
LINE
  5
3A
330
1E
100
AcDbEntity
  8
0
100
AcDbLine
 10
0.523255
 20
3.946870000000009
 30
0.0
 11
1.0
 21
3.500000000000009
 31
0.0
  0
LINE
  5
3B
330
1E
100
AcDbEntity
  8
0
100
AcDbLine
 10
0.523255
 20
3.946870000000009
 30
0.0
 11
1.0
 21
3.500000000000009
 31
0.0
  0
LINE
  5
3C
330
1E
100
AcDbEntity
  8
0
100
AcDbLine
 10
0.523255
 20
3.946870000000009
 30
0.0
 11
1.0
 21
3.500000000000009
 31
0.0
  0
LINE
  5
3D
330
1E
100
AcDbEntity
  8
0
100
AcDbLine
 10
0.523255
 20
3.946870000000009
 30
0.0
 11
1.0
 21
3.500000000000009
 31
0.0
  0
LINE
  5
3E
330
1E
100
AcDbEntity
  8
0
100
AcDbLine
 10
0.523255
 20
3.946870000000009
 30
0.0
 11
1.0
 21
3.500000000000009
 31
0.0
  0
LINE
  5
3F
330
1E
100
AcDbEntity
  8
0
100
AcDbLine
 10
1.0
 20
3.573980000000009
 30
0.0
 11
1.0
 21
3.500000000000009
 31
0.0
  0
LINE
  5
40
330
1E
100
AcDbEntity
  8
0
100
AcDbLine
 10
1.0
 20
3.573980000000009
 30
0.0
 11
1.0
 21
3.765800000000009
 31
0.0
  0
LINE
  5
41
330
1E
100
AcDbEntity
  8
0
100
AcDbLine
 10
1.0
 20
3.573980000000009
 30
0.0
 11
1.0
 21
3.500000000000009
 31
0.0
  0
LINE
  5
42
330
1E
100
AcDbEntity
  8
0
100
AcDbLine
 10
1.0
 20
3.573980000000009
 30
0.0
 11
1.0
 21
3.765800000000009
 31
0.0
  0
LINE
  5
43
330
1E
100
AcDbEntity
  8
0
100
AcDbLine
 10
1.0
 20
3.573980000000009
 30
0.0
 11
1.0
 21
3.500000000000009
 31
0.0
  0
LINE
  5
44
330
1E
100
AcDbEntity
  8
0
100
AcDbLine
 10
1.0
 20
3.573980000000009
 30
0.0
 11
1.0
 21
3.765800000000009
 31
0.0
  0
LINE
  5
45
330
1E
100
AcDbEntity
  8
0
100
AcDbLine
 10
1.0
 20
3.573980000000009
 30
0.0
 11
1.0
 21
3.500000000000009
 31
0.0
  0
LINE
  5
46
330
1E
100
AcDbEntity
  8
0
100
AcDbLine
 10
1.0
 20
3.573980000000009
 30
0.0
 11
1.0
 21
3.765800000000009
 31
0.0
  0
LINE
  5
47
330
1E
100
AcDbEntity
  8
0
100
AcDbLine
 10
1.0
 20
3.573980000000009
 30
0.0
 11
1.0
 21
3.500000000000009
 31
0.0
  0
LINE
  5
48
330
1E
100
AcDbEntity
  8
0
100
AcDbLine
 10
1.0
 20
3.573980000000009
 30
0.0
 11
1.0
 21
3.765800000000009
 31
0.0
  0
LINE
  5
49
330
1E
100
AcDbEntity
  8
0
100
AcDbLine
 10
1.0
 20
3.573980000000009
 30
0.0
 11
1.0
 21
3.500000000000009
 31
0.0
  0
LINE
  5
4A
330
1E
100
AcDbEntity
  8
0
100
AcDbLine
 10
1.0
 20
3.573980000000009
 30
0.0
 11
1.0
 21
3.765800000000009
 31
0.0
  0
LINE
  5
4B
330
1E
100
AcDbEntity
  8
0
100
AcDbLine
 10
1.0
 20
3.573980000000009
 30
0.0
 11
1.0
 21
3.500000000000009
 31
0.0
  0
LINE
  5
4C
330
1E
100
AcDbEntity
  8
0
100
AcDbLine
 10
1.0
 20
3.573980000000009
 30
0.0
 11
1.0
 21
3.765800000000009
 31
0.0
  0
LINE
  5
4D
330
1E
100
AcDbEntity
  8
0
100
AcDbLine
 10
1.0
 20
3.573980000000009
 30
0.0
 11
1.0
 21
3.500000000000009
 31
0.0
  0
LINE
  5
4E
330
1E
100
AcDbEntity
  8
0
100
AcDbLine
 10
1.0
 20
3.765800000000009
 30
0.0
 11
1.0
 21
3.573980000000009
 31
0.0
  0
LINE
  5
4F
330
1E
100
AcDbEntity
  8
0
100
AcDbLine
 10
1.0
 20
3.765800000000009
 30
0.0
 11
1.0
 21
4.086240000000009
 31
0.0
  0
LINE
  5
50
330
1E
100
AcDbEntity
  8
0
100
AcDbLine
 10
1.0
 20
3.765800000000009
 30
0.0
 11
1.0
 21
4.086240000000009
 31
0.0
  0
LINE
  5
51
330
1E
100
AcDbEntity
  8
0
100
AcDbLine
 10
1.0
 20
3.765800000000009
 30
0.0
 11
1.0
 21
3.573980000000009
 31
0.0
  0
LINE
  5
52
330
1E
100
AcDbEntity
  8
0
100
AcDbLine
 10
1.0
 20
3.765800000000009
 30
0.0
 11
1.0
 21
4.086240000000009
 31
0.0
  0
LINE
  5
53
330
1E
100
AcDbEntity
  8
0
100
AcDbLine
 10
1.0
 20
3.765800000000009
 30
0.0
 11
1.0
 21
3.573980000000009
 31
0.0
  0
LINE
  5
54
330
1E
100
AcDbEntity
  8
0
100
AcDbLine
 10
1.0
 20
3.765800000000009
 30
0.0
 11
1.0
 21
4.086240000000009
 31
0.0
  0
LINE
  5
55
330
1E
100
AcDbEntity
  8
0
100
AcDbLine
 10
1.0
 20
3.765800000000009
 30
0.0
 11
1.0
 21
3.573980000000009
 31
0.0
  0
LINE
  5
56
330
1E
100
AcDbEntity
  8
0
100
AcDbLine
 10
1.0
 20
3.765800000000009
 30
0.0
 11
1.0
 21
4.086240000000009
 31
0.0
  0
LINE
  5
57
330
1E
100
AcDbEntity
  8
0
100
AcDbLine
 10
1.0
 20
3.765800000000009
 30
0.0
 11
1.0
 21
3.573980000000009
 31
0.0
  0
LINE
  5
58
330
1E
100
AcDbEntity
  8
0
100
AcDbLine
 10
1.0
 20
3.765800000000009
 30
0.0
 11
1.0
 21
4.086240000000009
 31
0.0
  0
LINE
  5
59
330
1E
100
AcDbEntity
  8
0
100
AcDbLine
 10
1.0
 20
3.765800000000009
 30
0.0
 11
1.0
 21
3.573980000000009
 31
0.0
  0
LINE
  5
5A
330
1E
100
AcDbEntity
  8
0
100
AcDbLine
 10
1.0
 20
3.765800000000009
 30
0.0
 11
1.0
 21
4.086240000000009
 31
0.0
  0
LINE
  5
5B
330
1E
100
AcDbEntity
  8
0
100
AcDbLine
 10
1.0
 20
3.765800000000009
 30
0.0
 11
1.0
 21
3.573980000000009
 31
0.0
  0
LINE
  5
5C
330
1E
100
AcDbEntity
  8
0
100
AcDbLine
 10
1.0
 20
3.7658
 30
0.0
 11
1.0
 21
3.573980000000009
 31
0.0
  0
LINE
  5
5D
330
1E
100
AcDbEntity
  8
0
100
AcDbLine
 10
1.0
 20
4.086240000000009
 30
0.0
 11
1.0
 21
3.7658
 31
0.0
  0
LINE
  5
5E
330
1E
100
AcDbEntity
  8
0
100
AcDbLine
 10
0.523255
 20
3.946870000000009
 30
0.0
 11
1.0
 21
3.500000000000009
 31
0.0
  0
LINE
  5
5F
330
1E
100
AcDbEntity
  8
0
100
AcDbLine
 10
1.0
 20
3.573980000000009
 30
0.0
 11
1.0
 21
3.765800000000009
 31
0.0
  0
LINE
  5
60
330
1E
100
AcDbEntity
  8
0
100
AcDbLine
 10
1.0
 20
3.573980000000009
 30
0.0
 11
1.0
 21
3.500000000000009
 31
0.0
  0
LINE
  5
61
330
1E
100
AcDbEntity
  8
0
100
AcDbLine
 10
1.0
 20
3.765800000000009
 30
0.0
 11
1.0
 21
4.086240000000009
 31
0.0
  0
LINE
  5
62
330
1E
100
AcDbEntity
  8
0
100
AcDbLine
 10
1.0
 20
3.765800000000009
 30
0.0
 11
1.0
 21
4.086240000000009
 31
0.0
  0
LINE
  5
63
330
1E
100
AcDbEntity
  8
0
100
AcDbLine
 10
1.0
 20
3.765800000000009
 30
0.0
 11
1.0
 21
3.573980000000009
 31
0.0
  0
LINE
  5
64
330
1E
100
AcDbEntity
  8
0
100
AcDbLine
 10
1.0
 20
4.086240000000009
 30
0.0
 11
1.0
 21
3.765800000000009
 31
0.0
  0
LINE
  5
65
330
1E
100
AcDbEntity
  8
0
100
AcDbLine
 10
1.0
 20
4.086240000000009
 30
0.0
 11
1.0
 21
4.508170000000009
 31
0.0
  0
LINE
  5
66
330
1E
100
AcDbEntity
  8
0
100
AcDbLine
 10
1.0
 20
4.086240000000009
 30
0.0
 11
1.0
 21
4.508170000000009
 31
0.0
  0
LINE
  5
67
330
1E
100
AcDbEntity
  8
0
100
AcDbLine
 10
1.0
 20
4.086240000000009
 30
0.0
 11
1.0
 21
3.765800000000009
 31
0.0
  0
LINE
  5
68
330
1E
100
AcDbEntity
  8
0
100
AcDbLine
 10
1.0
 20
4.086240000000009
 30
0.0
 11
1.0
 21
4.508170000000009
 31
0.0
  0
LINE
  5
69
330
1E
100
AcDbEntity
  8
0
100
AcDbLine
 10
1.0
 20
4.086240000000009
 30
0.0
 11
1.0
 21
3.765800000000009
 31
0.0
  0
LINE
  5
6A
330
1E
100
AcDbEntity
  8
0
100
AcDbLine
 10
1.0
 20
4.086240000000009
 30
0.0
 11
1.0
 21
4.508170000000009
 31
0.0
  0
LINE
  5
6B
330
1E
100
AcDbEntity
  8
0
100
AcDbLine
 10
1.0
 20
4.086240000000009
 30
0.0
 11
1.0
 21
3.765800000000009
 31
0.0
  0
LINE
  5
6C
330
1E
100
AcDbEntity
  8
0
100
AcDbLine
 10
1.0
 20
4.508170000000009
 30
0.0
 11
1.0
 21
4.086240000000009
 31
0.0
  0
LINE
  5
6D
330
1E
100
AcDbEntity
  8
0
100
AcDbLine
 10
1.0
 20
4.508170000000009
 30
0.0
 11
1.0
 21
4.987740000000009
 31
0.0
  0
LINE
  5
6E
330
1E
100
AcDbEntity
  8
0
100
AcDbLine
 10
1.0
 20
4.508170000000009
 30
0.0
 11
1.0
 21
4.086240000000009
 31
0.0
  0
LINE
  5
6F
330
1E
100
AcDbEntity
  8
0
100
AcDbLine
 10
1.0
 20
4.508170000000009
 30
0.0
 11
1.0
 21
4.086240000000009
 31
0.0
  0
LINE
  5
70
330
1E
100
AcDbEntity
  8
0
100
AcDbLine
 10
1.0
 20
4.086240000000009
 30
0.0
 11
1.0
 21
4.508170000000009
 31
0.0
  0
LINE
  5
71
330
1E
100
AcDbEntity
  8
0
100
AcDbLine
 10
1.0
 20
4.086240000000009
 30
0.0
 11
1.0
 21
3.765800000000009
 31
0.0
  0
LINE
  5
72
330
1E
100
AcDbEntity
  8
0
100
AcDbLine
 10
1.0
 20
4.508170000000009
 30
0.0
 11
1.0
 21
4.987740000000009
 31
0.0
  0
LINE
  5
73
330
1E
100
AcDbEntity
  8
0
100
AcDbLine
 10
1.0
 20
4.508170000000009
 30
0.0
 11
1.0
 21
4.086240000000009
 31
0.0
  0
LINE
  5
74
330
1E
100
AcDbEntity
  8
0
100
AcDbLine
 10
1.0
 20
4.508170000000009
 30
0.0
 11
1.0
 21
4.086240000000009
 31
0.0
  0
LINE
  5
75
330
1E
100
AcDbEntity
  8
0
100
AcDbLine
 10
1.0
 20
4.086240000000009
 30
0.0
 11
1.0
 21
4.508170000000009
 31
0.0
  0
LINE
  5
76
330
1E
100
AcDbEntity
  8
0
100
AcDbLine
 10
1.0
 20
4.086240000000009
 30
0.0
 11
1.0
 21
3.765800000000009
 31
0.0
  0
LINE
  5
77
330
1E
100
AcDbEntity
  8
0
100
AcDbLine
 10
1.0
 20
4.508170000000009
 30
0.0
 11
1.0
 21
4.987740000000009
 31
0.0
  0
LINE
  5
78
330
1E
100
AcDbEntity
  8
0
100
AcDbLine
 10
1.0
 20
4.508170000000009
 30
0.0
 11
1.0
 21
4.086240000000009
 31
0.0
  0
LINE
  5
79
330
1E
100
AcDbEntity
  8
0
100
AcDbLine
 10
1.0
 20
4.508170000000009
 30
0.0
 11
1.0
 21
4.086240000000009
 31
0.0
  0
LINE
  5
7A
330
1E
100
AcDbEntity
  8
0
100
AcDbLine
 10
1.0
 20
4.086240000000009
 30
0.0
 11
1.0
 21
4.508170000000009
 31
0.0
  0
LINE
  5
7B
330
1E
100
AcDbEntity
  8
0
100
AcDbLine
 10
1.0
 20
4.086240000000009
 30
0.0
 11
1.0
 21
4.508170000000009
 31
0.0
  0
LINE
  5
7C
330
1E
100
AcDbEntity
  8
0
100
AcDbLine
 10
1.0
 20
4.086240000000009
 30
0.0
 11
1.0
 21
3.765800000000009
 31
0.0
  0
LINE
  5
7D
330
1E
100
AcDbEntity
  8
0
100
AcDbLine
 10
0.116279
 20
4.682559999999999
 30
0.0
 11
0.523255
 21
3.946870000000009
 31
0.0
  0
LINE
  5
7E
330
1E
100
AcDbEntity
  8
0
100
AcDbLine
 10
1.0
 20
4.086240000000009
 30
0.0
 11
1.0
 21
4.508170000000009
 31
0.0
  0
LINE
  5
7F
330
1E
100
AcDbEntity
  8
0
100
AcDbLine
 10
1.0
 20
4.086240000000009
 30
0.0
 11
1.0
 21
3.765800000000009
 31
0.0
  0
LINE
  5
80
330
1E
100
AcDbEntity
  8
0
100
AcDbLine
 10
1.0
 20
4.508170000000009
 30
0.0
 11
1.0
 21
4.987740000000009
 31
0.0
  0
LINE
  5
81
330
1E
100
AcDbEntity
  8
0
100
AcDbLine
 10
1.0
 20
4.508170000000009
 30
0.0
 11
1.0
 21
4.086240000000009
 31
0.0
  0
LINE
  5
82
330
1E
100
AcDbEntity
  8
0
100
AcDbLine
 10
1.0
 20
4.508170000000009
 30
0.0
 11
1.0
 21
4.086240000000009
 31
0.0
  0
LINE
  5
83
330
1E
100
AcDbEntity
  8
0
100
AcDbLine
 10
1.0
 20
4.508170000000009
 30
0.0
 11
1.0
 21
4.086240000000009
 31
0.0
  0
LINE
  5
84
330
1E
100
AcDbEntity
  8
0
100
AcDbLine
 10
0.116279
 20
4.682560000000009
 30
0.0
 11
0.523255
 21
3.946870000000009
 31
0.0
  0
LINE
  5
85
330
1E
100
AcDbEntity
  8
0
100
AcDbLine
 10
0.116279
 20
4.682560000000009
 30
0.0
 11
0.523255
 21
3.946870000000009
 31
0.0
  0
LINE
  5
86
330
1E
100
AcDbEntity
  8
0
100
AcDbLine
 10
0.116279
 20
4.682560000000009
 30
0.0
 11
0.523255
 21
3.946870000000009
 31
0.0
  0
LINE
  5
87
330
1E
100
AcDbEntity
  8
0
100
AcDbLine
 10
0.116279
 20
4.682560000000009
 30
0.0
 11
0.523255
 21
3.946870000000009
 31
0.0
  0
LINE
  5
88
330
1E
100
AcDbEntity
  8
0
100
AcDbLine
 10
0.116279
 20
4.682560000000009
 30
0.0
 11
0.523255
 21
3.946870000000009
 31
0.0
  0
LINE
  5
89
330
1E
100
AcDbEntity
  8
0
100
AcDbLine
 10
0.116279
 20
4.682560000000009
 30
0.0
 11
0.523255
 21
3.946870000000009
 31
0.0
  0
LINE
  5
8A
330
1E
100
AcDbEntity
  8
0
100
AcDbLine
 10
0.116279
 20
4.682560000000009
 30
0.0
 11
0.523255
 21
3.946870000000009
 31
0.0
  0
LINE
  5
8B
330
1E
100
AcDbEntity
  8
0
100
AcDbLine
 10
0.116279
 20
4.682560000000009
 30
0.0
 11
0.523255
 21
3.946870000000009
 31
0.0
  0
LINE
  5
8C
330
1E
100
AcDbEntity
  8
0
100
AcDbLine
 10
0.116279
 20
4.682560000000009
 30
0.0
 11
0.523255
 21
3.946870000000009
 31
0.0
  0
LINE
  5
8D
330
1E
100
AcDbEntity
  8
0
100
AcDbLine
 10
0.116279
 20
4.682560000000009
 30
0.0
 11
0.523255
 21
3.946870000000009
 31
0.0
  0
LINE
  5
8E
330
1E
100
AcDbEntity
  8
0
100
AcDbLine
 10
0.116279
 20
4.682560000000009
 30
0.0
 11
0.523255
 21
3.946870000000009
 31
0.0
  0
LINE
  5
8F
330
1E
100
AcDbEntity
  8
0
100
AcDbLine
 10
0.116279
 20
4.682560000000009
 30
0.0
 11
0.523255
 21
3.946870000000009
 31
0.0
  0
LINE
  5
90
330
1E
100
AcDbEntity
  8
0
100
AcDbLine
 10
0.116279
 20
4.682560000000009
 30
0.0
 11
0.523255
 21
3.946870000000009
 31
0.0
  0
LINE
  5
91
330
1E
100
AcDbEntity
  8
0
100
AcDbLine
 10
0.116279
 20
4.682560000000009
 30
0.0
 11
0.523255
 21
3.946870000000009
 31
0.0
  0
LINE
  5
93
330
1E
100
AcDbEntity
  8
0
100
AcDbLine
 10
1.0
 20
4.987740000000009
 30
0.0
 11
1.0
 21
4.508170000000009
 31
0.0
  0
LINE
  5
94
330
1E
100
AcDbEntity
  8
0
100
AcDbLine
 10
1.0
 20
4.987740000000009
 30
0.0
 11
1.0
 21
5.500000000000009
 31
0.0
  0
LINE
  5
95
330
1E
100
AcDbEntity
  8
0
100
AcDbLine
 10
1.0
 20
4.987740000000009
 30
0.0
 11
1.0
 21
5.500000000000009
 31
0.0
  0
LINE
  5
96
330
1E
100
AcDbEntity
  8
0
100
AcDbLine
 10
1.0
 20
4.987740000000009
 30
0.0
 11
1.0
 21
4.508170000000009
 31
0.0
  0
LINE
  5
97
330
1E
100
AcDbEntity
  8
0
100
AcDbLine
 10
1.0
 20
4.987740000000009
 30
0.0
 11
1.0
 21
5.500000000000009
 31
0.0
  0
LINE
  5
98
330
1E
100
AcDbEntity
  8
0
100
AcDbLine
 10
1.0
 20
4.987740000000009
 30
0.0
 11
1.0
 21
4.508170000000009
 31
0.0
  0
LINE
  5
99
330
1E
100
AcDbEntity
  8
0
100
AcDbLine
 10
1.0
 20
5.500000000000009
 30
0.0
 11
1.0
 21
4.987740000000009
 31
0.0
  0
LINE
  5
9A
330
1E
100
AcDbEntity
  8
0
100
AcDbLine
 10
1.0
 20
5.500000000000009
 30
0.0
 11
1.0
 21
17.5
 31
0.0
  0
LINE
  5
A4
330
1E
100
AcDbEntity
  8
0
100
AcDbLine
 10
0.116279
 20
18.31739999999999
 30
0.0
 11
0.523255
 21
19.0531
 31
0.0
  0
LINE
  5
A6
330
1E
100
AcDbEntity
  8
0
100
AcDbLine
 10
0.116279
 20
18.31739999999999
 30
0.0
 11
0.523255
 21
19.0531
 31
0.0
  0
LINE
  5
A7
330
1E
100
AcDbEntity
  8
0
100
AcDbLine
 10
0.116279
 20
18.31739999999999
 30
0.0
 11
0.523255
 21
19.0531
 31
0.0
  0
LINE
  5
AC
330
1E
100
AcDbEntity
  8
0
100
AcDbLine
 10
1.0
 20
5.500000000000009
 30
0.0
 11
1.0
 21
17.5
 31
0.0
  0
LINE
  5
AD
330
1E
100
AcDbEntity
  8
0
100
AcDbLine
 10
1.0
 20
5.500000000000009
 30
0.0
 11
1.0
 21
4.987740000000009
 31
0.0
  0
LINE
  5
AE
330
1E
100
AcDbEntity
  8
0
100
AcDbLine
 10
1.0
 20
5.500000000000009
 30
0.0
 11
1.0
 21
4.987740000000009
 31
0.0
  0
LINE
  5
AF
330
1E
100
AcDbEntity
  8
0
100
AcDbLine
 10
1.0
 20
5.500000000000009
 30
0.0
 11
1.0
 21
17.5
 31
0.0
  0
LINE
  5
B0
330
1E
100
AcDbEntity
  8
0
100
AcDbLine
 10
1.0
 20
5.500000000000009
 30
0.0
 11
1.0
 21
17.5
 31
0.0
  0
LINE
  5
B1
330
1E
100
AcDbEntity
  8
0
100
AcDbLine
 10
1.0
 20
5.500000000000009
 30
0.0
 11
1.0
 21
17.5
 31
0.0
  0
LINE
  5
B2
330
1E
100
AcDbEntity
  8
0
100
AcDbLine
 10
1.0
 20
5.500000000000009
 30
0.0
 11
1.0
 21
4.987740000000009
 31
0.0
  0
LINE
  5
B5
330
1E
100
AcDbEntity
  8
0
100
AcDbLine
 10
1.0
 20
18.0123
 30
0.0
 11
1.0
 21
18.4918
 31
0.0
  0
LINE
  5
B6
330
1E
100
AcDbEntity
  8
0
100
AcDbLine
 10
1.0
 20
18.0123
 30
0.0
 11
1.0
 21
17.5
 31
0.0
  0
LINE
  5
B7
330
1E
100
AcDbEntity
  8
0
100
AcDbLine
 10
1.0
 20
17.5
 30
0.0
 11
1.0
 21
18.0123
 31
0.0
  0
LINE
  5
B8
330
1E
100
AcDbEntity
  8
0
100
AcDbLine
 10
1.0
 20
17.5
 30
0.0
 11
1.0
 21
5.500000000000009
 31
0.0
  0
LINE
  5
B9
330
1E
100
AcDbEntity
  8
0
100
AcDbLine
 10
0.523255
 20
19.0531
 30
0.0
 11
1.0
 21
19.5
 31
0.0
  0
LINE
  5
BA
330
1E
100
AcDbEntity
  8
0
100
AcDbLine
 10
1.0
 20
18.91379999999999
 30
0.0
 11
1.0
 21
19.2342
 31
0.0
  0
LINE
  5
BB
330
1E
100
AcDbEntity
  8
0
100
AcDbLine
 10
1.0
 20
18.91379999999999
 30
0.0
 11
1.0
 21
18.4918
 31
0.0
  0
LINE
  5
BC
330
1E
100
AcDbEntity
  8
0
100
AcDbLine
 10
1.0
 20
18.4918
 30
0.0
 11
1.0
 21
18.91379999999999
 31
0.0
  0
LINE
  5
BD
330
1E
100
AcDbEntity
  8
0
100
AcDbLine
 10
1.0
 20
18.4918
 30
0.0
 11
1.0
 21
18.0123
 31
0.0
  0
LINE
  5
BE
330
1E
100
AcDbEntity
  8
0
100
AcDbLine
 10
0.523255
 20
19.0531
 30
0.0
 11
1.0
 21
19.5
 31
0.0
  0
LINE
  5
BF
330
1E
100
AcDbEntity
  8
0
100
AcDbLine
 10
1.0
 20
19.42599999999999
 30
0.0
 11
1.0
 21
19.5
 31
0.0
  0
LINE
  5
C0
330
1E
100
AcDbEntity
  8
0
100
AcDbLine
 10
1.0
 20
19.42599999999999
 30
0.0
 11
1.0
 21
19.2342
 31
0.0
  0
LINE
  5
C1
330
1E
100
AcDbEntity
  8
0
100
AcDbLine
 10
1.0
 20
19.2342
 30
0.0
 11
1.0
 21
19.42599999999999
 31
0.0
  0
LINE
  5
C2
330
1E
100
AcDbEntity
  8
0
100
AcDbLine
 10
1.0
 20
19.2342
 30
0.0
 11
1.0
 21
18.91379999999999
 31
0.0
  0
LINE
  5
C3
330
1E
100
AcDbEntity
  8
0
100
AcDbLine
 10
1.0
 20
19.5
 30
0.0
 11
1.0
 21
19.42599999999999
 31
0.0
  0
LINE
  5
C4
330
1E
100
AcDbEntity
  8
0
100
AcDbLine
 10
1.0
 20
19.5
 30
0.0
 11
1.0
 21
19.42599999999999
 31
0.0
  0
LINE
  5
C5
330
1E
100
AcDbEntity
  8
0
100
AcDbLine
 10
1.0
 20
19.42599999999999
 30
0.0
 11
1.0
 21
19.5
 31
0.0
  0
LINE
  5
C6
330
1E
100
AcDbEntity
  8
0
100
AcDbLine
 10
1.0
 20
19.42599999999999
 30
0.0
 11
1.0
 21
19.2342
 31
0.0
  0
LINE
  5
C7
330
1E
100
AcDbEntity
  8
0
100
AcDbLine
 10
1.0
 20
19.2342
 30
0.0
 11
1.0
 21
19.42599999999999
 31
0.0
  0
LINE
  5
C8
330
1E
100
AcDbEntity
  8
0
100
AcDbLine
 10
1.0
 20
19.2342
 30
0.0
 11
1.0
 21
18.91379999999999
 31
0.0
  0
LINE
  5
C9
330
1E
100
AcDbEntity
  8
0
100
AcDbLine
 10
1.0
 20
18.91379999999999
 30
0.0
 11
1.0
 21
19.2342
 31
0.0
  0
LINE
  5
CA
330
1E
100
AcDbEntity
  8
0
100
AcDbLine
 10
1.0
 20
18.91379999999999
 30
0.0
 11
1.0
 21
18.4918
 31
0.0
  0
LINE
  5
CB
330
1E
100
AcDbEntity
  8
0
100
AcDbLine
 10
1.0
 20
18.4918
 30
0.0
 11
1.0
 21
18.91379999999999
 31
0.0
  0
LINE
  5
CC
330
1E
100
AcDbEntity
  8
0
100
AcDbLine
 10
1.0
 20
18.4918
 30
0.0
 11
1.0
 21
18.0123
 31
0.0
  0
LINE
  5
CD
330
1E
100
AcDbEntity
  8
0
100
AcDbLine
 10
1.0
 20
18.0123
 30
0.0
 11
1.0
 21
18.4918
 31
0.0
  0
LINE
  5
CE
330
1E
100
AcDbEntity
  8
0
100
AcDbLine
 10
1.0
 20
18.0123
 30
0.0
 11
1.0
 21
17.5
 31
0.0
  0
LINE
  5
CF
330
1E
100
AcDbEntity
  8
0
100
AcDbLine
 10
1.0
 20
17.5
 30
0.0
 11
1.0
 21
18.0123
 31
0.0
  0
LINE
  5
D0
330
1E
100
AcDbEntity
  8
0
100
AcDbLine
 10
1.0
 20
17.5
 30
0.0
 11
1.0
 21
5.5
 31
0.0
  0
LINE
  5
D1
330
1E
100
AcDbEntity
  8
0
100
AcDbLine
 10
1.0
 20
17.5
 30
0.0
 11
1.0
 21
5.500000000000009
 31
0.0
  0
LINE
  5
D2
330
1E
100
AcDbEntity
  8
0
100
AcDbLine
 10
1.0
 20
17.5
 30
0.0
 11
1.0
 21
5.500000000000009
 31
0.0
  0
LINE
  5
D3
330
1E
100
AcDbEntity
  8
0
100
AcDbLine
 10
0.116279
 20
18.31739999999999
 30
0.0
 11
0.523255
 21
19.0531
 31
0.0
  0
LINE
  5
D5
330
1E
100
AcDbEntity
  8
0
100
AcDbLine
 10
1.0
 20
4.987740000000009
 30
0.0
 11
1.0
 21
5.500000000000009
 31
0.0
  0
LINE
  5
D6
330
1E
100
AcDbEntity
  8
0
100
AcDbLine
 10
1.0
 20
4.987740000000009
 30
0.0
 11
1.0
 21
4.508170000000009
 31
0.0
  0
LINE
  5
D7
330
1E
100
AcDbEntity
  8
0
100
AcDbLine
 10
0.116279
 20
4.682559999999999
 30
0.0
 11
0.523255
 21
3.946870000000009
 31
0.0
  0
LINE
  5
D8
330
1E
100
AcDbEntity
  8
0
100
AcDbLine
 10
0.0
 20
5.500000000000009
 30
0.0
 11
0.116279
 21
4.682559999999999
 31
0.0
  0
LINE
  5
D9
330
1E
100
AcDbEntity
  8
0
100
AcDbLine
 10
0.0
 20
5.500000000000009
 30
0.0
 11
0.0
 21
17.5
 31
0.0
  0
LINE
  5
DA
330
1E
100
AcDbEntity
  8
0
100
AcDbLine
 10
1.0
 20
2.00000000000001
 30
0.0
 11
1.0
 21
21.0
 31
0.0
  0
LINE
  5
DB
330
1E
100
AcDbEntity
  8
0
100
AcDbLine
 10
1.3
 20
2.00000000000001
 30
0.0
 11
1.5
 21
1.50000000000001
 31
0.0
  0
LINE
  5
DC
330
1E
100
AcDbEntity
  8
0
100
AcDbLine
 10
1.3
 20
2.00000000000001
 30
0.0
 11
1.3
 21
21.0
 31
0.0
  0
LINE
  5
DD
330
1E
100
AcDbEntity
  8
0
100
AcDbLine
 10
1.0
 20
2.0
 30
0.0
 11
1.0
 21
21.0
 31
0.0
  0
LINE
  5
DE
330
1E
100
AcDbEntity
  8
0
100
AcDbLine
 10
1.0
 20
2.0
 30
0.0
 11
1.3
 21
1.3
 31
0.0
  0
LINE
  5
DF
330
1E
100
AcDbEntity
  8
0
100
AcDbLine
 10
1.0
 20
2.0
 30
0.0
 11
1.3
 21
1.3
 31
0.0
  0
LINE
  5
E0
330
1E
100
AcDbEntity
  8
0
100
AcDbLine
 10
1.3
 20
1.3
 30
0.0
 11
2.0
 21
1.0
 31
0.0
  0
LINE
  5
E1
330
1E
100
AcDbEntity
  8
0
100
AcDbLine
 10
1.0
 20
21.0
 30
0.0
 11
1.3
 21
21.69999999999999
 31
0.0
  0
LINE
  5
E2
330
1E
100
AcDbEntity
  8
0
100
AcDbLine
 10
1.0
 20
21.0
 30
0.0
 11
1.0
 21
2.00000000000001
 31
0.0
  0
LINE
  5
E4
330
1E
100
AcDbEntity
  8
0
100
AcDbLine
 10
1.3
 20
1.3
 30
0.0
 11
2.0
 21
1.0
 31
0.0
  0
LINE
  5
E5
330
1E
100
AcDbEntity
  8
0
100
AcDbLine
 10
1.0
 20
21.0
 30
0.0
 11
1.3
 21
21.69999999999999
 31
0.0
  0
LINE
  5
E6
330
1E
100
AcDbEntity
  8
0
100
AcDbLine
 10
1.0
 20
21.0
 30
0.0
 11
1.0
 21
2.00000000000001
 31
0.0
  0
LINE
  5
E7
330
1E
100
AcDbEntity
  8
0
100
AcDbLine
 10
1.3
 20
21.0
 30
0.0
 11
1.5
 21
21.49999999999999
 31
0.0
  0
LINE
  5
E8
330
1E
100
AcDbEntity
  8
0
100
AcDbLine
 10
1.3
 20
21.0
 30
0.0
 11
1.3
 21
2.00000000000001
 31
0.0
  0
LINE
  5
E9
330
1E
100
AcDbEntity
  8
0
100
AcDbLine
 10
1.0
 20
132.0
 30
0.0
 11
20.03571428571429
 21
132.0
 31
0.0
  0
LINE
  5
EA
330
1E
100
AcDbEntity
  8
0
100
AcDbLine
 10
1.0
 20
132.0
 30
0.0
 11
20.24722222222219
 21
120.1555555555559
 31
0.0
  0
LINE
  5
EB
330
1E
100
AcDbEntity
  8
0
100
AcDbLine
 10
1.0
 20
134.0
 30
0.0
 11
20.0
 21
134.0
 31
0.0
  0
LINE
  5
EC
330
1E
100
AcDbEntity
  8
0
100
AcDbLine
 10
1.0
 20
134.0
 30
0.0
 11
1.0
 21
132.0
 31
0.0
  0
LINE
  5
ED
330
1E
100
AcDbEntity
  8
0
100
AcDbLine
 10
1.0
 20
134.0
 30
0.0
 11
20.0
 21
134.0
 31
0.0
  0
LINE
  5
EE
330
1E
100
AcDbEntity
  8
0
100
AcDbLine
 10
1.0
 20
132.0
 30
0.0
 11
1.0
 21
134.0
 31
0.0
  0
LINE
  5
EF
330
1E
100
AcDbEntity
  8
0
100
AcDbLine
 10
1.0
 20
132.0
 30
0.0
 11
20.03571428571429
 21
132.0
 31
0.0
  0
LINE
  5
F0
330
1E
100
AcDbEntity
  8
0
100
AcDbLine
 10
1.0
 20
132.0
 30
0.0
 11
20.24722222222219
 21
120.1555555555559
 31
0.0
  0
LINE
  5
F2
330
1E
100
AcDbEntity
  8
0
100
AcDbLine
 10
1.3
 20
21.69999999999999
 30
0.0
 11
2.0
 21
22.0
 31
0.0
  0
LINE
  5
F4
330
1E
100
AcDbEntity
  8
0
100
AcDbLine
 10
1.3
 20
21.69999999999999
 30
0.0
 11
2.0
 21
22.0
 31
0.0
  0
LINE
  5
F5
330
1E
100
AcDbEntity
  8
0
100
AcDbLine
 10
1.3
 20
21.0
 30
0.0
 11
1.5
 21
21.49999999999999
 31
0.0
  0
LINE
  5
F6
330
1E
100
AcDbEntity
  8
0
100
AcDbLine
 10
1.3
 20
21.0
 30
0.0
 11
1.3
 21
2.00000000000001
 31
0.0
  0
LINE
  5
F7
330
1E
100
AcDbEntity
  8
0
100
AcDbLine
 10
2.0
 20
1.0
 30
0.0
 11
120.0
 21
1.0
 31
0.0
  0
LINE
  5
F8
330
1E
100
AcDbEntity
  8
0
100
AcDbLine
 10
2.0
 20
1.30000000000001
 30
0.0
 11
120.0
 21
1.30000000000001
 31
0.0
  0
LINE
  5
F9
330
1E
100
AcDbEntity
  8
0
100
AcDbLine
 10
2.0
 20
1.0
 30
0.0
 11
120.0
 21
1.0
 31
0.0
  0
LINE
  5
FA
330
1E
100
AcDbEntity
  8
0
100
AcDbLine
 10
2.0
 20
1.0
 30
0.0
 11
120.0
 21
1.0
 31
0.0
  0
LINE
  5
FB
330
1E
100
AcDbEntity
  8
0
100
AcDbLine
 10
2.0
 20
1.0
 30
0.0
 11
120.0
 21
1.0
 31
0.0
  0
LINE
  5
FC
330
1E
100
AcDbEntity
  8
0
100
AcDbLine
 10
6.182559999999999
 20
0.116279000000006
 30
0.0
 11
7.0
 21
0.0000000000000056
 31
0.0
  0
LINE
  5
FD
330
1E
100
AcDbEntity
  8
0
100
AcDbLine
 10
6.182559999999999
 20
0.116279000000006
 30
0.0
 11
7.0
 21
0.0000000000000056
 31
0.0
  0
LINE
  5
FE
330
1E
100
AcDbEntity
  8
0
100
AcDbLine
 10
6.182559999999999
 20
0.116279000000006
 30
0.0
 11
7.0
 21
0.0000000000000063
 31
0.0
  0
LINE
  5
FF
330
1E
100
AcDbEntity
  8
0
100
AcDbLine
 10
6.182559999999999
 20
0.116279000000006
 30
0.0
 11
7.0
 21
0.0000000000000063
 31
0.0
  0
LINE
  5
100
330
1E
100
AcDbEntity
  8
0
100
AcDbLine
 10
6.182559999999999
 20
0.116279000000007
 30
0.0
 11
7.0
 21
0.0000000000000067
 31
0.0
  0
LINE
  5
101
330
1E
100
AcDbEntity
  8
0
100
AcDbLine
 10
6.182559999999999
 20
0.116279000000007
 30
0.0
 11
7.0
 21
0.0000000000000067
 31
0.0
  0
LINE
  5
102
330
1E
100
AcDbEntity
  8
0
100
AcDbLine
 10
6.182559999999999
 20
0.116279000000008
 30
0.0
 11
7.0
 21
0.0000000000000078
 31
0.0
  0
LINE
  5
103
330
1E
100
AcDbEntity
  8
0
100
AcDbLine
 10
6.182559999999999
 20
0.116279000000008
 30
0.0
 11
7.0
 21
0.0000000000000078
 31
0.0
  0
LINE
  5
104
330
1E
100
AcDbEntity
  8
0
100
AcDbLine
 10
6.182559999999999
 20
0.116279000000008
 30
0.0
 11
7.0
 21
0.0000000000000082
 31
0.0
  0
LINE
  5
105
330
1E
100
AcDbEntity
  8
0
100
AcDbLine
 10
6.182559999999999
 20
0.116279000000008
 30
0.0
 11
7.0
 21
0.0000000000000082
 31
0.0
  0
LINE
  5
106
330
1E
100
AcDbEntity
  8
0
100
AcDbLine
 10
6.182559999999999
 20
0.116279000000007
 30
0.0
 11
7.0
 21
0.0000000000000075
 31
0.0
  0
LINE
  5
107
330
1E
100
AcDbEntity
  8
0
100
AcDbLine
 10
6.182559999999999
 20
0.116279000000007
 30
0.0
 11
7.0
 21
0.0000000000000075
 31
0.0
  0
LINE
  5
108
330
1E
100
AcDbEntity
  8
0
100
AcDbLine
 10
6.182559999999999
 20
0.116279000000007
 30
0.0
 11
7.0
 21
0.0000000000000071
 31
0.0
  0
LINE
  5
109
330
1E
100
AcDbEntity
  8
0
100
AcDbLine
 10
6.182559999999999
 20
0.116279000000007
 30
0.0
 11
7.0
 21
0.0000000000000071
 31
0.0
  0
LINE
  5
10A
330
1E
100
AcDbEntity
  8
0
100
AcDbLine
 10
6.182559999999999
 20
0.116279000000006
 30
0.0
 11
7.0
 21
0.000000000000006
 31
0.0
  0
LINE
  5
10B
330
1E
100
AcDbEntity
  8
0
100
AcDbLine
 10
6.182559999999999
 20
0.116279000000006
 30
0.0
 11
7.0
 21
0.000000000000006
 31
0.0
  0
LINE
  5
10C
330
1E
100
AcDbEntity
  8
0
100
AcDbLine
 10
6.182559999999999
 20
0.116279000000005
 30
0.0
 11
7.0
 21
0.0000000000000052
 31
0.0
  0
LINE
  5
10D
330
1E
100
AcDbEntity
  8
0
100
AcDbLine
 10
6.182559999999999
 20
0.116279000000005
 30
0.0
 11
7.0
 21
0.0000000000000052
 31
0.0
  0
LINE
  5
10E
330
1E
100
AcDbEntity
  8
0
100
AcDbLine
 10
5.446869999999999
 20
0.5232550000000061
 30
0.0
 11
6.182559999999999
 21
0.116279000000006
 31
0.0
  0
LINE
  5
10F
330
1E
100
AcDbEntity
  8
0
100
AcDbLine
 10
5.446869999999999
 20
0.5232550000000061
 30
0.0
 11
6.182559999999999
 21
0.116279000000006
 31
0.0
  0
LINE
  5
110
330
1E
100
AcDbEntity
  8
0
100
AcDbLine
 10
5.446869999999999
 20
0.523255000000007
 30
0.0
 11
6.182559999999999
 21
0.116279000000007
 31
0.0
  0
LINE
  5
111
330
1E
100
AcDbEntity
  8
0
100
AcDbLine
 10
5.446869999999999
 20
0.523255000000007
 30
0.0
 11
6.182559999999999
 21
0.116279000000007
 31
0.0
  0
LINE
  5
112
330
1E
100
AcDbEntity
  8
0
100
AcDbLine
 10
5.446869999999999
 20
0.523255000000008
 30
0.0
 11
6.182559999999999
 21
0.116279000000008
 31
0.0
  0
LINE
  5
113
330
1E
100
AcDbEntity
  8
0
100
AcDbLine
 10
5.446869999999999
 20
0.523255000000008
 30
0.0
 11
6.182559999999999
 21
0.116279000000008
 31
0.0
  0
LINE
  5
114
330
1E
100
AcDbEntity
  8
0
100
AcDbLine
 10
5.446869999999999
 20
0.523255000000008
 30
0.0
 11
6.182559999999999
 21
0.116279000000008
 31
0.0
  0
LINE
  5
115
330
1E
100
AcDbEntity
  8
0
100
AcDbLine
 10
5.446869999999999
 20
0.523255000000007
 30
0.0
 11
6.182559999999999
 21
0.116279000000007
 31
0.0
  0
LINE
  5
116
330
1E
100
AcDbEntity
  8
0
100
AcDbLine
 10
5.446869999999999
 20
0.523255000000007
 30
0.0
 11
6.182559999999999
 21
0.116279000000007
 31
0.0
  0
LINE
  5
117
330
1E
100
AcDbEntity
  8
0
100
AcDbLine
 10
5.446869999999999
 20
0.523255000000007
 30
0.0
 11
6.182559999999999
 21
0.116279000000007
 31
0.0
  0
LINE
  5
118
330
1E
100
AcDbEntity
  8
0
100
AcDbLine
 10
5.446869999999999
 20
0.5232550000000061
 30
0.0
 11
6.182559999999999
 21
0.116279000000006
 31
0.0
  0
LINE
  5
119
330
1E
100
AcDbEntity
  8
0
100
AcDbLine
 10
5.446869999999999
 20
0.5232550000000061
 30
0.0
 11
6.182559999999999
 21
0.116279000000006
 31
0.0
  0
LINE
  5
11A
330
1E
100
AcDbEntity
  8
0
100
AcDbLine
 10
5.446869999999999
 20
0.5232550000000061
 30
0.0
 11
6.182559999999999
 21
0.116279000000006
 31
0.0
  0
LINE
  5
11B
330
1E
100
AcDbEntity
  8
0
100
AcDbLine
 10
5.446869999999999
 20
0.5232550000000051
 30
0.0
 11
6.182559999999999
 21
0.116279000000005
 31
0.0
  0
LINE
  5
11C
330
1E
100
AcDbEntity
  8
0
100
AcDbLine
 10
5.446869999999999
 20
0.5232550000000051
 30
0.0
 11
6.182559999999999
 21
0.116279000000005
 31
0.0
  0
LINE
  5
11D
330
1E
100
AcDbEntity
  8
0
100
AcDbLine
 10
5.446869999999999
 20
0.5232550000000051
 30
0.0
 11
6.182559999999999
 21
0.116279000000005
 31
0.0
  0
LINE
  5
11E
330
1E
100
AcDbEntity
  8
0
100
AcDbLine
 10
7.0
 20
0.0000000000000049
 30
0.0
 11
113.0
 21
0.0000000000000049
 31
0.0
  0
LINE
  5
11F
330
1E
100
AcDbEntity
  8
0
100
AcDbLine
 10
6.99999999999999
 20
0.0000000000000049
 30
0.0
 11
113.0
 21
0.0000000000000049
 31
0.0
  0
LINE
  5
120
330
1E
100
AcDbEntity
  8
0
100
AcDbLine
 10
7.0
 20
0.0000000000000052
 30
0.0
 11
113.0
 21
0.0000000000000052
 31
0.0
  0
LINE
  5
121
330
1E
100
AcDbEntity
  8
0
100
AcDbLine
 10
6.99999999999999
 20
0.0000000000000056
 30
0.0
 11
113.0
 21
0.0000000000000056
 31
0.0
  0
LINE
  5
122
330
1E
100
AcDbEntity
  8
0
100
AcDbLine
 10
7.0
 20
0.0000000000000056
 30
0.0
 11
113.0
 21
0.0000000000000056
 31
0.0
  0
LINE
  5
123
330
1E
100
AcDbEntity
  8
0
100
AcDbLine
 10
113.0
 20
0.0000000000000056
 30
0.0
 11
113.817
 21
0.116279000000006
 31
0.0
  0
LINE
  5
124
330
1E
100
AcDbEntity
  8
0
100
AcDbLine
 10
113.0
 20
0.0000000000000056
 30
0.0
 11
113.817
 21
0.116279000000006
 31
0.0
  0
LINE
  5
125
330
1E
100
AcDbEntity
  8
0
100
AcDbLine
 10
7.0
 20
0.000000000000006
 30
0.0
 11
113.0
 21
0.000000000000006
 31
0.0
  0
LINE
  5
126
330
1E
100
AcDbEntity
  8
0
100
AcDbLine
 10
6.99999999999999
 20
0.000000000000006
 30
0.0
 11
113.0
 21
0.000000000000006
 31
0.0
  0
LINE
  5
127
330
1E
100
AcDbEntity
  8
0
100
AcDbLine
 10
6.99999999999999
 20
0.0000000000000063
 30
0.0
 11
113.0
 21
0.0000000000000063
 31
0.0
  0
LINE
  5
128
330
1E
100
AcDbEntity
  8
0
100
AcDbLine
 10
6.99999999999999
 20
0.0000000000000067
 30
0.0
 11
113.0
 21
0.0000000000000067
 31
0.0
  0
LINE
  5
129
330
1E
100
AcDbEntity
  8
0
100
AcDbLine
 10
7.0
 20
0.0000000000000063
 30
0.0
 11
113.0
 21
0.0000000000000063
 31
0.0
  0
LINE
  5
12A
330
1E
100
AcDbEntity
  8
0
100
AcDbLine
 10
113.0
 20
0.0000000000000063
 30
0.0
 11
113.817
 21
0.116279000000006
 31
0.0
  0
LINE
  5
12B
330
1E
100
AcDbEntity
  8
0
100
AcDbLine
 10
113.0
 20
0.0000000000000063
 30
0.0
 11
113.817
 21
0.116279000000006
 31
0.0
  0
LINE
  5
12C
330
1E
100
AcDbEntity
  8
0
100
AcDbLine
 10
7.0
 20
0.0000000000000067
 30
0.0
 11
113.0
 21
0.0000000000000067
 31
0.0
  0
LINE
  5
12D
330
1E
100
AcDbEntity
  8
0
100
AcDbLine
 10
113.0
 20
0.0000000000000067
 30
0.0
 11
113.817
 21
0.116279000000007
 31
0.0
  0
LINE
  5
12E
330
1E
100
AcDbEntity
  8
0
100
AcDbLine
 10
113.0
 20
0.0000000000000067
 30
0.0
 11
113.817
 21
0.116279000000007
 31
0.0
  0
LINE
  5
12F
330
1E
100
AcDbEntity
  8
0
100
AcDbLine
 10
7.0
 20
0.0000000000000071
 30
0.0
 11
113.0
 21
0.0000000000000071
 31
0.0
  0
LINE
  5
130
330
1E
100
AcDbEntity
  8
0
100
AcDbLine
 10
6.99999999999999
 20
0.0000000000000071
 30
0.0
 11
113.0
 21
0.0000000000000071
 31
0.0
  0
LINE
  5
131
330
1E
100
AcDbEntity
  8
0
100
AcDbLine
 10
7.0
 20
0.0000000000000075
 30
0.0
 11
113.0
 21
0.0000000000000075
 31
0.0
  0
LINE
  5
132
330
1E
100
AcDbEntity
  8
0
100
AcDbLine
 10
6.99999999999999
 20
0.0000000000000075
 30
0.0
 11
113.0
 21
0.0000000000000075
 31
0.0
  0
LINE
  5
133
330
1E
100
AcDbEntity
  8
0
100
AcDbLine
 10
6.99999999999999
 20
0.0000000000000078
 30
0.0
 11
113.0
 21
0.0000000000000078
 31
0.0
  0
LINE
  5
134
330
1E
100
AcDbEntity
  8
0
100
AcDbLine
 10
7.0
 20
0.0000000000000078
 30
0.0
 11
113.0
 21
0.0000000000000078
 31
0.0
  0
LINE
  5
135
330
1E
100
AcDbEntity
  8
0
100
AcDbLine
 10
113.0
 20
0.0000000000000078
 30
0.0
 11
113.817
 21
0.116279000000008
 31
0.0
  0
LINE
  5
136
330
1E
100
AcDbEntity
  8
0
100
AcDbLine
 10
113.0
 20
0.0000000000000078
 30
0.0
 11
113.817
 21
0.116279000000008
 31
0.0
  0
LINE
  5
137
330
1E
100
AcDbEntity
  8
0
100
AcDbLine
 10
7.0
 20
0.0000000000000082
 30
0.0
 11
113.0
 21
0.0000000000000082
 31
0.0
  0
LINE
  5
138
330
1E
100
AcDbEntity
  8
0
100
AcDbLine
 10
6.99999999999999
 20
0.0000000000000082
 30
0.0
 11
113.0
 21
0.0000000000000082
 31
0.0
  0
LINE
  5
139
330
1E
100
AcDbEntity
  8
0
100
AcDbLine
 10
113.0
 20
0.0000000000000082
 30
0.0
 11
113.817
 21
0.116279000000008
 31
0.0
  0
LINE
  5
13A
330
1E
100
AcDbEntity
  8
0
100
AcDbLine
 10
113.0
 20
0.0000000000000082
 30
0.0
 11
113.817
 21
0.116279000000008
 31
0.0
  0
LINE
  5
13B
330
1E
100
AcDbEntity
  8
0
100
AcDbLine
 10
113.0
 20
0.0000000000000075
 30
0.0
 11
113.817
 21
0.116279000000007
 31
0.0
  0
LINE
  5
13C
330
1E
100
AcDbEntity
  8
0
100
AcDbLine
 10
113.0
 20
0.0000000000000075
 30
0.0
 11
113.817
 21
0.116279000000007
 31
0.0
  0
LINE
  5
13D
330
1E
100
AcDbEntity
  8
0
100
AcDbLine
 10
113.0
 20
0.0000000000000071
 30
0.0
 11
113.817
 21
0.116279000000007
 31
0.0
  0
LINE
  5
13E
330
1E
100
AcDbEntity
  8
0
100
AcDbLine
 10
113.0
 20
0.0000000000000071
 30
0.0
 11
113.817
 21
0.116279000000007
 31
0.0
  0
LINE
  5
13F
330
1E
100
AcDbEntity
  8
0
100
AcDbLine
 10
113.0
 20
0.000000000000006
 30
0.0
 11
113.817
 21
0.116279000000006
 31
0.0
  0
LINE
  5
140
330
1E
100
AcDbEntity
  8
0
100
AcDbLine
 10
113.0
 20
0.000000000000006
 30
0.0
 11
113.817
 21
0.116279000000006
 31
0.0
  0
LINE
  5
141
330
1E
100
AcDbEntity
  8
0
100
AcDbLine
 10
6.99999999999999
 20
0.0000000000000052
 30
0.0
 11
113.0
 21
0.0000000000000052
 31
0.0
  0
LINE
  5
142
330
1E
100
AcDbEntity
  8
0
100
AcDbLine
 10
113.0
 20
0.0000000000000052
 30
0.0
 11
113.817
 21
0.116279000000005
 31
0.0
  0
LINE
  5
143
330
1E
100
AcDbEntity
  8
0
100
AcDbLine
 10
113.0
 20
0.0000000000000052
 30
0.0
 11
113.817
 21
0.116279000000005
 31
0.0
  0
LINE
  5
145
330
1E
100
AcDbEntity
  8
0
100
AcDbLine
 10
113.0
 20
0.0000000000000049
 30
0.0
 11
113.817
 21
0.116279000000005
 31
0.0
  0
LINE
  5
146
330
1E
100
AcDbEntity
  8
0
100
AcDbLine
 10
113.0
 20
0.0000000000000049
 30
0.0
 11
113.817
 21
0.116279000000005
 31
0.0
  0
LINE
  5
15E
330
1E
100
AcDbEntity
  8
0
100
AcDbLine
 10
113.817
 20
0.116279000000006
 30
0.0
 11
114.5529999999999
 21
0.5232550000000061
 31
0.0
  0
LINE
  5
15F
330
1E
100
AcDbEntity
  8
0
100
AcDbLine
 10
113.817
 20
0.116279000000006
 30
0.0
 11
114.5529999999999
 21
0.5232550000000061
 31
0.0
  0
LINE
  5
161
330
1E
100
AcDbEntity
  8
0
100
AcDbLine
 10
113.817
 20
0.116279000000006
 30
0.0
 11
114.5529999999999
 21
0.5232550000000061
 31
0.0
  0
LINE
  5
162
330
1E
100
AcDbEntity
  8
0
100
AcDbLine
 10
113.817
 20
0.116279000000006
 30
0.0
 11
114.5529999999999
 21
0.5232550000000061
 31
0.0
  0
LINE
  5
164
330
1E
100
AcDbEntity
  8
0
100
AcDbLine
 10
113.817
 20
0.116279000000007
 30
0.0
 11
114.5529999999999
 21
0.523255000000007
 31
0.0
  0
LINE
  5
165
330
1E
100
AcDbEntity
  8
0
100
AcDbLine
 10
113.817
 20
0.116279000000007
 30
0.0
 11
114.5529999999999
 21
0.523255000000007
 31
0.0
  0
LINE
  5
167
330
1E
100
AcDbEntity
  8
0
100
AcDbLine
 10
113.817
 20
0.116279000000008
 30
0.0
 11
114.5529999999999
 21
0.523255000000008
 31
0.0
  0
LINE
  5
168
330
1E
100
AcDbEntity
  8
0
100
AcDbLine
 10
113.817
 20
0.116279000000008
 30
0.0
 11
114.5529999999999
 21
0.523255000000008
 31
0.0
  0
LINE
  5
169
330
1E
100
AcDbEntity
  8
0
100
AcDbLine
 10
113.817
 20
0.116279000000008
 30
0.0
 11
114.5529999999999
 21
0.523255000000008
 31
0.0
  0
LINE
  5
16A
330
1E
100
AcDbEntity
  8
0
100
AcDbLine
 10
113.817
 20
0.116279000000007
 30
0.0
 11
114.5529999999999
 21
0.523255000000007
 31
0.0
  0
LINE
  5
16B
330
1E
100
AcDbEntity
  8
0
100
AcDbLine
 10
113.817
 20
0.116279000000007
 30
0.0
 11
114.5529999999999
 21
0.523255000000007
 31
0.0
  0
LINE
  5
16D
330
1E
100
AcDbEntity
  8
0
100
AcDbLine
 10
113.817
 20
0.116279000000007
 30
0.0
 11
114.5529999999999
 21
0.523255000000007
 31
0.0
  0
LINE
  5
16F
330
1E
100
AcDbEntity
  8
0
100
AcDbLine
 10
113.817
 20
0.116279000000006
 30
0.0
 11
114.5529999999999
 21
0.5232550000000061
 31
0.0
  0
LINE
  5
170
330
1E
100
AcDbEntity
  8
0
100
AcDbLine
 10
113.817
 20
0.116279000000005
 30
0.0
 11
114.5529999999999
 21
0.5232550000000051
 31
0.0
  0
LINE
  5
171
330
1E
100
AcDbEntity
  8
0
100
AcDbLine
 10
113.817
 20
0.116279000000005
 30
0.0
 11
114.5529999999999
 21
0.5232550000000051
 31
0.0
  0
LINE
  5
174
330
1E
100
AcDbEntity
  8
0
100
AcDbLine
 10
114.5529999999999
 20
0.5232550000000061
 30
0.0
 11
115.0
 21
1.000000000000009
 31
0.0
  0
LINE
  5
177
330
1E
100
AcDbEntity
  8
0
100
AcDbLine
 10
114.5529999999999
 20
0.5232550000000061
 30
0.0
 11
115.0
 21
1.000000000000009
 31
0.0
  0
LINE
  5
17A
330
1E
100
AcDbEntity
  8
0
100
AcDbLine
 10
114.5529999999999
 20
0.523255000000007
 30
0.0
 11
115.0
 21
1.000000000000009
 31
0.0
  0
LINE
  5
17B
330
1E
100
AcDbEntity
  8
0
100
AcDbLine
 10
114.5529999999999
 20
0.523255000000008
 30
0.0
 11
115.0
 21
1.000000000000009
 31
0.0
  0
LINE
  5
17C
330
1E
100
AcDbEntity
  8
0
100
AcDbLine
 10
114.5529999999999
 20
0.523255000000008
 30
0.0
 11
115.0
 21
1.000000000000009
 31
0.0
  0
LINE
  5
17F
330
1E
100
AcDbEntity
  8
0
100
AcDbLine
 10
114.5529999999999
 20
0.523255000000007
 30
0.0
 11
115.0
 21
1.000000000000009
 31
0.0
  0
LINE
  5
182
330
1E
100
AcDbEntity
  8
0
100
AcDbLine
 10
114.5529999999999
 20
0.523255000000007
 30
0.0
 11
115.0
 21
1.000000000000009
 31
0.0
  0
LINE
  5
185
330
1E
100
AcDbEntity
  8
0
100
AcDbLine
 10
114.5529999999999
 20
0.5232550000000061
 30
0.0
 11
115.0
 21
1.000000000000009
 31
0.0
  0
LINE
  5
188
330
1E
100
AcDbEntity
  8
0
100
AcDbLine
 10
114.5529999999999
 20
0.5232550000000051
 30
0.0
 11
115.0
 21
1.000000000000009
 31
0.0
  0
LINE
  5
18B
330
1E
100
AcDbEntity
  8
0
100
AcDbLine
 10
114.5529999999999
 20
0.5232550000000051
 30
0.0
 11
115.0
 21
1.0
 31
0.0
  0
LINE
  5
18C
330
1E
100
AcDbEntity
  8
0
100
AcDbLine
 10
113.817
 20
0.116279000000005
 30
0.0
 11
114.5529999999999
 21
0.5232550000000051
 31
0.0
  0
LINE
  5
190
330
1E
100
AcDbEntity
  8
0
100
AcDbLine
 10
6.182559999999999
 20
0.116279000000005
 30
0.0
 11
7.0
 21
0.0000000000000049
 31
0.0
  0
LINE
  5
191
330
1E
100
AcDbEntity
  8
0
100
AcDbLine
 10
6.182559999999999
 20
0.116279000000005
 30
0.0
 11
7.0
 21
0.0000000000000049
 31
0.0
  0
LINE
  5
192
330
1E
100
AcDbEntity
  8
0
100
AcDbLine
 10
5.265799999999999
 20
1.0
 30
0.0
 11
5.58624
 21
1.0
 31
0.0
  0
LINE
  5
193
330
1E
100
AcDbEntity
  8
0
100
AcDbLine
 10
5.0
 20
1.0
 30
0.0
 11
5.07398
 21
1.0
 31
0.0
  0
LINE
  5
194
330
1E
100
AcDbEntity
  8
0
100
AcDbLine
 10
5.0
 20
1.0
 30
0.0
 11
5.446869999999999
 21
0.5232550000000051
 31
0.0
  0
LINE
  5
195
330
1E
100
AcDbEntity
  8
0
100
AcDbLine
 10
5.07398
 20
1.0
 30
0.0
 11
5.265799999999999
 21
1.000000000000009
 31
0.0
  0
LINE
  5
196
330
1E
100
AcDbEntity
  8
0
100
AcDbLine
 10
5.07398
 20
1.0
 30
0.0
 11
5.265799999999999
 21
1.0
 31
0.0
  0
LINE
  5
197
330
1E
100
AcDbEntity
  8
0
100
AcDbLine
 10
5.58624
 20
1.0
 30
0.0
 11
6.008169999999999
 21
1.0
 31
0.0
  0
LINE
  5
198
330
1E
100
AcDbEntity
  8
0
100
AcDbLine
 10
6.008169999999999
 20
1.0
 30
0.0
 11
6.48774
 21
1.0
 31
0.0
  0
LINE
  5
199
330
1E
100
AcDbEntity
  8
0
100
AcDbLine
 10
5.265799999999999
 20
1.000000000000009
 30
0.0
 11
5.58624
 21
1.000000000000009
 31
0.0
  0
LINE
  5
19A
330
1E
100
AcDbEntity
  8
0
100
AcDbLine
 10
5.58624
 20
1.000000000000009
 30
0.0
 11
6.008169999999999
 21
1.000000000000009
 31
0.0
  0
LINE
  5
19B
330
1E
100
AcDbEntity
  8
0
100
AcDbLine
 10
6.99999999999999
 20
1.0
 30
0.0
 11
113.0
 21
1.0
 31
0.0
  0
LINE
  5
19D
330
1E
100
AcDbEntity
  8
0
100
AcDbLine
 10
114.734
 20
1.0
 30
0.0
 11
114.9259999999999
 21
1.0
 31
0.0
  0
LINE
  5
19E
330
1E
100
AcDbEntity
  8
0
100
AcDbLine
 10
114.4139999999999
 20
1.0
 30
0.0
 11
114.734
 21
1.0
 31
0.0
  0
LINE
  5
19F
330
1E
100
AcDbEntity
  8
0
100
AcDbLine
 10
113.992
 20
1.0
 30
0.0
 11
114.4139999999999
 21
1.0
 31
0.0
  0
LINE
  5
1A0
330
1E
100
AcDbEntity
  8
0
100
AcDbLine
 10
113.512
 20
1.0
 30
0.0
 11
113.992
 21
1.0
 31
0.0
  0
LINE
  5
1A2
330
1E
100
AcDbEntity
  8
0
100
AcDbLine
 10
113.0
 20
1.0
 30
0.0
 11
113.512
 21
1.0
 31
0.0
  0
LINE
  5
1A3
330
1E
100
AcDbEntity
  8
0
100
AcDbLine
 10
114.9259999999999
 20
1.0
 30
0.0
 11
115.0
 21
1.0
 31
0.0
  0
LINE
  5
1A4
330
1E
100
AcDbEntity
  8
0
100
AcDbLine
 10
7.0
 20
1.000000000000009
 30
0.0
 11
113.0
 21
1.000000000000009
 31
0.0
  0
LINE
  5
1A5
330
1E
100
AcDbEntity
  8
0
100
AcDbLine
 10
114.734
 20
1.000000000000009
 30
0.0
 11
114.9259999999999
 21
1.0
 31
0.0
  0
LINE
  5
1A6
330
1E
100
AcDbEntity
  8
0
100
AcDbLine
 10
114.4139999999999
 20
1.000000000000009
 30
0.0
 11
114.734
 21
1.000000000000009
 31
0.0
  0
LINE
  5
1A7
330
1E
100
AcDbEntity
  8
0
100
AcDbLine
 10
113.992
 20
1.000000000000009
 30
0.0
 11
114.4139999999999
 21
1.000000000000009
 31
0.0
  0
LINE
  5
1A8
330
1E
100
AcDbEntity
  8
0
100
AcDbLine
 10
113.512
 20
1.000000000000009
 30
0.0
 11
113.992
 21
1.000000000000009
 31
0.0
  0
LINE
  5
1A9
330
1E
100
AcDbEntity
  8
0
100
AcDbLine
 10
113.0
 20
1.000000000000009
 30
0.0
 11
113.512
 21
1.000000000000009
 31
0.0
  0
LINE
  5
1AA
330
1E
100
AcDbEntity
  8
0
100
AcDbLine
 10
6.48774
 20
1.0
 30
0.0
 11
7.0
 21
1.0
 31
0.0
  0
LINE
  5
1AB
330
1E
100
AcDbEntity
  8
0
100
AcDbLine
 10
6.008169999999999
 20
1.000000000000009
 30
0.0
 11
6.48774
 21
1.000000000000009
 31
0.0
  0
LINE
  5
1AC
330
1E
100
AcDbEntity
  8
0
100
AcDbLine
 10
5.07398
 20
1.000000000000009
 30
0.0
 11
5.265799999999999
 21
1.000000000000009
 31
0.0
  0
LINE
  5
1AD
330
1E
100
AcDbEntity
  8
0
100
AcDbLine
 10
5.0
 20
1.000000000000009
 30
0.0
 11
5.07398
 21
1.000000000000009
 31
0.0
  0
LINE
  5
1AE
330
1E
100
AcDbEntity
  8
0
100
AcDbLine
 10
5.0
 20
1.000000000000009
 30
0.0
 11
5.446869999999999
 21
0.5232550000000051
 31
0.0
  0
LINE
  5
1AF
330
1E
100
AcDbEntity
  8
0
100
AcDbLine
 10
5.0
 20
1.000000000000009
 30
0.0
 11
5.07398
 21
1.000000000000009
 31
0.0
  0
LINE
  5
1B0
330
1E
100
AcDbEntity
  8
0
100
AcDbLine
 10
5.265799999999999
 20
1.000000000000009
 30
0.0
 11
5.58624
 21
1.000000000000009
 31
0.0
  0
LINE
  5
1B1
330
1E
100
AcDbEntity
  8
0
100
AcDbLine
 10
5.58624
 20
1.000000000000009
 30
0.0
 11
6.008169999999999
 21
1.000000000000009
 31
0.0
  0
LINE
  5
1B2
330
1E
100
AcDbEntity
  8
0
100
AcDbLine
 10
5.07398
 20
1.000000000000009
 30
0.0
 11
5.265799999999999
 21
1.000000000000009
 31
0.0
  0
LINE
  5
1B3
330
1E
100
AcDbEntity
  8
0
100
AcDbLine
 10
5.265799999999999
 20
1.000000000000009
 30
0.0
 11
5.58624
 21
1.000000000000009
 31
0.0
  0
LINE
  5
1B4
330
1E
100
AcDbEntity
  8
0
100
AcDbLine
 10
6.008169999999999
 20
1.000000000000009
 30
0.0
 11
6.48774
 21
1.000000000000009
 31
0.0
  0
LINE
  5
1B5
330
1E
100
AcDbEntity
  8
0
100
AcDbLine
 10
6.48774
 20
1.000000000000009
 30
0.0
 11
7.0
 21
1.000000000000009
 31
0.0
  0
LINE
  5
1B6
330
1E
100
AcDbEntity
  8
0
100
AcDbLine
 10
5.58624
 20
1.000000000000009
 30
0.0
 11
6.008169999999999
 21
1.000000000000009
 31
0.0
  0
LINE
  5
1B7
330
1E
100
AcDbEntity
  8
0
100
AcDbLine
 10
5.07398
 20
1.000000000000009
 30
0.0
 11
5.265799999999999
 21
1.000000000000009
 31
0.0
  0
LINE
  5
1B8
330
1E
100
AcDbEntity
  8
0
100
AcDbLine
 10
5.0
 20
1.000000000000009
 30
0.0
 11
5.07398
 21
1.000000000000009
 31
0.0
  0
LINE
  5
1B9
330
1E
100
AcDbEntity
  8
0
100
AcDbLine
 10
5.0
 20
1.000000000000009
 30
0.0
 11
5.446869999999999
 21
0.5232550000000061
 31
0.0
  0
LINE
  5
1BA
330
1E
100
AcDbEntity
  8
0
100
AcDbLine
 10
5.0
 20
1.000000000000009
 30
0.0
 11
5.07398
 21
1.000000000000009
 31
0.0
  0
LINE
  5
1BB
330
1E
100
AcDbEntity
  8
0
100
AcDbLine
 10
5.07398
 20
1.000000000000009
 30
0.0
 11
5.265799999999999
 21
1.000000000000009
 31
0.0
  0
LINE
  5
1BC
330
1E
100
AcDbEntity
  8
0
100
AcDbLine
 10
5.0
 20
1.000000000000009
 30
0.0
 11
5.07398
 21
1.000000000000009
 31
0.0
  0
LINE
  5
1BD
330
1E
100
AcDbEntity
  8
0
100
AcDbLine
 10
5.0
 20
1.000000000000009
 30
0.0
 11
5.446869999999999
 21
0.5232550000000061
 31
0.0
  0
LINE
  5
1BE
330
1E
100
AcDbEntity
  8
0
100
AcDbLine
 10
5.265799999999999
 20
1.000000000000009
 30
0.0
 11
5.58624
 21
1.000000000000009
 31
0.0
  0
LINE
  5
1BF
330
1E
100
AcDbEntity
  8
0
100
AcDbLine
 10
5.265799999999999
 20
1.000000000000009
 30
0.0
 11
5.58624
 21
1.000000000000009
 31
0.0
  0
LINE
  5
1C0
330
1E
100
AcDbEntity
  8
0
100
AcDbLine
 10
5.58624
 20
1.000000000000009
 30
0.0
 11
6.008169999999999
 21
1.000000000000009
 31
0.0
  0
LINE
  5
1C1
330
1E
100
AcDbEntity
  8
0
100
AcDbLine
 10
5.58624
 20
1.000000000000009
 30
0.0
 11
6.008169999999999
 21
1.000000000000009
 31
0.0
  0
LINE
  5
1C2
330
1E
100
AcDbEntity
  8
0
100
AcDbLine
 10
5.265799999999999
 20
1.000000000000009
 30
0.0
 11
5.58624
 21
1.000000000000009
 31
0.0
  0
LINE
  5
1C3
330
1E
100
AcDbEntity
  8
0
100
AcDbLine
 10
5.58624
 20
1.000000000000009
 30
0.0
 11
6.008169999999999
 21
1.000000000000009
 31
0.0
  0
LINE
  5
1C4
330
1E
100
AcDbEntity
  8
0
100
AcDbLine
 10
5.07398
 20
1.000000000000009
 30
0.0
 11
5.265799999999999
 21
1.000000000000009
 31
0.0
  0
LINE
  5
1C5
330
1E
100
AcDbEntity
  8
0
100
AcDbLine
 10
5.07398
 20
1.000000000000009
 30
0.0
 11
5.265799999999999
 21
1.000000000000009
 31
0.0
  0
LINE
  5
1C6
330
1E
100
AcDbEntity
  8
0
100
AcDbLine
 10
5.265799999999999
 20
1.000000000000009
 30
0.0
 11
5.58624
 21
1.000000000000009
 31
0.0
  0
LINE
  5
1C7
330
1E
100
AcDbEntity
  8
0
100
AcDbLine
 10
6.008169999999999
 20
1.000000000000009
 30
0.0
 11
6.48774
 21
1.000000000000009
 31
0.0
  0
LINE
  5
1C8
330
1E
100
AcDbEntity
  8
0
100
AcDbLine
 10
6.008169999999999
 20
1.000000000000009
 30
0.0
 11
6.48774
 21
1.000000000000009
 31
0.0
  0
LINE
  5
1C9
330
1E
100
AcDbEntity
  8
0
100
AcDbLine
 10
6.48774
 20
1.000000000000009
 30
0.0
 11
7.0
 21
1.000000000000009
 31
0.0
  0
LINE
  5
1CA
330
1E
100
AcDbEntity
  8
0
100
AcDbLine
 10
6.48774
 20
1.000000000000009
 30
0.0
 11
7.0
 21
1.000000000000009
 31
0.0
  0
LINE
  5
1CB
330
1E
100
AcDbEntity
  8
0
100
AcDbLine
 10
6.008169999999999
 20
1.000000000000009
 30
0.0
 11
6.48774
 21
1.000000000000009
 31
0.0
  0
LINE
  5
1CC
330
1E
100
AcDbEntity
  8
0
100
AcDbLine
 10
6.48774
 20
1.000000000000009
 30
0.0
 11
7.0
 21
1.000000000000009
 31
0.0
  0
LINE
  5
1CD
330
1E
100
AcDbEntity
  8
0
100
AcDbLine
 10
5.58624
 20
1.000000000000009
 30
0.0
 11
6.008169999999999
 21
1.000000000000009
 31
0.0
  0
LINE
  5
1CE
330
1E
100
AcDbEntity
  8
0
100
AcDbLine
 10
5.0
 20
1.000000000000009
 30
0.0
 11
5.07398
 21
1.000000000000009
 31
0.0
  0
LINE
  5
1CF
330
1E
100
AcDbEntity
  8
0
100
AcDbLine
 10
5.0
 20
1.000000000000009
 30
0.0
 11
5.446869999999999
 21
0.5232550000000061
 31
0.0
  0
LINE
  5
1D0
330
1E
100
AcDbEntity
  8
0
100
AcDbLine
 10
5.07398
 20
1.000000000000009
 30
0.0
 11
5.265799999999999
 21
1.000000000000009
 31
0.0
  0
LINE
  5
1D1
330
1E
100
AcDbEntity
  8
0
100
AcDbLine
 10
5.0
 20
1.000000000000009
 30
0.0
 11
5.07398
 21
1.000000000000009
 31
0.0
  0
LINE
  5
1D2
330
1E
100
AcDbEntity
  8
0
100
AcDbLine
 10
5.0
 20
1.000000000000009
 30
0.0
 11
5.446869999999999
 21
0.523255000000007
 31
0.0
  0
LINE
  5
1D3
330
1E
100
AcDbEntity
  8
0
100
AcDbLine
 10
5.07398
 20
1.000000000000009
 30
0.0
 11
5.265799999999999
 21
1.000000000000009
 31
0.0
  0
LINE
  5
1D4
330
1E
100
AcDbEntity
  8
0
100
AcDbLine
 10
5.0
 20
1.000000000000009
 30
0.0
 11
5.07398
 21
1.000000000000009
 31
0.0
  0
LINE
  5
1D5
330
1E
100
AcDbEntity
  8
0
100
AcDbLine
 10
5.0
 20
1.000000000000009
 30
0.0
 11
5.446869999999999
 21
0.523255000000007
 31
0.0
  0
LINE
  5
1D6
330
1E
100
AcDbEntity
  8
0
100
AcDbLine
 10
5.265799999999999
 20
1.000000000000009
 30
0.0
 11
5.58624
 21
1.000000000000009
 31
0.0
  0
LINE
  5
1D7
330
1E
100
AcDbEntity
  8
0
100
AcDbLine
 10
5.265799999999999
 20
1.000000000000009
 30
0.0
 11
5.58624
 21
1.000000000000009
 31
0.0
  0
LINE
  5
1D8
330
1E
100
AcDbEntity
  8
0
100
AcDbLine
 10
5.265799999999999
 20
1.000000000000009
 30
0.0
 11
5.58624
 21
1.000000000000009
 31
0.0
  0
LINE
  5
1D9
330
1E
100
AcDbEntity
  8
0
100
AcDbLine
 10
5.265799999999999
 20
1.000000000000009
 30
0.0
 11
5.58624
 21
1.000000000000009
 31
0.0
  0
LINE
  5
1DA
330
1E
100
AcDbEntity
  8
0
100
AcDbLine
 10
5.58624
 20
1.000000000000009
 30
0.0
 11
6.008169999999999
 21
1.000000000000009
 31
0.0
  0
LINE
  5
1DB
330
1E
100
AcDbEntity
  8
0
100
AcDbLine
 10
5.58624
 20
1.000000000000009
 30
0.0
 11
6.008169999999999
 21
1.000000000000009
 31
0.0
  0
LINE
  5
1DC
330
1E
100
AcDbEntity
  8
0
100
AcDbLine
 10
5.58624
 20
1.000000000000009
 30
0.0
 11
6.008169999999999
 21
1.000000000000009
 31
0.0
  0
LINE
  5
1DD
330
1E
100
AcDbEntity
  8
0
100
AcDbLine
 10
5.58624
 20
1.000000000000009
 30
0.0
 11
6.008169999999999
 21
1.000000000000009
 31
0.0
  0
LINE
  5
1DE
330
1E
100
AcDbEntity
  8
0
100
AcDbLine
 10
5.265799999999999
 20
1.000000000000009
 30
0.0
 11
5.58624
 21
1.000000000000009
 31
0.0
  0
LINE
  5
1DF
330
1E
100
AcDbEntity
  8
0
100
AcDbLine
 10
5.58624
 20
1.000000000000009
 30
0.0
 11
6.008169999999999
 21
1.000000000000009
 31
0.0
  0
LINE
  5
1E0
330
1E
100
AcDbEntity
  8
0
100
AcDbLine
 10
5.07398
 20
1.000000000000009
 30
0.0
 11
5.265799999999999
 21
1.000000000000009
 31
0.0
  0
LINE
  5
1E1
330
1E
100
AcDbEntity
  8
0
100
AcDbLine
 10
5.07398
 20
1.000000000000009
 30
0.0
 11
5.265799999999999
 21
1.000000000000009
 31
0.0
  0
LINE
  5
1E2
330
1E
100
AcDbEntity
  8
0
100
AcDbLine
 10
5.265799999999999
 20
1.000000000000009
 30
0.0
 11
5.58624
 21
1.000000000000009
 31
0.0
  0
LINE
  5
1E3
330
1E
100
AcDbEntity
  8
0
100
AcDbLine
 10
6.008169999999999
 20
1.000000000000009
 30
0.0
 11
6.48774
 21
1.000000000000009
 31
0.0
  0
LINE
  5
1E4
330
1E
100
AcDbEntity
  8
0
100
AcDbLine
 10
6.48774
 20
1.000000000000009
 30
0.0
 11
7.0
 21
1.000000000000009
 31
0.0
  0
LINE
  5
1E5
330
1E
100
AcDbEntity
  8
0
100
AcDbLine
 10
6.008169999999999
 20
1.000000000000009
 30
0.0
 11
6.48774
 21
1.000000000000009
 31
0.0
  0
LINE
  5
1E6
330
1E
100
AcDbEntity
  8
0
100
AcDbLine
 10
6.48774
 20
1.000000000000009
 30
0.0
 11
7.0
 21
1.000000000000009
 31
0.0
  0
LINE
  5
1E7
330
1E
100
AcDbEntity
  8
0
100
AcDbLine
 10
6.008169999999999
 20
1.000000000000009
 30
0.0
 11
6.48774
 21
1.000000000000009
 31
0.0
  0
LINE
  5
1E8
330
1E
100
AcDbEntity
  8
0
100
AcDbLine
 10
6.48774
 20
1.000000000000009
 30
0.0
 11
7.0
 21
1.000000000000009
 31
0.0
  0
LINE
  5
1E9
330
1E
100
AcDbEntity
  8
0
100
AcDbLine
 10
6.008169999999999
 20
1.000000000000009
 30
0.0
 11
6.48774
 21
1.000000000000009
 31
0.0
  0
LINE
  5
1EA
330
1E
100
AcDbEntity
  8
0
100
AcDbLine
 10
6.48774
 20
1.000000000000009
 30
0.0
 11
7.0
 21
1.000000000000009
 31
0.0
  0
LINE
  5
1EB
330
1E
100
AcDbEntity
  8
0
100
AcDbLine
 10
6.008169999999999
 20
1.000000000000009
 30
0.0
 11
6.48774
 21
1.000000000000009
 31
0.0
  0
LINE
  5
1EC
330
1E
100
AcDbEntity
  8
0
100
AcDbLine
 10
6.48774
 20
1.000000000000009
 30
0.0
 11
7.0
 21
1.000000000000009
 31
0.0
  0
LINE
  5
1ED
330
1E
100
AcDbEntity
  8
0
100
AcDbLine
 10
5.58624
 20
1.000000000000009
 30
0.0
 11
6.008169999999999
 21
1.000000000000009
 31
0.0
  0
LINE
  5
1EE
330
1E
100
AcDbEntity
  8
0
100
AcDbLine
 10
5.07398
 20
1.000000000000009
 30
0.0
 11
5.265799999999999
 21
1.000000000000009
 31
0.0
  0
LINE
  5
1EF
330
1E
100
AcDbEntity
  8
0
100
AcDbLine
 10
5.0
 20
1.000000000000009
 30
0.0
 11
5.07398
 21
1.000000000000009
 31
0.0
  0
LINE
  5
1F0
330
1E
100
AcDbEntity
  8
0
100
AcDbLine
 10
5.0
 20
1.000000000000009
 30
0.0
 11
5.446869999999999
 21
0.523255000000007
 31
0.0
  0
LINE
  5
1F1
330
1E
100
AcDbEntity
  8
0
100
AcDbLine
 10
5.0
 20
1.000000000000009
 30
0.0
 11
5.07398
 21
1.000000000000009
 31
0.0
  0
LINE
  5
1F2
330
1E
100
AcDbEntity
  8
0
100
AcDbLine
 10
5.265799999999999
 20
1.000000000000009
 30
0.0
 11
5.58624
 21
1.000000000000009
 31
0.0
  0
LINE
  5
1F3
330
1E
100
AcDbEntity
  8
0
100
AcDbLine
 10
5.58624
 20
1.000000000000009
 30
0.0
 11
6.008169999999999
 21
1.000000000000009
 31
0.0
  0
LINE
  5
1F4
330
1E
100
AcDbEntity
  8
0
100
AcDbLine
 10
5.07398
 20
1.000000000000009
 30
0.0
 11
5.265799999999999
 21
1.000000000000009
 31
0.0
  0
LINE
  5
1F5
330
1E
100
AcDbEntity
  8
0
100
AcDbLine
 10
5.265799999999999
 20
1.000000000000009
 30
0.0
 11
5.58624
 21
1.000000000000009
 31
0.0
  0
LINE
  5
1F6
330
1E
100
AcDbEntity
  8
0
100
AcDbLine
 10
6.008169999999999
 20
1.000000000000009
 30
0.0
 11
6.48774
 21
1.000000000000009
 31
0.0
  0
LINE
  5
1F7
330
1E
100
AcDbEntity
  8
0
100
AcDbLine
 10
6.48774
 20
1.000000000000009
 30
0.0
 11
7.0
 21
1.000000000000009
 31
0.0
  0
LINE
  5
1F8
330
1E
100
AcDbEntity
  8
0
100
AcDbLine
 10
5.58624
 20
1.000000000000009
 30
0.0
 11
6.008169999999999
 21
1.000000000000009
 31
0.0
  0
LINE
  5
1F9
330
1E
100
AcDbEntity
  8
0
100
AcDbLine
 10
5.07398
 20
1.000000000000009
 30
0.0
 11
5.265799999999999
 21
1.000000000000009
 31
0.0
  0
LINE
  5
1FA
330
1E
100
AcDbEntity
  8
0
100
AcDbLine
 10
5.0
 20
1.000000000000009
 30
0.0
 11
5.07398
 21
1.000000000000009
 31
0.0
  0
LINE
  5
1FB
330
1E
100
AcDbEntity
  8
0
100
AcDbLine
 10
5.0
 20
1.000000000000009
 30
0.0
 11
5.446869999999999
 21
0.523255000000008
 31
0.0
  0
LINE
  5
1FC
330
1E
100
AcDbEntity
  8
0
100
AcDbLine
 10
5.0
 20
1.000000000000009
 30
0.0
 11
5.07398
 21
1.000000000000009
 31
0.0
  0
LINE
  5
1FD
330
1E
100
AcDbEntity
  8
0
100
AcDbLine
 10
5.07398
 20
1.000000000000009
 30
0.0
 11
5.265799999999999
 21
1.000000000000009
 31
0.0
  0
LINE
  5
1FE
330
1E
100
AcDbEntity
  8
0
100
AcDbLine
 10
5.0
 20
1.000000000000009
 30
0.0
 11
5.07398
 21
1.000000000000009
 31
0.0
  0
LINE
  5
1FF
330
1E
100
AcDbEntity
  8
0
100
AcDbLine
 10
5.0
 20
1.000000000000009
 30
0.0
 11
5.446869999999999
 21
0.523255000000008
 31
0.0
  0
LINE
  5
200
330
1E
100
AcDbEntity
  8
0
100
AcDbLine
 10
5.265799999999999
 20
1.000000000000009
 30
0.0
 11
5.58624
 21
1.000000000000009
 31
0.0
  0
LINE
  5
201
330
1E
100
AcDbEntity
  8
0
100
AcDbLine
 10
5.265799999999999
 20
1.000000000000009
 30
0.0
 11
5.58624
 21
1.000000000000009
 31
0.0
  0
LINE
  5
202
330
1E
100
AcDbEntity
  8
0
100
AcDbLine
 10
5.58624
 20
1.000000000000009
 30
0.0
 11
6.008169999999999
 21
1.000000000000009
 31
0.0
  0
LINE
  5
203
330
1E
100
AcDbEntity
  8
0
100
AcDbLine
 10
5.58624
 20
1.000000000000009
 30
0.0
 11
6.008169999999999
 21
1.000000000000009
 31
0.0
  0
LINE
  5
204
330
1E
100
AcDbEntity
  8
0
100
AcDbLine
 10
5.265799999999999
 20
1.000000000000009
 30
0.0
 11
5.58624
 21
1.000000000000009
 31
0.0
  0
LINE
  5
205
330
1E
100
AcDbEntity
  8
0
100
AcDbLine
 10
5.58624
 20
1.000000000000009
 30
0.0
 11
6.008169999999999
 21
1.000000000000009
 31
0.0
  0
LINE
  5
206
330
1E
100
AcDbEntity
  8
0
100
AcDbLine
 10
5.07398
 20
1.000000000000009
 30
0.0
 11
5.265799999999999
 21
1.000000000000009
 31
0.0
  0
LINE
  5
207
330
1E
100
AcDbEntity
  8
0
100
AcDbLine
 10
5.07398
 20
1.000000000000009
 30
0.0
 11
5.265799999999999
 21
1.000000000000009
 31
0.0
  0
LINE
  5
208
330
1E
100
AcDbEntity
  8
0
100
AcDbLine
 10
5.265799999999999
 20
1.000000000000009
 30
0.0
 11
5.58624
 21
1.000000000000009
 31
0.0
  0
LINE
  5
209
330
1E
100
AcDbEntity
  8
0
100
AcDbLine
 10
6.008169999999999
 20
1.000000000000009
 30
0.0
 11
6.48774
 21
1.000000000000009
 31
0.0
  0
LINE
  5
20A
330
1E
100
AcDbEntity
  8
0
100
AcDbLine
 10
6.008169999999999
 20
1.000000000000009
 30
0.0
 11
6.48774
 21
1.000000000000009
 31
0.0
  0
LINE
  5
20B
330
1E
100
AcDbEntity
  8
0
100
AcDbLine
 10
6.48774
 20
1.000000000000009
 30
0.0
 11
7.0
 21
1.000000000000009
 31
0.0
  0
LINE
  5
20C
330
1E
100
AcDbEntity
  8
0
100
AcDbLine
 10
6.48774
 20
1.000000000000009
 30
0.0
 11
7.0
 21
1.000000000000009
 31
0.0
  0
LINE
  5
20D
330
1E
100
AcDbEntity
  8
0
100
AcDbLine
 10
6.008169999999999
 20
1.000000000000009
 30
0.0
 11
6.48774
 21
1.000000000000009
 31
0.0
  0
LINE
  5
20E
330
1E
100
AcDbEntity
  8
0
100
AcDbLine
 10
6.48774
 20
1.000000000000009
 30
0.0
 11
7.0
 21
1.000000000000009
 31
0.0
  0
LINE
  5
20F
330
1E
100
AcDbEntity
  8
0
100
AcDbLine
 10
5.58624
 20
1.000000000000009
 30
0.0
 11
6.008169999999999
 21
1.000000000000009
 31
0.0
  0
LINE
  5
210
330
1E
100
AcDbEntity
  8
0
100
AcDbLine
 10
6.008169999999999
 20
1.000000000000009
 30
0.0
 11
6.48774
 21
1.000000000000009
 31
0.0
  0
LINE
  5
211
330
1E
100
AcDbEntity
  8
0
100
AcDbLine
 10
6.48774
 20
1.000000000000009
 30
0.0
 11
7.0
 21
1.000000000000009
 31
0.0
  0
LINE
  5
212
330
1E
100
AcDbEntity
  8
0
100
AcDbLine
 10
6.008169999999999
 20
1.000000000000009
 30
0.0
 11
6.48774
 21
1.000000000000009
 31
0.0
  0
LINE
  5
213
330
1E
100
AcDbEntity
  8
0
100
AcDbLine
 10
6.48774
 20
1.000000000000009
 30
0.0
 11
7.0
 21
1.000000000000009
 31
0.0
  0
LINE
  5
214
330
1E
100
AcDbEntity
  8
0
100
AcDbLine
 10
6.008169999999999
 20
1.000000000000009
 30
0.0
 11
6.48774
 21
1.000000000000009
 31
0.0
  0
LINE
  5
215
330
1E
100
AcDbEntity
  8
0
100
AcDbLine
 10
6.48774
 20
1.000000000000009
 30
0.0
 11
7.0
 21
1.000000000000009
 31
0.0
  0
LINE
  5
216
330
1E
100
AcDbEntity
  8
0
100
AcDbLine
 10
6.008169999999999
 20
1.000000000000009
 30
0.0
 11
6.48774
 21
1.000000000000009
 31
0.0
  0
LINE
  5
217
330
1E
100
AcDbEntity
  8
0
100
AcDbLine
 10
6.48774
 20
1.000000000000009
 30
0.0
 11
7.0
 21
1.000000000000009
 31
0.0
  0
LINE
  5
218
330
1E
100
AcDbEntity
  8
0
100
AcDbLine
 10
6.008169999999999
 20
1.000000000000009
 30
0.0
 11
6.48774
 21
1.000000000000009
 31
0.0
  0
LINE
  5
219
330
1E
100
AcDbEntity
  8
0
100
AcDbLine
 10
6.99999999999999
 20
1.000000000000009
 30
0.0
 11
113.0
 21
1.000000000000009
 31
0.0
  0
LINE
  5
21B
330
1E
100
AcDbEntity
  8
0
100
AcDbLine
 10
113.512
 20
1.000000000000009
 30
0.0
 11
113.992
 21
1.000000000000009
 31
0.0
  0
LINE
  5
21C
330
1E
100
AcDbEntity
  8
0
100
AcDbLine
 10
7.0
 20
1.000000000000009
 30
0.0
 11
113.0
 21
1.000000000000009
 31
0.0
  0
LINE
  5
21E
330
1E
100
AcDbEntity
  8
0
100
AcDbLine
 10
113.0
 20
1.000000000000009
 30
0.0
 11
113.512
 21
1.000000000000009
 31
0.0
  0
LINE
  5
21F
330
1E
100
AcDbEntity
  8
0
100
AcDbLine
 10
114.4139999999999
 20
1.000000000000009
 30
0.0
 11
114.734
 21
1.000000000000009
 31
0.0
  0
LINE
  5
220
330
1E
100
AcDbEntity
  8
0
100
AcDbLine
 10
113.992
 20
1.000000000000009
 30
0.0
 11
114.4139999999999
 21
1.000000000000009
 31
0.0
  0
LINE
  5
221
330
1E
100
AcDbEntity
  8
0
100
AcDbLine
 10
114.9259999999999
 20
1.000000000000009
 30
0.0
 11
115.0
 21
1.000000000000009
 31
0.0
  0
LINE
  5
222
330
1E
100
AcDbEntity
  8
0
100
AcDbLine
 10
114.734
 20
1.000000000000009
 30
0.0
 11
114.9259999999999
 21
1.000000000000009
 31
0.0
  0
LINE
  5
223
330
1E
100
AcDbEntity
  8
0
100
AcDbLine
 10
114.9259999999999
 20
1.000000000000009
 30
0.0
 11
115.0
 21
1.000000000000009
 31
0.0
  0
LINE
  5
224
330
1E
100
AcDbEntity
  8
0
100
AcDbLine
 10
114.734
 20
1.000000000000009
 30
0.0
 11
114.9259999999999
 21
1.000000000000009
 31
0.0
  0
LINE
  5
225
330
1E
100
AcDbEntity
  8
0
100
AcDbLine
 10
114.4139999999999
 20
1.000000000000009
 30
0.0
 11
114.734
 21
1.000000000000009
 31
0.0
  0
LINE
  5
226
330
1E
100
AcDbEntity
  8
0
100
AcDbLine
 10
113.992
 20
1.000000000000009
 30
0.0
 11
114.4139999999999
 21
1.000000000000009
 31
0.0
  0
LINE
  5
227
330
1E
100
AcDbEntity
  8
0
100
AcDbLine
 10
113.512
 20
1.000000000000009
 30
0.0
 11
113.992
 21
1.000000000000009
 31
0.0
  0
LINE
  5
228
330
1E
100
AcDbEntity
  8
0
100
AcDbLine
 10
6.99999999999999
 20
1.000000000000009
 30
0.0
 11
113.0
 21
1.000000000000009
 31
0.0
  0
LINE
  5
22A
330
1E
100
AcDbEntity
  8
0
100
AcDbLine
 10
7.0
 20
1.000000000000009
 30
0.0
 11
113.0
 21
1.000000000000009
 31
0.0
  0
LINE
  5
22B
330
1E
100
AcDbEntity
  8
0
100
AcDbLine
 10
6.99999999999999
 20
1.000000000000009
 30
0.0
 11
113.0
 21
1.000000000000009
 31
0.0
  0
LINE
  5
22D
330
1E
100
AcDbEntity
  8
0
100
AcDbLine
 10
113.0
 20
1.000000000000009
 30
0.0
 11
113.512
 21
1.000000000000009
 31
0.0
  0
LINE
  5
22E
330
1E
100
AcDbEntity
  8
0
100
AcDbLine
 10
113.0
 20
1.000000000000009
 30
0.0
 11
113.512
 21
1.000000000000009
 31
0.0
  0
LINE
  5
230
330
1E
100
AcDbEntity
  8
0
100
AcDbLine
 10
6.99999999999999
 20
1.000000000000009
 30
0.0
 11
113.0
 21
1.000000000000009
 31
0.0
  0
LINE
  5
232
330
1E
100
AcDbEntity
  8
0
100
AcDbLine
 10
7.0
 20
1.000000000000009
 30
0.0
 11
113.0
 21
1.000000000000009
 31
0.0
  0
LINE
  5
233
330
1E
100
AcDbEntity
  8
0
100
AcDbLine
 10
6.99999999999999
 20
1.000000000000009
 30
0.0
 11
113.0
 21
1.000000000000009
 31
0.0
  0
LINE
  5
235
330
1E
100
AcDbEntity
  8
0
100
AcDbLine
 10
7.0
 20
1.000000000000009
 30
0.0
 11
113.0
 21
1.000000000000009
 31
0.0
  0
LINE
  5
236
330
1E
100
AcDbEntity
  8
0
100
AcDbLine
 10
6.99999999999999
 20
1.000000000000009
 30
0.0
 11
113.0
 21
1.000000000000009
 31
0.0
  0
LINE
  5
238
330
1E
100
AcDbEntity
  8
0
100
AcDbLine
 10
6.99999999999999
 20
1.000000000000009
 30
0.0
 11
113.0
 21
1.000000000000009
 31
0.0
  0
LINE
  5
239
330
1E
100
AcDbEntity
  8
0
100
AcDbLine
 10
6.99999999999999
 20
1.000000000000009
 30
0.0
 11
113.0
 21
1.000000000000009
 31
0.0
  0
LINE
  5
23A
330
1E
100
AcDbEntity
  8
0
100
AcDbLine
 10
7.0
 20
1.000000000000009
 30
0.0
 11
113.0
 21
1.000000000000009
 31
0.0
  0
LINE
  5
23B
330
1E
100
AcDbEntity
  8
0
100
AcDbLine
 10
6.99999999999999
 20
1.000000000000009
 30
0.0
 11
113.0
 21
1.000000000000009
 31
0.0
  0
LINE
  5
23C
330
1E
100
AcDbEntity
  8
0
100
AcDbLine
 10
7.0
 20
1.000000000000009
 30
0.0
 11
113.0
 21
1.000000000000009
 31
0.0
  0
LINE
  5
23E
330
1E
100
AcDbEntity
  8
0
100
AcDbLine
 10
7.0
 20
1.000000000000009
 30
0.0
 11
113.0
 21
1.000000000000009
 31
0.0
  0
LINE
  5
23F
330
1E
100
AcDbEntity
  8
0
100
AcDbLine
 10
7.0
 20
1.000000000000009
 30
0.0
 11
113.0
 21
1.000000000000009
 31
0.0
  0
LINE
  5
241
330
1E
100
AcDbEntity
  8
0
100
AcDbLine
 10
113.0
 20
1.000000000000009
 30
0.0
 11
113.512
 21
1.000000000000009
 31
0.0
  0
LINE
  5
242
330
1E
100
AcDbEntity
  8
0
100
AcDbLine
 10
113.0
 20
1.000000000000009
 30
0.0
 11
113.512
 21
1.000000000000009
 31
0.0
  0
LINE
  5
244
330
1E
100
AcDbEntity
  8
0
100
AcDbLine
 10
113.0
 20
1.000000000000009
 30
0.0
 11
113.512
 21
1.000000000000009
 31
0.0
  0
LINE
  5
245
330
1E
100
AcDbEntity
  8
0
100
AcDbLine
 10
113.0
 20
1.000000000000009
 30
0.0
 11
113.512
 21
1.000000000000009
 31
0.0
  0
LINE
  5
247
330
1E
100
AcDbEntity
  8
0
100
AcDbLine
 10
113.0
 20
1.000000000000009
 30
0.0
 11
113.512
 21
1.000000000000009
 31
0.0
  0
LINE
  5
248
330
1E
100
AcDbEntity
  8
0
100
AcDbLine
 10
113.0
 20
1.000000000000009
 30
0.0
 11
113.512
 21
1.000000000000009
 31
0.0
  0
LINE
  5
249
330
1E
100
AcDbEntity
  8
0
100
AcDbLine
 10
113.0
 20
1.000000000000009
 30
0.0
 11
113.512
 21
1.000000000000009
 31
0.0
  0
LINE
  5
24A
330
1E
100
AcDbEntity
  8
0
100
AcDbLine
 10
113.0
 20
1.000000000000009
 30
0.0
 11
113.512
 21
1.000000000000009
 31
0.0
  0
LINE
  5
24B
330
1E
100
AcDbEntity
  8
0
100
AcDbLine
 10
113.0
 20
1.000000000000009
 30
0.0
 11
113.512
 21
1.000000000000009
 31
0.0
  0
LINE
  5
24D
330
1E
100
AcDbEntity
  8
0
100
AcDbLine
 10
113.0
 20
1.000000000000009
 30
0.0
 11
113.512
 21
1.000000000000009
 31
0.0
  0
LINE
  5
24E
330
1E
100
AcDbEntity
  8
0
100
AcDbLine
 10
113.0
 20
1.000000000000009
 30
0.0
 11
113.512
 21
1.000000000000009
 31
0.0
  0
LINE
  5
24F
330
1E
100
AcDbEntity
  8
0
100
AcDbLine
 10
113.0
 20
1.000000000000009
 30
0.0
 11
113.512
 21
1.000000000000009
 31
0.0
  0
LINE
  5
250
330
1E
100
AcDbEntity
  8
0
100
AcDbLine
 10
7.0
 20
1.000000000000009
 30
0.0
 11
113.0
 21
1.000000000000009
 31
0.0
  0
LINE
  5
252
330
1E
100
AcDbEntity
  8
0
100
AcDbLine
 10
113.0
 20
1.000000000000009
 30
0.0
 11
113.512
 21
1.000000000000009
 31
0.0
  0
LINE
  5
253
330
1E
100
AcDbEntity
  8
0
100
AcDbLine
 10
113.992
 20
1.000000000000009
 30
0.0
 11
114.4139999999999
 21
1.000000000000009
 31
0.0
  0
LINE
  5
254
330
1E
100
AcDbEntity
  8
0
100
AcDbLine
 10
113.512
 20
1.000000000000009
 30
0.0
 11
113.992
 21
1.000000000000009
 31
0.0
  0
LINE
  5
255
330
1E
100
AcDbEntity
  8
0
100
AcDbLine
 10
113.992
 20
1.000000000000009
 30
0.0
 11
114.4139999999999
 21
1.000000000000009
 31
0.0
  0
LINE
  5
256
330
1E
100
AcDbEntity
  8
0
100
AcDbLine
 10
113.512
 20
1.000000000000009
 30
0.0
 11
113.992
 21
1.000000000000009
 31
0.0
  0
LINE
  5
257
330
1E
100
AcDbEntity
  8
0
100
AcDbLine
 10
113.992
 20
1.000000000000009
 30
0.0
 11
114.4139999999999
 21
1.000000000000009
 31
0.0
  0
LINE
  5
258
330
1E
100
AcDbEntity
  8
0
100
AcDbLine
 10
113.512
 20
1.000000000000009
 30
0.0
 11
113.992
 21
1.000000000000009
 31
0.0
  0
LINE
  5
259
330
1E
100
AcDbEntity
  8
0
100
AcDbLine
 10
114.734
 20
1.000000000000009
 30
0.0
 11
114.9259999999999
 21
1.000000000000009
 31
0.0
  0
LINE
  5
25A
330
1E
100
AcDbEntity
  8
0
100
AcDbLine
 10
114.4139999999999
 20
1.000000000000009
 30
0.0
 11
114.734
 21
1.000000000000009
 31
0.0
  0
LINE
  5
25B
330
1E
100
AcDbEntity
  8
0
100
AcDbLine
 10
114.734
 20
1.000000000000009
 30
0.0
 11
114.9259999999999
 21
1.000000000000009
 31
0.0
  0
LINE
  5
25C
330
1E
100
AcDbEntity
  8
0
100
AcDbLine
 10
114.4139999999999
 20
1.000000000000009
 30
0.0
 11
114.734
 21
1.000000000000009
 31
0.0
  0
LINE
  5
25D
330
1E
100
AcDbEntity
  8
0
100
AcDbLine
 10
114.734
 20
1.000000000000009
 30
0.0
 11
114.9259999999999
 21
1.000000000000009
 31
0.0
  0
LINE
  5
25E
330
1E
100
AcDbEntity
  8
0
100
AcDbLine
 10
114.4139999999999
 20
1.000000000000009
 30
0.0
 11
114.734
 21
1.000000000000009
 31
0.0
  0
LINE
  5
25F
330
1E
100
AcDbEntity
  8
0
100
AcDbLine
 10
114.9259999999999
 20
1.000000000000009
 30
0.0
 11
115.0
 21
1.000000000000009
 31
0.0
  0
LINE
  5
260
330
1E
100
AcDbEntity
  8
0
100
AcDbLine
 10
114.9259999999999
 20
1.000000000000009
 30
0.0
 11
115.0
 21
1.000000000000009
 31
0.0
  0
LINE
  5
261
330
1E
100
AcDbEntity
  8
0
100
AcDbLine
 10
114.9259999999999
 20
1.000000000000009
 30
0.0
 11
115.0
 21
1.000000000000009
 31
0.0
  0
LINE
  5
262
330
1E
100
AcDbEntity
  8
0
100
AcDbLine
 10
114.734
 20
1.000000000000009
 30
0.0
 11
114.9259999999999
 21
1.000000000000009
 31
0.0
  0
LINE
  5
263
330
1E
100
AcDbEntity
  8
0
100
AcDbLine
 10
114.4139999999999
 20
1.000000000000009
 30
0.0
 11
114.734
 21
1.000000000000009
 31
0.0
  0
LINE
  5
264
330
1E
100
AcDbEntity
  8
0
100
AcDbLine
 10
113.992
 20
1.000000000000009
 30
0.0
 11
114.4139999999999
 21
1.000000000000009
 31
0.0
  0
LINE
  5
265
330
1E
100
AcDbEntity
  8
0
100
AcDbLine
 10
113.512
 20
1.000000000000009
 30
0.0
 11
113.992
 21
1.000000000000009
 31
0.0
  0
LINE
  5
266
330
1E
100
AcDbEntity
  8
0
100
AcDbLine
 10
113.512
 20
1.000000000000009
 30
0.0
 11
113.992
 21
1.000000000000009
 31
0.0
  0
LINE
  5
267
330
1E
100
AcDbEntity
  8
0
100
AcDbLine
 10
113.512
 20
1.000000000000009
 30
0.0
 11
113.992
 21
1.000000000000009
 31
0.0
  0
LINE
  5
268
330
1E
100
AcDbEntity
  8
0
100
AcDbLine
 10
113.512
 20
1.000000000000009
 30
0.0
 11
113.992
 21
1.000000000000009
 31
0.0
  0
LINE
  5
269
330
1E
100
AcDbEntity
  8
0
100
AcDbLine
 10
113.512
 20
1.000000000000009
 30
0.0
 11
113.992
 21
1.000000000000009
 31
0.0
  0
LINE
  5
26A
330
1E
100
AcDbEntity
  8
0
100
AcDbLine
 10
113.512
 20
1.000000000000009
 30
0.0
 11
113.992
 21
1.000000000000009
 31
0.0
  0
LINE
  5
26B
330
1E
100
AcDbEntity
  8
0
100
AcDbLine
 10
113.512
 20
1.000000000000009
 30
0.0
 11
113.992
 21
1.000000000000009
 31
0.0
  0
LINE
  5
26C
330
1E
100
AcDbEntity
  8
0
100
AcDbLine
 10
113.512
 20
1.000000000000009
 30
0.0
 11
113.992
 21
1.000000000000009
 31
0.0
  0
LINE
  5
26D
330
1E
100
AcDbEntity
  8
0
100
AcDbLine
 10
113.512
 20
1.000000000000009
 30
0.0
 11
113.992
 21
1.000000000000009
 31
0.0
  0
LINE
  5
26E
330
1E
100
AcDbEntity
  8
0
100
AcDbLine
 10
113.512
 20
1.000000000000009
 30
0.0
 11
113.992
 21
1.000000000000009
 31
0.0
  0
LINE
  5
26F
330
1E
100
AcDbEntity
  8
0
100
AcDbLine
 10
113.512
 20
1.000000000000009
 30
0.0
 11
113.992
 21
1.000000000000009
 31
0.0
  0
LINE
  5
270
330
1E
100
AcDbEntity
  8
0
100
AcDbLine
 10
113.992
 20
1.000000000000009
 30
0.0
 11
114.4139999999999
 21
1.000000000000009
 31
0.0
  0
LINE
  5
271
330
1E
100
AcDbEntity
  8
0
100
AcDbLine
 10
114.4139999999999
 20
1.000000000000009
 30
0.0
 11
114.734
 21
1.000000000000009
 31
0.0
  0
LINE
  5
272
330
1E
100
AcDbEntity
  8
0
100
AcDbLine
 10
114.4139999999999
 20
1.000000000000009
 30
0.0
 11
114.734
 21
1.000000000000009
 31
0.0
  0
LINE
  5
273
330
1E
100
AcDbEntity
  8
0
100
AcDbLine
 10
113.992
 20
1.000000000000009
 30
0.0
 11
114.4139999999999
 21
1.000000000000009
 31
0.0
  0
LINE
  5
274
330
1E
100
AcDbEntity
  8
0
100
AcDbLine
 10
114.4139999999999
 20
1.000000000000009
 30
0.0
 11
114.734
 21
1.000000000000009
 31
0.0
  0
LINE
  5
275
330
1E
100
AcDbEntity
  8
0
100
AcDbLine
 10
113.992
 20
1.000000000000009
 30
0.0
 11
114.4139999999999
 21
1.000000000000009
 31
0.0
  0
LINE
  5
276
330
1E
100
AcDbEntity
  8
0
100
AcDbLine
 10
114.4139999999999
 20
1.000000000000009
 30
0.0
 11
114.734
 21
1.000000000000009
 31
0.0
  0
LINE
  5
277
330
1E
100
AcDbEntity
  8
0
100
AcDbLine
 10
113.992
 20
1.000000000000009
 30
0.0
 11
114.4139999999999
 21
1.000000000000009
 31
0.0
  0
LINE
  5
278
330
1E
100
AcDbEntity
  8
0
100
AcDbLine
 10
114.4139999999999
 20
1.000000000000009
 30
0.0
 11
114.734
 21
1.000000000000009
 31
0.0
  0
LINE
  5
279
330
1E
100
AcDbEntity
  8
0
100
AcDbLine
 10
113.992
 20
1.000000000000009
 30
0.0
 11
114.4139999999999
 21
1.000000000000009
 31
0.0
  0
LINE
  5
27A
330
1E
100
AcDbEntity
  8
0
100
AcDbLine
 10
114.734
 20
1.000000000000009
 30
0.0
 11
114.9259999999999
 21
1.000000000000009
 31
0.0
  0
LINE
  5
27B
330
1E
100
AcDbEntity
  8
0
100
AcDbLine
 10
114.9259999999999
 20
1.000000000000009
 30
0.0
 11
115.0
 21
1.000000000000009
 31
0.0
  0
LINE
  5
27C
330
1E
100
AcDbEntity
  8
0
100
AcDbLine
 10
114.9259999999999
 20
1.000000000000009
 30
0.0
 11
115.0
 21
1.000000000000009
 31
0.0
  0
LINE
  5
27D
330
1E
100
AcDbEntity
  8
0
100
AcDbLine
 10
114.734
 20
1.000000000000009
 30
0.0
 11
114.9259999999999
 21
1.000000000000009
 31
0.0
  0
LINE
  5
27E
330
1E
100
AcDbEntity
  8
0
100
AcDbLine
 10
114.734
 20
1.000000000000009
 30
0.0
 11
114.9259999999999
 21
1.000000000000009
 31
0.0
  0
LINE
  5
27F
330
1E
100
AcDbEntity
  8
0
100
AcDbLine
 10
114.9259999999999
 20
1.000000000000009
 30
0.0
 11
115.0
 21
1.000000000000009
 31
0.0
  0
LINE
  5
280
330
1E
100
AcDbEntity
  8
0
100
AcDbLine
 10
114.734
 20
1.000000000000009
 30
0.0
 11
114.9259999999999
 21
1.000000000000009
 31
0.0
  0
LINE
  5
281
330
1E
100
AcDbEntity
  8
0
100
AcDbLine
 10
114.4139999999999
 20
1.000000000000009
 30
0.0
 11
114.734
 21
1.000000000000009
 31
0.0
  0
LINE
  5
282
330
1E
100
AcDbEntity
  8
0
100
AcDbLine
 10
113.992
 20
1.000000000000009
 30
0.0
 11
114.4139999999999
 21
1.000000000000009
 31
0.0
  0
LINE
  5
283
330
1E
100
AcDbEntity
  8
0
100
AcDbLine
 10
113.992
 20
1.000000000000009
 30
0.0
 11
114.4139999999999
 21
1.000000000000009
 31
0.0
  0
LINE
  5
284
330
1E
100
AcDbEntity
  8
0
100
AcDbLine
 10
113.992
 20
1.000000000000009
 30
0.0
 11
114.4139999999999
 21
1.000000000000009
 31
0.0
  0
LINE
  5
285
330
1E
100
AcDbEntity
  8
0
100
AcDbLine
 10
113.992
 20
1.000000000000009
 30
0.0
 11
114.4139999999999
 21
1.000000000000009
 31
0.0
  0
LINE
  5
286
330
1E
100
AcDbEntity
  8
0
100
AcDbLine
 10
113.992
 20
1.000000000000009
 30
0.0
 11
114.4139999999999
 21
1.000000000000009
 31
0.0
  0
LINE
  5
287
330
1E
100
AcDbEntity
  8
0
100
AcDbLine
 10
114.734
 20
1.000000000000009
 30
0.0
 11
114.9259999999999
 21
1.000000000000009
 31
0.0
  0
LINE
  5
288
330
1E
100
AcDbEntity
  8
0
100
AcDbLine
 10
114.4139999999999
 20
1.000000000000009
 30
0.0
 11
114.734
 21
1.000000000000009
 31
0.0
  0
LINE
  5
289
330
1E
100
AcDbEntity
  8
0
100
AcDbLine
 10
114.9259999999999
 20
1.000000000000009
 30
0.0
 11
115.0
 21
1.000000000000009
 31
0.0
  0
LINE
  5
28A
330
1E
100
AcDbEntity
  8
0
100
AcDbLine
 10
114.9259999999999
 20
1.000000000000009
 30
0.0
 11
115.0
 21
1.000000000000009
 31
0.0
  0
LINE
  5
28B
330
1E
100
AcDbEntity
  8
0
100
AcDbLine
 10
114.734
 20
1.000000000000009
 30
0.0
 11
114.9259999999999
 21
1.000000000000009
 31
0.0
  0
LINE
  5
28C
330
1E
100
AcDbEntity
  8
0
100
AcDbLine
 10
114.4139999999999
 20
1.000000000000009
 30
0.0
 11
114.734
 21
1.000000000000009
 31
0.0
  0
LINE
  5
28D
330
1E
100
AcDbEntity
  8
0
100
AcDbLine
 10
114.4139999999999
 20
1.000000000000009
 30
0.0
 11
114.734
 21
1.000000000000009
 31
0.0
  0
LINE
  5
28E
330
1E
100
AcDbEntity
  8
0
100
AcDbLine
 10
114.4139999999999
 20
1.000000000000009
 30
0.0
 11
114.734
 21
1.000000000000009
 31
0.0
  0
LINE
  5
28F
330
1E
100
AcDbEntity
  8
0
100
AcDbLine
 10
114.734
 20
1.000000000000009
 30
0.0
 11
114.9259999999999
 21
1.000000000000009
 31
0.0
  0
LINE
  5
290
330
1E
100
AcDbEntity
  8
0
100
AcDbLine
 10
114.9259999999999
 20
1.000000000000009
 30
0.0
 11
115.0
 21
1.000000000000009
 31
0.0
  0
LINE
  5
291
330
1E
100
AcDbEntity
  8
0
100
AcDbLine
 10
114.9259999999999
 20
1.000000000000009
 30
0.0
 11
115.0
 21
1.000000000000009
 31
0.0
  0
LINE
  5
292
330
1E
100
AcDbEntity
  8
0
100
AcDbLine
 10
114.734
 20
1.000000000000009
 30
0.0
 11
114.9259999999999
 21
1.000000000000009
 31
0.0
  0
LINE
  5
293
330
1E
100
AcDbEntity
  8
0
100
AcDbLine
 10
114.734
 20
1.000000000000009
 30
0.0
 11
114.9259999999999
 21
1.000000000000009
 31
0.0
  0
LINE
  5
294
330
1E
100
AcDbEntity
  8
0
100
AcDbLine
 10
114.9259999999999
 20
1.000000000000009
 30
0.0
 11
115.0
 21
1.000000000000009
 31
0.0
  0
LINE
  5
295
330
1E
100
AcDbEntity
  8
0
100
AcDbLine
 10
114.734
 20
1.000000000000009
 30
0.0
 11
114.9259999999999
 21
1.000000000000009
 31
0.0
  0
LINE
  5
296
330
1E
100
AcDbEntity
  8
0
100
AcDbLine
 10
114.4139999999999
 20
1.000000000000009
 30
0.0
 11
114.734
 21
1.000000000000009
 31
0.0
  0
LINE
  5
297
330
1E
100
AcDbEntity
  8
0
100
AcDbLine
 10
114.4139999999999
 20
1.000000000000009
 30
0.0
 11
114.734
 21
1.000000000000009
 31
0.0
  0
LINE
  5
298
330
1E
100
AcDbEntity
  8
0
100
AcDbLine
 10
113.992
 20
1.000000000000009
 30
0.0
 11
114.4139999999999
 21
1.000000000000009
 31
0.0
  0
LINE
  5
299
330
1E
100
AcDbEntity
  8
0
100
AcDbLine
 10
113.992
 20
1.000000000000009
 30
0.0
 11
114.4139999999999
 21
1.000000000000009
 31
0.0
  0
LINE
  5
29A
330
1E
100
AcDbEntity
  8
0
100
AcDbLine
 10
113.512
 20
1.000000000000009
 30
0.0
 11
113.992
 21
1.000000000000009
 31
0.0
  0
LINE
  5
29B
330
1E
100
AcDbEntity
  8
0
100
AcDbLine
 10
113.512
 20
1.000000000000009
 30
0.0
 11
113.992
 21
1.000000000000009
 31
0.0
  0
LINE
  5
29C
330
1E
100
AcDbEntity
  8
0
100
AcDbLine
 10
113.0
 20
1.000000000000009
 30
0.0
 11
113.512
 21
1.000000000000009
 31
0.0
  0
LINE
  5
29D
330
1E
100
AcDbEntity
  8
0
100
AcDbLine
 10
113.0
 20
1.000000000000009
 30
0.0
 11
113.512
 21
1.000000000000009
 31
0.0
  0
LINE
  5
29E
330
1E
100
AcDbEntity
  8
0
100
AcDbLine
 10
6.48774
 20
1.000000000000009
 30
0.0
 11
7.0
 21
1.000000000000009
 31
0.0
  0
LINE
  5
29F
330
1E
100
AcDbEntity
  8
0
100
AcDbLine
 10
6.48774
 20
1.000000000000009
 30
0.0
 11
7.0
 21
1.000000000000009
 31
0.0
  0
LINE
  5
2A0
330
1E
100
AcDbEntity
  8
0
100
AcDbLine
 10
120.0
 20
1.0
 30
0.0
 11
120.7
 21
1.3
 31
0.0
  0
LINE
  5
2A1
330
1E
100
AcDbEntity
  8
0
100
AcDbLine
 10
120.7
 20
1.3
 30
0.0
 11
121.0
 21
2.0
 31
0.0
  0
LINE
  5
2A2
330
1E
100
AcDbEntity
  8
0
100
AcDbLine
 10
120.7
 20
1.3
 30
0.0
 11
121.0
 21
2.0
 31
0.0
  0
LINE
  5
2A3
330
1E
100
AcDbEntity
  8
0
100
AcDbLine
 10
120.0
 20
1.0
 30
0.0
 11
120.7
 21
1.3
 31
0.0
  0
LINE
  5
2A4
330
1E
100
AcDbEntity
  8
0
100
AcDbLine
 10
2.0
 20
1.3
 30
0.0
 11
120.0
 21
1.3
 31
0.0
  0
LINE
  5
2A5
330
1E
100
AcDbEntity
  8
0
100
AcDbLine
 10
2.0
 20
1.30000000000001
 30
0.0
 11
120.0
 21
1.30000000000001
 31
0.0
  0
LINE
  5
2A6
330
1E
100
AcDbEntity
  8
0
100
AcDbLine
 10
120.0
 20
1.30000000000001
 30
0.0
 11
120.5
 21
1.50000000000001
 31
0.0
  0
LINE
  5
2A7
330
1E
100
AcDbEntity
  8
0
100
AcDbLine
 10
120.5
 20
1.5
 30
0.0
 11
120.7
 21
2.0
 31
0.0
  0
LINE
  5
2A9
330
1E
100
AcDbEntity
  8
0
100
AcDbLine
 10
120.0
 20
1.3
 30
0.0
 11
120.5
 21
1.5
 31
0.0
  0
LINE
  5
2AA
330
1E
100
AcDbEntity
  8
0
100
AcDbLine
 10
2.0
 20
1.3
 30
0.0
 11
120.0
 21
1.3
 31
0.0
  0
LINE
  5
2AB
330
1E
100
AcDbEntity
  8
0
100
AcDbLine
 10
1.5
 20
1.50000000000001
 30
0.0
 11
2.0
 21
1.30000000000001
 31
0.0
  0
LINE
  5
2AC
330
1E
100
AcDbEntity
  8
0
100
AcDbLine
 10
120.7
 20
2.00000000000001
 30
0.0
 11
120.7
 21
21.0
 31
0.0
  0
LINE
  5
2AD
330
1E
100
AcDbEntity
  8
0
100
AcDbLine
 10
120.5
 20
1.50000000000001
 30
0.0
 11
120.7
 21
2.00000000000001
 31
0.0
  0
LINE
  5
2AF
330
1E
100
AcDbEntity
  8
0
100
AcDbLine
 10
120.7
 20
21.0
 30
0.0
 11
120.7
 21
2.00000000000001
 31
0.0
  0
LINE
  5
2B0
330
1E
100
AcDbEntity
  8
0
100
AcDbLine
 10
120.7
 20
21.0
 30
0.0
 11
120.7
 21
2.00000000000001
 31
0.0
  0
LINE
  5
2B1
330
1E
100
AcDbEntity
  8
0
100
AcDbLine
 10
1.5
 20
21.49999999999999
 30
0.0
 11
2.0
 21
21.69999999999999
 31
0.0
  0
LINE
  5
2B2
330
1E
100
AcDbEntity
  8
0
100
AcDbLine
 10
1.5
 20
21.49999999999999
 30
0.0
 11
2.0
 21
21.69999999999999
 31
0.0
  0
LINE
  5
2B3
330
1E
100
AcDbEntity
  8
0
100
AcDbLine
 10
2.0
 20
21.69999999999999
 30
0.0
 11
120.0
 21
21.69999999999999
 31
0.0
  0
LINE
  5
2B4
330
1E
100
AcDbEntity
  8
0
100
AcDbLine
 10
2.0
 20
21.69999999999999
 30
0.0
 11
120.0
 21
21.69999999999999
 31
0.0
  0
LINE
  5
2B5
330
1E
100
AcDbEntity
  8
0
100
AcDbLine
 10
2.0
 20
21.69999999999999
 30
0.0
 11
120.0
 21
21.69999999999999
 31
0.0
  0
LINE
  5
2B6
330
1E
100
AcDbEntity
  8
0
100
AcDbLine
 10
100.0
 20
22.0
 30
0.0
 11
102.0
 21
134.0
 31
0.0
  0
LINE
  5
2B7
330
1E
100
AcDbEntity
  8
0
100
AcDbLine
 10
120.0
 20
21.69999999999999
 30
0.0
 11
120.5
 21
21.49999999999999
 31
0.0
  0
LINE
  5
2B8
330
1E
100
AcDbEntity
  8
0
100
AcDbLine
 10
2.0
 20
22.0
 30
0.0
 11
120.0
 21
22.0
 31
0.0
  0
LINE
  5
2B9
330
1E
100
AcDbEntity
  8
0
100
AcDbLine
 10
22.0
 20
22.0
 30
0.0
 11
100.0
 21
22.0
 31
0.0
  0
LINE
  5
2BA
330
1E
100
AcDbEntity
  8
0
100
AcDbLine
 10
24.0
 20
22.0
 30
0.0
 11
98.0
 21
22.0
 31
0.0
  0
LINE
  5
2BB
330
1E
100
AcDbEntity
  8
0
100
AcDbLine
 10
24.0
 20
22.0
 30
0.0
 11
98.0
 21
22.0
 31
0.0
  0
LINE
  5
2BC
330
1E
100
AcDbEntity
  8
0
100
AcDbLine
 10
22.0
 20
22.0
 30
0.0
 11
100.0
 21
22.0
 31
0.0
  0
LINE
  5
2BE
330
1E
100
AcDbEntity
  8
0
100
AcDbLine
 10
2.0
 20
22.0
 30
0.0
 11
120.0
 21
22.0
 31
0.0
  0
LINE
  5
2BF
330
1E
100
AcDbEntity
  8
0
100
AcDbLine
 10
21.1
 20
82.0
 30
0.0
 11
23.5
 21
82.0
 31
0.0
  0
LINE
  5
2C0
330
1E
100
AcDbEntity
  8
0
100
AcDbLine
 10
23.5
 20
82.0
 30
0.0
 11
23.81749999999999
 21
82.0
 31
0.0
  0
LINE
  5
2C1
330
1E
100
AcDbEntity
  8
0
100
AcDbLine
 10
23.5
 20
82.0
 30
0.0
 11
23.5
 21
84.0
 31
0.0
  0
LINE
  5
2C2
330
1E
100
AcDbEntity
  8
0
100
AcDbLine
 10
23.81749999999999
 20
82.0
 30
0.0
 11
24.5703
 21
82.0
 31
0.0
  0
LINE
  5
2C3
330
1E
100
AcDbEntity
  8
0
100
AcDbLine
 10
24.5703
 20
82.0
 30
0.0
 11
25.77479999999999
 21
82.0
 31
0.0
  0
LINE
  5
2C4
330
1E
100
AcDbEntity
  8
0
100
AcDbLine
 10
25.77479999999999
 20
82.0
 30
0.0
 11
27.2303
 21
82.0
 31
0.0
  0
LINE
  5
2C5
330
1E
100
AcDbEntity
  8
0
100
AcDbLine
 10
27.0
 20
82.0
 30
0.0
 11
27.144
 21
82.0
 31
0.0
  0
LINE
  5
2C6
330
1E
100
AcDbEntity
  8
0
100
AcDbLine
 10
27.2303
 20
82.0
 30
0.0
 11
28.9367
 21
82.0
 31
0.0
  0
LINE
  5
2C7
330
1E
100
AcDbEntity
  8
0
100
AcDbLine
 10
27.144
 20
82.0
 30
0.0
 11
27.528
 21
82.0
 31
0.0
  0
LINE
  5
2C8
330
1E
100
AcDbEntity
  8
0
100
AcDbLine
 10
27.528
 20
82.0
 30
0.0
 11
28.168
 21
82.0
 31
0.0
  0
LINE
  5
2C9
330
1E
100
AcDbEntity
  8
0
100
AcDbLine
 10
28.9367
 20
82.0
 30
0.0
 11
31.0
 21
82.0
 31
0.0
  0
LINE
  5
2CA
330
1E
100
AcDbEntity
  8
0
100
AcDbLine
 10
28.168
 20
82.0
 30
0.0
 11
29.016
 21
82.0
 31
0.0
  0
LINE
  5
2CB
330
1E
100
AcDbEntity
  8
0
100
AcDbLine
 10
20.0
 20
134.0
 30
0.0
 11
102.0
 21
134.0
 31
0.0
  0
LINE
  5
2CC
330
1E
100
AcDbEntity
  8
0
100
AcDbLine
 10
21.04999999999999
 20
84.0
 30
0.0
 11
21.1
 21
82.0
 31
0.0
  0
LINE
  5
2CD
330
1E
100
AcDbEntity
  8
0
100
AcDbLine
 10
21.04999999999999
 20
84.0
 30
0.0
 11
23.5
 21
84.0
 31
0.0
  0
LINE
  5
2CE
330
1E
100
AcDbEntity
  8
0
100
AcDbLine
 10
23.5
 20
84.0
 30
0.0
 11
23.5
 21
82.0
 31
0.0
  0
LINE
  5
2CF
330
1E
100
AcDbEntity
  8
0
100
AcDbLine
 10
23.5
 20
84.0
 30
0.0
 11
23.81749999999999
 21
84.0
 31
0.0
  0
LINE
  5
2D0
330
1E
100
AcDbEntity
  8
0
100
AcDbLine
 10
23.81749999999999
 20
84.0
 30
0.0
 11
24.5703
 21
84.0
 31
0.0
  0
LINE
  5
2D1
330
1E
100
AcDbEntity
  8
0
100
AcDbLine
 10
24.5703
 20
84.0
 30
0.0
 11
25.77479999999999
 21
84.0
 31
0.0
  0
LINE
  5
2D2
330
1E
100
AcDbEntity
  8
0
100
AcDbLine
 10
25.77479999999999
 20
84.0
 30
0.0
 11
27.2303
 21
84.0
 31
0.0
  0
LINE
  5
2D3
330
1E
100
AcDbEntity
  8
0
100
AcDbLine
 10
27.2303
 20
84.0
 30
0.0
 11
28.9367
 21
84.0
 31
0.0
  0
LINE
  5
2D4
330
1E
100
AcDbEntity
  8
0
100
AcDbLine
 10
28.9367
 20
84.0
 30
0.0
 11
31.0
 21
84.0
 31
0.0
  0
LINE
  5
2D5
330
1E
100
AcDbEntity
  8
0
100
AcDbLine
 10
20.1
 20
132.0
 30
0.0
 11
22.0
 21
22.0
 31
0.0
  0
LINE
  5
2D6
330
1E
100
AcDbEntity
  8
0
100
AcDbLine
 10
20.1
 20
132.0
 30
0.0
 11
22.0
 21
22.0
 31
0.0
  0
LINE
  5
2D7
330
1E
100
AcDbEntity
  8
0
100
AcDbLine
 10
20.0
 20
134.0
 30
0.0
 11
102.0
 21
134.0
 31
0.0
  0
LINE
  5
2DA
330
1E
100
AcDbEntity
  8
0
100
AcDbLine
 10
20.0
 20
134.0
 30
0.0
 11
20.1
 21
132.0
 31
0.0
  0
LINE
  5
2DB
330
1E
100
AcDbEntity
  8
0
100
AcDbLine
 10
29.016
 20
82.0
 30
0.0
 11
29.976
 21
82.0
 31
0.0
  0
LINE
  5
2DC
330
1E
100
AcDbEntity
  8
0
100
AcDbLine
 10
33.06329999999999
 20
82.0
 30
0.0
 11
34.7697
 21
82.0
 31
0.0
  0
LINE
  5
2DD
330
1E
100
AcDbEntity
  8
0
100
AcDbLine
 10
34.7697
 20
82.0
 30
0.0
 11
36.2252
 21
82.0
 31
0.0
  0
LINE
  5
2DE
330
1E
100
AcDbEntity
  8
0
100
AcDbLine
 10
83.49999999999999
 20
82.0
 30
0.0
 11
83.8175
 21
82.0
 31
0.0
  0
LINE
  5
2DF
330
1E
100
AcDbEntity
  8
0
100
AcDbLine
 10
83.49999999999999
 20
82.0
 30
0.0
 11
83.49999999999999
 21
84.0
 31
0.0
  0
LINE
  5
2E0
330
1E
100
AcDbEntity
  8
0
100
AcDbLine
 10
83.8175
 20
82.0
 30
0.0
 11
84.57030000000001
 21
82.0
 31
0.0
  0
LINE
  5
2E1
330
1E
100
AcDbEntity
  8
0
100
AcDbLine
 10
84.57030000000001
 20
82.0
 30
0.0
 11
85.77479999999999
 21
82.0
 31
0.0
  0
LINE
  5
2E2
330
1E
100
AcDbEntity
  8
0
100
AcDbLine
 10
85.77479999999999
 20
82.0
 30
0.0
 11
87.23029999999999
 21
82.0
 31
0.0
  0
LINE
  5
2E3
330
1E
100
AcDbEntity
  8
0
100
AcDbLine
 10
87.23029999999999
 20
82.0
 30
0.0
 11
88.9367
 21
82.0
 31
0.0
  0
LINE
  5
2E4
330
1E
100
AcDbEntity
  8
0
100
AcDbLine
 10
87.0
 20
82.0
 30
0.0
 11
87.14399999999999
 21
82.0
 31
0.0
  0
LINE
  5
2E5
330
1E
100
AcDbEntity
  8
0
100
AcDbLine
 10
61.0
 20
82.0
 30
0.0
 11
83.49999999999999
 21
82.0
 31
0.0
  0
LINE
  5
2E6
330
1E
100
AcDbEntity
  8
0
100
AcDbLine
 10
87.14399999999999
 20
82.0
 30
0.0
 11
87.52799999999998
 21
82.0
 31
0.0
  0
LINE
  5
2E7
330
1E
100
AcDbEntity
  8
0
100
AcDbLine
 10
88.9367
 20
82.0
 30
0.0
 11
91.0
 21
82.0
 31
0.0
  0
LINE
  5
2E8
330
1E
100
AcDbEntity
  8
0
100
AcDbLine
 10
87.52799999999998
 20
82.0
 30
0.0
 11
88.16799999999998
 21
82.0
 31
0.0
  0
LINE
  5
2E9
330
1E
100
AcDbEntity
  8
0
100
AcDbLine
 10
88.16799999999998
 20
82.0
 30
0.0
 11
89.016
 21
82.0
 31
0.0
  0
LINE
  5
2EA
330
1E
100
AcDbEntity
  8
0
100
AcDbLine
 10
89.016
 20
82.0
 30
0.0
 11
89.976
 21
82.0
 31
0.0
  0
LINE
  5
2EB
330
1E
100
AcDbEntity
  8
0
100
AcDbLine
 10
89.976
 20
82.0
 30
0.0
 11
91.0
 21
82.0
 31
0.0
  0
LINE
  5
2EC
330
1E
100
AcDbEntity
  8
0
100
AcDbLine
 10
92.98399999999999
 20
82.0
 30
0.0
 11
93.832
 21
82.0
 31
0.0
  0
LINE
  5
2ED
330
1E
100
AcDbEntity
  8
0
100
AcDbLine
 10
92.024
 20
82.0
 30
0.0
 11
92.98399999999999
 21
82.0
 31
0.0
  0
LINE
  5
2EE
330
1E
100
AcDbEntity
  8
0
100
AcDbLine
 10
94.85600000000001
 20
82.0
 30
0.0
 11
95.0
 21
82.0
 31
0.0
  0
LINE
  5
2EF
330
1E
100
AcDbEntity
  8
0
100
AcDbLine
 10
94.472
 20
82.0
 30
0.0
 11
94.85600000000001
 21
82.0
 31
0.0
  0
LINE
  5
2F0
330
1E
100
AcDbEntity
  8
0
100
AcDbLine
 10
93.832
 20
82.0
 30
0.0
 11
94.472
 21
82.0
 31
0.0
  0
LINE
  5
2F1
330
1E
100
AcDbEntity
  8
0
100
AcDbLine
 10
98.1825
 20
82.0
 30
0.0
 11
98.50000000000001
 21
82.0
 31
0.0
  0
LINE
  5
2F2
330
1E
100
AcDbEntity
  8
0
100
AcDbLine
 10
100.9
 20
82.0
 30
0.0
 11
100.95
 21
84.0
 31
0.0
  0
LINE
  5
2F3
330
1E
100
AcDbEntity
  8
0
100
AcDbLine
 10
98.50000000000001
 20
82.0
 30
0.0
 11
98.50000000000001
 21
84.0
 31
0.0
  0
LINE
  5
2F4
330
1E
100
AcDbEntity
  8
0
100
AcDbLine
 10
98.50000000000001
 20
82.0
 30
0.0
 11
100.9
 21
82.0
 31
0.0
  0
LINE
  5
2F5
330
1E
100
AcDbEntity
  8
0
100
AcDbLine
 10
97.42969999999999
 20
82.0
 30
0.0
 11
98.1825
 21
82.0
 31
0.0
  0
LINE
  5
2F6
330
1E
100
AcDbEntity
  8
0
100
AcDbLine
 10
96.22520000000001
 20
82.0
 30
0.0
 11
97.42969999999999
 21
82.0
 31
0.0
  0
LINE
  5
2F7
330
1E
100
AcDbEntity
  8
0
100
AcDbLine
 10
94.76969999999999
 20
82.0
 30
0.0
 11
96.22520000000001
 21
82.0
 31
0.0
  0
LINE
  5
2F8
330
1E
100
AcDbEntity
  8
0
100
AcDbLine
 10
93.0633
 20
82.0
 30
0.0
 11
94.76969999999999
 21
82.0
 31
0.0
  0
LINE
  5
2F9
330
1E
100
AcDbEntity
  8
0
100
AcDbLine
 10
91.0
 20
82.0
 30
0.0
 11
93.0633
 21
82.0
 31
0.0
  0
LINE
  5
2FA
330
1E
100
AcDbEntity
  8
0
100
AcDbLine
 10
91.0
 20
82.0
 30
0.0
 11
92.024
 21
82.0
 31
0.0
  0
LINE
  5
2FB
330
1E
100
AcDbEntity
  8
0
100
AcDbLine
 10
38.18249999999999
 20
82.0
 30
0.0
 11
38.5
 21
82.0
 31
0.0
  0
LINE
  5
2FC
330
1E
100
AcDbEntity
  8
0
100
AcDbLine
 10
38.5
 20
82.0
 30
0.0
 11
38.5
 21
84.0
 31
0.0
  0
LINE
  5
2FD
330
1E
100
AcDbEntity
  8
0
100
AcDbLine
 10
38.5
 20
82.0
 30
0.0
 11
61.0
 21
82.0
 31
0.0
  0
LINE
  5
2FE
330
1E
100
AcDbEntity
  8
0
100
AcDbLine
 10
37.42969999999999
 20
82.0
 30
0.0
 11
38.18249999999999
 21
82.0
 31
0.0
  0
LINE
  5
2FF
330
1E
100
AcDbEntity
  8
0
100
AcDbLine
 10
36.2252
 20
82.0
 30
0.0
 11
37.42969999999999
 21
82.0
 31
0.0
  0
LINE
  5
300
330
1E
100
AcDbEntity
  8
0
100
AcDbLine
 10
34.856
 20
82.0
 30
0.0
 11
35.0
 21
82.0
 31
0.0
  0
LINE
  5
301
330
1E
100
AcDbEntity
  8
0
100
AcDbLine
 10
34.472
 20
82.0
 30
0.0
 11
34.856
 21
82.0
 31
0.0
  0
LINE
  5
302
330
1E
100
AcDbEntity
  8
0
100
AcDbLine
 10
33.832
 20
82.0
 30
0.0
 11
34.472
 21
82.0
 31
0.0
  0
LINE
  5
303
330
1E
100
AcDbEntity
  8
0
100
AcDbLine
 10
32.984
 20
82.0
 30
0.0
 11
33.832
 21
82.0
 31
0.0
  0
LINE
  5
304
330
1E
100
AcDbEntity
  8
0
100
AcDbLine
 10
32.024
 20
82.0
 30
0.0
 11
32.984
 21
82.0
 31
0.0
  0
LINE
  5
305
330
1E
100
AcDbEntity
  8
0
100
AcDbLine
 10
83.49999999999999
 20
84.0
 30
0.0
 11
83.8175
 21
84.0
 31
0.0
  0
LINE
  5
306
330
1E
100
AcDbEntity
  8
0
100
AcDbLine
 10
83.49999999999999
 20
84.0
 30
0.0
 11
83.49999999999999
 21
82.0
 31
0.0
  0
LINE
  5
307
330
1E
100
AcDbEntity
  8
0
100
AcDbLine
 10
83.8175
 20
84.0
 30
0.0
 11
84.57030000000001
 21
84.0
 31
0.0
  0
LINE
  5
308
330
1E
100
AcDbEntity
  8
0
100
AcDbLine
 10
84.57030000000001
 20
84.0
 30
0.0
 11
85.77479999999999
 21
84.0
 31
0.0
  0
LINE
  5
309
330
1E
100
AcDbEntity
  8
0
100
AcDbLine
 10
85.77479999999999
 20
84.0
 30
0.0
 11
87.23029999999999
 21
84.0
 31
0.0
  0
LINE
  5
30A
330
1E
100
AcDbEntity
  8
0
100
AcDbLine
 10
87.23029999999999
 20
84.0
 30
0.0
 11
88.9367
 21
84.0
 31
0.0
  0
LINE
  5
30B
330
1E
100
AcDbEntity
  8
0
100
AcDbLine
 10
88.9367
 20
84.0
 30
0.0
 11
91.0
 21
84.0
 31
0.0
  0
LINE
  5
30C
330
1E
100
AcDbEntity
  8
0
100
AcDbLine
 10
61.0
 20
84.0
 30
0.0
 11
83.49999999999999
 21
84.0
 31
0.0
  0
LINE
  5
30D
330
1E
100
AcDbEntity
  8
0
100
AcDbLine
 10
98.1825
 20
84.0
 30
0.0
 11
98.50000000000001
 21
84.0
 31
0.0
  0
LINE
  5
30E
330
1E
100
AcDbEntity
  8
0
100
AcDbLine
 10
97.42969999999999
 20
84.0
 30
0.0
 11
98.1825
 21
84.0
 31
0.0
  0
LINE
  5
30F
330
1E
100
AcDbEntity
  8
0
100
AcDbLine
 10
96.22520000000001
 20
84.0
 30
0.0
 11
97.42969999999999
 21
84.0
 31
0.0
  0
LINE
  5
310
330
1E
100
AcDbEntity
  8
0
100
AcDbLine
 10
94.76969999999999
 20
84.0
 30
0.0
 11
96.22520000000001
 21
84.0
 31
0.0
  0
LINE
  5
311
330
1E
100
AcDbEntity
  8
0
100
AcDbLine
 10
93.0633
 20
84.0
 30
0.0
 11
94.76969999999999
 21
84.0
 31
0.0
  0
LINE
  5
312
330
1E
100
AcDbEntity
  8
0
100
AcDbLine
 10
91.0
 20
84.0
 30
0.0
 11
93.0633
 21
84.0
 31
0.0
  0
LINE
  5
313
330
1E
100
AcDbEntity
  8
0
100
AcDbLine
 10
98.50000000000001
 20
84.0
 30
0.0
 11
100.95
 21
84.0
 31
0.0
  0
LINE
  5
314
330
1E
100
AcDbEntity
  8
0
100
AcDbLine
 10
98.50000000000001
 20
84.0
 30
0.0
 11
98.50000000000001
 21
82.0
 31
0.0
  0
LINE
  5
315
330
1E
100
AcDbEntity
  8
0
100
AcDbLine
 10
38.5
 20
84.0
 30
0.0
 11
38.5
 21
82.0
 31
0.0
  0
LINE
  5
316
330
1E
100
AcDbEntity
  8
0
100
AcDbLine
 10
38.5
 20
84.0
 30
0.0
 11
61.0
 21
84.0
 31
0.0
  0
LINE
  5
317
330
1E
100
AcDbEntity
  8
0
100
AcDbLine
 10
38.18249999999999
 20
84.0
 30
0.0
 11
38.5
 21
84.0
 31
0.0
  0
LINE
  5
318
330
1E
100
AcDbEntity
  8
0
100
AcDbLine
 10
37.42969999999999
 20
84.0
 30
0.0
 11
38.18249999999999
 21
84.0
 31
0.0
  0
LINE
  5
319
330
1E
100
AcDbEntity
  8
0
100
AcDbLine
 10
36.2252
 20
84.0
 30
0.0
 11
37.42969999999999
 21
84.0
 31
0.0
  0
LINE
  5
31A
330
1E
100
AcDbEntity
  8
0
100
AcDbLine
 10
34.7697
 20
84.0
 30
0.0
 11
36.2252
 21
84.0
 31
0.0
  0
LINE
  5
31B
330
1E
100
AcDbEntity
  8
0
100
AcDbLine
 10
33.06329999999999
 20
84.0
 30
0.0
 11
34.7697
 21
84.0
 31
0.0
  0
LINE
  5
31C
330
1E
100
AcDbEntity
  8
0
100
AcDbLine
 10
101.752777777778
 20
120.1555555555559
 30
0.0
 11
121.0
 21
132.0
 31
0.0
  0
LINE
  5
31D
330
1E
100
AcDbEntity
  8
0
100
AcDbLine
 10
31.0
 20
84.0
 30
0.0
 11
33.06329999999999
 21
84.0
 31
0.0
  0
LINE
  5
31E
330
1E
100
AcDbEntity
  8
0
100
AcDbLine
 10
101.964285714286
 20
132.0
 30
0.0
 11
121.0
 21
132.0
 31
0.0
  0
LINE
  5
31F
330
1E
100
AcDbEntity
  8
0
100
AcDbLine
 10
101.9
 20
132.0
 30
0.0
 11
102.0
 21
134.0
 31
0.0
  0
LINE
  5
320
330
1E
100
AcDbEntity
  8
0
100
AcDbLine
 10
102.0
 20
134.0
 30
0.0
 11
121.0
 21
134.0
 31
0.0
  0
LINE
  5
321
330
1E
100
AcDbEntity
  8
0
100
AcDbLine
 10
31.0
 20
82.0
 30
0.0
 11
32.024
 21
82.0
 31
0.0
  0
LINE
  5
322
330
1E
100
AcDbEntity
  8
0
100
AcDbLine
 10
31.0
 20
82.0
 30
0.0
 11
33.06329999999999
 21
82.0
 31
0.0
  0
LINE
  5
323
330
1E
100
AcDbEntity
  8
0
100
AcDbLine
 10
29.976
 20
82.0
 30
0.0
 11
31.0
 21
82.0
 31
0.0
  0
LINE
  5
324
330
1E
100
AcDbEntity
  8
0
100
AcDbLine
 10
2.0
 20
22.0
 30
0.0
 11
120.0
 21
22.0
 31
0.0
  0
LINE
  5
325
330
1E
100
AcDbEntity
  8
0
100
AcDbLine
 10
120.0
 20
22.0
 30
0.0
 11
120.7
 21
21.69999999999999
 31
0.0
  0
LINE
  5
326
330
1E
100
AcDbEntity
  8
0
100
AcDbLine
 10
2.0
 20
22.0
 30
0.0
 11
120.0
 21
22.0
 31
0.0
  0
LINE
  5
327
330
1E
100
AcDbEntity
  8
0
100
AcDbLine
 10
120.0
 20
22.0
 30
0.0
 11
120.7
 21
21.69999999999999
 31
0.0
  0
LINE
  5
328
330
1E
100
AcDbEntity
  8
0
100
AcDbLine
 10
2.0
 20
21.69999999999999
 30
0.0
 11
120.0
 21
21.69999999999999
 31
0.0
  0
LINE
  5
329
330
1E
100
AcDbEntity
  8
0
100
AcDbLine
 10
120.5
 20
21.49999999999999
 30
0.0
 11
120.7
 21
21.0
 31
0.0
  0
LINE
  5
32B
330
1E
100
AcDbEntity
  8
0
100
AcDbLine
 10
120.7
 20
21.69999999999999
 30
0.0
 11
121.0
 21
21.0
 31
0.0
  0
LINE
  5
32C
330
1E
100
AcDbEntity
  8
0
100
AcDbLine
 10
120.7
 20
21.69999999999999
 30
0.0
 11
121.0
 21
21.0
 31
0.0
  0
LINE
  5
32D
330
1E
100
AcDbEntity
  8
0
100
AcDbLine
 10
120.0
 20
21.69999999999999
 30
0.0
 11
120.5
 21
21.49999999999999
 31
0.0
  0
LINE
  5
32E
330
1E
100
AcDbEntity
  8
0
100
AcDbLine
 10
120.5
 20
21.49999999999999
 30
0.0
 11
120.7
 21
21.0
 31
0.0
  0
LINE
  5
330
330
1E
100
AcDbEntity
  8
0
100
AcDbLine
 10
121.0
 20
3.500000000000009
 30
0.0
 11
121.0
 21
3.573980000000009
 31
0.0
  0
LINE
  5
331
330
1E
100
AcDbEntity
  8
0
100
AcDbLine
 10
121.0
 20
3.500000000000009
 30
0.0
 11
121.477
 21
3.946870000000009
 31
0.0
  0
LINE
  5
332
330
1E
100
AcDbEntity
  8
0
100
AcDbLine
 10
121.0
 20
3.500000000000009
 30
0.0
 11
121.0
 21
3.573980000000009
 31
0.0
  0
LINE
  5
333
330
1E
100
AcDbEntity
  8
0
100
AcDbLine
 10
121.0
 20
3.500000000000009
 30
0.0
 11
121.477
 21
3.946870000000009
 31
0.0
  0
LINE
  5
334
330
1E
100
AcDbEntity
  8
0
100
AcDbLine
 10
121.0
 20
3.500000000000009
 30
0.0
 11
121.0
 21
3.573980000000009
 31
0.0
  0
LINE
  5
335
330
1E
100
AcDbEntity
  8
0
100
AcDbLine
 10
121.0
 20
3.500000000000009
 30
0.0
 11
121.477
 21
3.946870000000009
 31
0.0
  0
LINE
  5
336
330
1E
100
AcDbEntity
  8
0
100
AcDbLine
 10
121.0
 20
3.500000000000009
 30
0.0
 11
121.0
 21
3.573980000000009
 31
0.0
  0
LINE
  5
337
330
1E
100
AcDbEntity
  8
0
100
AcDbLine
 10
121.0
 20
3.500000000000009
 30
0.0
 11
121.477
 21
3.946870000000009
 31
0.0
  0
LINE
  5
338
330
1E
100
AcDbEntity
  8
0
100
AcDbLine
 10
121.0
 20
3.500000000000009
 30
0.0
 11
121.0
 21
3.573980000000009
 31
0.0
  0
LINE
  5
339
330
1E
100
AcDbEntity
  8
0
100
AcDbLine
 10
121.0
 20
3.500000000000009
 30
0.0
 11
121.477
 21
3.946870000000009
 31
0.0
  0
LINE
  5
33A
330
1E
100
AcDbEntity
  8
0
100
AcDbLine
 10
121.0
 20
3.500000000000009
 30
0.0
 11
121.0
 21
3.573980000000009
 31
0.0
  0
LINE
  5
33B
330
1E
100
AcDbEntity
  8
0
100
AcDbLine
 10
121.0
 20
3.500000000000009
 30
0.0
 11
121.477
 21
3.946870000000009
 31
0.0
  0
LINE
  5
33C
330
1E
100
AcDbEntity
  8
0
100
AcDbLine
 10
121.0
 20
3.500000000000009
 30
0.0
 11
121.0
 21
3.573980000000009
 31
0.0
  0
LINE
  5
33D
330
1E
100
AcDbEntity
  8
0
100
AcDbLine
 10
121.0
 20
3.500000000000009
 30
0.0
 11
121.477
 21
3.946870000000009
 31
0.0
  0
LINE
  5
33E
330
1E
100
AcDbEntity
  8
0
100
AcDbLine
 10
121.0
 20
3.500000000000009
 30
0.0
 11
121.0
 21
3.573980000000009
 31
0.0
  0
LINE
  5
33F
330
1E
100
AcDbEntity
  8
0
100
AcDbLine
 10
121.0
 20
3.500000000000009
 30
0.0
 11
121.477
 21
3.946870000000009
 31
0.0
  0
LINE
  5
340
330
1E
100
AcDbEntity
  8
0
100
AcDbLine
 10
121.0
 20
3.573980000000009
 30
0.0
 11
121.0
 21
3.500000000000009
 31
0.0
  0
LINE
  5
341
330
1E
100
AcDbEntity
  8
0
100
AcDbLine
 10
121.0
 20
3.573980000000009
 30
0.0
 11
121.0
 21
3.765800000000009
 31
0.0
  0
LINE
  5
342
330
1E
100
AcDbEntity
  8
0
100
AcDbLine
 10
121.0
 20
3.573980000000009
 30
0.0
 11
121.0
 21
3.500000000000009
 31
0.0
  0
LINE
  5
343
330
1E
100
AcDbEntity
  8
0
100
AcDbLine
 10
121.0
 20
3.573980000000009
 30
0.0
 11
121.0
 21
3.765800000000009
 31
0.0
  0
LINE
  5
344
330
1E
100
AcDbEntity
  8
0
100
AcDbLine
 10
121.0
 20
3.573980000000009
 30
0.0
 11
121.0
 21
3.500000000000009
 31
0.0
  0
LINE
  5
345
330
1E
100
AcDbEntity
  8
0
100
AcDbLine
 10
121.0
 20
3.573980000000009
 30
0.0
 11
121.0
 21
3.765800000000009
 31
0.0
  0
LINE
  5
346
330
1E
100
AcDbEntity
  8
0
100
AcDbLine
 10
121.0
 20
3.573980000000009
 30
0.0
 11
121.0
 21
3.500000000000009
 31
0.0
  0
LINE
  5
347
330
1E
100
AcDbEntity
  8
0
100
AcDbLine
 10
121.0
 20
3.573980000000009
 30
0.0
 11
121.0
 21
3.765800000000009
 31
0.0
  0
LINE
  5
348
330
1E
100
AcDbEntity
  8
0
100
AcDbLine
 10
121.0
 20
3.573980000000009
 30
0.0
 11
121.0
 21
3.500000000000009
 31
0.0
  0
LINE
  5
349
330
1E
100
AcDbEntity
  8
0
100
AcDbLine
 10
121.0
 20
3.573980000000009
 30
0.0
 11
121.0
 21
3.765800000000009
 31
0.0
  0
LINE
  5
34A
330
1E
100
AcDbEntity
  8
0
100
AcDbLine
 10
121.0
 20
3.573980000000009
 30
0.0
 11
121.0
 21
3.500000000000009
 31
0.0
  0
LINE
  5
34B
330
1E
100
AcDbEntity
  8
0
100
AcDbLine
 10
121.0
 20
3.573980000000009
 30
0.0
 11
121.0
 21
3.765800000000009
 31
0.0
  0
LINE
  5
34C
330
1E
100
AcDbEntity
  8
0
100
AcDbLine
 10
121.0
 20
3.573980000000009
 30
0.0
 11
121.0
 21
3.500000000000009
 31
0.0
  0
LINE
  5
34D
330
1E
100
AcDbEntity
  8
0
100
AcDbLine
 10
121.0
 20
3.573980000000009
 30
0.0
 11
121.0
 21
3.765800000000009
 31
0.0
  0
LINE
  5
34E
330
1E
100
AcDbEntity
  8
0
100
AcDbLine
 10
121.0
 20
3.573980000000009
 30
0.0
 11
121.0
 21
3.500000000000009
 31
0.0
  0
LINE
  5
34F
330
1E
100
AcDbEntity
  8
0
100
AcDbLine
 10
121.0
 20
3.765800000000009
 30
0.0
 11
121.0
 21
3.573980000000009
 31
0.0
  0
LINE
  5
350
330
1E
100
AcDbEntity
  8
0
100
AcDbLine
 10
121.0
 20
3.765800000000009
 30
0.0
 11
121.0
 21
4.086240000000009
 31
0.0
  0
LINE
  5
351
330
1E
100
AcDbEntity
  8
0
100
AcDbLine
 10
121.0
 20
3.765800000000009
 30
0.0
 11
121.0
 21
4.086240000000009
 31
0.0
  0
LINE
  5
352
330
1E
100
AcDbEntity
  8
0
100
AcDbLine
 10
121.0
 20
3.765800000000009
 30
0.0
 11
121.0
 21
3.573980000000009
 31
0.0
  0
LINE
  5
353
330
1E
100
AcDbEntity
  8
0
100
AcDbLine
 10
121.0
 20
3.765800000000009
 30
0.0
 11
121.0
 21
4.086240000000009
 31
0.0
  0
LINE
  5
354
330
1E
100
AcDbEntity
  8
0
100
AcDbLine
 10
121.0
 20
3.765800000000009
 30
0.0
 11
121.0
 21
3.573980000000009
 31
0.0
  0
LINE
  5
355
330
1E
100
AcDbEntity
  8
0
100
AcDbLine
 10
121.0
 20
3.765800000000009
 30
0.0
 11
121.0
 21
4.086240000000009
 31
0.0
  0
LINE
  5
356
330
1E
100
AcDbEntity
  8
0
100
AcDbLine
 10
121.0
 20
3.765800000000009
 30
0.0
 11
121.0
 21
3.573980000000009
 31
0.0
  0
LINE
  5
357
330
1E
100
AcDbEntity
  8
0
100
AcDbLine
 10
121.0
 20
3.765800000000009
 30
0.0
 11
121.0
 21
4.086240000000009
 31
0.0
  0
LINE
  5
358
330
1E
100
AcDbEntity
  8
0
100
AcDbLine
 10
121.0
 20
3.765800000000009
 30
0.0
 11
121.0
 21
3.573980000000009
 31
0.0
  0
LINE
  5
359
330
1E
100
AcDbEntity
  8
0
100
AcDbLine
 10
121.0
 20
3.765800000000009
 30
0.0
 11
121.0
 21
4.086240000000009
 31
0.0
  0
LINE
  5
35A
330
1E
100
AcDbEntity
  8
0
100
AcDbLine
 10
121.0
 20
3.765800000000009
 30
0.0
 11
121.0
 21
3.573980000000009
 31
0.0
  0
LINE
  5
35B
330
1E
100
AcDbEntity
  8
0
100
AcDbLine
 10
121.0
 20
3.765800000000009
 30
0.0
 11
121.0
 21
4.086240000000009
 31
0.0
  0
LINE
  5
35C
330
1E
100
AcDbEntity
  8
0
100
AcDbLine
 10
121.0
 20
3.765800000000009
 30
0.0
 11
121.0
 21
3.573980000000009
 31
0.0
  0
LINE
  5
35D
330
1E
100
AcDbEntity
  8
0
100
AcDbLine
 10
121.0
 20
3.7658
 30
0.0
 11
121.0
 21
3.573980000000009
 31
0.0
  0
LINE
  5
35E
330
1E
100
AcDbEntity
  8
0
100
AcDbLine
 10
121.0
 20
4.086240000000009
 30
0.0
 11
121.0
 21
3.7658
 31
0.0
  0
LINE
  5
35F
330
1E
100
AcDbEntity
  8
0
100
AcDbLine
 10
121.0
 20
3.573980000000009
 30
0.0
 11
121.0
 21
3.765800000000009
 31
0.0
  0
LINE
  5
360
330
1E
100
AcDbEntity
  8
0
100
AcDbLine
 10
121.0
 20
3.573980000000009
 30
0.0
 11
121.0
 21
3.500000000000009
 31
0.0
  0
LINE
  5
361
330
1E
100
AcDbEntity
  8
0
100
AcDbLine
 10
121.0
 20
3.765800000000009
 30
0.0
 11
121.0
 21
4.086240000000009
 31
0.0
  0
LINE
  5
362
330
1E
100
AcDbEntity
  8
0
100
AcDbLine
 10
121.0
 20
3.765800000000009
 30
0.0
 11
121.0
 21
4.086240000000009
 31
0.0
  0
LINE
  5
363
330
1E
100
AcDbEntity
  8
0
100
AcDbLine
 10
121.0
 20
3.765800000000009
 30
0.0
 11
121.0
 21
3.573980000000009
 31
0.0
  0
LINE
  5
364
330
1E
100
AcDbEntity
  8
0
100
AcDbLine
 10
121.0
 20
4.086240000000009
 30
0.0
 11
121.0
 21
3.765800000000009
 31
0.0
  0
LINE
  5
365
330
1E
100
AcDbEntity
  8
0
100
AcDbLine
 10
121.0
 20
4.086240000000009
 30
0.0
 11
121.0
 21
4.508170000000009
 31
0.0
  0
LINE
  5
366
330
1E
100
AcDbEntity
  8
0
100
AcDbLine
 10
121.0
 20
4.086240000000009
 30
0.0
 11
121.0
 21
4.508170000000009
 31
0.0
  0
LINE
  5
367
330
1E
100
AcDbEntity
  8
0
100
AcDbLine
 10
121.0
 20
4.086240000000009
 30
0.0
 11
121.0
 21
3.765800000000009
 31
0.0
  0
LINE
  5
368
330
1E
100
AcDbEntity
  8
0
100
AcDbLine
 10
121.0
 20
4.086240000000009
 30
0.0
 11
121.0
 21
4.508170000000009
 31
0.0
  0
LINE
  5
369
330
1E
100
AcDbEntity
  8
0
100
AcDbLine
 10
121.0
 20
4.086240000000009
 30
0.0
 11
121.0
 21
3.765800000000009
 31
0.0
  0
LINE
  5
36A
330
1E
100
AcDbEntity
  8
0
100
AcDbLine
 10
121.0
 20
4.086240000000009
 30
0.0
 11
121.0
 21
4.508170000000009
 31
0.0
  0
LINE
  5
36B
330
1E
100
AcDbEntity
  8
0
100
AcDbLine
 10
121.0
 20
4.086240000000009
 30
0.0
 11
121.0
 21
3.765800000000009
 31
0.0
  0
LINE
  5
36C
330
1E
100
AcDbEntity
  8
0
100
AcDbLine
 10
121.0
 20
4.086240000000009
 30
0.0
 11
121.0
 21
4.508170000000009
 31
0.0
  0
LINE
  5
36D
330
1E
100
AcDbEntity
  8
0
100
AcDbLine
 10
121.0
 20
4.086240000000009
 30
0.0
 11
121.0
 21
3.765800000000009
 31
0.0
  0
LINE
  5
36E
330
1E
100
AcDbEntity
  8
0
100
AcDbLine
 10
121.0
 20
4.086240000000009
 30
0.0
 11
121.0
 21
4.508170000000009
 31
0.0
  0
LINE
  5
36F
330
1E
100
AcDbEntity
  8
0
100
AcDbLine
 10
121.0
 20
4.086240000000009
 30
0.0
 11
121.0
 21
3.765800000000009
 31
0.0
  0
LINE
  5
370
330
1E
100
AcDbEntity
  8
0
100
AcDbLine
 10
121.0
 20
4.508170000000009
 30
0.0
 11
121.0
 21
4.086240000000009
 31
0.0
  0
LINE
  5
371
330
1E
100
AcDbEntity
  8
0
100
AcDbLine
 10
121.0
 20
4.508170000000009
 30
0.0
 11
121.0
 21
4.987740000000009
 31
0.0
  0
LINE
  5
372
330
1E
100
AcDbEntity
  8
0
100
AcDbLine
 10
121.0
 20
4.508170000000009
 30
0.0
 11
121.0
 21
4.086240000000009
 31
0.0
  0
LINE
  5
373
330
1E
100
AcDbEntity
  8
0
100
AcDbLine
 10
121.0
 20
4.508170000000009
 30
0.0
 11
121.0
 21
4.086240000000009
 31
0.0
  0
LINE
  5
374
330
1E
100
AcDbEntity
  8
0
100
AcDbLine
 10
121.0
 20
4.508170000000009
 30
0.0
 11
121.0
 21
4.987740000000009
 31
0.0
  0
LINE
  5
375
330
1E
100
AcDbEntity
  8
0
100
AcDbLine
 10
121.0
 20
4.508170000000009
 30
0.0
 11
121.0
 21
4.086240000000009
 31
0.0
  0
LINE
  5
376
330
1E
100
AcDbEntity
  8
0
100
AcDbLine
 10
121.0
 20
4.508170000000009
 30
0.0
 11
121.0
 21
4.086240000000009
 31
0.0
  0
LINE
  5
377
330
1E
100
AcDbEntity
  8
0
100
AcDbLine
 10
121.0
 20
4.508170000000009
 30
0.0
 11
121.0
 21
4.987740000000009
 31
0.0
  0
LINE
  5
378
330
1E
100
AcDbEntity
  8
0
100
AcDbLine
 10
121.0
 20
4.508170000000009
 30
0.0
 11
121.0
 21
4.086240000000009
 31
0.0
  0
LINE
  5
379
330
1E
100
AcDbEntity
  8
0
100
AcDbLine
 10
121.0
 20
4.508170000000009
 30
0.0
 11
121.0
 21
4.086240000000009
 31
0.0
  0
LINE
  5
37A
330
1E
100
AcDbEntity
  8
0
100
AcDbLine
 10
121.0
 20
4.086240000000009
 30
0.0
 11
121.0
 21
4.508170000000009
 31
0.0
  0
LINE
  5
37B
330
1E
100
AcDbEntity
  8
0
100
AcDbLine
 10
121.0
 20
4.086240000000009
 30
0.0
 11
121.0
 21
4.508170000000009
 31
0.0
  0
LINE
  5
37C
330
1E
100
AcDbEntity
  8
0
100
AcDbLine
 10
121.0
 20
4.086240000000009
 30
0.0
 11
121.0
 21
3.765800000000009
 31
0.0
  0
LINE
  5
37D
330
1E
100
AcDbEntity
  8
0
100
AcDbLine
 10
121.0
 20
4.086240000000009
 30
0.0
 11
121.0
 21
4.508170000000009
 31
0.0
  0
LINE
  5
37E
330
1E
100
AcDbEntity
  8
0
100
AcDbLine
 10
121.0
 20
4.086240000000009
 30
0.0
 11
121.0
 21
3.765800000000009
 31
0.0
  0
LINE
  5
37F
330
1E
100
AcDbEntity
  8
0
100
AcDbLine
 10
121.0
 20
4.508170000000009
 30
0.0
 11
121.0
 21
4.987740000000009
 31
0.0
  0
LINE
  5
380
330
1E
100
AcDbEntity
  8
0
100
AcDbLine
 10
121.0
 20
4.508170000000009
 30
0.0
 11
121.0
 21
4.086240000000009
 31
0.0
  0
LINE
  5
381
330
1E
100
AcDbEntity
  8
0
100
AcDbLine
 10
121.0
 20
4.508170000000009
 30
0.0
 11
121.0
 21
4.086240000000009
 31
0.0
  0
LINE
  5
382
330
1E
100
AcDbEntity
  8
0
100
AcDbLine
 10
121.0
 20
4.508170000000009
 30
0.0
 11
121.0
 21
4.086240000000009
 31
0.0
  0
LINE
  5
383
330
1E
100
AcDbEntity
  8
0
100
AcDbLine
 10
121.0
 20
4.987740000000009
 30
0.0
 11
121.0
 21
4.508170000000009
 31
0.0
  0
LINE
  5
384
330
1E
100
AcDbEntity
  8
0
100
AcDbLine
 10
121.0
 20
4.987740000000009
 30
0.0
 11
121.0
 21
5.500000000000009
 31
0.0
  0
LINE
  5
385
330
1E
100
AcDbEntity
  8
0
100
AcDbLine
 10
121.0
 20
4.987740000000009
 30
0.0
 11
121.0
 21
5.500000000000009
 31
0.0
  0
LINE
  5
386
330
1E
100
AcDbEntity
  8
0
100
AcDbLine
 10
121.0
 20
4.987740000000009
 30
0.0
 11
121.0
 21
4.508170000000009
 31
0.0
  0
LINE
  5
387
330
1E
100
AcDbEntity
  8
0
100
AcDbLine
 10
121.0
 20
5.500000000000009
 30
0.0
 11
121.0
 21
17.5
 31
0.0
  0
LINE
  5
388
330
1E
100
AcDbEntity
  8
0
100
AcDbLine
 10
121.0
 20
5.500000000000009
 30
0.0
 11
121.0
 21
4.987740000000009
 31
0.0
  0
LINE
  5
389
330
1E
100
AcDbEntity
  8
0
100
AcDbLine
 10
121.0
 20
5.500000000000009
 30
0.0
 11
121.0
 21
4.987740000000009
 31
0.0
  0
LINE
  5
38B
330
1E
100
AcDbEntity
  8
0
100
AcDbLine
 10
121.0
 20
5.500000000000009
 30
0.0
 11
121.0
 21
17.5
 31
0.0
  0
LINE
  5
38C
330
1E
100
AcDbEntity
  8
0
100
AcDbLine
 10
121.0
 20
5.500000000000009
 30
0.0
 11
121.0
 21
17.5
 31
0.0
  0
LINE
  5
38D
330
1E
100
AcDbEntity
  8
0
100
AcDbLine
 10
121.0
 20
5.500000000000009
 30
0.0
 11
121.0
 21
4.987740000000009
 31
0.0
  0
LINE
  5
38F
330
1E
100
AcDbEntity
  8
0
100
AcDbLine
 10
121.0
 20
5.500000000000009
 30
0.0
 11
121.0
 21
17.5
 31
0.0
  0
LINE
  5
390
330
1E
100
AcDbEntity
  8
0
100
AcDbLine
 10
121.0
 20
4.987740000000009
 30
0.0
 11
121.0
 21
5.500000000000009
 31
0.0
  0
LINE
  5
391
330
1E
100
AcDbEntity
  8
0
100
AcDbLine
 10
121.0
 20
4.987740000000009
 30
0.0
 11
121.0
 21
4.508170000000009
 31
0.0
  0
LINE
  5
392
330
1E
100
AcDbEntity
  8
0
100
AcDbLine
 10
121.0
 20
18.0123
 30
0.0
 11
121.0
 21
18.4918
 31
0.0
  0
LINE
  5
393
330
1E
100
AcDbEntity
  8
0
100
AcDbLine
 10
121.0
 20
18.0123
 30
0.0
 11
121.0
 21
17.5
 31
0.0
  0
LINE
  5
394
330
1E
100
AcDbEntity
  8
0
100
AcDbLine
 10
121.0
 20
17.5
 30
0.0
 11
121.0
 21
18.0123
 31
0.0
  0
LINE
  5
396
330
1E
100
AcDbEntity
  8
0
100
AcDbLine
 10
121.0
 20
17.5
 30
0.0
 11
121.0
 21
5.500000000000009
 31
0.0
  0
LINE
  5
397
330
1E
100
AcDbEntity
  8
0
100
AcDbLine
 10
121.0
 20
18.91379999999999
 30
0.0
 11
121.0
 21
19.2342
 31
0.0
  0
LINE
  5
398
330
1E
100
AcDbEntity
  8
0
100
AcDbLine
 10
121.0
 20
18.91379999999999
 30
0.0
 11
121.0
 21
18.4918
 31
0.0
  0
LINE
  5
399
330
1E
100
AcDbEntity
  8
0
100
AcDbLine
 10
121.0
 20
18.4918
 30
0.0
 11
121.0
 21
18.91379999999999
 31
0.0
  0
LINE
  5
39A
330
1E
100
AcDbEntity
  8
0
100
AcDbLine
 10
121.0
 20
18.4918
 30
0.0
 11
121.0
 21
18.0123
 31
0.0
  0
LINE
  5
39B
330
1E
100
AcDbEntity
  8
0
100
AcDbLine
 10
121.0
 20
19.42599999999999
 30
0.0
 11
121.0
 21
19.5
 31
0.0
  0
LINE
  5
39C
330
1E
100
AcDbEntity
  8
0
100
AcDbLine
 10
121.0
 20
19.42599999999999
 30
0.0
 11
121.0
 21
19.2342
 31
0.0
  0
LINE
  5
39D
330
1E
100
AcDbEntity
  8
0
100
AcDbLine
 10
121.0
 20
19.2342
 30
0.0
 11
121.0
 21
19.42599999999999
 31
0.0
  0
LINE
  5
39E
330
1E
100
AcDbEntity
  8
0
100
AcDbLine
 10
121.0
 20
19.2342
 30
0.0
 11
121.0
 21
18.91379999999999
 31
0.0
  0
LINE
  5
39F
330
1E
100
AcDbEntity
  8
0
100
AcDbLine
 10
121.0
 20
132.0
 30
0.0
 11
121.0
 21
134.0
 31
0.0
  0
LINE
  5
3A0
330
1E
100
AcDbEntity
  8
0
100
AcDbLine
 10
121.0
 20
134.0
 30
0.0
 11
121.0
 21
132.0
 31
0.0
  0
LINE
  5
3A1
330
1E
100
AcDbEntity
  8
0
100
AcDbLine
 10
121.0
 20
19.5
 30
0.0
 11
121.477
 21
19.0531
 31
0.0
  0
LINE
  5
3A2
330
1E
100
AcDbEntity
  8
0
100
AcDbLine
 10
121.0
 20
19.5
 30
0.0
 11
121.0
 21
19.42599999999999
 31
0.0
  0
LINE
  5
3A3
330
1E
100
AcDbEntity
  8
0
100
AcDbLine
 10
121.0
 20
19.5
 30
0.0
 11
121.477
 21
19.0531
 31
0.0
  0
LINE
  5
3A4
330
1E
100
AcDbEntity
  8
0
100
AcDbLine
 10
121.0
 20
19.5
 30
0.0
 11
121.0
 21
19.42599999999999
 31
0.0
  0
LINE
  5
3A5
330
1E
100
AcDbEntity
  8
0
100
AcDbLine
 10
121.0
 20
19.42599999999999
 30
0.0
 11
121.0
 21
19.5
 31
0.0
  0
LINE
  5
3A6
330
1E
100
AcDbEntity
  8
0
100
AcDbLine
 10
121.0
 20
19.42599999999999
 30
0.0
 11
121.0
 21
19.2342
 31
0.0
  0
LINE
  5
3A7
330
1E
100
AcDbEntity
  8
0
100
AcDbLine
 10
121.0
 20
19.2342
 30
0.0
 11
121.0
 21
19.42599999999999
 31
0.0
  0
LINE
  5
3A8
330
1E
100
AcDbEntity
  8
0
100
AcDbLine
 10
121.0
 20
19.2342
 30
0.0
 11
121.0
 21
18.91379999999999
 31
0.0
  0
LINE
  5
3A9
330
1E
100
AcDbEntity
  8
0
100
AcDbLine
 10
121.0
 20
18.91379999999999
 30
0.0
 11
121.0
 21
19.2342
 31
0.0
  0
LINE
  5
3AA
330
1E
100
AcDbEntity
  8
0
100
AcDbLine
 10
121.0
 20
18.91379999999999
 30
0.0
 11
121.0
 21
18.4918
 31
0.0
  0
LINE
  5
3AB
330
1E
100
AcDbEntity
  8
0
100
AcDbLine
 10
121.0
 20
18.4918
 30
0.0
 11
121.0
 21
18.91379999999999
 31
0.0
  0
LINE
  5
3AC
330
1E
100
AcDbEntity
  8
0
100
AcDbLine
 10
121.0
 20
18.4918
 30
0.0
 11
121.0
 21
18.0123
 31
0.0
  0
LINE
  5
3AD
330
1E
100
AcDbEntity
  8
0
100
AcDbLine
 10
121.0
 20
18.0123
 30
0.0
 11
121.0
 21
18.4918
 31
0.0
  0
LINE
  5
3AE
330
1E
100
AcDbEntity
  8
0
100
AcDbLine
 10
121.0
 20
18.0123
 30
0.0
 11
121.0
 21
17.5
 31
0.0
  0
LINE
  5
3AF
330
1E
100
AcDbEntity
  8
0
100
AcDbLine
 10
121.0
 20
17.5
 30
0.0
 11
121.0
 21
18.0123
 31
0.0
  0
LINE
  5
3B1
330
1E
100
AcDbEntity
  8
0
100
AcDbLine
 10
121.0
 20
17.5
 30
0.0
 11
121.0
 21
5.5
 31
0.0
  0
LINE
  5
3B2
330
1E
100
AcDbEntity
  8
0
100
AcDbLine
 10
121.0
 20
17.5
 30
0.0
 11
121.0
 21
5.500000000000009
 31
0.0
  0
LINE
  5
3B3
330
1E
100
AcDbEntity
  8
0
100
AcDbLine
 10
121.0
 20
17.5
 30
0.0
 11
121.0
 21
5.500000000000009
 31
0.0
  0
LINE
  5
3B4
330
1E
100
AcDbEntity
  8
0
100
AcDbLine
 10
121.0
 20
5.500000000000009
 30
0.0
 11
121.0
 21
4.987740000000009
 31
0.0
  0
LINE
  5
3B6
330
1E
100
AcDbEntity
  8
0
100
AcDbLine
 10
121.0
 20
5.500000000000009
 30
0.0
 11
121.0
 21
17.5
 31
0.0
  0
LINE
  5
3B8
330
1E
100
AcDbEntity
  8
0
100
AcDbLine
 10
121.0
 20
4.987740000000009
 30
0.0
 11
121.0
 21
5.500000000000009
 31
0.0
  0
LINE
  5
3B9
330
1E
100
AcDbEntity
  8
0
100
AcDbLine
 10
121.0
 20
4.987740000000009
 30
0.0
 11
121.0
 21
4.508170000000009
 31
0.0
  0
LINE
  5
3BA
330
1E
100
AcDbEntity
  8
0
100
AcDbLine
 10
121.0
 20
21.0
 30
0.0
 11
121.0
 21
2.00000000000001
 31
0.0
  0
LINE
  5
3BB
330
1E
100
AcDbEntity
  8
0
100
AcDbLine
 10
121.0
 20
2.00000000000001
 30
0.0
 11
121.0
 21
21.0
 31
0.0
  0
LINE
  5
3BC
330
1E
100
AcDbEntity
  8
0
100
AcDbLine
 10
121.477
 20
3.946870000000009
 30
0.0
 11
121.8839999999999
 21
4.682560000000009
 31
0.0
  0
LINE
  5
3BD
330
1E
100
AcDbEntity
  8
0
100
AcDbLine
 10
121.477
 20
3.946870000000009
 30
0.0
 11
121.8839999999999
 21
4.682560000000009
 31
0.0
  0
LINE
  5
3BE
330
1E
100
AcDbEntity
  8
0
100
AcDbLine
 10
121.477
 20
3.946870000000009
 30
0.0
 11
121.8839999999999
 21
4.682560000000009
 31
0.0
  0
LINE
  5
3BF
330
1E
100
AcDbEntity
  8
0
100
AcDbLine
 10
121.477
 20
3.946870000000009
 30
0.0
 11
121.8839999999999
 21
4.682560000000009
 31
0.0
  0
LINE
  5
3C0
330
1E
100
AcDbEntity
  8
0
100
AcDbLine
 10
121.477
 20
3.946870000000009
 30
0.0
 11
121.8839999999999
 21
4.682560000000009
 31
0.0
  0
LINE
  5
3C1
330
1E
100
AcDbEntity
  8
0
100
AcDbLine
 10
121.477
 20
3.946870000000009
 30
0.0
 11
121.8839999999999
 21
4.682560000000009
 31
0.0
  0
LINE
  5
3C2
330
1E
100
AcDbEntity
  8
0
100
AcDbLine
 10
121.477
 20
3.946870000000009
 30
0.0
 11
121.8839999999999
 21
4.682560000000009
 31
0.0
  0
LINE
  5
3C3
330
1E
100
AcDbEntity
  8
0
100
AcDbLine
 10
121.477
 20
3.946870000000009
 30
0.0
 11
121.8839999999999
 21
4.682559999999999
 31
0.0
  0
LINE
  5
3C9
330
1E
100
AcDbEntity
  8
0
100
AcDbLine
 10
121.477
 20
19.0531
 30
0.0
 11
121.8839999999999
 21
18.31739999999999
 31
0.0
  0
LINE
  5
3CA
330
1E
100
AcDbEntity
  8
0
100
AcDbLine
 10
121.477
 20
19.0531
 30
0.0
 11
121.8839999999999
 21
18.31739999999999
 31
0.0
  0
LINE
  5
3CB
330
1E
100
AcDbEntity
  8
0
100
AcDbLine
 10
121.8839999999999
 20
4.682560000000009
 30
0.0
 11
122.0
 21
5.500000000000009
 31
0.0
  0
LINE
  5
3CC
330
1E
100
AcDbEntity
  8
0
100
AcDbLine
 10
121.8839999999999
 20
4.682560000000009
 30
0.0
 11
122.0
 21
5.500000000000009
 31
0.0
  0
LINE
  5
3CD
330
1E
100
AcDbEntity
  8
0
100
AcDbLine
 10
121.8839999999999
 20
4.682560000000009
 30
0.0
 11
122.0
 21
5.500000000000009
 31
0.0
  0
LINE
  5
3CE
330
1E
100
AcDbEntity
  8
0
100
AcDbLine
 10
122.0
 20
5.500000000000009
 30
0.0
 11
122.0
 21
17.5
 31
0.0
  0
LINE
  5
3CF
330
1E
100
AcDbEntity
  8
0
100
AcDbLine
 10
122.0
 20
5.500000000000009
 30
0.0
 11
122.0
 21
17.5
 31
0.0
  0
LINE
  5
3D0
330
1E
100
AcDbEntity
  8
0
100
AcDbLine
 10
122.0
 20
5.500000000000009
 30
0.0
 11
122.0
 21
17.5
 31
0.0
  0
LINE
  5
3D1
330
1E
100
AcDbEntity
  8
0
100
AcDbLine
 10
122.0
 20
17.5
 30
0.0
 11
122.0
 21
5.500000000000009
 31
0.0
  0
LINE
  5
3D2
330
1E
100
AcDbEntity
  8
0
100
AcDbLine
 10
122.0
 20
5.500000000000009
 30
0.0
 11
122.0
 21
17.5
 31
0.0
  0
LINE
  5
3D3
330
1E
100
AcDbEntity
  8
0
100
AcDbLine
 10
122.0
 20
5.500000000000009
 30
0.0
 11
122.0
 21
17.5
 31
0.0
  0
LINE
  5
3D4
330
1E
100
AcDbEntity
  8
0
100
AcDbLine
 10
122.0
 20
17.5
 30
0.0
 11
122.0
 21
5.5
 31
0.0
  0
LINE
  5
3D5
330
1E
100
AcDbEntity
  8
0
100
AcDbLine
 10
122.0
 20
17.5
 30
0.0
 11
122.0
 21
5.500000000000009
 31
0.0
  0
LINE
  5
3D6
330
1E
100
AcDbEntity
  8
0
100
AcDbLine
 10
122.0
 20
17.5
 30
0.0
 11
122.0
 21
5.500000000000009
 31
0.0
  0
LINE
  5
3D7
330
1E
100
AcDbEntity
  8
0
100
AcDbLine
 10
121.8839999999999
 20
18.31739999999999
 30
0.0
 11
122.0
 21
17.5
 31
0.0
  0
LINE
  5
3D8
330
1E
100
AcDbEntity
  8
0
100
AcDbLine
 10
121.8839999999999
 20
18.31739999999999
 30
0.0
 11
122.0
 21
17.5
 31
0.0
  0
LINE
  5
3DA
330
1E
100
AcDbEntity
  8
0
100
AcDbLine
 10
121.8839999999999
 20
4.682559999999999
 30
0.0
 11
122.0
 21
5.500000000000009
 31
0.0
  0
LINE
  5
3DB
330
1E
100
AcDbEntity
  8
0
100
AcDbLine
 10
121.0
 20
21.0
 30
0.0
 11
121.0
 21
2.00000000000001
 31
0.0
  0
LINE
  5
3DC
330
1E
100
AcDbEntity
  8
0
100
AcDbLine
 10
121.0
 20
2.0
 30
0.0
 11
121.0
 21
21.0
 31
0.0
  0
LINE
  5
3DD
330
1E
100
AcDbEntity
  8
0
100
AcDbLine
 10
120.7
 20
2.0
 30
0.0
 11
120.7
 21
21.0
 31
0.0
  0
LINE
  5
3DE
330
1E
100
AcDbEntity
  8
0
100
AcDbLine
 10
1.5
 20
1.5
 30
0.0
 11
2.0
 21
1.3
 31
0.0
  0
LINE
  5
3DF
330
1E
100
AcDbEntity
  8
0
100
AcDbLine
 10
1.3
 20
2.0
 30
0.0
 11
1.5
 21
1.5
 31
0.0
  0
LINE
  5
3E0
330
1E
100
AcDbEntity
  8
0
100
AcDbLine
 10
1.3
 20
2.0
 30
0.0
 11
1.3
 21
21.0
 31
0.0
  0
ENDSEC
  0
SECTION
  2
OBJECTS
  0
DICTIONARY
  5
C
330
0
100
AcDbDictionary
281
     1
  3
ACAD_GROUP
350
D
  3
ACAD_LAYOUT
350
19
  3
ACAD_MLINESTYLE
350
16
  3
ACAD_PLOTSETTINGS
350
18
  3
ACAD_PLOTSTYLENAME
350
E
  3
AcDbVariableDictionary
350
3E6
  0
DICTIONARY
  5
D
102
{ACAD_REACTORS
330
C
102
}
330
C
100
AcDbDictionary
281
     1
  0
DICTIONARY
  5
19
102
{ACAD_REACTORS
330
C
102
}
330
C
100
AcDbDictionary
281
     1
  3
Layout1
350
1D
  3
Model
350
21
  0
DICTIONARY
  5
16
102
{ACAD_REACTORS
330
C
102
}
330
C
100
AcDbDictionary
281
     1
  3
Standard
350
17
  0
DICTIONARY
  5
18
102
{ACAD_REACTORS
330
C
102
}
330
C
100
AcDbDictionary
281
     1
  0
ACDBDICTIONARYWDFLT
  5
E
102
{ACAD_REACTORS
330
C
102
}
330
C
100
AcDbDictionary
281
     1
  3
Normal
350
F
100
AcDbDictionaryWithDefault
340
F
  0
DICTIONARY
  5
3E6
102
{ACAD_REACTORS
330
C
102
}
330
C
100
AcDbDictionary
281
     1
  3
DIMASSOC
350
3E7
  0
LAYOUT
  5
1D
102
{ACAD_REACTORS
330
19
102
}
330
19
100
AcDbPlotSettings
  1

  2
hp deskjet 980c series
  4

  6

 40
0.0
 41
0.0
 42
0.0
 43
0.0
 44
0.0
 45
0.0
 46
0.0
 47
0.0
 48
0.0
 49
0.0
140
0.0
141
0.0
142
1.0
143
1.0
 70
   688
 72
     0
 73
     0
 74
     5
  7

 75
    16
147
1.0
148
0.0
149
0.0
100
AcDbLayout
  1
Layout1
 70
     1
 71
     1
 10
0.0
 20
0.0
 11
12.0
 21
9.0
 12
0.0
 22
0.0
 32
0.0
 14
1.000000000000000E+20
 24
1.000000000000000E+20
 34
1.000000000000000E+20
 15
-1.000000000000000E+20
 25
-1.000000000000000E+20
 35
-1.000000000000000E+20
146
0.0
 13
0.0
 23
0.0
 33
0.0
 16
1.0
 26
0.0
 36
0.0
 17
0.0
 27
1.0
 37
0.0
 76
     0
330
1A
  0
LAYOUT
  5
21
102
{ACAD_REACTORS
330
19
102
}
330
19
100
AcDbPlotSettings
  1

  2
hp deskjet 980c series
  4

  6

 40
0.0
 41
0.0
 42
0.0
 43
0.0
 44
0.0
 45
0.0
 46
0.0
 47
0.0
 48
0.0
 49
0.0
140
0.0
141
0.0
142
1.0
143
1.0
 70
  1712
 72
     0
 73
     0
 74
     0
  7

 75
     0
147
1.0
148
0.0
149
0.0
100
AcDbLayout
  1
Model
 70
     1
 71
     0
 10
0.0
 20
0.0
 11
12.0
 21
9.0
 12
0.0
 22
0.0
 32
0.0
 14
0.0
 24
0.0
 34
0.0
 15
0.0
 25
0.0
 35
0.0
146
0.0
 13
0.0
 23
0.0
 33
0.0
 16
1.0
 26
0.0
 36
0.0
 17
0.0
 27
1.0
 37
0.0
 76
     0
330
1E
  0
MLINESTYLE
  5
17
102
{ACAD_REACTORS
330
16
102
}
330
16
100
AcDbMlineStyle
  2
STANDARD
 70
     0
  3

 62
   256
 51
90.0
 52
90.0
 71
     2
 49
0.5
 62
   256
  6
BYLAYER
 49
-0.5
 62
   256
  6
BYLAYER
  0
ACDBPLACEHOLDER
  5
F
102
{ACAD_REACTORS
330
E
102
}
330
E
  0
DICTIONARYVAR
  5
3E7
102
{ACAD_REACTORS
330
3E6
102
}
330
3E6
100
DictionaryVariables
280
     0
  1
1
  0
ENDSEC
  0
EOF
