  0
SECTION
  2
HEADER
  9
$ACADVER
  1
AC1015
  9
$ACADMAINTVER
 70
    13
  9
$DWGCODEPAGE
  3
ANSI_1252
  9
$INSBASE
 10
0.0
 20
0.0
 30
0.0
  9
$EXTMIN
 10
-0.0000000000000036
 20
-0.0000000000000024
 30
0.0
  9
$EXTMAX
 10
120.0
 20
115.0
 30
0.0
  9
$LIMMIN
 10
0.0
 20
0.0
  9
$LIMMAX
 10
12.0
 20
9.0
  9
$ORTHOMODE
 70
     0
  9
$REGENMODE
 70
     1
  9
$FILLMODE
 70
     1
  9
$QTEXTMODE
 70
     0
  9
$MIRRTEXT
 70
     1
  9
$LTSCALE
 40
1.0
  9
$ATTMODE
 70
     1
  9
$TEXTSIZE
 40
0.2
  9
$TRACEWID
 40
0.05
  9
$TEXTSTYLE
  7
Standard
  9
$CLAYER
  8
0
  9
$CELTYPE
  6
Continuous
  9
$CECOLOR
 62
   256
  9
$CELTSCALE
 40
1.0
  9
$DISPSILH
 70
     0
  9
$DIMSCALE
 40
1.0
  9
$DIMASZ
 40
0.18
  9
$DIMEXO
 40
0.0625
  9
$DIMDLI
 40
0.38
  9
$DIMRND
 40
0.0
  9
$DIMDLE
 40
0.0
  9
$DIMEXE
 40
0.18
  9
$DIMTP
 40
0.0
  9
$DIMTM
 40
0.0
  9
$DIMTXT
 40
0.18
  9
$DIMCEN
 40
0.09
  9
$DIMTSZ
 40
0.0
  9
$DIMTOL
 70
     0
  9
$DIMLIM
 70
     0
  9
$DIMTIH
 70
     1
  9
$DIMTOH
 70
     1
  9
$DIMSE1
 70
     0
  9
$DIMSE2
 70
     0
  9
$DIMTAD
 70
     0
  9
$DIMZIN
 70
     0
  9
$DIMBLK
  1

  9
$DIMASO
 70
     1
  9
$DIMSHO
 70
     1
  9
$DIMPOST
  1

  9
$DIMAPOST
  1

  9
$DIMALT
 70
     0
  9
$DIMALTD
 70
     2
  9
$DIMALTF
 40
25.4
  9
$DIMLFAC
 40
1.0
  9
$DIMTOFL
 70
     0
  9
$DIMTVP
 40
0.0
  9
$DIMTIX
 70
     0
  9
$DIMSOXD
 70
     0
  9
$DIMSAH
 70
     0
  9
$DIMBLK1
  1

  9
$DIMBLK2
  1

  9
$DIMSTYLE
  2
Standard
  9
$DIMCLRD
 70
     0
  9
$DIMCLRE
 70
     0
  9
$DIMCLRT
 70
     0
  9
$DIMTFAC
 40
1.0
  9
$DIMGAP
 40
0.09
  9
$DIMJUST
 70
     0
  9
$DIMSD1
 70
     0
  9
$DIMSD2
 70
     0
  9
$DIMTOLJ
 70
     1
  9
$DIMTZIN
 70
     0
  9
$DIMALTZ
 70
     0
  9
$DIMALTTZ
 70
     0
  9
$DIMUPT
 70
     0
  9
$DIMDEC
 70
     4
  9
$DIMTDEC
 70
     4
  9
$DIMALTU
 70
     2
  9
$DIMALTTD
 70
     2
  9
$DIMTXSTY
  7
Standard
  9
$DIMAUNIT
 70
     0
  9
$DIMADEC
 70
     0
  9
$DIMALTRND
 40
0.0
  9
$DIMAZIN
 70
     0
  9
$DIMDSEP
 70
    46
  9
$DIMATFIT
 70
     3
  9
$DIMFRAC
 70
     0
  9
$DIMLDRBLK
  1

  9
$DIMLUNIT
 70
     2
  9
$DIMLWD
 70
    -2
  9
$DIMLWE
 70
    -2
  9
$DIMTMOVE
 70
     0
  9
$LUNITS
 70
     2
  9
$LUPREC
 70
     4
  9
$SKETCHINC
 40
0.1
  9
$FILLETRAD
 40
0.0
  9
$AUNITS
 70
     0
  9
$AUPREC
 70
     0
  9
$MENU
  1
.
  9
$ELEVATION
 40
0.0
  9
$PELEVATION
 40
0.0
  9
$THICKNESS
 40
0.0
  9
$LIMCHECK
 70
     0
  9
$CHAMFERA
 40
0.0
  9
$CHAMFERB
 40
0.0
  9
$CHAMFERC
 40
0.0
  9
$CHAMFERD
 40
0.0
  9
$SKPOLY
 70
     0
  9
$TDCREATE
 40
2454726.886066423
  9
$TDUCREATE
 40
2454726.802733090
  9
$TDUPDATE
 40
2454726.895917222
  9
$TDUUPDATE
 40
2454726.812583889
  9
$TDINDWG
 40
0.0098507986
  9
$TDUSRTIMER
 40
0.0098507986
  9
$USRTIMER
 70
     1
  9
$ANGBASE
 50
0.0
  9
$ANGDIR
 70
     0
  9
$PDMODE
 70
     0
  9
$PDSIZE
 40
0.0
  9
$PLINEWID
 40
0.0
  9
$SPLFRAME
 70
     0
  9
$SPLINETYPE
 70
     6
  9
$SPLINESEGS
 70
     8
  9
$HANDSEED
  5
1CB
  9
$SURFTAB1
 70
     6
  9
$SURFTAB2
 70
     6
  9
$SURFTYPE
 70
     6
  9
$SURFU
 70
     6
  9
$SURFV
 70
     6
  9
$UCSBASE
  2

  9
$UCSNAME
  2

  9
$UCSORG
 10
0.0
 20
0.0
 30
0.0
  9
$UCSXDIR
 10
1.0
 20
0.0
 30
0.0
  9
$UCSYDIR
 10
0.0
 20
1.0
 30
0.0
  9
$UCSORTHOREF
  2

  9
$UCSORTHOVIEW
 70
     1
  9
$UCSORGTOP
 10
0.0
 20
0.0
 30
0.0
  9
$UCSORGBOTTOM
 10
0.0
 20
0.0
 30
0.0
  9
$UCSORGLEFT
 10
0.0
 20
0.0
 30
0.0
  9
$UCSORGRIGHT
 10
0.0
 20
0.0
 30
0.0
  9
$UCSORGFRONT
 10
0.0
 20
0.0
 30
0.0
  9
$UCSORGBACK
 10
0.0
 20
0.0
 30
0.0
  9
$PUCSBASE
  2

  9
$PUCSNAME
  2

  9
$PUCSORG
 10
0.0
 20
0.0
 30
0.0
  9
$PUCSXDIR
 10
1.0
 20
0.0
 30
0.0
  9
$PUCSYDIR
 10
0.0
 20
1.0
 30
0.0
  9
$PUCSORTHOREF
  2

  9
$PUCSORTHOVIEW
 70
     0
  9
$PUCSORGTOP
 10
0.0
 20
0.0
 30
0.0
  9
$PUCSORGBOTTOM
 10
0.0
 20
0.0
 30
0.0
  9
$PUCSORGLEFT
 10
0.0
 20
0.0
 30
0.0
  9
$PUCSORGRIGHT
 10
0.0
 20
0.0
 30
0.0
  9
$PUCSORGFRONT
 10
0.0
 20
0.0
 30
0.0
  9
$PUCSORGBACK
 10
0.0
 20
0.0
 30
0.0
  9
$USERI1
 70
     0
  9
$USERI2
 70
     0
  9
$USERI3
 70
     0
  9
$USERI4
 70
     0
  9
$USERI5
 70
     0
  9
$USERR1
 40
0.0
  9
$USERR2
 40
0.0
  9
$USERR3
 40
0.0
  9
$USERR4
 40
0.0
  9
$USERR5
 40
0.0
  9
$WORLDVIEW
 70
     1
  9
$SHADEDGE
 70
     3
  9
$SHADEDIF
 70
    70
  9
$TILEMODE
 70
     1
  9
$MAXACTVP
 70
    64
  9
$PINSBASE
 10
0.0
 20
0.0
 30
0.0
  9
$PLIMCHECK
 70
     0
  9
$PEXTMIN
 10
1.000000000000000E+20
 20
1.000000000000000E+20
 30
1.000000000000000E+20
  9
$PEXTMAX
 10
-1.000000000000000E+20
 20
-1.000000000000000E+20
 30
-1.000000000000000E+20
  9
$PLIMMIN
 10
0.0
 20
0.0
  9
$PLIMMAX
 10
12.0
 20
9.0
  9
$UNITMODE
 70
     0
  9
$VISRETAIN
 70
     1
  9
$PLINEGEN
 70
     0
  9
$PSLTSCALE
 70
     1
  9
$TREEDEPTH
 70
  3020
  9
$CMLSTYLE
  2
Standard
  9
$CMLJUST
 70
     0
  9
$CMLSCALE
 40
1.0
  9
$PROXYGRAPHICS
 70
     1
  9
$MEASUREMENT
 70
     0
  9
$CELWEIGHT
370
    -1
  9
$ENDCAPS
280
     0
  9
$JOINSTYLE
280
     0
  9
$LWDISPLAY
290
     0
  9
$INSUNITS
 70
     0
  9
$HYPERLINKBASE
  1

  9
$STYLESHEET
  1

  9
$XEDIT
290
     1
  9
$CEPSNTYPE
380
     0
  9
$PSTYLEMODE
290
     1
  9
$FINGERPRINTGUID
  2
{EBC0CA55-1EFA-4FBF-B256-E38F197A3F74}
  9
$VERSIONGUID
  2
{50E1CA96-4B13-476A-847D-8C443AF6D4AE}
  9
$EXTNAMES
290
     1
  9
$PSVPSCALE
 40
0.0
  9
$OLESTARTUP
290
     0
  0
ENDSEC
  0
SECTION
  2
CLASSES
  0
CLASS
  1
ACDBDICTIONARYWDFLT
  2
AcDbDictionaryWithDefault
  3
AutoCAD 2000
 90
        0
280
     0
281
     0
  0
CLASS
  1
ACDBPLACEHOLDER
  2
AcDbPlaceHolder
  3
AutoCAD 2000
 90
        0
280
     0
281
     0
  0
CLASS
  1
LAYOUT
  2
AcDbLayout
  3
AutoCAD 2000
 90
        0
280
     0
281
     0
  0
CLASS
  1
DICTIONARYVAR
  2
AcDbDictionaryVar
  3
AutoCAD 2000
 90
        0
280
     0
281
     0
  0
ENDSEC
  0
SECTION
  2
TABLES
  0
TABLE
  2
VPORT
  5
8
330
0
100
AcDbSymbolTable
 70
     3
  0
VPORT
  5
1CA
330
8
100
AcDbSymbolTableRecord
100
AcDbViewportTableRecord
  2
*Active
 70
     0
 10
0.0
 20
0.0
 11
1.0
 21
1.0
 12
60.0
 22
57.5
 13
0.0
 23
0.0
 14
1.0
 24
1.0
 15
0.0
 25
0.0
 16
0.0
 26
0.0
 36
1.0
 17
0.0
 27
0.0
 37
0.0
 40
115.8823529411764
 41
2.078104993597951
 42
50.0
 43
0.0
 44
0.0
 50
0.0
 51
0.0
 71
     0
 72
   100
 73
     1
 74
     3
 75
     0
 76
     0
 77
     0
 78
     0
281
     0
 65
     1
110
0.0
120
0.0
130
0.0
111
1.0
121
0.0
131
0.0
112
0.0
122
1.0
132
0.0
 79
     1
146
0.0
  0
ENDTAB
  0
TABLE
  2
LTYPE
  5
5
330
0
100
AcDbSymbolTable
 70
     1
  0
LTYPE
  5
13
330
5
100
AcDbSymbolTableRecord
100
AcDbLinetypeTableRecord
  2
ByBlock
 70
     0
  3

 72
    65
 73
     0
 40
0.0
  0
LTYPE
  5
14
330
5
100
AcDbSymbolTableRecord
100
AcDbLinetypeTableRecord
  2
ByLayer
 70
     0
  3

 72
    65
 73
     0
 40
0.0
  0
LTYPE
  5
15
330
5
100
AcDbSymbolTableRecord
100
AcDbLinetypeTableRecord
  2
Continuous
 70
     0
  3
Solid line
 72
    65
 73
     0
 40
0.0
  0
ENDTAB
  0
TABLE
  2
LAYER
  5
2
330
0
100
AcDbSymbolTable
 70
     1
  0
LAYER
  5
10
330
2
100
AcDbSymbolTableRecord
100
AcDbLayerTableRecord
  2
0
 70
     0
 62
     7
  6
Continuous
370
    -3
390
F
  0
ENDTAB
  0
TABLE
  2
STYLE
  5
3
330
0
100
AcDbSymbolTable
 70
     1
  0
STYLE
  5
11
330
3
100
AcDbSymbolTableRecord
100
AcDbTextStyleTableRecord
  2
Standard
 70
     0
 40
0.0
 41
1.0
 50
0.0
 71
     0
 42
0.2
  3
txt
  4

  0
ENDTAB
  0
TABLE
  2
VIEW
  5
6
330
0
100
AcDbSymbolTable
 70
     0
  0
ENDTAB
  0
TABLE
  2
UCS
  5
7
330
0
100
AcDbSymbolTable
 70
     0
  0
ENDTAB
  0
TABLE
  2
APPID
  5
9
330
0
100
AcDbSymbolTable
 70
     1
  0
APPID
  5
12
330
9
100
AcDbSymbolTableRecord
100
AcDbRegAppTableRecord
  2
ACAD
 70
     0
  0
ENDTAB
  0
TABLE
  2
DIMSTYLE
  5
A
330
0
100
AcDbSymbolTable
 70
     1
100
AcDbDimStyleTable
 71
     0
  0
DIMSTYLE
105
1B7
330
A
100
AcDbSymbolTableRecord
100
AcDbDimStyleTableRecord
  2
Standard
 70
     0
340
11
  0
ENDTAB
  0
TABLE
  2
BLOCK_RECORD
  5
1
330
0
100
AcDbSymbolTable
 70
     0
  0
BLOCK_RECORD
  5
1E
330
1
100
AcDbSymbolTableRecord
100
AcDbBlockTableRecord
  2
*Model_Space
340
21
  0
BLOCK_RECORD
  5
1A
330
1
100
AcDbSymbolTableRecord
100
AcDbBlockTableRecord
  2
*Paper_Space
340
1D
  0
ENDTAB
  0
ENDSEC
  0
SECTION
  2
BLOCKS
  0
BLOCK
  5
1F
330
1E
100
AcDbEntity
  8
0
100
AcDbBlockBegin
  2
*Model_Space
 70
     0
 10
0.0
 20
0.0
 30
0.0
  3
*Model_Space
  1

  0
ENDBLK
  5
20
330
1E
100
AcDbEntity
  8
0
100
AcDbBlockEnd
  0
BLOCK
  5
1B
330
1A
100
AcDbEntity
 67
     1
  8
0
100
AcDbBlockBegin
  2
*Paper_Space
 70
     0
 10
0.0
 20
0.0
 30
0.0
  3
*Paper_Space
  1

  0
ENDBLK
  5
1C
330
1A
100
AcDbEntity
 67
     1
  8
0
100
AcDbBlockEnd
  0
ENDSEC
  0
SECTION
  2
ENTITIES
  0
LINE
  5
22
330
1E
100
AcDbEntity
  8
0
100
AcDbLine
 10
-0.0000000000000025
 20
19.5
 30
0.0
 11
-0.0000000000000025
 21
38.0
 31
0.0
  0
LINE
  5
26
330
1E
100
AcDbEntity
  8
0
100
AcDbLine
 10
19.0
 20
19.5
 30
0.0
 11
20.05
 21
19.5
 31
0.0
  0
LINE
  5
27
330
1E
100
AcDbEntity
  8
0
100
AcDbLine
 10
19.0
 20
19.5
 30
0.0
 11
19.1
 21
19.55
 31
0.0
  0
LINE
  5
28
330
1E
100
AcDbEntity
  8
0
100
AcDbLine
 10
-0.0000000000000033
 20
21.49999999999999
 30
0.0
 11
21.0
 21
21.49999999999999
 31
0.0
  0
LINE
  5
29
330
1E
100
AcDbEntity
  8
0
100
AcDbLine
 10
-0.0000000000000033
 20
36.0
 30
0.0
 11
19.0
 21
36.0
 31
0.0
  0
LINE
  5
2D
330
1E
100
AcDbEntity
  8
0
100
AcDbLine
 10
-0.0000000000000033
 20
79.0
 30
0.0
 11
19.0
 21
79.0
 31
0.0
  0
LINE
  5
2E
330
1E
100
AcDbEntity
  8
0
100
AcDbLine
 10
-0.0000000000000033
 20
93.49999999999999
 30
0.0
 11
19.05405405405409
 21
93.49999999999999
 31
0.0
  0
LINE
  5
2F
330
1E
100
AcDbEntity
  8
0
100
AcDbLine
 10
-0.0000000000000033
 20
93.49999999999999
 30
0.0
 11
19.05405405405409
 21
93.49999999999999
 31
0.0
  0
LINE
  5
32
330
1E
100
AcDbEntity
  8
0
100
AcDbLine
 10
-0.0000000000000025
 20
19.55
 30
0.0
 11
-0.0000000000000025
 21
38.0
 31
0.0
  0
LINE
  5
35
330
1E
100
AcDbEntity
  8
0
100
AcDbLine
 10
-0.0000000000000025
 20
36.0
 30
0.0
 11
19.0
 21
36.0
 31
0.0
  0
LINE
  5
37
330
1E
100
AcDbEntity
  8
0
100
AcDbLine
 10
-0.0000000000000025
 20
38.0
 30
0.0
 11
-0.0000000000000025
 21
21.49999999999999
 31
0.0
  0
LINE
  5
38
330
1E
100
AcDbEntity
  8
0
100
AcDbLine
 10
-0.0000000000000025
 20
38.0
 30
0.0
 11
-0.0000000000000025
 21
19.5
 31
0.0
  0
LINE
  5
39
330
1E
100
AcDbEntity
  8
0
100
AcDbLine
 10
-0.0000000000000025
 20
38.0
 30
0.0
 11
19.0
 21
38.0
 31
0.0
  0
LINE
  5
3B
330
1E
100
AcDbEntity
  8
0
100
AcDbLine
 10
-0.0000000000000025
 20
79.0
 30
0.0
 11
19.0
 21
79.0
 31
0.0
  0
LINE
  5
3E
330
1E
100
AcDbEntity
  8
0
100
AcDbLine
 10
-0.0000000000000025
 20
93.49999999999999
 30
0.0
 11
21.0
 21
93.49999999999999
 31
0.0
  0
LINE
  5
3F
330
1E
100
AcDbEntity
  8
0
100
AcDbLine
 10
-0.0000000000000033
 20
77.0
 30
0.0
 11
19.0
 21
77.0
 31
0.0
  0
LINE
  5
43
330
1E
100
AcDbEntity
  8
0
100
AcDbLine
 10
-0.0000000000000025
 20
95.5
 30
0.0
 11
-0.0000000000000025
 21
77.0
 31
0.0
  0
LINE
  5
44
330
1E
100
AcDbEntity
  8
0
100
AcDbLine
 10
-0.0000000000000025
 20
95.44999999999999
 30
0.0
 11
-0.0000000000000025
 21
77.0
 31
0.0
  0
LINE
  5
47
330
1E
100
AcDbEntity
  8
0
100
AcDbLine
 10
5.132139999999999
 20
29.6099
 30
0.0
 11
5.51614
 21
30.5699
 31
0.0
  0
LINE
  5
48
330
1E
100
AcDbEntity
  8
0
100
AcDbLine
 10
4.98814
 20
28.58589999999999
 30
0.0
 11
5.132139999999999
 21
27.5619
 31
0.0
  0
LINE
  5
49
330
1E
100
AcDbEntity
  8
0
100
AcDbLine
 10
4.98814
 20
28.58589999999999
 30
0.0
 11
5.132139999999999
 21
29.6099
 31
0.0
  0
LINE
  5
4A
330
1E
100
AcDbEntity
  8
0
100
AcDbLine
 10
5.132139999999999
 20
27.5619
 30
0.0
 11
5.51614
 21
26.6019
 31
0.0
  0
LINE
  5
4B
330
1E
100
AcDbEntity
  8
0
100
AcDbLine
 10
5.132139999999999
 20
85.39010000000001
 30
0.0
 11
5.51614
 21
84.43009999999999
 31
0.0
  0
LINE
  5
4C
330
1E
100
AcDbEntity
  8
0
100
AcDbLine
 10
4.98814
 20
86.4141
 30
0.0
 11
5.132139999999999
 21
87.43810000000001
 31
0.0
  0
LINE
  5
4D
330
1E
100
AcDbEntity
  8
0
100
AcDbLine
 10
4.98814
 20
86.4141
 30
0.0
 11
5.132139999999999
 21
85.39010000000001
 31
0.0
  0
LINE
  5
4E
330
1E
100
AcDbEntity
  8
0
100
AcDbLine
 10
5.51614
 20
30.5699
 30
0.0
 11
6.156139999999999
 21
31.4179
 31
0.0
  0
LINE
  5
4F
330
1E
100
AcDbEntity
  8
0
100
AcDbLine
 10
6.156139999999999
 20
31.4179
 30
0.0
 11
7.004139999999999
 21
32.05789999999999
 31
0.0
  0
LINE
  5
50
330
1E
100
AcDbEntity
  8
0
100
AcDbLine
 10
5.51614
 20
26.6019
 30
0.0
 11
6.156139999999999
 21
25.7539
 31
0.0
  0
LINE
  5
51
330
1E
100
AcDbEntity
  8
0
100
AcDbLine
 10
6.156139999999999
 20
25.7539
 30
0.0
 11
7.004139999999999
 21
25.1139
 31
0.0
  0
LINE
  5
52
330
1E
100
AcDbEntity
  8
0
100
AcDbLine
 10
6.156139999999999
 20
83.58209999999999
 30
0.0
 11
7.004139999999999
 21
82.94209999999999
 31
0.0
  0
LINE
  5
53
330
1E
100
AcDbEntity
  8
0
100
AcDbLine
 10
5.51614
 20
84.43009999999999
 30
0.0
 11
6.156139999999999
 21
83.58209999999999
 31
0.0
  0
LINE
  5
54
330
1E
100
AcDbEntity
  8
0
100
AcDbLine
 10
5.132139999999999
 20
87.43810000000001
 30
0.0
 11
5.51614
 21
88.39809999999999
 31
0.0
  0
LINE
  5
55
330
1E
100
AcDbEntity
  8
0
100
AcDbLine
 10
5.51614
 20
88.39809999999999
 30
0.0
 11
6.156139999999999
 21
89.24609999999999
 31
0.0
  0
LINE
  5
56
330
1E
100
AcDbEntity
  8
0
100
AcDbLine
 10
7.004139999999999
 20
32.05789999999999
 30
0.0
 11
7.964139999999999
 21
32.44189999999999
 31
0.0
  0
LINE
  5
57
330
1E
100
AcDbEntity
  8
0
100
AcDbLine
 10
7.964139999999999
 20
32.44189999999999
 30
0.0
 11
8.988139999999999
 21
32.5859
 31
0.0
  0
LINE
  5
58
330
1E
100
AcDbEntity
  8
0
100
AcDbLine
 10
7.004139999999999
 20
25.1139
 30
0.0
 11
7.964139999999999
 21
24.7299
 31
0.0
  0
LINE
  5
59
330
1E
100
AcDbEntity
  8
0
100
AcDbLine
 10
7.964139999999999
 20
24.7299
 30
0.0
 11
8.988139999999999
 21
24.5859
 31
0.0
  0
LINE
  5
5A
330
1E
100
AcDbEntity
  8
0
100
AcDbLine
 10
7.004139999999999
 20
82.94209999999999
 30
0.0
 11
7.964139999999999
 21
82.5581
 31
0.0
  0
LINE
  5
5B
330
1E
100
AcDbEntity
  8
0
100
AcDbLine
 10
8.988139999999999
 20
32.5859
 30
0.0
 11
10.01213999999999
 21
32.44189999999999
 31
0.0
  0
LINE
  5
5C
330
1E
100
AcDbEntity
  8
0
100
AcDbLine
 10
10.01213999999999
 20
32.44189999999999
 30
0.0
 11
10.97213999999999
 21
32.05789999999999
 31
0.0
  0
LINE
  5
5D
330
1E
100
AcDbEntity
  8
0
100
AcDbLine
 10
10.01213999999999
 20
24.7299
 30
0.0
 11
10.97213999999999
 21
25.1139
 31
0.0
  0
LINE
  5
5E
330
1E
100
AcDbEntity
  8
0
100
AcDbLine
 10
8.988139999999999
 20
24.5859
 30
0.0
 11
10.01213999999999
 21
24.7299
 31
0.0
  0
LINE
  5
60
330
1E
100
AcDbEntity
  8
0
100
AcDbLine
 10
10.01213999999999
 20
82.5581
 30
0.0
 11
10.97213999999999
 21
82.94209999999999
 31
0.0
  0
LINE
  5
61
330
1E
100
AcDbEntity
  8
0
100
AcDbLine
 10
8.988139999999999
 20
82.4141
 30
0.0
 11
10.01213999999999
 21
82.5581
 31
0.0
  0
LINE
  5
62
330
1E
100
AcDbEntity
  8
0
100
AcDbLine
 10
7.964139999999999
 20
82.5581
 30
0.0
 11
8.988139999999999
 21
82.4141
 31
0.0
  0
LINE
  5
63
330
1E
100
AcDbEntity
  8
0
100
AcDbLine
 10
7.004139999999999
 20
89.88609999999999
 30
0.0
 11
7.964139999999999
 21
90.2701
 31
0.0
  0
LINE
  5
64
330
1E
100
AcDbEntity
  8
0
100
AcDbLine
 10
6.156139999999999
 20
89.24609999999999
 30
0.0
 11
7.004139999999999
 21
89.88609999999999
 31
0.0
  0
LINE
  5
65
330
1E
100
AcDbEntity
  8
0
100
AcDbLine
 10
6.156139999999999
 20
89.24609999999999
 30
0.0
 11
7.004139999999999
 21
89.88609999999999
 31
0.0
  0
LINE
  5
66
330
1E
100
AcDbEntity
  8
0
100
AcDbLine
 10
7.964139999999999
 20
90.2701
 30
0.0
 11
8.988139999999999
 21
90.4141
 31
0.0
  0
LINE
  5
67
330
1E
100
AcDbEntity
  8
0
100
AcDbLine
 10
10.97213999999999
 20
32.05789999999999
 30
0.0
 11
11.82013999999999
 21
31.4179
 31
0.0
  0
LINE
  5
68
330
1E
100
AcDbEntity
  8
0
100
AcDbLine
 10
10.97213999999999
 20
25.1139
 30
0.0
 11
11.82013999999999
 21
25.7539
 31
0.0
  0
LINE
  5
69
330
1E
100
AcDbEntity
  8
0
100
AcDbLine
 10
11.82013999999999
 20
31.4179
 30
0.0
 11
12.46013999999999
 21
30.5699
 31
0.0
  0
LINE
  5
6A
330
1E
100
AcDbEntity
  8
0
100
AcDbLine
 10
11.82013999999999
 20
25.7539
 30
0.0
 11
12.46013999999999
 21
26.6019
 31
0.0
  0
LINE
  5
6B
330
1E
100
AcDbEntity
  8
0
100
AcDbLine
 10
10.97213999999999
 20
82.94209999999999
 30
0.0
 11
11.82013999999999
 21
83.58209999999999
 31
0.0
  0
LINE
  5
6C
330
1E
100
AcDbEntity
  8
0
100
AcDbLine
 10
11.82013999999999
 20
83.58209999999999
 30
0.0
 11
12.46013999999999
 21
84.43009999999999
 31
0.0
  0
LINE
  5
6D
330
1E
100
AcDbEntity
  8
0
100
AcDbLine
 10
12.46013999999999
 20
30.5699
 30
0.0
 11
12.8441
 21
29.6099
 31
0.0
  0
LINE
  5
6E
330
1E
100
AcDbEntity
  8
0
100
AcDbLine
 10
12.8441
 20
29.6099
 30
0.0
 11
12.9881
 21
28.58589999999999
 31
0.0
  0
LINE
  5
6F
330
1E
100
AcDbEntity
  8
0
100
AcDbLine
 10
12.8441
 20
27.5619
 30
0.0
 11
12.9881
 21
28.58589999999999
 31
0.0
  0
LINE
  5
70
330
1E
100
AcDbEntity
  8
0
100
AcDbLine
 10
12.46013999999999
 20
26.6019
 30
0.0
 11
12.8441
 21
27.5619
 31
0.0
  0
LINE
  5
71
330
1E
100
AcDbEntity
  8
0
100
AcDbLine
 10
12.8441
 20
85.39010000000001
 30
0.0
 11
12.9881
 21
86.4141
 31
0.0
  0
LINE
  5
72
330
1E
100
AcDbEntity
  8
0
100
AcDbLine
 10
12.46013999999999
 20
84.43009999999999
 30
0.0
 11
12.8441
 21
85.39010000000001
 31
0.0
  0
LINE
  5
73
330
1E
100
AcDbEntity
  8
0
100
AcDbLine
 10
12.8441
 20
87.43810000000001
 30
0.0
 11
12.9881
 21
86.4141
 31
0.0
  0
LINE
  5
74
330
1E
100
AcDbEntity
  8
0
100
AcDbLine
 10
12.46013999999999
 20
88.39809999999999
 30
0.0
 11
12.8441
 21
87.43810000000001
 31
0.0
  0
LINE
  5
75
330
1E
100
AcDbEntity
  8
0
100
AcDbLine
 10
11.82013999999999
 20
89.24609999999999
 30
0.0
 11
12.46013999999999
 21
88.39809999999999
 31
0.0
  0
LINE
  5
76
330
1E
100
AcDbEntity
  8
0
100
AcDbLine
 10
10.97213999999999
 20
89.88609999999999
 30
0.0
 11
11.82013999999999
 21
89.24609999999999
 31
0.0
  0
LINE
  5
77
330
1E
100
AcDbEntity
  8
0
100
AcDbLine
 10
10.01213999999999
 20
90.2701
 30
0.0
 11
10.97213999999999
 21
89.88609999999999
 31
0.0
  0
LINE
  5
79
330
1E
100
AcDbEntity
  8
0
100
AcDbLine
 10
8.988139999999999
 20
90.4141
 30
0.0
 11
10.01213999999999
 21
90.2701
 31
0.0
  0
LINE
  5
7A
330
1E
100
AcDbEntity
  8
0
100
AcDbLine
 10
-0.0000000000000025
 20
77.0
 30
0.0
 11
-0.0000000000000025
 21
95.5
 31
0.0
  0
LINE
  5
7B
330
1E
100
AcDbEntity
  8
0
100
AcDbLine
 10
-0.0000000000000025
 20
77.0
 30
0.0
 11
19.0
 21
77.0
 31
0.0
  0
LINE
  5
7C
330
1E
100
AcDbEntity
  8
0
100
AcDbLine
 10
-0.0000000000000025
 20
77.0
 30
0.0
 11
-0.0000000000000025
 21
93.49999999999999
 31
0.0
  0
LINE
  5
7E
330
1E
100
AcDbEntity
  8
0
100
AcDbLine
 10
-0.0000000000000025
 20
77.0
 30
0.0
 11
19.0
 21
77.0
 31
0.0
  0
LINE
  5
80
330
1E
100
AcDbEntity
  8
0
100
AcDbLine
 10
19.0
 20
77.0
 30
0.0
 11
19.0
 21
38.0
 31
0.0
  0
LINE
  5
81
330
1E
100
AcDbEntity
  8
0
100
AcDbLine
 10
-0.0000000000000036
 20
19.55
 30
0.0
 11
20.05
 21
19.5
 31
0.0
  0
LINE
  5
82
330
1E
100
AcDbEntity
  8
0
100
AcDbLine
 10
20.1
 20
7.5
 30
0.0
 11
22.5
 21
7.5
 31
0.0
  0
LINE
  5
84
330
1E
100
AcDbEntity
  8
0
100
AcDbLine
 10
20.05
 20
7.5
 30
0.0
 11
22.5
 21
7.5
 31
0.0
  0
LINE
  5
88
330
1E
100
AcDbEntity
  8
0
100
AcDbLine
 10
24.77479999999999
 20
2.20579
 30
0.0
 11
26.23029999999999
 21
1.000399999999999
 31
0.0
  0
LINE
  5
89
330
1E
100
AcDbEntity
  8
0
100
AcDbLine
 10
22.5
 20
7.5
 30
0.0
 11
22.8175
 21
5.269499999999999
 31
0.0
  0
LINE
  5
8A
330
1E
100
AcDbEntity
  8
0
100
AcDbLine
 10
22.8175
 20
5.269499999999999
 30
0.0
 11
23.57029999999999
 21
3.6623
 31
0.0
  0
LINE
  5
8B
330
1E
100
AcDbEntity
  8
0
100
AcDbLine
 10
23.57029999999999
 20
3.6623
 30
0.0
 11
24.77479999999999
 21
2.205799999999999
 31
0.0
  0
LINE
  5
8C
330
1E
100
AcDbEntity
  8
0
100
AcDbLine
 10
26.144
 20
6.475999999999999
 30
0.0
 11
26.528
 21
5.516
 31
0.0
  0
LINE
  5
8D
330
1E
100
AcDbEntity
  8
0
100
AcDbLine
 10
26.0
 20
7.5
 30
0.0
 11
26.144
 21
8.523999999999999
 31
0.0
  0
LINE
  5
8E
330
1E
100
AcDbEntity
  8
0
100
AcDbLine
 10
26.0
 20
7.5
 30
0.0
 11
26.144
 21
6.475999999999999
 31
0.0
  0
LINE
  5
8F
330
1E
100
AcDbEntity
  8
0
100
AcDbLine
 10
26.144
 20
8.523999999999999
 30
0.0
 11
26.528
 21
9.483999999999999
 31
0.0
  0
LINE
  5
90
330
1E
100
AcDbEntity
  8
0
100
AcDbLine
 10
24.1725500000246
 20
2.934049999970289
 30
0.0
 11
24.77479999999999
 21
2.20579
 31
0.0
  0
LINE
  5
91
330
1E
100
AcDbEntity
  8
0
100
AcDbLine
 10
24.77479999999999
 20
2.205799999999999
 30
0.0
 11
26.23029999999999
 21
1.004
 31
0.0
  0
LINE
  5
92
330
1E
100
AcDbEntity
  8
0
100
AcDbLine
 10
24.77479999999999
 20
2.205799999999999
 30
0.0
 11
26.23029999999999
 21
1.004
 31
0.0
  0
LINE
  5
93
330
1E
100
AcDbEntity
  8
0
100
AcDbLine
 10
21.0
 20
21.49999999999999
 30
0.0
 11
99.0
 21
21.49999999999999
 31
0.0
  0
LINE
  5
96
330
1E
100
AcDbEntity
  8
0
100
AcDbLine
 10
23.0
 20
23.5
 30
0.0
 11
97.0
 21
23.5
 31
0.0
  0
LINE
  5
97
330
1E
100
AcDbEntity
  8
0
100
AcDbLine
 10
23.0
 20
91.5
 30
0.0
 11
97.0
 21
91.5
 31
0.0
  0
LINE
  5
98
330
1E
100
AcDbEntity
  8
0
100
AcDbLine
 10
23.0
 20
91.5
 30
0.0
 11
97.0
 21
91.5
 31
0.0
  0
LINE
  5
99
330
1E
100
AcDbEntity
  8
0
100
AcDbLine
 10
23.0
 20
91.5
 30
0.0
 11
97.0
 21
91.5
 31
0.0
  0
LINE
  5
9A
330
1E
100
AcDbEntity
  8
0
100
AcDbLine
 10
23.0
 20
91.5
 30
0.0
 11
97.0
 21
91.5
 31
0.0
  0
LINE
  5
9B
330
1E
100
AcDbEntity
  8
0
100
AcDbLine
 10
23.0
 20
91.5
 30
0.0
 11
23.0
 21
23.5
 31
0.0
  0
LINE
  5
9C
330
1E
100
AcDbEntity
  8
0
100
AcDbLine
 10
21.0
 20
93.49999999999999
 30
0.0
 11
99.0
 21
93.49999999999999
 31
0.0
  0
LINE
  5
9D
330
1E
100
AcDbEntity
  8
0
100
AcDbLine
 10
23.0
 20
23.5
 30
0.0
 11
23.0
 21
91.5
 31
0.0
  0
LINE
  5
9E
330
1E
100
AcDbEntity
  8
0
100
AcDbLine
 10
23.0
 20
23.5
 30
0.0
 11
97.0
 21
23.5
 31
0.0
  0
LINE
  5
9F
330
1E
100
AcDbEntity
  8
0
100
AcDbLine
 10
21.0
 20
93.49999999999999
 30
0.0
 11
99.0
 21
93.49999999999999
 31
0.0
  0
LINE
  5
A0
330
1E
100
AcDbEntity
  8
0
100
AcDbLine
 10
21.0
 20
93.49999999999999
 30
0.0
 11
21.0
 21
21.49999999999999
 31
0.0
  0
LINE
  5
A1
330
1E
100
AcDbEntity
  8
0
100
AcDbLine
 10
21.0
 20
21.49999999999999
 30
0.0
 11
21.0
 21
93.49999999999999
 31
0.0
  0
LINE
  5
A2
330
1E
100
AcDbEntity
  8
0
100
AcDbLine
 10
21.0
 20
21.49999999999999
 30
0.0
 11
99.0
 21
21.49999999999999
 31
0.0
  0
LINE
  5
A3
330
1E
100
AcDbEntity
  8
0
100
AcDbLine
 10
19.0
 20
38.0
 30
0.0
 11
19.0
 21
77.0
 31
0.0
  0
LINE
  5
A5
330
1E
100
AcDbEntity
  8
0
100
AcDbLine
 10
20.1
 20
107.4999999999999
 30
0.0
 11
22.5
 21
107.4999999999999
 31
0.0
  0
LINE
  5
A7
330
1E
100
AcDbEntity
  8
0
100
AcDbLine
 10
22.5
 20
107.4999999999999
 30
0.0
 11
22.8175
 21
109.73
 31
0.0
  0
LINE
  5
AB
330
1E
100
AcDbEntity
  8
0
100
AcDbLine
 10
26.144
 20
106.4759999999999
 30
0.0
 11
26.528
 21
105.516
 31
0.0
  0
LINE
  5
AC
330
1E
100
AcDbEntity
  8
0
100
AcDbLine
 10
26.0
 20
107.4999999999999
 30
0.0
 11
26.144
 21
108.5239999999999
 31
0.0
  0
LINE
  5
AD
330
1E
100
AcDbEntity
  8
0
100
AcDbLine
 10
26.0
 20
107.4999999999999
 30
0.0
 11
26.144
 21
106.4759999999999
 31
0.0
  0
LINE
  5
AE
330
1E
100
AcDbEntity
  8
0
100
AcDbLine
 10
26.23029999999999
 20
1.004
 30
0.0
 11
27.9367
 21
0.347499999999998
 31
0.0
  0
LINE
  5
AF
330
1E
100
AcDbEntity
  8
0
100
AcDbLine
 10
26.23029999999999
 20
1.000399999999999
 30
0.0
 11
27.9367
 21
0.347479999999998
 31
0.0
  0
LINE
  5
B0
330
1E
100
AcDbEntity
  8
0
100
AcDbLine
 10
26.528
 20
5.516
 30
0.0
 11
27.168
 21
4.668
 31
0.0
  0
LINE
  5
B1
330
1E
100
AcDbEntity
  8
0
100
AcDbLine
 10
27.168
 20
4.668
 30
0.0
 11
28.016
 21
4.028
 31
0.0
  0
LINE
  5
B2
330
1E
100
AcDbEntity
  8
0
100
AcDbLine
 10
26.528
 20
9.483999999999999
 30
0.0
 11
27.168
 21
10.332
 31
0.0
  0
LINE
  5
B3
330
1E
100
AcDbEntity
  8
0
100
AcDbLine
 10
27.168
 20
10.332
 30
0.0
 11
28.016
 21
10.972
 31
0.0
  0
LINE
  5
B4
330
1E
100
AcDbEntity
  8
0
100
AcDbLine
 10
26.23029999999999
 20
1.004
 30
0.0
 11
27.9367
 21
0.347499999999998
 31
0.0
  0
LINE
  5
B5
330
1E
100
AcDbEntity
  8
0
100
AcDbLine
 10
26.528
 20
105.516
 30
0.0
 11
27.168
 21
104.6679999999999
 31
0.0
  0
LINE
  5
B6
330
1E
100
AcDbEntity
  8
0
100
AcDbLine
 10
27.168
 20
104.6679999999999
 30
0.0
 11
28.016
 21
104.0279999999999
 31
0.0
  0
LINE
  5
B7
330
1E
100
AcDbEntity
  8
0
100
AcDbLine
 10
26.144
 20
108.5239999999999
 30
0.0
 11
26.528
 21
109.484
 31
0.0
  0
LINE
  5
B8
330
1E
100
AcDbEntity
  8
0
100
AcDbLine
 10
22.8175
 20
109.73
 30
0.0
 11
23.57029999999999
 21
111.338
 31
0.0
  0
LINE
  5
B9
330
1E
100
AcDbEntity
  8
0
100
AcDbLine
 10
26.528
 20
109.484
 30
0.0
 11
27.168
 21
110.332
 31
0.0
  0
LINE
  5
BA
330
1E
100
AcDbEntity
  8
0
100
AcDbLine
 10
27.9367
 20
0.347499999999998
 30
0.0
 11
30.0
 21
-0.0000000000000024
 31
0.0
  0
LINE
  5
BB
330
1E
100
AcDbEntity
  8
0
100
AcDbLine
 10
27.9367
 20
0.347479999999998
 30
0.0
 11
30.0
 21
-0.0000000000000024
 31
0.0
  0
LINE
  5
BC
330
1E
100
AcDbEntity
  8
0
100
AcDbLine
 10
28.016
 20
4.028
 30
0.0
 11
28.976
 21
3.643999999999999
 31
0.0
  0
LINE
  5
BD
330
1E
100
AcDbEntity
  8
0
100
AcDbLine
 10
28.976
 20
3.643999999999999
 30
0.0
 11
30.0
 21
3.5
 31
0.0
  0
LINE
  5
BE
330
1E
100
AcDbEntity
  8
0
100
AcDbLine
 10
28.016
 20
10.972
 30
0.0
 11
28.976
 21
11.35599999999999
 31
0.0
  0
LINE
  5
BF
330
1E
100
AcDbEntity
  8
0
100
AcDbLine
 10
28.976
 20
11.35599999999999
 30
0.0
 11
30.0
 21
11.5
 31
0.0
  0
LINE
  5
C0
330
1E
100
AcDbEntity
  8
0
100
AcDbLine
 10
27.9367
 20
0.347499999999998
 30
0.0
 11
30.0
 21
-0.000000000000002
 31
0.0
  0
LINE
  5
C1
330
1E
100
AcDbEntity
  8
0
100
AcDbLine
 10
28.016
 20
104.0279999999999
 30
0.0
 11
28.976
 21
103.644
 31
0.0
  0
LINE
  5
C2
330
1E
100
AcDbEntity
  8
0
100
AcDbLine
 10
28.976
 20
103.644
 30
0.0
 11
30.0
 21
103.4999999999999
 31
0.0
  0
LINE
  5
C3
330
1E
100
AcDbEntity
  8
0
100
AcDbLine
 10
27.168
 20
110.332
 30
0.0
 11
28.016
 21
110.972
 31
0.0
  0
LINE
  5
C4
330
1E
100
AcDbEntity
  8
0
100
AcDbLine
 10
23.57029999999999
 20
111.338
 30
0.0
 11
24.77479999999999
 21
112.7939999999999
 31
0.0
  0
LINE
  5
C5
330
1E
100
AcDbEntity
  8
0
100
AcDbLine
 10
24.77479999999999
 20
112.7939999999999
 30
0.0
 11
26.23029999999999
 21
113.996
 31
0.0
  0
LINE
  5
C6
330
1E
100
AcDbEntity
  8
0
100
AcDbLine
 10
24.77479999999999
 20
112.7939999999999
 30
0.0
 11
26.23029999999999
 21
114.0
 31
0.0
  0
LINE
  5
C7
330
1E
100
AcDbEntity
  8
0
100
AcDbLine
 10
26.23029999999999
 20
114.0
 30
0.0
 11
27.9367
 21
114.653
 31
0.0
  0
LINE
  5
C8
330
1E
100
AcDbEntity
  8
0
100
AcDbLine
 10
26.23029999999999
 20
113.996
 30
0.0
 11
27.9367
 21
114.6519999999999
 31
0.0
  0
LINE
  5
C9
330
1E
100
AcDbEntity
  8
0
100
AcDbLine
 10
27.9367
 20
114.653
 30
0.0
 11
30.0
 21
115.0
 31
0.0
  0
LINE
  5
CA
330
1E
100
AcDbEntity
  8
0
100
AcDbLine
 10
27.9367
 20
114.6519999999999
 30
0.0
 11
30.0
 21
115.0
 31
0.0
  0
LINE
  5
CB
330
1E
100
AcDbEntity
  8
0
100
AcDbLine
 10
28.016
 20
110.972
 30
0.0
 11
28.976
 21
111.356
 31
0.0
  0
LINE
  5
CC
330
1E
100
AcDbEntity
  8
0
100
AcDbLine
 10
30.0
 20
-0.0000000000000024
 30
0.0
 11
32.06329999999999
 21
0.347479999999998
 31
0.0
  0
LINE
  5
CD
330
1E
100
AcDbEntity
  8
0
100
AcDbLine
 10
30.0
 20
-0.000000000000002
 30
0.0
 11
32.06329999999999
 21
0.347499999999998
 31
0.0
  0
LINE
  5
CE
330
1E
100
AcDbEntity
  8
0
100
AcDbLine
 10
30.0
 20
3.5
 30
0.0
 11
31.024
 21
3.643999999999999
 31
0.0
  0
LINE
  5
CF
330
1E
100
AcDbEntity
  8
0
100
AcDbLine
 10
31.984
 20
4.028
 30
0.0
 11
32.832
 21
4.668
 31
0.0
  0
LINE
  5
D0
330
1E
100
AcDbEntity
  8
0
100
AcDbLine
 10
31.024
 20
3.643999999999999
 30
0.0
 11
31.984
 21
4.028
 31
0.0
  0
LINE
  5
D1
330
1E
100
AcDbEntity
  8
0
100
AcDbLine
 10
32.06329999999999
 20
0.347479999999998
 30
0.0
 11
33.7697
 21
1.000399999999999
 31
0.0
  0
LINE
  5
D2
330
1E
100
AcDbEntity
  8
0
100
AcDbLine
 10
32.06329999999999
 20
0.347499999999998
 30
0.0
 11
33.7697
 21
1.004
 31
0.0
  0
LINE
  5
D3
330
1E
100
AcDbEntity
  8
0
100
AcDbLine
 10
33.472
 20
5.516
 30
0.0
 11
33.856
 21
6.475999999999999
 31
0.0
  0
LINE
  5
D4
330
1E
100
AcDbEntity
  8
0
100
AcDbLine
 10
32.832
 20
4.668
 30
0.0
 11
33.472
 21
5.516
 31
0.0
  0
LINE
  5
D5
330
1E
100
AcDbEntity
  8
0
100
AcDbLine
 10
33.7697
 20
1.000399999999999
 30
0.0
 11
35.2252
 21
2.20579
 31
0.0
  0
LINE
  5
D6
330
1E
100
AcDbEntity
  8
0
100
AcDbLine
 10
33.7697
 20
1.004
 30
0.0
 11
35.2252
 21
2.205799999999999
 31
0.0
  0
LINE
  5
D7
330
1E
100
AcDbEntity
  8
0
100
AcDbLine
 10
35.2252
 20
2.20579
 30
0.0
 11
35.8274499999765
 21
2.934049999971589
 31
0.0
  0
LINE
  5
D8
330
1E
100
AcDbEntity
  8
0
100
AcDbLine
 10
37.18249999999999
 20
5.269499999999999
 30
0.0
 11
37.5
 21
7.5
 31
0.0
  0
LINE
  5
D9
330
1E
100
AcDbEntity
  8
0
100
AcDbLine
 10
36.4297
 20
3.6623
 30
0.0
 11
37.18249999999999
 21
5.269499999999999
 31
0.0
  0
LINE
  5
DA
330
1E
100
AcDbEntity
  8
0
100
AcDbLine
 10
35.2252
 20
2.205799999999999
 30
0.0
 11
36.4297
 21
3.6623
 31
0.0
  0
LINE
  5
DB
330
1E
100
AcDbEntity
  8
0
100
AcDbLine
 10
33.856
 20
6.475999999999999
 30
0.0
 11
34.0
 21
7.5
 31
0.0
  0
LINE
  5
DC
330
1E
100
AcDbEntity
  8
0
100
AcDbLine
 10
84.17255000002461
 20
2.934049999970299
 30
0.0
 11
84.77479999999999
 21
2.20579
 31
0.0
  0
LINE
  5
DD
330
1E
100
AcDbEntity
  8
0
100
AcDbLine
 10
84.77479999999999
 20
2.20579
 30
0.0
 11
86.23029999999999
 21
1.000399999999999
 31
0.0
  0
LINE
  5
DE
330
1E
100
AcDbEntity
  8
0
100
AcDbLine
 10
86.23029999999999
 20
1.004
 30
0.0
 11
87.9367
 21
0.347499999999998
 31
0.0
  0
LINE
  5
DF
330
1E
100
AcDbEntity
  8
0
100
AcDbLine
 10
84.77479999999999
 20
2.205799999999999
 30
0.0
 11
86.23029999999999
 21
1.004
 31
0.0
  0
LINE
  5
E0
330
1E
100
AcDbEntity
  8
0
100
AcDbLine
 10
84.77479999999999
 20
2.205799999999999
 30
0.0
 11
86.23029999999999
 21
1.004
 31
0.0
  0
LINE
  5
E1
330
1E
100
AcDbEntity
  8
0
100
AcDbLine
 10
86.23029999999999
 20
1.000399999999999
 30
0.0
 11
87.9367
 21
0.347479999999998
 31
0.0
  0
LINE
  5
E2
330
1E
100
AcDbEntity
  8
0
100
AcDbLine
 10
87.9367
 20
0.347499999999998
 30
0.0
 11
90.0
 21
-0.0000000000000024
 31
0.0
  0
LINE
  5
E3
330
1E
100
AcDbEntity
  8
0
100
AcDbLine
 10
86.23029999999999
 20
1.004
 30
0.0
 11
87.9367
 21
0.347499999999998
 31
0.0
  0
LINE
  5
E4
330
1E
100
AcDbEntity
  8
0
100
AcDbLine
 10
87.9367
 20
0.347479999999998
 30
0.0
 11
90.0
 21
-0.0000000000000024
 31
0.0
  0
LINE
  5
E5
330
1E
100
AcDbEntity
  8
0
100
AcDbLine
 10
87.9367
 20
0.347499999999998
 30
0.0
 11
90.0
 21
-0.000000000000002
 31
0.0
  0
LINE
  5
E6
330
1E
100
AcDbEntity
  8
0
100
AcDbLine
 10
90.0
 20
-0.0000000000000024
 30
0.0
 11
92.06329999999999
 21
0.347479999999998
 31
0.0
  0
LINE
  5
E7
330
1E
100
AcDbEntity
  8
0
100
AcDbLine
 10
92.06329999999999
 20
0.347479999999998
 30
0.0
 11
93.7697
 21
1.000399999999999
 31
0.0
  0
LINE
  5
E8
330
1E
100
AcDbEntity
  8
0
100
AcDbLine
 10
93.7697
 20
1.000399999999999
 30
0.0
 11
95.2252
 21
2.20579
 31
0.0
  0
LINE
  5
E9
330
1E
100
AcDbEntity
  8
0
100
AcDbLine
 10
95.2252
 20
2.205799999999999
 30
0.0
 11
96.4297
 21
3.6623
 31
0.0
  0
LINE
  5
EA
330
1E
100
AcDbEntity
  8
0
100
AcDbLine
 10
95.2252
 20
2.20579
 30
0.0
 11
95.8274499999765
 21
2.9340499999716
 31
0.0
  0
LINE
  5
EB
330
1E
100
AcDbEntity
  8
0
100
AcDbLine
 10
93.7697
 20
1.004
 30
0.0
 11
95.2252
 21
2.205799999999999
 31
0.0
  0
LINE
  5
EC
330
1E
100
AcDbEntity
  8
0
100
AcDbLine
 10
92.06329999999999
 20
0.347499999999998
 30
0.0
 11
93.7697
 21
1.004
 31
0.0
  0
LINE
  5
ED
330
1E
100
AcDbEntity
  8
0
100
AcDbLine
 10
90.0
 20
-0.000000000000002
 30
0.0
 11
92.06329999999999
 21
0.347499999999998
 31
0.0
  0
LINE
  5
EE
330
1E
100
AcDbEntity
  8
0
100
AcDbLine
 10
82.5
 20
7.5
 30
0.0
 11
82.8175
 21
5.269499999999999
 31
0.0
  0
LINE
  5
EF
330
1E
100
AcDbEntity
  8
0
100
AcDbLine
 10
82.8175
 20
5.269499999999999
 30
0.0
 11
83.57029999999999
 21
3.6623
 31
0.0
  0
LINE
  5
F0
330
1E
100
AcDbEntity
  8
0
100
AcDbLine
 10
83.57029999999999
 20
3.6623
 30
0.0
 11
84.77479999999999
 21
2.205799999999999
 31
0.0
  0
LINE
  5
F1
330
1E
100
AcDbEntity
  8
0
100
AcDbLine
 10
60.0
 20
7.5
 30
0.0
 11
82.5
 21
7.5
 31
0.0
  0
LINE
  5
F2
330
1E
100
AcDbEntity
  8
0
100
AcDbLine
 10
86.14399999999999
 20
6.475999999999999
 30
0.0
 11
86.52799999999999
 21
5.516
 31
0.0
  0
LINE
  5
F3
330
1E
100
AcDbEntity
  8
0
100
AcDbLine
 10
86.52799999999999
 20
5.516
 30
0.0
 11
87.16799999999999
 21
4.668
 31
0.0
  0
LINE
  5
F4
330
1E
100
AcDbEntity
  8
0
100
AcDbLine
 10
87.16799999999999
 20
4.668
 30
0.0
 11
88.016
 21
4.028
 31
0.0
  0
LINE
  5
F5
330
1E
100
AcDbEntity
  8
0
100
AcDbLine
 10
88.016
 20
4.028
 30
0.0
 11
88.976
 21
3.643999999999999
 31
0.0
  0
LINE
  5
F6
330
1E
100
AcDbEntity
  8
0
100
AcDbLine
 10
88.976
 20
3.643999999999999
 30
0.0
 11
90.0
 21
3.5
 31
0.0
  0
LINE
  5
F7
330
1E
100
AcDbEntity
  8
0
100
AcDbLine
 10
86.0
 20
7.5
 30
0.0
 11
86.14399999999999
 21
8.523999999999999
 31
0.0
  0
LINE
  5
F8
330
1E
100
AcDbEntity
  8
0
100
AcDbLine
 10
86.0
 20
7.5
 30
0.0
 11
86.14399999999999
 21
6.475999999999999
 31
0.0
  0
LINE
  5
F9
330
1E
100
AcDbEntity
  8
0
100
AcDbLine
 10
86.14399999999999
 20
8.523999999999999
 30
0.0
 11
86.52799999999999
 21
9.483999999999999
 31
0.0
  0
LINE
  5
FA
330
1E
100
AcDbEntity
  8
0
100
AcDbLine
 10
96.4297
 20
3.6623
 30
0.0
 11
97.18250000000001
 21
5.269499999999999
 31
0.0
  0
LINE
  5
FB
330
1E
100
AcDbEntity
  8
0
100
AcDbLine
 10
97.18250000000001
 20
5.269499999999999
 30
0.0
 11
97.5
 21
7.5
 31
0.0
  0
LINE
  5
FC
330
1E
100
AcDbEntity
  8
0
100
AcDbLine
 10
93.85600000000001
 20
8.523999999999999
 30
0.0
 11
94.0
 21
7.5
 31
0.0
  0
LINE
  5
FF
330
1E
100
AcDbEntity
  8
0
100
AcDbLine
 10
97.5
 20
7.5
 30
0.0
 11
99.90000000000001
 21
7.5
 31
0.0
  0
LINE
  5
100
330
1E
100
AcDbEntity
  8
0
100
AcDbLine
 10
97.5
 20
7.5
 30
0.0
 11
99.95
 21
7.5
 31
0.0
  0
LINE
  5
101
330
1E
100
AcDbEntity
  8
0
100
AcDbLine
 10
93.85600000000001
 20
6.475999999999999
 30
0.0
 11
94.0
 21
7.5
 31
0.0
  0
LINE
  5
102
330
1E
100
AcDbEntity
  8
0
100
AcDbLine
 10
93.472
 20
5.516
 30
0.0
 11
93.85600000000001
 21
6.475999999999999
 31
0.0
  0
LINE
  5
103
330
1E
100
AcDbEntity
  8
0
100
AcDbLine
 10
92.832
 20
4.668
 30
0.0
 11
93.472
 21
5.516
 31
0.0
  0
LINE
  5
104
330
1E
100
AcDbEntity
  8
0
100
AcDbLine
 10
91.98399999999999
 20
4.028
 30
0.0
 11
92.832
 21
4.668
 31
0.0
  0
LINE
  5
105
330
1E
100
AcDbEntity
  8
0
100
AcDbLine
 10
91.02400000000001
 20
3.643999999999999
 30
0.0
 11
91.98399999999999
 21
4.028
 31
0.0
  0
LINE
  5
106
330
1E
100
AcDbEntity
  8
0
100
AcDbLine
 10
90.0
 20
3.5
 30
0.0
 11
91.02400000000001
 21
3.643999999999999
 31
0.0
  0
LINE
  5
107
330
1E
100
AcDbEntity
  8
0
100
AcDbLine
 10
37.5
 20
7.5
 30
0.0
 11
60.0
 21
7.5
 31
0.0
  0
LINE
  5
108
330
1E
100
AcDbEntity
  8
0
100
AcDbLine
 10
86.52799999999999
 20
9.483999999999999
 30
0.0
 11
87.16799999999999
 21
10.332
 31
0.0
  0
LINE
  5
109
330
1E
100
AcDbEntity
  8
0
100
AcDbLine
 10
87.16799999999999
 20
10.332
 30
0.0
 11
88.016
 21
10.972
 31
0.0
  0
LINE
  5
10A
330
1E
100
AcDbEntity
  8
0
100
AcDbLine
 10
93.472
 20
9.483999999999999
 30
0.0
 11
93.85600000000001
 21
8.523999999999999
 31
0.0
  0
LINE
  5
10B
330
1E
100
AcDbEntity
  8
0
100
AcDbLine
 10
92.832
 20
10.332
 30
0.0
 11
93.472
 21
9.483999999999999
 31
0.0
  0
LINE
  5
10C
330
1E
100
AcDbEntity
  8
0
100
AcDbLine
 10
33.856
 20
8.523999999999999
 30
0.0
 11
34.0
 21
7.5
 31
0.0
  0
LINE
  5
10D
330
1E
100
AcDbEntity
  8
0
100
AcDbLine
 10
33.472
 20
9.483999999999999
 30
0.0
 11
33.856
 21
8.523999999999999
 31
0.0
  0
LINE
  5
10E
330
1E
100
AcDbEntity
  8
0
100
AcDbLine
 10
88.016
 20
10.972
 30
0.0
 11
88.976
 21
11.35599999999999
 31
0.0
  0
LINE
  5
10F
330
1E
100
AcDbEntity
  8
0
100
AcDbLine
 10
88.976
 20
11.35599999999999
 30
0.0
 11
90.0
 21
11.5
 31
0.0
  0
LINE
  5
110
330
1E
100
AcDbEntity
  8
0
100
AcDbLine
 10
91.98399999999999
 20
10.972
 30
0.0
 11
92.832
 21
10.332
 31
0.0
  0
LINE
  5
111
330
1E
100
AcDbEntity
  8
0
100
AcDbLine
 10
91.02400000000001
 20
11.35599999999999
 30
0.0
 11
91.98399999999999
 21
10.972
 31
0.0
  0
LINE
  5
112
330
1E
100
AcDbEntity
  8
0
100
AcDbLine
 10
32.832
 20
10.332
 30
0.0
 11
33.472
 21
9.483999999999999
 31
0.0
  0
LINE
  5
113
330
1E
100
AcDbEntity
  8
0
100
AcDbLine
 10
31.984
 20
10.972
 30
0.0
 11
32.832
 21
10.332
 31
0.0
  0
LINE
  5
114
330
1E
100
AcDbEntity
  8
0
100
AcDbLine
 10
90.0
 20
11.5
 30
0.0
 11
91.02400000000001
 21
11.35599999999999
 31
0.0
  0
LINE
  5
115
330
1E
100
AcDbEntity
  8
0
100
AcDbLine
 10
31.024
 20
11.35599999999999
 30
0.0
 11
31.984
 21
10.972
 31
0.0
  0
LINE
  5
116
330
1E
100
AcDbEntity
  8
0
100
AcDbLine
 10
30.0
 20
11.5
 30
0.0
 11
31.024
 21
11.35599999999999
 31
0.0
  0
LINE
  5
117
330
1E
100
AcDbEntity
  8
0
100
AcDbLine
 10
97.0
 20
23.5
 30
0.0
 11
97.0
 21
91.5
 31
0.0
  0
LINE
  5
118
330
1E
100
AcDbEntity
  8
0
100
AcDbLine
 10
97.0
 20
23.5
 30
0.0
 11
97.0
 21
91.5
 31
0.0
  0
LINE
  5
119
330
1E
100
AcDbEntity
  8
0
100
AcDbLine
 10
97.0
 20
91.5
 30
0.0
 11
97.0
 21
23.5
 31
0.0
  0
LINE
  5
11A
330
1E
100
AcDbEntity
  8
0
100
AcDbLine
 10
97.0
 20
91.5
 30
0.0
 11
97.0
 21
23.5
 31
0.0
  0
LINE
  5
11B
330
1E
100
AcDbEntity
  8
0
100
AcDbLine
 10
90.0
 20
103.4999999999999
 30
0.0
 11
91.02400000000001
 21
103.644
 31
0.0
  0
LINE
  5
11C
330
1E
100
AcDbEntity
  8
0
100
AcDbLine
 10
99.0
 20
93.49999999999999
 30
0.0
 11
99.0
 21
21.49999999999999
 31
0.0
  0
LINE
  5
123
330
1E
100
AcDbEntity
  8
0
100
AcDbLine
 10
99.0
 20
21.49999999999999
 30
0.0
 11
99.0
 21
93.49999999999999
 31
0.0
  0
LINE
  5
124
330
1E
100
AcDbEntity
  8
0
100
AcDbLine
 10
99.95
 20
19.5
 30
0.0
 11
101.0
 21
19.5
 31
0.0
  0
LINE
  5
129
330
1E
100
AcDbEntity
  8
0
100
AcDbLine
 10
101.0
 20
36.0
 30
0.0
 11
120.0
 21
36.0
 31
0.0
  0
LINE
  5
12B
330
1E
100
AcDbEntity
  8
0
100
AcDbLine
 10
99.0
 20
21.49999999999999
 30
0.0
 11
120.0
 21
21.49999999999999
 31
0.0
  0
LINE
  5
12D
330
1E
100
AcDbEntity
  8
0
100
AcDbLine
 10
107.156
 20
29.6099
 30
0.0
 11
107.54
 21
30.5699
 31
0.0
  0
LINE
  5
12E
330
1E
100
AcDbEntity
  8
0
100
AcDbLine
 10
107.54
 20
30.5699
 30
0.0
 11
108.18
 21
31.4179
 31
0.0
  0
LINE
  5
12F
330
1E
100
AcDbEntity
  8
0
100
AcDbLine
 10
107.0119999999999
 20
28.58589999999999
 30
0.0
 11
107.156
 21
27.5619
 31
0.0
  0
LINE
  5
130
330
1E
100
AcDbEntity
  8
0
100
AcDbLine
 10
107.0119999999999
 20
28.58589999999999
 30
0.0
 11
107.156
 21
29.6099
 31
0.0
  0
LINE
  5
131
330
1E
100
AcDbEntity
  8
0
100
AcDbLine
 10
107.156
 20
27.5619
 30
0.0
 11
107.54
 21
26.6019
 31
0.0
  0
LINE
  5
132
330
1E
100
AcDbEntity
  8
0
100
AcDbLine
 10
108.18
 20
31.4179
 30
0.0
 11
109.0279999999999
 21
32.05789999999999
 31
0.0
  0
LINE
  5
133
330
1E
100
AcDbEntity
  8
0
100
AcDbLine
 10
109.0279999999999
 20
32.05789999999999
 30
0.0
 11
109.9879999999999
 21
32.44189999999999
 31
0.0
  0
LINE
  5
134
330
1E
100
AcDbEntity
  8
0
100
AcDbLine
 10
107.54
 20
26.6019
 30
0.0
 11
108.18
 21
25.7539
 31
0.0
  0
LINE
  5
135
330
1E
100
AcDbEntity
  8
0
100
AcDbLine
 10
108.18
 20
25.7539
 30
0.0
 11
109.0279999999999
 21
25.1139
 31
0.0
  0
LINE
  5
136
330
1E
100
AcDbEntity
  8
0
100
AcDbLine
 10
109.9879999999999
 20
32.44189999999999
 30
0.0
 11
111.0119999999999
 21
32.5859
 31
0.0
  0
LINE
  5
137
330
1E
100
AcDbEntity
  8
0
100
AcDbLine
 10
109.0279999999999
 20
25.1139
 30
0.0
 11
109.9879999999999
 21
24.7299
 31
0.0
  0
LINE
  5
139
330
1E
100
AcDbEntity
  8
0
100
AcDbLine
 10
111.0119999999999
 20
32.5859
 30
0.0
 11
112.036
 21
32.44189999999999
 31
0.0
  0
LINE
  5
13A
330
1E
100
AcDbEntity
  8
0
100
AcDbLine
 10
112.036
 20
32.44189999999999
 30
0.0
 11
112.996
 21
32.05789999999999
 31
0.0
  0
LINE
  5
13B
330
1E
100
AcDbEntity
  8
0
100
AcDbLine
 10
113.8439999999999
 20
31.4179
 30
0.0
 11
114.484
 21
30.5699
 31
0.0
  0
LINE
  5
13C
330
1E
100
AcDbEntity
  8
0
100
AcDbLine
 10
112.996
 20
32.05789999999999
 30
0.0
 11
113.8439999999999
 21
31.4179
 31
0.0
  0
LINE
  5
13D
330
1E
100
AcDbEntity
  8
0
100
AcDbLine
 10
114.8679999999999
 20
29.6099
 30
0.0
 11
115.012
 21
28.58589999999999
 31
0.0
  0
LINE
  5
13E
330
1E
100
AcDbEntity
  8
0
100
AcDbLine
 10
114.484
 20
30.5699
 30
0.0
 11
114.8679999999999
 21
29.6099
 31
0.0
  0
LINE
  5
13F
330
1E
100
AcDbEntity
  8
0
100
AcDbLine
 10
120.0
 20
38.0
 30
0.0
 11
120.0
 21
21.49999999999999
 31
0.0
  0
LINE
  5
140
330
1E
100
AcDbEntity
  8
0
100
AcDbLine
 10
114.8679999999999
 20
27.5619
 30
0.0
 11
115.012
 21
28.58589999999999
 31
0.0
  0
LINE
  5
141
330
1E
100
AcDbEntity
  8
0
100
AcDbLine
 10
114.484
 20
26.6019
 30
0.0
 11
114.8679999999999
 21
27.5619
 31
0.0
  0
LINE
  5
142
330
1E
100
AcDbEntity
  8
0
100
AcDbLine
 10
113.8439999999999
 20
25.7539
 30
0.0
 11
114.484
 21
26.6019
 31
0.0
  0
LINE
  5
143
330
1E
100
AcDbEntity
  8
0
100
AcDbLine
 10
112.996
 20
25.1139
 30
0.0
 11
113.8439999999999
 21
25.7539
 31
0.0
  0
LINE
  5
144
330
1E
100
AcDbEntity
  8
0
100
AcDbLine
 10
112.036
 20
24.7299
 30
0.0
 11
112.996
 21
25.1139
 31
0.0
  0
LINE
  5
145
330
1E
100
AcDbEntity
  8
0
100
AcDbLine
 10
111.0119999999999
 20
24.5859
 30
0.0
 11
112.036
 21
24.7299
 31
0.0
  0
LINE
  5
147
330
1E
100
AcDbEntity
  8
0
100
AcDbLine
 10
109.9879999999999
 20
24.7299
 30
0.0
 11
111.0119999999999
 21
24.5859
 31
0.0
  0
LINE
  5
148
330
1E
100
AcDbEntity
  8
0
100
AcDbLine
 10
120.0
 20
19.55
 30
0.0
 11
120.0
 21
38.0
 31
0.0
  0
LINE
  5
149
330
1E
100
AcDbEntity
  8
0
100
AcDbLine
 10
120.0
 20
77.0
 30
0.0
 11
120.0
 21
93.49999999999999
 31
0.0
  0
LINE
  5
14A
330
1E
100
AcDbEntity
  8
0
100
AcDbLine
 10
101.0
 20
38.0
 30
0.0
 11
101.0
 21
77.0
 31
0.0
  0
LINE
  5
14D
330
1E
100
AcDbEntity
  8
0
100
AcDbLine
 10
101.0
 20
79.0
 30
0.0
 11
120.0
 21
79.0
 31
0.0
  0
LINE
  5
14F
330
1E
100
AcDbEntity
  8
0
100
AcDbLine
 10
99.0
 20
93.49999999999999
 30
0.0
 11
120.0
 21
93.49999999999999
 31
0.0
  0
LINE
  5
150
330
1E
100
AcDbEntity
  8
0
100
AcDbLine
 10
99.0
 20
93.49999999999999
 30
0.0
 11
120.0
 21
93.49999999999999
 31
0.0
  0
LINE
  5
156
330
1E
100
AcDbEntity
  8
0
100
AcDbLine
 10
107.156
 20
87.43810000000001
 30
0.0
 11
107.54
 21
88.39809999999999
 31
0.0
  0
LINE
  5
157
330
1E
100
AcDbEntity
  8
0
100
AcDbLine
 10
107.54
 20
88.39809999999999
 30
0.0
 11
108.18
 21
89.24609999999999
 31
0.0
  0
LINE
  5
158
330
1E
100
AcDbEntity
  8
0
100
AcDbLine
 10
107.0119999999999
 20
86.4141
 30
0.0
 11
107.156
 21
85.39010000000001
 31
0.0
  0
LINE
  5
159
330
1E
100
AcDbEntity
  8
0
100
AcDbLine
 10
107.0119999999999
 20
86.4141
 30
0.0
 11
107.156
 21
87.43810000000001
 31
0.0
  0
LINE
  5
15A
330
1E
100
AcDbEntity
  8
0
100
AcDbLine
 10
107.156
 20
85.39010000000001
 30
0.0
 11
107.54
 21
84.43009999999999
 31
0.0
  0
LINE
  5
15B
330
1E
100
AcDbEntity
  8
0
100
AcDbLine
 10
108.18
 20
89.24609999999999
 30
0.0
 11
109.0279999999999
 21
89.88609999999999
 31
0.0
  0
LINE
  5
15C
330
1E
100
AcDbEntity
  8
0
100
AcDbLine
 10
109.0279999999999
 20
89.88609999999999
 30
0.0
 11
109.9879999999999
 21
90.2701
 31
0.0
  0
LINE
  5
15D
330
1E
100
AcDbEntity
  8
0
100
AcDbLine
 10
107.54
 20
84.43009999999999
 30
0.0
 11
108.18
 21
83.58209999999999
 31
0.0
  0
LINE
  5
15E
330
1E
100
AcDbEntity
  8
0
100
AcDbLine
 10
108.18
 20
83.58209999999999
 30
0.0
 11
109.0279999999999
 21
82.94209999999999
 31
0.0
  0
LINE
  5
15F
330
1E
100
AcDbEntity
  8
0
100
AcDbLine
 10
109.9879999999999
 20
90.2701
 30
0.0
 11
111.0119999999999
 21
90.4141
 31
0.0
  0
LINE
  5
161
330
1E
100
AcDbEntity
  8
0
100
AcDbLine
 10
111.0119999999999
 20
90.4141
 30
0.0
 11
112.036
 21
90.2701
 31
0.0
  0
LINE
  5
162
330
1E
100
AcDbEntity
  8
0
100
AcDbLine
 10
109.0279999999999
 20
82.94209999999999
 30
0.0
 11
109.9879999999999
 21
82.5581
 31
0.0
  0
LINE
  5
163
330
1E
100
AcDbEntity
  8
0
100
AcDbLine
 10
109.9879999999999
 20
82.5581
 30
0.0
 11
111.0119999999999
 21
82.4141
 31
0.0
  0
LINE
  5
164
330
1E
100
AcDbEntity
  8
0
100
AcDbLine
 10
112.996
 20
89.88609999999999
 30
0.0
 11
113.8439999999999
 21
89.24609999999999
 31
0.0
  0
LINE
  5
165
330
1E
100
AcDbEntity
  8
0
100
AcDbLine
 10
112.036
 20
90.2701
 30
0.0
 11
112.996
 21
89.88609999999999
 31
0.0
  0
LINE
  5
166
330
1E
100
AcDbEntity
  8
0
100
AcDbLine
 10
114.484
 20
88.39809999999999
 30
0.0
 11
114.8679999999999
 21
87.43810000000001
 31
0.0
  0
LINE
  5
167
330
1E
100
AcDbEntity
  8
0
100
AcDbLine
 10
113.8439999999999
 20
89.24609999999999
 30
0.0
 11
114.484
 21
88.39809999999999
 31
0.0
  0
LINE
  5
168
330
1E
100
AcDbEntity
  8
0
100
AcDbLine
 10
114.8679999999999
 20
87.43810000000001
 30
0.0
 11
115.012
 21
86.4141
 31
0.0
  0
LINE
  5
169
330
1E
100
AcDbEntity
  8
0
100
AcDbLine
 10
120.0
 20
95.44999999999999
 30
0.0
 11
120.0
 21
77.0
 31
0.0
  0
LINE
  5
16A
330
1E
100
AcDbEntity
  8
0
100
AcDbLine
 10
114.8679999999999
 20
85.39010000000001
 30
0.0
 11
115.012
 21
86.4141
 31
0.0
  0
LINE
  5
16B
330
1E
100
AcDbEntity
  8
0
100
AcDbLine
 10
114.484
 20
84.43009999999999
 30
0.0
 11
114.8679999999999
 21
85.39010000000001
 31
0.0
  0
LINE
  5
16C
330
1E
100
AcDbEntity
  8
0
100
AcDbLine
 10
113.8439999999999
 20
83.58209999999999
 30
0.0
 11
114.484
 21
84.43009999999999
 31
0.0
  0
LINE
  5
16D
330
1E
100
AcDbEntity
  8
0
100
AcDbLine
 10
112.996
 20
82.94209999999999
 30
0.0
 11
113.8439999999999
 21
83.58209999999999
 31
0.0
  0
LINE
  5
16E
330
1E
100
AcDbEntity
  8
0
100
AcDbLine
 10
112.036
 20
82.5581
 30
0.0
 11
112.996
 21
82.94209999999999
 31
0.0
  0
LINE
  5
16F
330
1E
100
AcDbEntity
  8
0
100
AcDbLine
 10
111.0119999999999
 20
82.4141
 30
0.0
 11
112.036
 21
82.5581
 31
0.0
  0
LINE
  5
170
330
1E
100
AcDbEntity
  8
0
100
AcDbLine
 10
101.0
 20
77.0
 30
0.0
 11
101.0
 21
38.0
 31
0.0
  0
LINE
  5
171
330
1E
100
AcDbEntity
  8
0
100
AcDbLine
 10
101.0
 20
77.0
 30
0.0
 11
120.0
 21
77.0
 31
0.0
  0
LINE
  5
173
330
1E
100
AcDbEntity
  8
0
100
AcDbLine
 10
31.024
 20
111.356
 30
0.0
 11
31.984
 21
110.972
 31
0.0
  0
LINE
  5
174
330
1E
100
AcDbEntity
  8
0
100
AcDbLine
 10
30.0
 20
115.0
 30
0.0
 11
32.06329999999999
 21
114.6519999999999
 31
0.0
  0
LINE
  5
175
330
1E
100
AcDbEntity
  8
0
100
AcDbLine
 10
30.0
 20
115.0
 30
0.0
 11
32.06329999999999
 21
114.653
 31
0.0
  0
LINE
  5
176
330
1E
100
AcDbEntity
  8
0
100
AcDbLine
 10
30.0
 20
111.4999999999999
 30
0.0
 11
31.024
 21
111.356
 31
0.0
  0
LINE
  5
177
330
1E
100
AcDbEntity
  8
0
100
AcDbLine
 10
88.016
 20
104.0279999999999
 30
0.0
 11
88.976
 21
103.644
 31
0.0
  0
LINE
  5
178
330
1E
100
AcDbEntity
  8
0
100
AcDbLine
 10
88.976
 20
103.644
 30
0.0
 11
90.0
 21
103.4999999999999
 31
0.0
  0
LINE
  5
179
330
1E
100
AcDbEntity
  8
0
100
AcDbLine
 10
91.98399999999999
 20
104.0279999999999
 30
0.0
 11
92.832
 21
104.6679999999999
 31
0.0
  0
LINE
  5
17A
330
1E
100
AcDbEntity
  8
0
100
AcDbLine
 10
91.02400000000001
 20
103.644
 30
0.0
 11
91.98399999999999
 21
104.0279999999999
 31
0.0
  0
LINE
  5
17B
330
1E
100
AcDbEntity
  8
0
100
AcDbLine
 10
32.832
 20
110.332
 30
0.0
 11
33.472
 21
109.484
 31
0.0
  0
LINE
  5
17C
330
1E
100
AcDbEntity
  8
0
100
AcDbLine
 10
32.06329999999999
 20
114.653
 30
0.0
 11
33.7697
 21
114.0
 31
0.0
  0
LINE
  5
17D
330
1E
100
AcDbEntity
  8
0
100
AcDbLine
 10
32.06329999999999
 20
114.6519999999999
 30
0.0
 11
33.7697
 21
113.996
 31
0.0
  0
LINE
  5
17E
330
1E
100
AcDbEntity
  8
0
100
AcDbLine
 10
31.984
 20
110.972
 30
0.0
 11
32.832
 21
110.332
 31
0.0
  0
LINE
  5
17F
330
1E
100
AcDbEntity
  8
0
100
AcDbLine
 10
86.52799999999999
 20
105.516
 30
0.0
 11
87.16799999999999
 21
104.6679999999999
 31
0.0
  0
LINE
  5
180
330
1E
100
AcDbEntity
  8
0
100
AcDbLine
 10
87.16799999999999
 20
104.6679999999999
 30
0.0
 11
88.016
 21
104.0279999999999
 31
0.0
  0
LINE
  5
181
330
1E
100
AcDbEntity
  8
0
100
AcDbLine
 10
93.472
 20
105.516
 30
0.0
 11
93.85600000000001
 21
106.4759999999999
 31
0.0
  0
LINE
  5
182
330
1E
100
AcDbEntity
  8
0
100
AcDbLine
 10
92.832
 20
104.6679999999999
 30
0.0
 11
93.472
 21
105.516
 31
0.0
  0
LINE
  5
183
330
1E
100
AcDbEntity
  8
0
100
AcDbLine
 10
33.856
 20
108.5239999999999
 30
0.0
 11
34.0
 21
107.4999999999999
 31
0.0
  0
LINE
  5
184
330
1E
100
AcDbEntity
  8
0
100
AcDbLine
 10
33.7697
 20
114.0
 30
0.0
 11
35.2252
 21
112.7939999999999
 31
0.0
  0
LINE
  5
185
330
1E
100
AcDbEntity
  8
0
100
AcDbLine
 10
33.7697
 20
113.996
 30
0.0
 11
35.2252
 21
112.7939999999999
 31
0.0
  0
LINE
  5
186
330
1E
100
AcDbEntity
  8
0
100
AcDbLine
 10
33.472
 20
109.484
 30
0.0
 11
33.856
 21
108.5239999999999
 31
0.0
  0
LINE
  5
187
330
1E
100
AcDbEntity
  8
0
100
AcDbLine
 10
82.5
 20
107.4999999999999
 30
0.0
 11
82.8175
 21
109.73
 31
0.0
  0
LINE
  5
188
330
1E
100
AcDbEntity
  8
0
100
AcDbLine
 10
86.0
 20
107.4999999999999
 30
0.0
 11
86.14399999999999
 21
106.4759999999999
 31
0.0
  0
LINE
  5
189
330
1E
100
AcDbEntity
  8
0
100
AcDbLine
 10
86.0
 20
107.4999999999999
 30
0.0
 11
86.14399999999999
 21
108.5239999999999
 31
0.0
  0
LINE
  5
18A
330
1E
100
AcDbEntity
  8
0
100
AcDbLine
 10
60.0
 20
107.4999999999999
 30
0.0
 11
82.5
 21
107.4999999999999
 31
0.0
  0
LINE
  5
18B
330
1E
100
AcDbEntity
  8
0
100
AcDbLine
 10
86.14399999999999
 20
106.4759999999999
 30
0.0
 11
86.52799999999999
 21
105.516
 31
0.0
  0
LINE
  5
18C
330
1E
100
AcDbEntity
  8
0
100
AcDbLine
 10
97.5
 20
107.4999999999999
 30
0.0
 11
99.90000000000001
 21
107.4999999999999
 31
0.0
  0
LINE
  5
18E
330
1E
100
AcDbEntity
  8
0
100
AcDbLine
 10
93.85600000000001
 20
106.4759999999999
 30
0.0
 11
94.0
 21
107.4999999999999
 31
0.0
  0
LINE
  5
190
330
1E
100
AcDbEntity
  8
0
100
AcDbLine
 10
37.5
 20
107.4999999999999
 30
0.0
 11
60.0
 21
107.4999999999999
 31
0.0
  0
LINE
  5
191
330
1E
100
AcDbEntity
  8
0
100
AcDbLine
 10
86.14399999999999
 20
108.5239999999999
 30
0.0
 11
86.52799999999999
 21
109.484
 31
0.0
  0
LINE
  5
192
330
1E
100
AcDbEntity
  8
0
100
AcDbLine
 10
82.8175
 20
109.73
 30
0.0
 11
83.57029999999999
 21
111.338
 31
0.0
  0
LINE
  5
193
330
1E
100
AcDbEntity
  8
0
100
AcDbLine
 10
86.52799999999999
 20
109.484
 30
0.0
 11
87.16799999999999
 21
110.332
 31
0.0
  0
LINE
  5
194
330
1E
100
AcDbEntity
  8
0
100
AcDbLine
 10
87.16799999999999
 20
110.332
 30
0.0
 11
88.016
 21
110.972
 31
0.0
  0
LINE
  5
195
330
1E
100
AcDbEntity
  8
0
100
AcDbLine
 10
88.016
 20
110.972
 30
0.0
 11
88.976
 21
111.356
 31
0.0
  0
LINE
  5
196
330
1E
100
AcDbEntity
  8
0
100
AcDbLine
 10
93.85600000000001
 20
108.5239999999999
 30
0.0
 11
94.0
 21
107.4999999999999
 31
0.0
  0
LINE
  5
197
330
1E
100
AcDbEntity
  8
0
100
AcDbLine
 10
93.472
 20
109.484
 30
0.0
 11
93.85600000000001
 21
108.5239999999999
 31
0.0
  0
LINE
  5
198
330
1E
100
AcDbEntity
  8
0
100
AcDbLine
 10
92.832
 20
110.332
 30
0.0
 11
93.472
 21
109.484
 31
0.0
  0
LINE
  5
199
330
1E
100
AcDbEntity
  8
0
100
AcDbLine
 10
83.57029999999999
 20
111.338
 30
0.0
 11
84.77479999999999
 21
112.7939999999999
 31
0.0
  0
LINE
  5
19A
330
1E
100
AcDbEntity
  8
0
100
AcDbLine
 10
91.98399999999999
 20
110.972
 30
0.0
 11
92.832
 21
110.332
 31
0.0
  0
LINE
  5
19B
330
1E
100
AcDbEntity
  8
0
100
AcDbLine
 10
97.18250000000001
 20
109.73
 30
0.0
 11
97.5
 21
107.4999999999999
 31
0.0
  0
LINE
  5
19C
330
1E
100
AcDbEntity
  8
0
100
AcDbLine
 10
96.4297
 20
111.338
 30
0.0
 11
97.18250000000001
 21
109.73
 31
0.0
  0
LINE
  5
19D
330
1E
100
AcDbEntity
  8
0
100
AcDbLine
 10
37.18249999999999
 20
109.73
 30
0.0
 11
37.5
 21
107.4999999999999
 31
0.0
  0
LINE
  5
19E
330
1E
100
AcDbEntity
  8
0
100
AcDbLine
 10
88.976
 20
111.356
 30
0.0
 11
90.0
 21
111.4999999999999
 31
0.0
  0
LINE
  5
19F
330
1E
100
AcDbEntity
  8
0
100
AcDbLine
 10
84.77479999999999
 20
112.7939999999999
 30
0.0
 11
86.23029999999999
 21
113.996
 31
0.0
  0
LINE
  5
1A0
330
1E
100
AcDbEntity
  8
0
100
AcDbLine
 10
84.77479999999999
 20
112.7939999999999
 30
0.0
 11
86.23029999999999
 21
114.0
 31
0.0
  0
LINE
  5
1A1
330
1E
100
AcDbEntity
  8
0
100
AcDbLine
 10
86.23029999999999
 20
114.0
 30
0.0
 11
87.9367
 21
114.653
 31
0.0
  0
LINE
  5
1A2
330
1E
100
AcDbEntity
  8
0
100
AcDbLine
 10
87.9367
 20
114.653
 30
0.0
 11
90.0
 21
115.0
 31
0.0
  0
LINE
  5
1A3
330
1E
100
AcDbEntity
  8
0
100
AcDbLine
 10
86.23029999999999
 20
113.996
 30
0.0
 11
87.9367
 21
114.6519999999999
 31
0.0
  0
LINE
  5
1A4
330
1E
100
AcDbEntity
  8
0
100
AcDbLine
 10
87.9367
 20
114.6519999999999
 30
0.0
 11
90.0
 21
115.0
 31
0.0
  0
LINE
  5
1A5
330
1E
100
AcDbEntity
  8
0
100
AcDbLine
 10
90.0
 20
111.4999999999999
 30
0.0
 11
91.02400000000001
 21
111.356
 31
0.0
  0
LINE
  5
1A6
330
1E
100
AcDbEntity
  8
0
100
AcDbLine
 10
91.02400000000001
 20
111.356
 30
0.0
 11
91.98399999999999
 21
110.972
 31
0.0
  0
LINE
  5
1A7
330
1E
100
AcDbEntity
  8
0
100
AcDbLine
 10
93.7697
 20
114.0
 30
0.0
 11
95.2252
 21
112.7939999999999
 31
0.0
  0
LINE
  5
1A8
330
1E
100
AcDbEntity
  8
0
100
AcDbLine
 10
95.2252
 20
112.7939999999999
 30
0.0
 11
96.4297
 21
111.338
 31
0.0
  0
LINE
  5
1A9
330
1E
100
AcDbEntity
  8
0
100
AcDbLine
 10
93.7697
 20
113.996
 30
0.0
 11
95.2252
 21
112.7939999999999
 31
0.0
  0
LINE
  5
1AA
330
1E
100
AcDbEntity
  8
0
100
AcDbLine
 10
92.06329999999999
 20
114.653
 30
0.0
 11
93.7697
 21
114.0
 31
0.0
  0
LINE
  5
1AB
330
1E
100
AcDbEntity
  8
0
100
AcDbLine
 10
92.06329999999999
 20
114.6519999999999
 30
0.0
 11
93.7697
 21
113.996
 31
0.0
  0
LINE
  5
1AC
330
1E
100
AcDbEntity
  8
0
100
AcDbLine
 10
90.0
 20
115.0
 30
0.0
 11
92.06329999999999
 21
114.6519999999999
 31
0.0
  0
LINE
  5
1AD
330
1E
100
AcDbEntity
  8
0
100
AcDbLine
 10
90.0
 20
115.0
 30
0.0
 11
92.06329999999999
 21
114.653
 31
0.0
  0
LINE
  5
1AE
330
1E
100
AcDbEntity
  8
0
100
AcDbLine
 10
36.4297
 20
111.338
 30
0.0
 11
37.18249999999999
 21
109.73
 31
0.0
  0
LINE
  5
1AF
330
1E
100
AcDbEntity
  8
0
100
AcDbLine
 10
35.2252
 20
112.7939999999999
 30
0.0
 11
36.4297
 21
111.338
 31
0.0
  0
LINE
  5
1B0
330
1E
100
AcDbEntity
  8
0
100
AcDbLine
 10
33.856
 20
106.4759999999999
 30
0.0
 11
34.0
 21
107.4999999999999
 31
0.0
  0
LINE
  5
1B1
330
1E
100
AcDbEntity
  8
0
100
AcDbLine
 10
33.472
 20
105.516
 30
0.0
 11
33.856
 21
106.4759999999999
 31
0.0
  0
LINE
  5
1B2
330
1E
100
AcDbEntity
  8
0
100
AcDbLine
 10
32.832
 20
104.6679999999999
 30
0.0
 11
33.472
 21
105.516
 31
0.0
  0
LINE
  5
1B3
330
1E
100
AcDbEntity
  8
0
100
AcDbLine
 10
31.984
 20
104.0279999999999
 30
0.0
 11
32.832
 21
104.6679999999999
 31
0.0
  0
LINE
  5
1B4
330
1E
100
AcDbEntity
  8
0
100
AcDbLine
 10
31.024
 20
103.644
 30
0.0
 11
31.984
 21
104.0279999999999
 31
0.0
  0
LINE
  5
1B5
330
1E
100
AcDbEntity
  8
0
100
AcDbLine
 10
30.0
 20
103.4999999999999
 30
0.0
 11
31.024
 21
103.644
 31
0.0
  0
LINE
  5
1B6
330
1E
100
AcDbEntity
  8
0
100
AcDbLine
 10
28.976
 20
111.356
 30
0.0
 11
30.0
 21
111.4999999999999
 31
0.0
  0
LINE
  5
1BB
330
1E
100
AcDbEntity
  8
0
100
AcDbLine
 10
19.0
 20
38.0
 30
0.0
 11
19.0
 21
36.0
 31
0.0
  0
LINE
  5
1BC
330
1E
100
AcDbEntity
  8
0
100
AcDbLine
 10
20.05
 20
7.5
 30
0.0
 11
20.05
 21
19.5
 31
0.0
  0
LINE
  5
1BD
330
1E
100
AcDbEntity
  8
0
100
AcDbLine
 10
99.95
 20
19.5
 30
0.0
 11
99.90000000000001
 21
7.5
 31
0.0
  0
LINE
  5
1BE
330
1E
100
AcDbEntity
  8
0
100
AcDbLine
 10
101.0
 20
19.5
 30
0.0
 11
120.0
 21
19.55
 31
0.0
  0
LINE
  5
1BF
330
1E
100
AcDbEntity
  8
0
100
AcDbLine
 10
120.0
 20
38.0
 30
0.0
 11
101.0
 21
38.0
 31
0.0
  0
LINE
  5
1C0
330
1E
100
AcDbEntity
  8
0
100
AcDbLine
 10
101.0
 20
38.0
 30
0.0
 11
101.0
 21
36.0
 31
0.0
  0
LINE
  5
1C1
330
1E
100
AcDbEntity
  8
0
100
AcDbLine
 10
20.1
 20
107.4999999999999
 30
0.0
 11
20.05
 21
95.5
 31
0.0
  0
LINE
  5
1C2
330
1E
100
AcDbEntity
  8
0
100
AcDbLine
 10
19.0
 20
77.0
 30
0.0
 11
19.0
 21
79.0
 31
0.0
  0
LINE
  5
1C3
330
1E
100
AcDbEntity
  8
0
100
AcDbLine
 10
20.05
 20
95.5
 30
0.0
 11
-0.0000000000000025
 21
95.5
 31
0.0
  0
LINE
  5
1C4
330
1E
100
AcDbEntity
  8
0
100
AcDbLine
 10
99.90000000000001
 20
107.4999999999999
 30
0.0
 11
99.95
 21
95.5
 31
0.0
  0
LINE
  5
1C5
330
1E
100
AcDbEntity
  8
0
100
AcDbLine
 10
99.95
 20
95.5
 30
0.0
 11
120.0
 21
95.44999999999999
 31
0.0
  0
LINE
  5
1C6
330
1E
100
AcDbEntity
  8
0
100
AcDbLine
 10
101.0
 20
79.0
 30
0.0
 11
101.0
 21
77.0
 31
0.0
  0
ENDSEC
  0
SECTION
  2
OBJECTS
  0
DICTIONARY
  5
C
330
0
100
AcDbDictionary
281
     1
  3
ACAD_GROUP
350
D
  3
ACAD_LAYOUT
350
19
  3
ACAD_MLINESTYLE
350
16
  3
ACAD_PLOTSETTINGS
350
18
  3
ACAD_PLOTSTYLENAME
350
E
  3
AcDbVariableDictionary
350
1C8
  0
DICTIONARY
  5
D
102
{ACAD_REACTORS
330
C
102
}
330
C
100
AcDbDictionary
281
     1
  0
DICTIONARY
  5
19
102
{ACAD_REACTORS
330
C
102
}
330
C
100
AcDbDictionary
281
     1
  3
Layout1
350
1D
  3
Model
350
21
  0
DICTIONARY
  5
16
102
{ACAD_REACTORS
330
C
102
}
330
C
100
AcDbDictionary
281
     1
  3
Standard
350
17
  0
DICTIONARY
  5
18
102
{ACAD_REACTORS
330
C
102
}
330
C
100
AcDbDictionary
281
     1
  0
ACDBDICTIONARYWDFLT
  5
E
102
{ACAD_REACTORS
330
C
102
}
330
C
100
AcDbDictionary
281
     1
  3
Normal
350
F
100
AcDbDictionaryWithDefault
340
F
  0
DICTIONARY
  5
1C8
102
{ACAD_REACTORS
330
C
102
}
330
C
100
AcDbDictionary
281
     1
  3
DIMASSOC
350
1C9
  0
LAYOUT
  5
1D
102
{ACAD_REACTORS
330
19
102
}
330
19
100
AcDbPlotSettings
  1

  2
hp deskjet 980c series
  4

  6

 40
0.0
 41
0.0
 42
0.0
 43
0.0
 44
0.0
 45
0.0
 46
0.0
 47
0.0
 48
0.0
 49
0.0
140
0.0
141
0.0
142
1.0
143
1.0
 70
   688
 72
     0
 73
     0
 74
     5
  7

 75
    16
147
1.0
148
0.0
149
0.0
100
AcDbLayout
  1
Layout1
 70
     1
 71
     1
 10
0.0
 20
0.0
 11
12.0
 21
9.0
 12
0.0
 22
0.0
 32
0.0
 14
1.000000000000000E+20
 24
1.000000000000000E+20
 34
1.000000000000000E+20
 15
-1.000000000000000E+20
 25
-1.000000000000000E+20
 35
-1.000000000000000E+20
146
0.0
 13
0.0
 23
0.0
 33
0.0
 16
1.0
 26
0.0
 36
0.0
 17
0.0
 27
1.0
 37
0.0
 76
     0
330
1A
  0
LAYOUT
  5
21
102
{ACAD_REACTORS
330
19
102
}
330
19
100
AcDbPlotSettings
  1

  2
hp deskjet 980c series
  4

  6

 40
0.0
 41
0.0
 42
0.0
 43
0.0
 44
0.0
 45
0.0
 46
0.0
 47
0.0
 48
0.0
 49
0.0
140
0.0
141
0.0
142
1.0
143
1.0
 70
  1712
 72
     0
 73
     0
 74
     0
  7

 75
     0
147
1.0
148
0.0
149
0.0
100
AcDbLayout
  1
Model
 70
     1
 71
     0
 10
0.0
 20
0.0
 11
12.0
 21
9.0
 12
0.0
 22
0.0
 32
0.0
 14
0.0
 24
0.0
 34
0.0
 15
0.0
 25
0.0
 35
0.0
146
0.0
 13
0.0
 23
0.0
 33
0.0
 16
1.0
 26
0.0
 36
0.0
 17
0.0
 27
1.0
 37
0.0
 76
     0
330
1E
  0
MLINESTYLE
  5
17
102
{ACAD_REACTORS
330
16
102
}
330
16
100
AcDbMlineStyle
  2
STANDARD
 70
     0
  3

 62
   256
 51
90.0
 52
90.0
 71
     2
 49
0.5
 62
   256
  6
BYLAYER
 49
-0.5
 62
   256
  6
BYLAYER
  0
ACDBPLACEHOLDER
  5
F
102
{ACAD_REACTORS
330
E
102
}
330
E
  0
DICTIONARYVAR
  5
1C9
102
{ACAD_REACTORS
330
1C8
102
}
330
1C8
100
DictionaryVariables
280
     0
  1
1
  0
ENDSEC
  0
EOF
