  0
SECTION
  2
HEADER
  9
$ACADVER
  1
AC1009
  9
$INSBASE
 10
0.0
 20
0.0
 30
0.0
  9
$EXTMIN
 10
0.0
 20
0.0000000000000035
 30
0.0
  9
$EXTMAX
 10
122.0
 20
22.0
 30
0.0
  9
$LIMMIN
 10
0.0
 20
0.0
  9
$LIMMAX
 10
12.0
 20
9.0
  9
$ORTHOMODE
 70
     0
  9
$REGENMODE
 70
     1
  9
$FILLMODE
 70
     1
  9
$QTEXTMODE
 70
     0
  9
$MIRRTEXT
 70
     1
  9
$DRAGMODE
 70
     2
  9
$LTSCALE
 40
1.0
  9
$OSMODE
 70
    37
  9
$ATTMODE
 70
     1
  9
$TEXTSIZE
 40
0.2
  9
$TRACEWID
 40
0.05
  9
$TEXTSTYLE
  7
STANDARD
  9
$CLAYER
  8
0
  9
$CELTYPE
  6
CONTINUOUS
  9
$CECOLOR
 62
   256
  9
$DIMSCALE
 40
1.0
  9
$DIMASZ
 40
0.18
  9
$DIMEXO
 40
0.0625
  9
$DIMDLI
 40
0.38
  9
$DIMRND
 40
0.0
  9
$DIMDLE
 40
0.0
  9
$DIMEXE
 40
0.18
  9
$DIMTP
 40
0.0
  9
$DIMTM
 40
0.0
  9
$DIMTXT
 40
0.18
  9
$DIMCEN
 40
0.09
  9
$DIMTSZ
 40
0.0
  9
$DIMTOL
 70
     0
  9
$DIMLIM
 70
     0
  9
$DIMTIH
 70
     1
  9
$DIMTOH
 70
     1
  9
$DIMSE1
 70
     0
  9
$DIMSE2
 70
     0
  9
$DIMTAD
 70
     0
  9
$DIMZIN
 70
     0
  9
$DIMBLK
  1

  9
$DIMASO
 70
     1
  9
$DIMSHO
 70
     1
  9
$DIMPOST
  1

  9
$DIMAPOST
  1

  9
$DIMALT
 70
     0
  9
$DIMALTD
 70
     2
  9
$DIMALTF
 40
25.399999999999999
  9
$DIMLFAC
 40
1.0
  9
$DIMTOFL
 70
     0
  9
$DIMTVP
 40
0.0
  9
$DIMTIX
 70
     0
  9
$DIMSOXD
 70
     0
  9
$DIMSAH
 70
     0
  9
$DIMBLK1
  1

  9
$DIMBLK2
  1

  9
$DIMSTYLE
  2
STANDARD
  9
$DIMCLRD
 70
     0
  9
$DIMCLRE
 70
     0
  9
$DIMCLRT
 70
     0
  9
$DIMTFAC
 40
1.0
  9
$DIMGAP
 40
0.09
  9
$LUNITS
 70
     2
  9
$LUPREC
 70
     4
  9
$SKETCHINC
 40
0.1
  9
$FILLETRAD
 40
0.0
  9
$AUNITS
 70
     0
  9
$AUPREC
 70
     0
  9
$MENU
  1
.
  9
$ELEVATION
 40
0.0
  9
$PELEVATION
 40
0.0
  9
$THICKNESS
 40
0.0
  9
$LIMCHECK
 70
     0
  9
$BLIPMODE
 70
     0
  9
$CHAMFERA
 40
0.0
  9
$CHAMFERB
 40
0.0
  9
$SKPOLY
 70
     0
  9
$TDCREATE
 40
2454674.6154712732
  9
$TDUPDATE
 40
2454674.6199578582
  9
$TDINDWG
 40
0.0044865856
  9
$TDUSRTIMER
 40
0.0044865856
  9
$USRTIMER
 70
     1
  9
$ANGBASE
 50
0.0
  9
$ANGDIR
 70
     0
  9
$PDMODE
 70
     0
  9
$PDSIZE
 40
0.0
  9
$PLINEWID
 40
0.0
  9
$COORDS
 70
     1
  9
$SPLFRAME
 70
     0
  9
$SPLINETYPE
 70
     6
  9
$SPLINESEGS
 70
     8
  9
$ATTDIA
 70
     0
  9
$ATTREQ
 70
     1
  9
$HANDLING
 70
 22529
  9
$HANDSEED
  5
189
  9
$SURFTAB1
 70
     6
  9
$SURFTAB2
 70
     6
  9
$SURFTYPE
 70
     6
  9
$SURFU
 70
     6
  9
$SURFV
 70
     6
  9
$UCSNAME
  2

  9
$UCSORG
 10
0.0
 20
0.0
 30
0.0
  9
$UCSXDIR
 10
1.0
 20
0.0
 30
0.0
  9
$UCSYDIR
 10
0.0
 20
1.0
 30
0.0
  9
$PUCSNAME
  2

  9
$PUCSORG
 10
0.0
 20
0.0
 30
0.0
  9
$PUCSXDIR
 10
1.0
 20
0.0
 30
0.0
  9
$PUCSYDIR
 10
0.0
 20
1.0
 30
0.0
  9
$USERI1
 70
     0
  9
$USERI2
 70
     0
  9
$USERI3
 70
     0
  9
$USERI4
 70
     0
  9
$USERI5
 70
     0
  9
$USERR1
 40
0.0
  9
$USERR2
 40
0.0
  9
$USERR3
 40
0.0
  9
$USERR4
 40
0.0
  9
$USERR5
 40
0.0
  9
$WORLDVIEW
 70
     1
  9
$SHADEDGE
 70
     3
  9
$SHADEDIF
 70
    70
  9
$TILEMODE
 70
     1
  9
$MAXACTVP
 70
    64
  9
$PLIMCHECK
 70
     0
  9
$PEXTMIN
 10
1.0000000000000000E+020
 20
1.0000000000000000E+020
 30
1.0000000000000000E+020
  9
$PEXTMAX
 10
-1.0000000000000000E+020
 20
-1.0000000000000000E+020
 30
-1.0000000000000000E+020
  9
$PLIMMIN
 10
0.0
 20
0.0
  9
$PLIMMAX
 10
12.0
 20
9.0
  9
$UNITMODE
 70
     0
  9
$VISRETAIN
 70
     1
  9
$PLINEGEN
 70
     0
  9
$PSLTSCALE
 70
     1
  0
ENDSEC
  0
SECTION
  2
TABLES
  0
TABLE
  2
VPORT
 70
     5
  0
VPORT
  2
*ACTIVE
 70
     0
 10
0.0
 20
0.0
 11
1.0
 21
1.0
 12
61.0
 22
11.0
 13
0.0
 23
0.0
 14
1.0
 24
1.0
 15
0.0
 25
0.0
 16
0.0
 26
0.0
 36
1.0
 17
0.0
 27
0.0
 37
0.0
 40
59.92479869052719
 41
2.0435339308578739
 42
50.0
 43
0.0
 44
0.0
 50
0.0
 51
0.0
 71
     0
 72
   100
 73
     1
 74
     3
 75
     0
 76
     0
 77
     0
 78
     0
  0
ENDTAB
  0
TABLE
  2
LTYPE
 70
     1
  0
LTYPE
  2
CONTINUOUS
 70
     0
  3
Solid line
 72
    65
 73
     0
 40
0.0
  0
ENDTAB
  0
TABLE
  2
LAYER
 70
     1
  0
LAYER
  2
0
 70
     0
 62
     7
  6
CONTINUOUS
  0
ENDTAB
  0
TABLE
  2
STYLE
 70
     1
  0
STYLE
  2
STANDARD
 70
     0
 40
0.0
 41
1.0
 50
0.0
 71
     0
 42
0.2
  3
txt
  4

  0
ENDTAB
  0
TABLE
  2
VIEW
 70
     0
  0
ENDTAB
  0
TABLE
  2
UCS
 70
     0
  0
ENDTAB
  0
TABLE
  2
APPID
 70
     1
  0
APPID
  2
ACAD
 70
     0
  0
ENDTAB
  0
TABLE
  2
DIMSTYLE
 70
     1
  0
DIMSTYLE
  2
STANDARD
 70
     0
  3

  4

  5

  6

  7

 40
1.0
 41
0.18
 42
0.0625
 43
0.38
 44
0.18
 45
0.0
 46
0.0
 47
0.0
 48
0.0
140
0.18
141
0.09
142
0.0
143
25.399999999999999
144
1.0
145
0.0
146
1.0
147
0.09
 71
     0
 72
     0
 73
     1
 74
     1
 75
     0
 76
     0
 77
     0
 78
     0
170
     0
171
     2
172
     0
173
     0
174
     0
175
     0
176
     0
177
     0
178
     0
  0
ENDTAB
  0
ENDSEC
  0
SECTION
  2
BLOCKS
  0
BLOCK
  8
0
  2
$MODEL_SPACE
 70
     0
 10
0.0
 20
0.0
 30
0.0
  3
$MODEL_SPACE
  1

  0
ENDBLK
  5
20
  8
0
  0
BLOCK
 67
     1
  8
0
  2
$PAPER_SPACE
 70
     0
 10
0.0
 20
0.0
 30
0.0
  3
$PAPER_SPACE
  1

  0
ENDBLK
  5
1C
 67
     1
  8
0
  0
ENDSEC
  0
SECTION
  2
ENTITIES
  0
LINE
  5
22
  8
0
 10
1.3
 20
1.3
 30
0.0
 11
2.0
 21
1.0
 31
0.0
  0
LINE
  5
23
  8
0
 10
1.0
 20
2.0000000000000102
 30
0.0
 11
1.0
 21
21.0
 31
0.0
  0
LINE
  5
24
  8
0
 10
1.0
 20
2.0
 30
0.0
 11
1.3
 21
1.3
 31
0.0
  0
LINE
  5
25
  8
0
 10
1.0
 20
2.0
 30
0.0
 11
1.0
 21
3.5
 31
0.0
  0
LINE
  5
26
  8
0
 10
1.0
 20
2.0
 30
0.0
 11
1.3
 21
1.3
 31
0.0
  0
LINE
  5
27
  8
0
 10
0.0
 20
5.5000000000000089
 30
0.0
 11
0.116279
 21
4.6825600000000094
 31
0.0
  0
LINE
  5
28
  8
0
 10
0.0
 20
5.5000000000000089
 30
0.0
 11
0.0
 21
17.5
 31
0.0
  0
LINE
  5
29
  8
0
 10
0.0
 20
5.5000000000000089
 30
0.0
 11
0.116279
 21
4.6825600000000094
 31
0.0
  0
LINE
  5
2A
  8
0
 10
0.0
 20
5.5000000000000089
 30
0.0
 11
0.0
 21
17.5
 31
0.0
  0
LINE
  5
2B
  8
0
 10
0.0
 20
5.5000000000000089
 30
0.0
 11
0.116279
 21
4.6825600000000094
 31
0.0
  0
LINE
  5
2C
  8
0
 10
0.0
 20
5.5000000000000089
 30
0.0
 11
0.0
 21
17.5
 31
0.0
  0
LINE
  5
2D
  8
0
 10
0.0
 20
5.5000000000000089
 30
0.0
 11
0.116279
 21
4.6825599999999987
 31
0.0
  0
LINE
  5
2E
  8
0
 10
0.0
 20
5.5000000000000089
 30
0.0
 11
0.0
 21
17.5
 31
0.0
  0
LINE
  5
2F
  8
0
 10
0.0
 20
5.5000000000000089
 30
0.0
 11
0.116279
 21
4.6825599999999987
 31
0.0
  0
LINE
  5
30
  8
0
 10
0.0
 20
5.5000000000000089
 30
0.0
 11
0.0
 21
17.5
 31
0.0
  0
LINE
  5
31
  8
0
 10
0.0
 20
17.5
 30
0.0
 11
0.116279
 21
18.317399999999989
 31
0.0
  0
LINE
  5
32
  8
0
 10
0.0
 20
17.5
 30
0.0
 11
0.0
 21
5.5000000000000089
 31
0.0
  0
LINE
  5
33
  8
0
 10
0.0
 20
17.5
 30
0.0
 11
0.0
 21
5.5000000000000089
 31
0.0
  0
LINE
  5
34
  8
0
 10
0.0
 20
17.5
 30
0.0
 11
0.0
 21
5.5000000000000089
 31
0.0
  0
LINE
  5
35
  8
0
 10
0.0
 20
17.5
 30
0.0
 11
0.0
 21
5.5
 31
0.0
  0
LINE
  5
36
  8
0
 10
0.523255
 20
3.946870000000009
 30
0.0
 11
1.0
 21
3.5000000000000089
 31
0.0
  0
LINE
  5
37
  8
0
 10
0.523255
 20
3.946870000000009
 30
0.0
 11
1.0
 21
3.5000000000000089
 31
0.0
  0
LINE
  5
38
  8
0
 10
0.523255
 20
3.946870000000009
 30
0.0
 11
1.0
 21
3.5000000000000089
 31
0.0
  0
LINE
  5
39
  8
0
 10
0.523255
 20
3.946870000000009
 30
0.0
 11
1.0
 21
3.5000000000000089
 31
0.0
  0
LINE
  5
3A
  8
0
 10
0.523255
 20
3.946870000000009
 30
0.0
 11
1.0
 21
3.5
 31
0.0
  0
LINE
  5
3B
  8
0
 10
0.116279
 20
4.6825599999999987
 30
0.0
 11
0.523255
 21
3.9468699999999992
 31
0.0
  0
LINE
  5
3C
  8
0
 10
1.0
 20
3.5000000000000089
 30
0.0
 11
1.0
 21
3.573980000000009
 31
0.0
  0
LINE
  5
3D
  8
0
 10
1.0
 20
3.573980000000009
 30
0.0
 11
1.0
 21
3.7658000000000089
 31
0.0
  0
LINE
  5
3E
  8
0
 10
1.0
 20
3.7658000000000089
 30
0.0
 11
1.0
 21
4.086240000000009
 31
0.0
  0
LINE
  5
3F
  8
0
 10
1.0
 20
4.086240000000009
 30
0.0
 11
1.0
 21
4.5081700000000087
 31
0.0
  0
LINE
  5
40
  8
0
 10
1.0
 20
4.5081700000000087
 30
0.0
 11
1.0
 21
4.9877400000000094
 31
0.0
  0
LINE
  5
41
  8
0
 10
0.523255
 20
3.9468699999999992
 30
0.0
 11
1.0
 21
3.5
 31
0.0
  0
LINE
  5
42
  8
0
 10
0.116279
 20
4.6825600000000094
 30
0.0
 11
0.523255
 21
3.946870000000009
 31
0.0
  0
LINE
  5
43
  8
0
 10
0.116279
 20
4.6825600000000094
 30
0.0
 11
0.523255
 21
3.946870000000009
 31
0.0
  0
LINE
  5
44
  8
0
 10
0.116279
 20
4.6825600000000094
 30
0.0
 11
0.523255
 21
3.946870000000009
 31
0.0
  0
LINE
  5
45
  8
0
 10
0.116279
 20
4.6825599999999987
 30
0.0
 11
0.523255
 21
3.946870000000009
 31
0.0
  0
LINE
  5
46
  8
0
 10
0.116279
 20
4.6825599999999987
 30
0.0
 11
0.523255
 21
3.946870000000009
 31
0.0
  0
LINE
  5
47
  8
0
 10
0.116279
 20
4.6825599999999987
 30
0.0
 11
0.523255
 21
3.946870000000009
 31
0.0
  0
LINE
  5
48
  8
0
 10
0.116279
 20
4.6825600000000094
 30
0.0
 11
0.523255
 21
3.946870000000009
 31
0.0
  0
LINE
  5
49
  8
0
 10
0.116279
 20
4.6825600000000094
 30
0.0
 11
0.523255
 21
3.946870000000009
 31
0.0
  0
LINE
  5
4A
  8
0
 10
0.116279
 20
4.6825600000000094
 30
0.0
 11
0.523255
 21
3.946870000000009
 31
0.0
  0
LINE
  5
4B
  8
0
 10
1.0
 20
5.5000000000000089
 30
0.0
 11
1.0
 21
17.5
 31
0.0
  0
LINE
  5
4C
  8
0
 10
1.0
 20
17.5
 30
0.0
 11
1.0
 21
18.0123
 31
0.0
  0
LINE
  5
4D
  8
0
 10
1.0
 20
4.9877400000000094
 30
0.0
 11
1.0
 21
5.5000000000000089
 31
0.0
  0
LINE
  5
4E
  8
0
 10
0.116279
 20
4.6825600000000094
 30
0.0
 11
0.523255
 21
3.946870000000009
 31
0.0
  0
LINE
  5
4F
  8
0
 10
0.116279
 20
4.6825599999999987
 30
0.0
 11
0.523255
 21
3.946870000000009
 31
0.0
  0
LINE
  5
50
  8
0
 10
0.116279
 20
4.6825599999999987
 30
0.0
 11
0.523255
 21
3.946870000000009
 31
0.0
  0
LINE
  5
51
  8
0
 10
0.116279
 20
18.317399999999989
 30
0.0
 11
0.523255
 21
19.053100000000001
 31
0.0
  0
LINE
  5
52
  8
0
 10
0.523255
 20
19.053100000000001
 30
0.0
 11
1.0
 21
19.5
 31
0.0
  0
LINE
  5
53
  8
0
 10
0.116279
 20
18.317399999999989
 30
0.0
 11
0.523255
 21
19.053100000000001
 31
0.0
  0
LINE
  5
54
  8
0
 10
1.0
 20
19.425999999999991
 30
0.0
 11
1.0
 21
19.5
 31
0.0
  0
LINE
  5
55
  8
0
 10
1.0
 20
19.234200000000001
 30
0.0
 11
1.0
 21
19.425999999999991
 31
0.0
  0
LINE
  5
56
  8
0
 10
1.0
 20
18.913799999999991
 30
0.0
 11
1.0
 21
19.234200000000001
 31
0.0
  0
LINE
  5
57
  8
0
 10
1.0
 20
18.491800000000001
 30
0.0
 11
1.0
 21
18.913799999999991
 31
0.0
  0
LINE
  5
58
  8
0
 10
1.0
 20
18.0123
 30
0.0
 11
1.0
 21
18.491800000000001
 31
0.0
  0
LINE
  5
59
  8
0
 10
0.523255
 20
19.053100000000001
 30
0.0
 11
1.0
 21
19.5
 31
0.0
  0
LINE
  5
5A
  8
0
 10
0.116279
 20
4.6825599999999987
 30
0.0
 11
0.523255
 21
3.9468699999999992
 31
0.0
  0
LINE
  5
5B
  8
0
 10
0.0
 20
5.5
 30
0.0
 11
0.116279
 21
4.6825599999999987
 31
0.0
  0
LINE
  5
5C
  8
0
 10
0.0
 20
5.5
 30
0.0
 11
0.0
 21
17.5
 31
0.0
  0
LINE
  5
5D
  8
0
 10
1.0
 20
21.0
 30
0.0
 11
1.3
 21
21.699999999999989
 31
0.0
  0
LINE
  5
5E
  8
0
 10
1.0
 20
21.0
 30
0.0
 11
1.0
 21
2.0000000000000102
 31
0.0
  0
LINE
  5
5F
  8
0
 10
1.0
 20
19.5
 30
0.0
 11
1.0
 21
21.0
 31
0.0
  0
LINE
  5
60
  8
0
 10
1.0
 20
3.5
 30
0.0
 11
1.0
 21
2.0
 31
0.0
  0
LINE
  5
63
  8
0
 10
1.3
 20
21.699999999999989
 30
0.0
 11
2.0
 21
22.0
 31
0.0
  0
LINE
  5
64
  8
0
 10
1.3
 20
21.0
 30
0.0
 11
1.5
 21
21.499999999999989
 31
0.0
  0
LINE
  5
65
  8
0
 10
1.3
 20
21.0
 30
0.0
 11
1.3
 21
2.0000000000000102
 31
0.0
  0
LINE
  5
66
  8
0
 10
1.3
 20
2.0000000000000102
 30
0.0
 11
1.5
 21
1.50000000000001
 31
0.0
  0
LINE
  5
67
  8
0
 10
1.3
 20
2.0000000000000102
 30
0.0
 11
1.3
 21
21.0
 31
0.0
  0
LINE
  5
68
  8
0
 10
1.0
 20
21.0
 30
0.0
 11
1.0
 21
19.5
 31
0.0
  0
LINE
  5
69
  8
0
 10
1.3
 20
1.3
 30
0.0
 11
2.0
 21
1.0
 31
0.0
  0
LINE
  5
6A
  8
0
 10
6.1825599999999987
 20
0.116279000000004
 30
0.0
 11
7.0
 21
0.0000000000000043
 31
0.0
  0
LINE
  5
6B
  8
0
 10
6.1825599999999987
 20
0.116279000000004
 30
0.0
 11
7.0
 21
0.0000000000000043
 31
0.0
  0
LINE
  5
6C
  8
0
 10
6.1825599999999987
 20
0.116279000000005
 30
0.0
 11
7.0
 21
0.000000000000005
 31
0.0
  0
LINE
  5
6D
  8
0
 10
6.1825599999999987
 20
0.116279000000005
 30
0.0
 11
7.0
 21
0.000000000000005
 31
0.0
  0
LINE
  5
6E
  8
0
 10
6.1825599999999987
 20
0.116279000000005
 30
0.0
 11
7.0
 21
0.0000000000000054
 31
0.0
  0
LINE
  5
6F
  8
0
 10
6.1825599999999987
 20
0.116279000000005
 30
0.0
 11
7.0
 21
0.0000000000000054
 31
0.0
  0
LINE
  5
70
  8
0
 10
6.1825599999999987
 20
0.116279000000007
 30
0.0
 11
7.0
 21
0.0000000000000065
 31
0.0
  0
LINE
  5
71
  8
0
 10
6.1825599999999987
 20
0.116279000000007
 30
0.0
 11
7.0
 21
0.0000000000000065
 31
0.0
  0
LINE
  5
72
  8
0
 10
6.1825599999999987
 20
0.116279000000007
 30
0.0
 11
7.0
 21
0.0000000000000069
 31
0.0
  0
LINE
  5
73
  8
0
 10
6.1825599999999987
 20
0.116279000000007
 30
0.0
 11
7.0
 21
0.0000000000000069
 31
0.0
  0
LINE
  5
74
  8
0
 10
6.1825599999999987
 20
0.116279000000006
 30
0.0
 11
7.0
 21
0.0000000000000061
 31
0.0
  0
LINE
  5
75
  8
0
 10
6.1825599999999987
 20
0.116279000000006
 30
0.0
 11
7.0
 21
0.0000000000000061
 31
0.0
  0
LINE
  5
76
  8
0
 10
6.1825599999999987
 20
0.116279000000006
 30
0.0
 11
7.0
 21
0.0000000000000058
 31
0.0
  0
LINE
  5
77
  8
0
 10
6.1825599999999987
 20
0.116279000000006
 30
0.0
 11
7.0
 21
0.0000000000000058
 31
0.0
  0
LINE
  5
78
  8
0
 10
6.1825599999999987
 20
0.116279000000005
 30
0.0
 11
7.0
 21
0.0000000000000046
 31
0.0
  0
LINE
  5
79
  8
0
 10
6.1825599999999987
 20
0.116279000000005
 30
0.0
 11
7.0
 21
0.0000000000000046
 31
0.0
  0
LINE
  5
7A
  8
0
 10
6.1825599999999987
 20
0.116279000000004
 30
0.0
 11
7.0
 21
0.0000000000000039
 31
0.0
  0
LINE
  5
7B
  8
0
 10
6.1825599999999987
 20
0.116279000000004
 30
0.0
 11
7.0
 21
0.0000000000000039
 31
0.0
  0
LINE
  5
7C
  8
0
 10
5.4468699999999988
 20
0.5232550000000039
 30
0.0
 11
6.1825599999999987
 21
0.116279000000004
 31
0.0
  0
LINE
  5
7D
  8
0
 10
5.4468699999999988
 20
0.5232550000000039
 30
0.0
 11
6.1825599999999987
 21
0.116279000000004
 31
0.0
  0
LINE
  5
7E
  8
0
 10
5.4468699999999988
 20
0.5232550000000051
 30
0.0
 11
6.1825599999999987
 21
0.116279000000005
 31
0.0
  0
LINE
  5
7F
  8
0
 10
5.4468699999999988
 20
0.5232550000000051
 30
0.0
 11
6.1825599999999987
 21
0.116279000000005
 31
0.0
  0
LINE
  5
80
  8
0
 10
5.4468699999999988
 20
0.5232550000000051
 30
0.0
 11
6.1825599999999987
 21
0.116279000000005
 31
0.0
  0
LINE
  5
81
  8
0
 10
5.4468699999999988
 20
0.5232550000000051
 30
0.0
 11
6.1825599999999987
 21
0.116279000000005
 31
0.0
  0
LINE
  5
82
  8
0
 10
5.4468699999999988
 20
0.523255000000007
 30
0.0
 11
6.1825599999999987
 21
0.116279000000007
 31
0.0
  0
LINE
  5
83
  8
0
 10
5.4468699999999988
 20
0.523255000000007
 30
0.0
 11
6.1825599999999987
 21
0.116279000000006
 31
0.0
  0
LINE
  5
84
  8
0
 10
5.4468699999999988
 20
0.523255000000007
 30
0.0
 11
6.1825599999999987
 21
0.116279000000007
 31
0.0
  0
LINE
  5
85
  8
0
 10
5.4468699999999988
 20
0.523255000000007
 30
0.0
 11
6.1825599999999987
 21
0.116279000000007
 31
0.0
  0
LINE
  5
86
  8
0
 10
5.4468699999999988
 20
0.5232550000000061
 30
0.0
 11
6.1825599999999987
 21
0.116279000000006
 31
0.0
  0
LINE
  5
87
  8
0
 10
5.4468699999999988
 20
0.5232550000000061
 30
0.0
 11
6.1825599999999987
 21
0.116279000000006
 31
0.0
  0
LINE
  5
88
  8
0
 10
5.4468699999999988
 20
0.5232550000000051
 30
0.0
 11
6.1825599999999987
 21
0.116279000000005
 31
0.0
  0
LINE
  5
89
  8
0
 10
5.4468699999999988
 20
0.5232550000000051
 30
0.0
 11
6.1825599999999987
 21
0.116279000000005
 31
0.0
  0
LINE
  5
8A
  8
0
 10
5.4468699999999988
 20
0.5232550000000039
 30
0.0
 11
6.1825599999999987
 21
0.116279000000004
 31
0.0
  0
LINE
  5
8B
  8
0
 10
5.4468699999999988
 20
0.5232550000000039
 30
0.0
 11
6.1825599999999987
 21
0.116279000000004
 31
0.0
  0
LINE
  5
8C
  8
0
 10
5.4468699999999988
 20
0.5232550000000039
 30
0.0
 11
6.1825599999999987
 21
0.116279000000004
 31
0.0
  0
LINE
  5
8D
  8
0
 10
7.0
 20
0.0000000000000035
 30
0.0
 11
113.0
 21
0.0000000000000035
 31
0.0
  0
LINE
  5
8E
  8
0
 10
6.9999999999999902
 20
0.0000000000000043
 30
0.0
 11
113.0
 21
0.0000000000000043
 31
0.0
  0
LINE
  5
8F
  8
0
 10
6.9999999999999902
 20
0.000000000000005
 30
0.0
 11
113.0
 21
0.000000000000005
 31
0.0
  0
LINE
  5
90
  8
0
 10
6.9999999999999902
 20
0.0000000000000054
 30
0.0
 11
113.0
 21
0.0000000000000054
 31
0.0
  0
LINE
  5
91
  8
0
 10
6.9999999999999902
 20
0.0000000000000065
 30
0.0
 11
113.0
 21
0.0000000000000065
 31
0.0
  0
LINE
  5
92
  8
0
 10
6.9999999999999902
 20
0.0000000000000069
 30
0.0
 11
113.0
 21
0.0000000000000069
 31
0.0
  0
LINE
  5
93
  8
0
 10
6.9999999999999902
 20
0.0000000000000061
 30
0.0
 11
113.0
 21
0.0000000000000061
 31
0.0
  0
LINE
  5
94
  8
0
 10
6.9999999999999902
 20
0.0000000000000058
 30
0.0
 11
113.0
 21
0.0000000000000058
 31
0.0
  0
LINE
  5
95
  8
0
 10
6.9999999999999902
 20
0.0000000000000046
 30
0.0
 11
113.0
 21
0.0000000000000046
 31
0.0
  0
LINE
  5
96
  8
0
 10
7.0
 20
0.000000000000005
 30
0.0
 11
113.0
 21
0.000000000000005
 31
0.0
  0
LINE
  5
97
  8
0
 10
7.0
 20
0.0000000000000054
 30
0.0
 11
113.0
 21
0.0000000000000054
 31
0.0
  0
LINE
  5
98
  8
0
 10
7.0
 20
0.0000000000000065
 30
0.0
 11
113.0
 21
0.0000000000000065
 31
0.0
  0
LINE
  5
99
  8
0
 10
7.0
 20
0.0000000000000069
 30
0.0
 11
113.0
 21
0.0000000000000069
 31
0.0
  0
LINE
  5
9A
  8
0
 10
7.0
 20
0.0000000000000061
 30
0.0
 11
113.0
 21
0.0000000000000061
 31
0.0
  0
LINE
  5
9B
  8
0
 10
7.0
 20
0.0000000000000058
 30
0.0
 11
113.0
 21
0.0000000000000058
 31
0.0
  0
LINE
  5
9C
  8
0
 10
7.0
 20
0.0000000000000043
 30
0.0
 11
113.0
 21
0.0000000000000043
 31
0.0
  0
LINE
  5
9D
  8
0
 10
113.0
 20
0.0000000000000069
 30
0.0
 11
113.81699999999999
 21
0.116279000000007
 31
0.0
  0
LINE
  5
9E
  8
0
 10
113.81699999999999
 20
0.116279000000007
 30
0.0
 11
114.5529999999999
 21
0.523255000000007
 31
0.0
  0
LINE
  5
9F
  8
0
 10
114.5529999999999
 20
0.523255000000007
 30
0.0
 11
115.0
 21
1.0000000000000091
 31
0.0
  0
LINE
  5
A0
  8
0
 10
113.81699999999999
 20
0.116279000000007
 30
0.0
 11
114.5529999999999
 21
0.523255000000007
 31
0.0
  0
LINE
  5
A1
  8
0
 10
113.0
 20
0.0000000000000069
 30
0.0
 11
113.81699999999999
 21
0.116279000000007
 31
0.0
  0
LINE
  5
A2
  8
0
 10
7.0
 20
0.0000000000000046
 30
0.0
 11
113.0
 21
0.0000000000000046
 31
0.0
  0
LINE
  5
A3
  8
0
 10
7.0
 20
0.0000000000000039
 30
0.0
 11
113.0
 21
0.0000000000000039
 31
0.0
  0
LINE
  5
A4
  8
0
 10
6.9999999999999902
 20
0.0000000000000039
 30
0.0
 11
113.0
 21
0.0000000000000039
 31
0.0
  0
LINE
  5
A5
  8
0
 10
6.9999999999999902
 20
0.0000000000000035
 30
0.0
 11
113.0
 21
0.0000000000000035
 31
0.0
  0
LINE
  5
A6
  8
0
 10
6.1825599999999987
 20
0.116279000000004
 30
0.0
 11
7.0
 21
0.0000000000000035
 31
0.0
  0
LINE
  5
A7
  8
0
 10
6.1825599999999987
 20
0.116279000000004
 30
0.0
 11
7.0
 21
0.0000000000000035
 31
0.0
  0
LINE
  5
A8
  8
0
 10
2.0
 20
1.0
 30
0.0
 11
5.0000000000000089
 21
1.0
 31
0.0
  0
LINE
  5
A9
  8
0
 10
120.0
 20
1.0
 30
0.0
 11
120.7
 21
1.3
 31
0.0
  0
LINE
  5
AA
  8
0
 10
115.0
 20
1.0
 30
0.0
 11
120.0
 21
1.0
 31
0.0
  0
LINE
  5
AB
  8
0
 10
2.0
 20
1.0
 30
0.0
 11
5.0
 21
1.0
 31
0.0
  0
LINE
  5
AC
  8
0
 10
2.0
 20
1.0
 30
0.0
 11
4.9999999999999796
 21
1.0
 31
0.0
  0
LINE
  5
AD
  8
0
 10
120.0
 20
1.0
 30
0.0
 11
120.7
 21
1.3
 31
0.0
  0
LINE
  5
AE
  8
0
 10
5.0
 20
1.0
 30
0.0
 11
5.4468699999999988
 21
0.5232550000000039
 31
0.0
  0
LINE
  5
AF
  8
0
 10
5.0
 20
1.0000000000000091
 30
0.0
 11
5.4468699999999988
 21
0.5232550000000051
 31
0.0
  0
LINE
  5
B0
  8
0
 10
5.0
 20
1.0000000000000091
 30
0.0
 11
5.4468699999999988
 21
0.5232550000000051
 31
0.0
  0
LINE
  5
B1
  8
0
 10
5.0
 20
1.0000000000000091
 30
0.0
 11
5.4468699999999988
 21
0.523255000000007
 31
0.0
  0
LINE
  5
B2
  8
0
 10
5.0
 20
1.0000000000000091
 30
0.0
 11
5.4468699999999988
 21
0.523255000000007
 31
0.0
  0
LINE
  5
B3
  8
0
 10
5.0
 20
1.0000000000000091
 30
0.0
 11
5.0739799999999997
 21
1.0000000000000091
 31
0.0
  0
LINE
  5
B4
  8
0
 10
5.0
 20
1.0000000000000091
 30
0.0
 11
5.4468699999999988
 21
0.5232550000000061
 31
0.0
  0
LINE
  5
B5
  8
0
 10
5.0
 20
1.0000000000000091
 30
0.0
 11
5.4468699999999988
 21
0.5232550000000061
 31
0.0
  0
LINE
  5
B6
  8
0
 10
5.0
 20
1.0
 30
0.0
 11
5.4468699999999988
 21
0.5232550000000051
 31
0.0
  0
LINE
  5
B7
  8
0
 10
5.0739799999999997
 20
1.0000000000000091
 30
0.0
 11
5.2657999999999987
 21
1.0000000000000091
 31
0.0
  0
LINE
  5
B8
  8
0
 10
5.2657999999999987
 20
1.0000000000000091
 30
0.0
 11
5.5862400000000001
 21
1.0000000000000091
 31
0.0
  0
LINE
  5
B9
  8
0
 10
5.5862400000000001
 20
1.0000000000000091
 30
0.0
 11
6.0081699999999989
 21
1.0000000000000091
 31
0.0
  0
LINE
  5
BA
  8
0
 10
6.0081699999999989
 20
1.0000000000000091
 30
0.0
 11
6.4877399999999996
 21
1.0000000000000091
 31
0.0
  0
LINE
  5
BB
  8
0
 10
7.0
 20
1.0000000000000091
 30
0.0
 11
113.0
 21
1.0000000000000091
 31
0.0
  0
LINE
  5
BC
  8
0
 10
114.9259999999999
 20
1.0000000000000091
 30
0.0
 11
115.0
 21
1.0000000000000091
 31
0.0
  0
LINE
  5
BD
  8
0
 10
114.73399999999999
 20
1.0000000000000091
 30
0.0
 11
114.9259999999999
 21
1.0000000000000091
 31
0.0
  0
LINE
  5
BE
  8
0
 10
114.4139999999999
 20
1.0000000000000091
 30
0.0
 11
114.73399999999999
 21
1.0000000000000091
 31
0.0
  0
LINE
  5
BF
  8
0
 10
113.992
 20
1.0000000000000091
 30
0.0
 11
114.4139999999999
 21
1.0000000000000091
 31
0.0
  0
LINE
  5
C0
  8
0
 10
113.512
 20
1.0000000000000091
 30
0.0
 11
113.992
 21
1.0000000000000091
 31
0.0
  0
LINE
  5
C1
  8
0
 10
113.0
 20
1.0000000000000091
 30
0.0
 11
113.512
 21
1.0000000000000091
 31
0.0
  0
LINE
  5
C2
  8
0
 10
6.4877399999999996
 20
1.0000000000000091
 30
0.0
 11
7.0
 21
1.0000000000000091
 31
0.0
  0
LINE
  5
C3
  8
0
 10
5.0
 20
1.0
 30
0.0
 11
5.4468699999999988
 21
0.5232550000000039
 31
0.0
  0
LINE
  5
C4
  8
0
 10
5.0
 20
1.0
 30
0.0
 11
5.4468699999999988
 21
0.5232550000000039
 31
0.0
  0
LINE
  5
C5
  8
0
 10
120.7
 20
1.3
 30
0.0
 11
121.0
 21
2.0
 31
0.0
  0
LINE
  5
C6
  8
0
 10
115.0
 20
1.0
 30
0.0
 11
120.0
 21
1.0
 31
0.0
  0
LINE
  5
C7
  8
0
 10
2.0
 20
1.30000000000001
 30
0.0
 11
120.0
 21
1.30000000000001
 31
0.0
  0
LINE
  5
C8
  8
0
 10
120.5
 20
1.50000000000001
 30
0.0
 11
120.7
 21
2.0000000000000102
 31
0.0
  0
LINE
  5
CA
  8
0
 10
120.0
 20
1.30000000000001
 30
0.0
 11
120.5
 21
1.50000000000001
 31
0.0
  0
LINE
  5
CB
  8
0
 10
2.0
 20
1.30000000000001
 30
0.0
 11
120.0
 21
1.30000000000001
 31
0.0
  0
LINE
  5
CC
  8
0
 10
120.7
 20
21.0
 30
0.0
 11
120.7
 21
2.0000000000000102
 31
0.0
  0
LINE
  5
CD
  8
0
 10
1.5
 20
21.499999999999989
 30
0.0
 11
2.0
 21
21.699999999999989
 31
0.0
  0
LINE
  5
CE
  8
0
 10
2.0
 20
21.699999999999989
 30
0.0
 11
120.0
 21
21.699999999999989
 31
0.0
  0
LINE
  5
D1
  8
0
 10
2.0
 20
22.0
 30
0.0
 11
120.0
 21
22.0
 31
0.0
  0
LINE
  5
150
  8
0
 10
2.0
 20
22.0
 30
0.0
 11
120.0
 21
22.0
 31
0.0
  0
LINE
  5
151
  8
0
 10
120.0
 20
22.0
 30
0.0
 11
120.7
 21
21.699999999999989
 31
0.0
  0
LINE
  5
152
  8
0
 10
2.0
 20
21.699999999999989
 30
0.0
 11
120.0
 21
21.699999999999989
 31
0.0
  0
LINE
  5
153
  8
0
 10
120.7
 20
21.699999999999989
 30
0.0
 11
121.0
 21
21.0
 31
0.0
  0
LINE
  5
154
  8
0
 10
120.0
 20
21.699999999999989
 30
0.0
 11
120.5
 21
21.499999999999989
 31
0.0
  0
LINE
  5
155
  8
0
 10
120.5
 20
21.499999999999989
 30
0.0
 11
120.7
 21
21.0
 31
0.0
  0
LINE
  5
157
  8
0
 10
120.7
 20
2.0000000000000102
 30
0.0
 11
120.7
 21
21.0
 31
0.0
  0
LINE
  5
158
  8
0
 10
1.5
 20
1.50000000000001
 30
0.0
 11
2.0
 21
1.30000000000001
 31
0.0
  0
LINE
  5
159
  8
0
 10
121.0
 20
19.5
 30
0.0
 11
121.477
 21
19.053100000000001
 31
0.0
  0
LINE
  5
15A
  8
0
 10
121.0
 20
3.5000000000000089
 30
0.0
 11
121.477
 21
3.946870000000009
 31
0.0
  0
LINE
  5
15B
  8
0
 10
121.0
 20
3.5000000000000089
 30
0.0
 11
121.477
 21
3.946870000000009
 31
0.0
  0
LINE
  5
15C
  8
0
 10
121.0
 20
3.5000000000000089
 30
0.0
 11
121.477
 21
3.946870000000009
 31
0.0
  0
LINE
  5
15D
  8
0
 10
121.0
 20
3.5
 30
0.0
 11
121.477
 21
3.946870000000009
 31
0.0
  0
LINE
  5
15E
  8
0
 10
121.0
 20
3.5000000000000089
 30
0.0
 11
121.477
 21
3.946870000000009
 31
0.0
  0
LINE
  5
15F
  8
0
 10
121.0
 20
3.5
 30
0.0
 11
121.477
 21
3.9468699999999992
 31
0.0
  0
LINE
  5
160
  8
0
 10
121.477
 20
3.946870000000009
 30
0.0
 11
121.8839999999999
 21
4.6825599999999987
 31
0.0
  0
LINE
  5
161
  8
0
 10
121.477
 20
3.946870000000009
 30
0.0
 11
121.8839999999999
 21
4.6825600000000094
 31
0.0
  0
LINE
  5
162
  8
0
 10
121.477
 20
19.053100000000001
 30
0.0
 11
121.8839999999999
 21
18.317399999999989
 31
0.0
  0
LINE
  5
163
  8
0
 10
121.477
 20
3.946870000000009
 30
0.0
 11
121.8839999999999
 21
4.6825600000000094
 31
0.0
  0
LINE
  5
164
  8
0
 10
121.477
 20
3.946870000000009
 30
0.0
 11
121.8839999999999
 21
4.6825600000000094
 31
0.0
  0
LINE
  5
165
  8
0
 10
121.477
 20
3.946870000000009
 30
0.0
 11
121.8839999999999
 21
4.6825599999999987
 31
0.0
  0
LINE
  5
166
  8
0
 10
122.0
 20
5.5000000000000089
 30
0.0
 11
122.0
 21
17.5
 31
0.0
  0
LINE
  5
167
  8
0
 10
121.8839999999999
 20
4.6825600000000094
 30
0.0
 11
122.0
 21
5.5000000000000089
 31
0.0
  0
LINE
  5
168
  8
0
 10
122.0
 20
17.5
 30
0.0
 11
122.0
 21
5.5000000000000089
 31
0.0
  0
LINE
  5
169
  8
0
 10
121.8839999999999
 20
18.317399999999989
 30
0.0
 11
122.0
 21
17.5
 31
0.0
  0
LINE
  5
16A
  8
0
 10
121.477
 20
3.9468699999999992
 30
0.0
 11
121.8839999999999
 21
4.6825599999999987
 31
0.0
  0
LINE
  5
16B
  8
0
 10
121.0
 20
21.0
 30
0.0
 11
121.0
 21
2.0000000000000102
 31
0.0
  0
LINE
  5
16C
  8
0
 10
121.0
 20
2.0000000000000102
 30
0.0
 11
121.0
 21
21.0
 31
0.0
  0
LINE
  5
16D
  8
0
 10
120.7
 20
1.3
 30
0.0
 11
121.0
 21
2.0
 31
0.0
  0
LINE
  5
16E
  8
0
 10
2.0
 20
1.0
 30
0.0
 11
5.0
 21
1.0
 31
0.0
  0
ENDSEC
  0
EOF
