  0
SECTION
  2
HEADER
  9
$ACADVER
  1
AC1009
  9
$INSBASE
 10
0.0
 20
0.0
 30
0.0
  9
$EXTMIN
 10
0.0000000000000035
 20
-0.0000000000000013
 30
0.0
  9
$EXTMAX
 10
102.0
 20
120.0
 30
0.0
  9
$LIMMIN
 10
0.0
 20
0.0
  9
$LIMMAX
 10
12.0
 20
9.0
  9
$ORTHOMODE
 70
     0
  9
$REGENMODE
 70
     1
  9
$FILLMODE
 70
     1
  9
$QTEXTMODE
 70
     0
  9
$MIRRTEXT
 70
     1
  9
$DRAGMODE
 70
     2
  9
$LTSCALE
 40
1.0
  9
$OSMODE
 70
    37
  9
$ATTMODE
 70
     1
  9
$TEXTSIZE
 40
0.2
  9
$TRACEWID
 40
0.05
  9
$TEXTSTYLE
  7
STANDARD
  9
$CLAYER
  8
0
  9
$CELTYPE
  6
CONTINUOUS
  9
$CECOLOR
 62
   256
  9
$DIMSCALE
 40
1.0
  9
$DIMASZ
 40
0.18
  9
$DIMEXO
 40
0.0625
  9
$DIMDLI
 40
0.38
  9
$DIMRND
 40
0.0
  9
$DIMDLE
 40
0.0
  9
$DIMEXE
 40
0.18
  9
$DIMTP
 40
0.0
  9
$DIMTM
 40
0.0
  9
$DIMTXT
 40
0.18
  9
$DIMCEN
 40
0.09
  9
$DIMTSZ
 40
0.0
  9
$DIMTOL
 70
     0
  9
$DIMLIM
 70
     0
  9
$DIMTIH
 70
     1
  9
$DIMTOH
 70
     1
  9
$DIMSE1
 70
     0
  9
$DIMSE2
 70
     0
  9
$DIMTAD
 70
     0
  9
$DIMZIN
 70
     0
  9
$DIMBLK
  1

  9
$DIMASO
 70
     1
  9
$DIMSHO
 70
     1
  9
$DIMPOST
  1

  9
$DIMAPOST
  1

  9
$DIMALT
 70
     0
  9
$DIMALTD
 70
     2
  9
$DIMALTF
 40
25.399999999999999
  9
$DIMLFAC
 40
1.0
  9
$DIMTOFL
 70
     0
  9
$DIMTVP
 40
0.0
  9
$DIMTIX
 70
     0
  9
$DIMSOXD
 70
     0
  9
$DIMSAH
 70
     0
  9
$DIMBLK1
  1

  9
$DIMBLK2
  1

  9
$DIMSTYLE
  2
STANDARD
  9
$DIMCLRD
 70
     0
  9
$DIMCLRE
 70
     0
  9
$DIMCLRT
 70
     0
  9
$DIMTFAC
 40
1.0
  9
$DIMGAP
 40
0.09
  9
$LUNITS
 70
     2
  9
$LUPREC
 70
     4
  9
$SKETCHINC
 40
0.1
  9
$FILLETRAD
 40
0.0
  9
$AUNITS
 70
     0
  9
$AUPREC
 70
     0
  9
$MENU
  1
.
  9
$ELEVATION
 40
0.0
  9
$PELEVATION
 40
0.0
  9
$THICKNESS
 40
0.0
  9
$LIMCHECK
 70
     0
  9
$BLIPMODE
 70
     0
  9
$CHAMFERA
 40
0.0
  9
$CHAMFERB
 40
0.0
  9
$SKPOLY
 70
     0
  9
$TDCREATE
 40
2454674.6154767009
  9
$TDUPDATE
 40
2454674.616789097
  9
$TDINDWG
 40
0.0013123958
  9
$TDUSRTIMER
 40
0.0013123958
  9
$USRTIMER
 70
     1
  9
$ANGBASE
 50
0.0
  9
$ANGDIR
 70
     0
  9
$PDMODE
 70
     0
  9
$PDSIZE
 40
0.0
  9
$PLINEWID
 40
0.0
  9
$COORDS
 70
     1
  9
$SPLFRAME
 70
     0
  9
$SPLINETYPE
 70
     6
  9
$SPLINESEGS
 70
     8
  9
$ATTDIA
 70
     0
  9
$ATTREQ
 70
     1
  9
$HANDLING
 70
 22529
  9
$HANDSEED
  5
367
  9
$SURFTAB1
 70
     6
  9
$SURFTAB2
 70
     6
  9
$SURFTYPE
 70
     6
  9
$SURFU
 70
     6
  9
$SURFV
 70
     6
  9
$UCSNAME
  2

  9
$UCSORG
 10
0.0
 20
0.0
 30
0.0
  9
$UCSXDIR
 10
1.0
 20
0.0
 30
0.0
  9
$UCSYDIR
 10
0.0
 20
1.0
 30
0.0
  9
$PUCSNAME
  2

  9
$PUCSORG
 10
0.0
 20
0.0
 30
0.0
  9
$PUCSXDIR
 10
1.0
 20
0.0
 30
0.0
  9
$PUCSYDIR
 10
0.0
 20
1.0
 30
0.0
  9
$USERI1
 70
     0
  9
$USERI2
 70
     0
  9
$USERI3
 70
     0
  9
$USERI4
 70
     0
  9
$USERI5
 70
     0
  9
$USERR1
 40
0.0
  9
$USERR2
 40
0.0
  9
$USERR3
 40
0.0
  9
$USERR4
 40
0.0
  9
$USERR5
 40
0.0
  9
$WORLDVIEW
 70
     1
  9
$SHADEDGE
 70
     3
  9
$SHADEDIF
 70
    70
  9
$TILEMODE
 70
     1
  9
$MAXACTVP
 70
    64
  9
$PLIMCHECK
 70
     0
  9
$PEXTMIN
 10
1.0000000000000000E+020
 20
1.0000000000000000E+020
 30
1.0000000000000000E+020
  9
$PEXTMAX
 10
-1.0000000000000000E+020
 20
-1.0000000000000000E+020
 30
-1.0000000000000000E+020
  9
$PLIMMIN
 10
0.0
 20
0.0
  9
$PLIMMAX
 10
12.0
 20
9.0
  9
$UNITMODE
 70
     0
  9
$VISRETAIN
 70
     1
  9
$PLINEGEN
 70
     0
  9
$PSLTSCALE
 70
     1
  0
ENDSEC
  0
SECTION
  2
TABLES
  0
TABLE
  2
VPORT
 70
     4
  0
VPORT
  2
*ACTIVE
 70
     0
 10
0.0
 20
0.0
 11
1.0
 21
1.0
 12
51.0
 22
60.0
 13
0.0
 23
0.0
 14
1.0
 24
1.0
 15
0.0
 25
0.0
 16
0.0
 26
0.0
 36
1.0
 17
0.0
 27
0.0
 37
0.0
 40
120.92071611253191
 41
2.0435339308578739
 42
50.0
 43
0.0
 44
0.0
 50
0.0
 51
0.0
 71
     0
 72
   100
 73
     1
 74
     3
 75
     0
 76
     0
 77
     0
 78
     0
  0
ENDTAB
  0
TABLE
  2
LTYPE
 70
     1
  0
LTYPE
  2
CONTINUOUS
 70
     0
  3
Solid line
 72
    65
 73
     0
 40
0.0
  0
ENDTAB
  0
TABLE
  2
LAYER
 70
     1
  0
LAYER
  2
0
 70
     0
 62
     7
  6
CONTINUOUS
  0
ENDTAB
  0
TABLE
  2
STYLE
 70
     1
  0
STYLE
  2
STANDARD
 70
     0
 40
0.0
 41
1.0
 50
0.0
 71
     0
 42
0.2
  3
txt
  4

  0
ENDTAB
  0
TABLE
  2
VIEW
 70
     0
  0
ENDTAB
  0
TABLE
  2
UCS
 70
     0
  0
ENDTAB
  0
TABLE
  2
APPID
 70
     1
  0
APPID
  2
ACAD
 70
     0
  0
ENDTAB
  0
TABLE
  2
DIMSTYLE
 70
     1
  0
DIMSTYLE
  2
STANDARD
 70
     0
  3

  4

  5

  6

  7

 40
1.0
 41
0.18
 42
0.0625
 43
0.38
 44
0.18
 45
0.0
 46
0.0
 47
0.0
 48
0.0
140
0.18
141
0.09
142
0.0
143
25.399999999999999
144
1.0
145
0.0
146
1.0
147
0.09
 71
     0
 72
     0
 73
     1
 74
     1
 75
     0
 76
     0
 77
     0
 78
     0
170
     0
171
     2
172
     0
173
     0
174
     0
175
     0
176
     0
177
     0
178
     0
  0
ENDTAB
  0
ENDSEC
  0
SECTION
  2
BLOCKS
  0
BLOCK
  8
0
  2
$MODEL_SPACE
 70
     0
 10
0.0
 20
0.0
 30
0.0
  3
$MODEL_SPACE
  1

  0
ENDBLK
  5
20
  8
0
  0
BLOCK
 67
     1
  8
0
  2
$PAPER_SPACE
 70
     0
 10
0.0
 20
0.0
 30
0.0
  3
$PAPER_SPACE
  1

  0
ENDBLK
  5
1C
 67
     1
  8
0
  0
ENDSEC
  0
SECTION
  2
ENTITIES
  0
LINE
  5
22
  8
0
 10
1.3
 20
0.3
 30
0.0
 11
1.5
 21
0.3
 31
0.0
  0
LINE
  5
23
  8
0
 10
1.3
 20
0.3
 30
0.0
 11
2.0
 21
-0.0000000000000001
 31
0.0
  0
LINE
  5
24
  8
0
 10
1.3
 20
0.3
 30
0.0
 11
2.0
 21
-0.0000000000000001
 31
0.0
  0
LINE
  5
25
  8
0
 10
1.3
 20
1.0
 30
0.0
 11
1.3
 21
49.0
 31
0.0
  0
LINE
  5
26
  8
0
 10
1.3
 20
1.0
 30
0.0
 11
1.5
 21
0.3
 31
0.0
  0
LINE
  5
27
  8
0
 10
1.3
 20
1.0
 30
0.0
 11
1.5
 21
0.3
 31
0.0
  0
LINE
  5
28
  8
0
 10
1.3
 20
1.0
 30
0.0
 11
1.3
 21
49.0
 31
0.0
  0
LINE
  5
29
  8
0
 10
1.0
 20
1.0
 30
0.0
 11
1.0
 21
49.0
 31
0.0
  0
LINE
  5
2A
  8
0
 10
1.0
 20
1.0
 30
0.0
 11
1.0
 21
49.0
 31
0.0
  0
LINE
  5
2B
  8
0
 10
1.0
 20
1.0
 30
0.0
 11
1.3
 21
0.3
 31
0.0
  0
LINE
  5
2C
  8
0
 10
1.0
 20
1.0
 30
0.0
 11
1.3
 21
0.3
 31
0.0
  0
LINE
  5
2D
  8
0
 10
1.3
 20
49.0
 30
0.0
 11
1.5
 21
49.700000000000003
 31
0.0
  0
LINE
  5
2E
  8
0
 10
0.523255000000003
 20
56.335099999999997
 30
0.0
 11
1.0
 21
56.0
 31
0.0
  0
LINE
  5
2F
  8
0
 10
0.116279000000004
 20
56.886899999999997
 30
0.0
 11
0.5232550000000039
 21
56.335099999999997
 31
0.0
  0
LINE
  5
30
  8
0
 10
0.116279000000004
 20
56.886899999999997
 30
0.0
 11
0.523255000000003
 21
56.335099999999997
 31
0.0
  0
LINE
  5
31
  8
0
 10
0.116279000000003
 20
56.886899999999997
 30
0.0
 11
0.523255000000003
 21
56.3352
 31
0.0
  0
LINE
  5
32
  8
0
 10
0.523255000000003
 20
56.3352
 30
0.0
 11
1.0
 21
56.0
 31
0.0
  0
LINE
  5
33
  8
0
 10
0.0000000000000035
 20
57.5
 30
0.0
 11
0.116279000000004
 21
56.886899999999997
 31
0.0
  0
LINE
  5
34
  8
0
 10
0.116279000000004
 20
62.88689999999999
 30
0.0
 11
0.5232550000000039
 21
62.33509999999999
 31
0.0
  0
LINE
  5
35
  8
0
 10
0.116279000000004
 20
62.88689999999999
 30
0.0
 11
0.5232550000000039
 21
62.3352
 31
0.0
  0
LINE
  5
36
  8
0
 10
0.116279000000004
 20
62.88689999999999
 30
0.0
 11
0.5232550000000039
 21
62.3352
 31
0.0
  0
LINE
  5
37
  8
0
 10
0.116279000000004
 20
62.88689999999999
 30
0.0
 11
0.5232550000000039
 21
62.33509999999999
 31
0.0
  0
LINE
  5
38
  8
0
 10
0.0000000000000039
 20
63.5
 30
0.0
 11
0.116279000000004
 21
62.88689999999999
 31
0.0
  0
LINE
  5
39
  8
0
 10
0.0000000000000039
 20
63.5
 30
0.0
 11
0.116279000000004
 21
64.113100000000003
 31
0.0
  0
LINE
  5
3A
  8
0
 10
0.0000000000000043
 20
69.5
 30
0.0
 11
0.116279000000004
 21
68.886899999999997
 31
0.0
  0
LINE
  5
3B
  8
0
 10
0.0000000000000043
 20
69.5
 30
0.0
 11
0.116279000000004
 21
70.113100000000003
 31
0.0
  0
LINE
  5
3C
  8
0
 10
0.0000000000000043
 20
69.5
 30
0.0
 11
0.116279000000004
 21
70.113100000000003
 31
0.0
  0
LINE
  5
3D
  8
0
 10
0.000000000000005
 20
81.5
 30
0.0
 11
0.116279000000005
 21
80.886899999999983
 31
0.0
  0
LINE
  5
3E
  8
0
 10
0.000000000000005
 20
81.5
 30
0.0
 11
0.116279000000005
 21
80.886899999999983
 31
0.0
  0
LINE
  5
3F
  8
0
 10
0.000000000000005
 20
81.5
 30
0.0
 11
0.116279000000005
 21
82.113100000000003
 31
0.0
  0
LINE
  5
40
  8
0
 10
0.0000000000000054
 20
87.5
 30
0.0
 11
0.116279000000005
 21
86.886899999999983
 31
0.0
  0
LINE
  5
41
  8
0
 10
0.0000000000000054
 20
87.5
 30
0.0
 11
0.116279000000005
 21
86.886899999999983
 31
0.0
  0
LINE
  5
42
  8
0
 10
0.0000000000000058
 20
93.499999999999986
 30
0.0
 11
0.116279000000006
 21
92.886899999999997
 31
0.0
  0
LINE
  5
43
  8
0
 10
0.0000000000000061
 20
99.500000000000014
 30
0.0
 11
0.116279000000006
 21
98.886899999999997
 31
0.0
  0
LINE
  5
44
  8
0
 10
0.0000000000000069
 20
111.4999999999999
 30
0.0
 11
0.116279000000007
 21
110.887
 31
0.0
  0
LINE
  5
45
  8
0
 10
0.0000000000000069
 20
111.4999999999999
 30
0.0
 11
0.116279000000007
 21
110.887
 31
0.0
  0
LINE
  5
46
  8
0
 10
0.0000000000000069
 20
111.4999999999999
 30
0.0
 11
0.116279000000007
 21
112.1129999999999
 31
0.0
  0
LINE
  5
47
  8
0
 10
0.0000000000000069
 20
111.4999999999999
 30
0.0
 11
0.116279000000007
 21
112.1129999999999
 31
0.0
  0
LINE
  5
48
  8
0
 10
0.0000000000000061
 20
99.500000000000014
 30
0.0
 11
0.116279000000006
 21
100.113
 31
0.0
  0
LINE
  5
49
  8
0
 10
0.0000000000000058
 20
93.499999999999986
 30
0.0
 11
0.116279000000006
 21
92.886899999999997
 31
0.0
  0
LINE
  5
4A
  8
0
 10
0.0000000000000058
 20
93.499999999999986
 30
0.0
 11
0.116279000000006
 21
94.113100000000003
 31
0.0
  0
LINE
  5
4B
  8
0
 10
0.0000000000000046
 20
75.5
 30
0.0
 11
0.116279000000005
 21
74.886899999999997
 31
0.0
  0
LINE
  5
4C
  8
0
 10
0.0000000000000046
 20
75.5
 30
0.0
 11
0.116279000000005
 21
76.113100000000003
 31
0.0
  0
LINE
  5
4D
  8
0
 10
0.0000000000000046
 20
75.5
 30
0.0
 11
0.116279000000005
 21
76.113100000000003
 31
0.0
  0
LINE
  5
4E
  8
0
 10
0.0000000000000046
 20
75.5
 30
0.0
 11
0.116279000000005
 21
74.886899999999997
 31
0.0
  0
LINE
  5
4F
  8
0
 10
0.116279000000004
 20
64.113100000000003
 30
0.0
 11
0.5232550000000039
 21
64.664900000000003
 31
0.0
  0
LINE
  5
50
  8
0
 10
0.116279000000004
 20
68.886899999999997
 30
0.0
 11
0.5232550000000039
 21
68.3352
 31
0.0
  0
LINE
  5
51
  8
0
 10
0.116279000000004
 20
68.886899999999997
 30
0.0
 11
0.5232550000000039
 21
68.335099999999997
 31
0.0
  0
LINE
  5
52
  8
0
 10
0.116279000000005
 20
68.886899999999997
 30
0.0
 11
0.5232550000000039
 21
68.335099999999997
 31
0.0
  0
LINE
  5
53
  8
0
 10
0.116279000000005
 20
74.886899999999997
 30
0.0
 11
0.5232550000000051
 21
74.3352
 31
0.0
  0
LINE
  5
54
  8
0
 10
0.116279000000005
 20
74.886899999999997
 30
0.0
 11
0.5232550000000051
 21
74.335099999999997
 31
0.0
  0
LINE
  5
55
  8
0
 10
0.116279000000005
 20
80.886899999999983
 30
0.0
 11
0.5232550000000051
 21
80.335099999999997
 31
0.0
  0
LINE
  5
56
  8
0
 10
0.116279000000005
 20
80.886899999999983
 30
0.0
 11
0.5232550000000051
 21
80.335200000000015
 31
0.0
  0
LINE
  5
57
  8
0
 10
0.116279000000005
 20
80.886899999999983
 30
0.0
 11
0.5232550000000051
 21
80.335099999999997
 31
0.0
  0
LINE
  5
58
  8
0
 10
0.116279000000005
 20
82.113100000000003
 30
0.0
 11
0.5232550000000051
 21
82.664900000000003
 31
0.0
  0
LINE
  5
59
  8
0
 10
0.116279000000005
 20
86.886899999999983
 30
0.0
 11
0.5232550000000051
 21
86.3352
 31
0.0
  0
LINE
  5
5A
  8
0
 10
0.116279000000005
 20
86.886899999999983
 30
0.0
 11
0.5232550000000051
 21
86.335099999999997
 31
0.0
  0
LINE
  5
5B
  8
0
 10
0.116279000000005
 20
88.113100000000003
 30
0.0
 11
0.5232550000000051
 21
88.664900000000003
 31
0.0
  0
LINE
  5
5C
  8
0
 10
0.116279000000005
 20
86.886899999999983
 30
0.0
 11
0.5232550000000051
 21
86.3352
 31
0.0
  0
LINE
  5
5D
  8
0
 10
0.116279000000005
 20
86.886899999999983
 30
0.0
 11
0.5232550000000051
 21
86.335099999999997
 31
0.0
  0
LINE
  5
5E
  8
0
 10
0.116279000000005
 20
88.113100000000003
 30
0.0
 11
0.5232550000000051
 21
88.664900000000003
 31
0.0
  0
LINE
  5
5F
  8
0
 10
0.116279000000006
 20
92.886899999999997
 30
0.0
 11
0.5232550000000061
 21
92.3352
 31
0.0
  0
LINE
  5
60
  8
0
 10
0.116279000000006
 20
92.886899999999997
 30
0.0
 11
0.5232550000000061
 21
92.335099999999997
 31
0.0
  0
LINE
  5
61
  8
0
 10
0.116279000000006
 20
94.113100000000003
 30
0.0
 11
0.5232550000000061
 21
94.664900000000003
 31
0.0
  0
LINE
  5
62
  8
0
 10
0.116279000000006
 20
92.886899999999997
 30
0.0
 11
0.5232550000000061
 21
92.3352
 31
0.0
  0
LINE
  5
63
  8
0
 10
0.116279000000006
 20
92.886899999999997
 30
0.0
 11
0.5232550000000061
 21
92.335099999999997
 31
0.0
  0
LINE
  5
64
  8
0
 10
0.116279000000006
 20
100.113
 30
0.0
 11
0.5232550000000061
 21
100.66500000000001
 31
0.0
  0
LINE
  5
65
  8
0
 10
0.116279000000006
 20
98.886899999999997
 30
0.0
 11
0.5232550000000061
 21
98.3352
 31
0.0
  0
LINE
  5
66
  8
0
 10
0.116279000000006
 20
98.886899999999997
 30
0.0
 11
0.5232550000000061
 21
98.335099999999997
 31
0.0
  0
LINE
  5
67
  8
0
 10
0.116279000000006
 20
98.886899999999997
 30
0.0
 11
0.5232550000000061
 21
98.3352
 31
0.0
  0
LINE
  5
68
  8
0
 10
0.116279000000006
 20
98.886899999999997
 30
0.0
 11
0.5232550000000061
 21
98.335099999999997
 31
0.0
  0
LINE
  5
69
  8
0
 10
0.116279000000006
 20
104.8869999999999
 30
0.0
 11
0.5232550000000061
 21
104.33499999999989
 31
0.0
  0
LINE
  5
6A
  8
0
 10
0.116279000000007
 20
106.1129999999999
 30
0.0
 11
0.523255000000007
 21
106.66500000000001
 31
0.0
  0
LINE
  5
6B
  8
0
 10
0.116279000000006
 20
104.8869999999999
 30
0.0
 11
0.5232550000000061
 21
104.33499999999989
 31
0.0
  0
LINE
  5
6C
  8
0
 10
0.116279000000007
 20
106.1129999999999
 30
0.0
 11
0.523255000000007
 21
106.66500000000001
 31
0.0
  0
LINE
  5
6D
  8
0
 10
0.116279000000007
 20
112.1129999999999
 30
0.0
 11
0.523255000000007
 21
112.66500000000001
 31
0.0
  0
LINE
  5
6E
  8
0
 10
0.116279000000007
 20
110.887
 30
0.0
 11
0.523255000000007
 21
110.33499999999999
 31
0.0
  0
LINE
  5
6F
  8
0
 10
0.116279000000007
 20
112.1129999999999
 30
0.0
 11
0.523255000000007
 21
112.66500000000001
 31
0.0
  0
LINE
  5
70
  8
0
 10
0.116279000000006
 20
94.113100000000003
 30
0.0
 11
0.5232550000000061
 21
94.664900000000003
 31
0.0
  0
LINE
  5
71
  8
0
 10
0.116279000000005
 20
76.113100000000003
 30
0.0
 11
0.5232550000000051
 21
76.664900000000003
 31
0.0
  0
LINE
  5
72
  8
0
 10
0.116279000000004
 20
64.113100000000003
 30
0.0
 11
0.5232550000000039
 21
64.664900000000003
 31
0.0
  0
LINE
  5
73
  8
0
 10
0.0000000000000039
 20
63.5
 30
0.0
 11
0.116279000000004
 21
62.88689999999999
 31
0.0
  0
LINE
  5
74
  8
0
 10
0.5232550000000039
 20
62.33509999999999
 30
0.0
 11
1.0
 21
62.0
 31
0.0
  0
LINE
  5
75
  8
0
 10
0.5232550000000039
 20
62.3352
 30
0.0
 11
1.0
 21
62.0
 31
0.0
  0
LINE
  5
76
  8
0
 10
0.5232550000000039
 20
68.335099999999997
 30
0.0
 11
1.0
 21
68.0
 31
0.0
  0
LINE
  5
77
  8
0
 10
0.5232550000000039
 20
68.3352
 30
0.0
 11
1.0
 21
68.0
 31
0.0
  0
LINE
  5
78
  8
0
 10
0.5232550000000039
 20
70.664900000000003
 30
0.0
 11
1.0
 21
71.0
 31
0.0
  0
LINE
  5
79
  8
0
 10
0.5232550000000051
 20
74.335099999999997
 30
0.0
 11
1.0
 21
74.0
 31
0.0
  0
LINE
  5
7A
  8
0
 10
0.5232550000000051
 20
74.3352
 30
0.0
 11
1.0
 21
74.0
 31
0.0
  0
LINE
  5
7B
  8
0
 10
0.5232550000000051
 20
80.335099999999997
 30
0.0
 11
1.0000000000000091
 21
80.0
 31
0.0
  0
LINE
  5
7C
  8
0
 10
0.5232550000000051
 20
80.335200000000015
 30
0.0
 11
1.0000000000000091
 21
80.0
 31
0.0
  0
LINE
  5
7D
  8
0
 10
0.5232550000000051
 20
82.664900000000003
 30
0.0
 11
1.0000000000000091
 21
83.0
 31
0.0
  0
LINE
  5
7E
  8
0
 10
0.5232550000000051
 20
86.335099999999997
 30
0.0
 11
1.0000000000000091
 21
86.0
 31
0.0
  0
LINE
  5
7F
  8
0
 10
0.5232550000000051
 20
86.3352
 30
0.0
 11
1.0000000000000091
 21
86.0
 31
0.0
  0
LINE
  5
80
  8
0
 10
0.5232550000000051
 20
88.664900000000003
 30
0.0
 11
1.0000000000000091
 21
89.0
 31
0.0
  0
LINE
  5
81
  8
0
 10
0.5232550000000061
 20
92.335099999999997
 30
0.0
 11
1.0000000000000091
 21
92.0
 31
0.0
  0
LINE
  5
82
  8
0
 10
0.5232550000000061
 20
92.3352
 30
0.0
 11
1.0000000000000091
 21
92.0
 31
0.0
  0
LINE
  5
83
  8
0
 10
0.5232550000000061
 20
98.335099999999997
 30
0.0
 11
1.0000000000000091
 21
98.0
 31
0.0
  0
LINE
  5
84
  8
0
 10
0.5232550000000061
 20
98.3352
 30
0.0
 11
1.0000000000000091
 21
98.0
 31
0.0
  0
LINE
  5
85
  8
0
 10
0.523255000000007
 20
106.66500000000001
 30
0.0
 11
1.0000000000000091
 21
107.0
 31
0.0
  0
LINE
  5
86
  8
0
 10
0.523255000000007
 20
112.66500000000001
 30
0.0
 11
1.0000000000000091
 21
113.0
 31
0.0
  0
LINE
  5
87
  8
0
 10
0.5232550000000061
 20
100.66500000000001
 30
0.0
 11
1.0000000000000091
 21
101.0
 31
0.0
  0
LINE
  5
88
  8
0
 10
0.5232550000000061
 20
94.664900000000003
 30
0.0
 11
1.0000000000000091
 21
95.0
 31
0.0
  0
LINE
  5
89
  8
0
 10
0.5232550000000051
 20
76.664900000000003
 30
0.0
 11
1.0
 21
77.0
 31
0.0
  0
LINE
  5
8A
  8
0
 10
0.5232550000000039
 20
64.664900000000003
 30
0.0
 11
1.0
 21
65.0
 31
0.0
  0
LINE
  5
8B
  8
0
 10
0.5232550000000039
 20
58.664900000000003
 30
0.0
 11
1.0
 21
59.0
 31
0.0
  0
LINE
  5
8C
  8
0
 10
0.0000000000000035
 20
57.5
 30
0.0
 11
0.116279000000004
 21
56.886899999999997
 31
0.0
  0
LINE
  5
8D
  8
0
 10
1.0
 20
56.19939999999999
 30
0.0
 11
1.0
 21
56.055500000000002
 31
0.0
  0
LINE
  5
8E
  8
0
 10
1.0
 20
56.19939999999999
 30
0.0
 11
1.0
 21
56.439700000000002
 31
0.0
  0
LINE
  5
8F
  8
0
 10
1.0
 20
57.5
 30
0.0
 11
1.0
 21
57.1158
 31
0.0
  0
LINE
  5
90
  8
0
 10
1.0
 20
57.1158
 30
0.0
 11
1.0
 21
56.756100000000004
 31
0.0
  0
LINE
  5
91
  8
0
 10
1.0
 20
56.756100000000004
 30
0.0
 11
1.0
 21
56.439700000000002
 31
0.0
  0
LINE
  5
92
  8
0
 10
1.0
 20
56.055500000000002
 30
0.0
 11
1.0
 21
56.0
 31
0.0
  0
LINE
  5
93
  8
0
 10
1.0
 20
57.8842
 30
0.0
 11
1.0
 21
57.5
 31
0.0
  0
LINE
  5
94
  8
0
 10
1.0
 20
58.243899999999996
 30
0.0
 11
1.0
 21
57.8842
 31
0.0
  0
LINE
  5
95
  8
0
 10
1.0
 20
58.560299999999998
 30
0.0
 11
1.0
 21
58.243899999999996
 31
0.0
  0
LINE
  5
96
  8
0
 10
1.0
 20
58.800699999999992
 30
0.0
 11
1.0
 21
58.560299999999998
 31
0.0
  0
LINE
  5
97
  8
0
 10
1.0
 20
63.5
 30
0.0
 11
1.0
 21
63.1158
 31
0.0
  0
LINE
  5
98
  8
0
 10
1.0
 20
63.1158
 30
0.0
 11
1.0
 21
62.756100000000004
 31
0.0
  0
LINE
  5
99
  8
0
 10
1.0
 20
62.756100000000004
 30
0.0
 11
1.0
 21
62.439700000000002
 31
0.0
  0
LINE
  5
9A
  8
0
 10
1.0
 20
62.439700000000002
 30
0.0
 11
1.0
 21
62.199399999999997
 31
0.0
  0
LINE
  5
9B
  8
0
 10
1.0
 20
62.055500000000002
 30
0.0
 11
1.0
 21
62.0
 31
0.0
  0
LINE
  5
9C
  8
0
 10
1.0
 20
62.055500000000002
 30
0.0
 11
1.0
 21
62.199399999999997
 31
0.0
  0
LINE
  5
9D
  8
0
 10
1.0
 20
63.884199999999993
 30
0.0
 11
1.0
 21
63.5
 31
0.0
  0
LINE
  5
9E
  8
0
 10
1.0
 20
64.243899999999996
 30
0.0
 11
1.0
 21
63.884199999999993
 31
0.0
  0
LINE
  5
9F
  8
0
 10
1.0
 20
64.560299999999998
 30
0.0
 11
1.0
 21
64.243899999999996
 31
0.0
  0
LINE
  5
A0
  8
0
 10
1.0
 20
64.800700000000006
 30
0.0
 11
1.0
 21
64.560299999999998
 31
0.0
  0
LINE
  5
A1
  8
0
 10
1.0
 20
64.944500000000005
 30
0.0
 11
1.0
 21
64.800700000000006
 31
0.0
  0
LINE
  5
A2
  8
0
 10
1.0
 20
69.5
 30
0.0
 11
1.0
 21
69.115799999999993
 31
0.0
  0
LINE
  5
A3
  8
0
 10
1.0
 20
69.115799999999993
 30
0.0
 11
1.0
 21
68.756100000000004
 31
0.0
  0
LINE
  5
A4
  8
0
 10
1.0
 20
68.756100000000004
 30
0.0
 11
1.0
 21
68.439700000000002
 31
0.0
  0
LINE
  5
A5
  8
0
 10
1.0
 20
68.439700000000002
 30
0.0
 11
1.0
 21
68.199399999999983
 31
0.0
  0
LINE
  5
A6
  8
0
 10
1.0
 20
68.199399999999983
 30
0.0
 11
1.0
 21
68.055499999999995
 31
0.0
  0
LINE
  5
A7
  8
0
 10
1.0
 20
68.055499999999995
 30
0.0
 11
1.0
 21
68.0
 31
0.0
  0
LINE
  5
A8
  8
0
 10
1.0
 20
69.884200000000007
 30
0.0
 11
1.0
 21
69.5
 31
0.0
  0
LINE
  5
A9
  8
0
 10
1.0
 20
70.243899999999996
 30
0.0
 11
1.0
 21
69.884200000000007
 31
0.0
  0
LINE
  5
AA
  8
0
 10
1.0
 20
70.560299999999984
 30
0.0
 11
1.0
 21
70.800700000000006
 31
0.0
  0
LINE
  5
AB
  8
0
 10
1.0
 20
70.560299999999984
 30
0.0
 11
1.0
 21
70.243899999999996
 31
0.0
  0
LINE
  5
AC
  8
0
 10
1.0
 20
70.944500000000005
 30
0.0
 11
1.0
 21
70.800700000000006
 31
0.0
  0
LINE
  5
AD
  8
0
 10
1.0
 20
71.0
 30
0.0
 11
1.0
 21
70.944500000000005
 31
0.0
  0
LINE
  5
AE
  8
0
 10
1.0
 20
75.5
 30
0.0
 11
1.0
 21
75.115799999999993
 31
0.0
  0
LINE
  5
AF
  8
0
 10
1.0
 20
75.115799999999993
 30
0.0
 11
1.0
 21
74.756100000000004
 31
0.0
  0
LINE
  5
B0
  8
0
 10
1.0
 20
74.756100000000004
 30
0.0
 11
1.0
 21
74.439700000000002
 31
0.0
  0
LINE
  5
B1
  8
0
 10
1.0
 20
74.439700000000002
 30
0.0
 11
1.0
 21
74.199399999999997
 31
0.0
  0
LINE
  5
B2
  8
0
 10
1.0
 20
74.199399999999997
 30
0.0
 11
1.0
 21
74.055499999999995
 31
0.0
  0
LINE
  5
B3
  8
0
 10
1.0
 20
74.055499999999995
 30
0.0
 11
1.0
 21
74.0
 31
0.0
  0
LINE
  5
B4
  8
0
 10
1.0
 20
75.884200000000007
 30
0.0
 11
1.0
 21
75.5
 31
0.0
  0
LINE
  5
B5
  8
0
 10
1.0
 20
76.243899999999996
 30
0.0
 11
1.0
 21
75.884200000000007
 31
0.0
  0
LINE
  5
B6
  8
0
 10
1.0
 20
76.560299999999998
 30
0.0
 11
1.0
 21
76.800700000000006
 31
0.0
  0
LINE
  5
B7
  8
0
 10
1.0
 20
76.560299999999998
 30
0.0
 11
1.0
 21
76.243899999999996
 31
0.0
  0
LINE
  5
B8
  8
0
 10
1.0
 20
76.944500000000005
 30
0.0
 11
1.0
 21
76.800700000000006
 31
0.0
  0
LINE
  5
B9
  8
0
 10
1.0000000000000091
 20
81.5
 30
0.0
 11
1.0000000000000091
 21
81.115799999999993
 31
0.0
  0
LINE
  5
BA
  8
0
 10
1.0000000000000091
 20
81.115799999999993
 30
0.0
 11
1.0000000000000091
 21
80.756100000000004
 31
0.0
  0
LINE
  5
BB
  8
0
 10
1.0000000000000091
 20
80.756100000000004
 30
0.0
 11
1.0000000000000091
 21
80.439699999999988
 31
0.0
  0
LINE
  5
BC
  8
0
 10
1.0000000000000091
 20
80.439699999999988
 30
0.0
 11
1.0000000000000091
 21
80.199399999999997
 31
0.0
  0
LINE
  5
BD
  8
0
 10
1.0000000000000091
 20
80.199399999999997
 30
0.0
 11
1.0000000000000091
 21
80.055499999999995
 31
0.0
  0
LINE
  5
BE
  8
0
 10
1.0000000000000091
 20
80.055499999999995
 30
0.0
 11
1.0000000000000091
 21
80.0
 31
0.0
  0
LINE
  5
BF
  8
0
 10
1.0000000000000091
 20
81.884200000000007
 30
0.0
 11
1.0000000000000091
 21
81.5
 31
0.0
  0
LINE
  5
C0
  8
0
 10
1.0000000000000091
 20
82.800700000000006
 30
0.0
 11
1.0000000000000091
 21
82.560299999999998
 31
0.0
  0
LINE
  5
C1
  8
0
 10
1.0000000000000091
 20
82.944500000000005
 30
0.0
 11
1.0000000000000091
 21
82.800700000000006
 31
0.0
  0
LINE
  5
C2
  8
0
 10
1.0000000000000091
 20
83.0
 30
0.0
 11
1.0000000000000091
 21
82.944500000000005
 31
0.0
  0
LINE
  5
C3
  8
0
 10
1.0000000000000091
 20
82.243899999999996
 30
0.0
 11
1.0000000000000091
 21
82.560299999999998
 31
0.0
  0
LINE
  5
C4
  8
0
 10
1.0000000000000091
 20
82.243899999999996
 30
0.0
 11
1.0000000000000091
 21
81.884200000000007
 31
0.0
  0
LINE
  5
C5
  8
0
 10
1.0000000000000091
 20
87.5
 30
0.0
 11
1.0000000000000091
 21
87.115799999999993
 31
0.0
  0
LINE
  5
C6
  8
0
 10
1.0000000000000091
 20
87.115799999999993
 30
0.0
 11
1.0000000000000091
 21
86.756100000000004
 31
0.0
  0
LINE
  5
C7
  8
0
 10
1.0000000000000091
 20
86.756100000000004
 30
0.0
 11
1.0000000000000091
 21
86.439700000000016
 31
0.0
  0
LINE
  5
C8
  8
0
 10
1.0000000000000091
 20
86.439700000000016
 30
0.0
 11
1.0000000000000091
 21
86.199399999999983
 31
0.0
  0
LINE
  5
C9
  8
0
 10
1.0000000000000091
 20
86.199399999999983
 30
0.0
 11
1.0000000000000091
 21
86.055499999999995
 31
0.0
  0
LINE
  5
CA
  8
0
 10
1.0000000000000091
 20
86.055499999999995
 30
0.0
 11
1.0000000000000091
 21
86.0
 31
0.0
  0
LINE
  5
CB
  8
0
 10
1.0000000000000091
 20
87.884200000000007
 30
0.0
 11
1.0000000000000091
 21
88.243899999999996
 31
0.0
  0
LINE
  5
CC
  8
0
 10
1.0000000000000091
 20
87.884200000000007
 30
0.0
 11
1.0000000000000091
 21
87.5
 31
0.0
  0
LINE
  5
CD
  8
0
 10
1.0000000000000091
 20
88.560299999999998
 30
0.0
 11
1.0000000000000091
 21
88.243899999999996
 31
0.0
  0
LINE
  5
CE
  8
0
 10
1.0000000000000091
 20
88.800700000000006
 30
0.0
 11
1.0000000000000091
 21
88.560299999999998
 31
0.0
  0
LINE
  5
CF
  8
0
 10
1.0000000000000091
 20
88.944500000000005
 30
0.0
 11
1.0000000000000091
 21
88.800700000000006
 31
0.0
  0
LINE
  5
D0
  8
0
 10
1.0000000000000091
 20
89.0
 30
0.0
 11
1.0000000000000091
 21
88.944500000000005
 31
0.0
  0
LINE
  5
D1
  8
0
 10
1.0000000000000091
 20
93.499999999999986
 30
0.0
 11
1.0000000000000091
 21
93.115799999999993
 31
0.0
  0
LINE
  5
D2
  8
0
 10
1.0000000000000091
 20
93.115799999999993
 30
0.0
 11
1.0000000000000091
 21
92.756100000000004
 31
0.0
  0
LINE
  5
D3
  8
0
 10
1.0000000000000091
 20
92.756100000000004
 30
0.0
 11
1.0000000000000091
 21
92.439700000000002
 31
0.0
  0
LINE
  5
D4
  8
0
 10
1.0000000000000091
 20
92.439700000000002
 30
0.0
 11
1.0000000000000091
 21
92.199399999999983
 31
0.0
  0
LINE
  5
D5
  8
0
 10
1.0000000000000091
 20
92.199399999999983
 30
0.0
 11
1.0000000000000091
 21
92.055499999999995
 31
0.0
  0
LINE
  5
D6
  8
0
 10
1.0000000000000091
 20
92.055499999999995
 30
0.0
 11
1.0000000000000091
 21
92.0
 31
0.0
  0
LINE
  5
D7
  8
0
 10
1.0000000000000091
 20
93.884200000000007
 30
0.0
 11
1.0000000000000091
 21
94.243899999999996
 31
0.0
  0
LINE
  5
D8
  8
0
 10
1.0000000000000091
 20
93.884200000000007
 30
0.0
 11
1.0000000000000091
 21
93.499999999999986
 31
0.0
  0
LINE
  5
D9
  8
0
 10
1.0000000000000091
 20
94.560299999999998
 30
0.0
 11
1.0000000000000091
 21
94.243899999999996
 31
0.0
  0
LINE
  5
DA
  8
0
 10
1.0000000000000091
 20
94.800700000000006
 30
0.0
 11
1.0000000000000091
 21
94.560299999999998
 31
0.0
  0
LINE
  5
DB
  8
0
 10
1.0000000000000091
 20
94.944500000000005
 30
0.0
 11
1.0000000000000091
 21
94.800700000000006
 31
0.0
  0
LINE
  5
DC
  8
0
 10
1.0000000000000091
 20
99.500000000000014
 30
0.0
 11
1.0000000000000091
 21
99.115799999999993
 31
0.0
  0
LINE
  5
DD
  8
0
 10
1.0000000000000091
 20
99.115799999999993
 30
0.0
 11
1.0000000000000091
 21
98.756100000000004
 31
0.0
  0
LINE
  5
DE
  8
0
 10
1.0000000000000091
 20
98.756100000000004
 30
0.0
 11
1.0000000000000091
 21
98.439700000000002
 31
0.0
  0
LINE
  5
DF
  8
0
 10
1.0000000000000091
 20
98.439700000000002
 30
0.0
 11
1.0000000000000091
 21
98.199399999999997
 31
0.0
  0
LINE
  5
E0
  8
0
 10
1.0000000000000091
 20
98.199399999999997
 30
0.0
 11
1.0000000000000091
 21
98.055499999999995
 31
0.0
  0
LINE
  5
E1
  8
0
 10
1.0000000000000091
 20
98.055499999999995
 30
0.0
 11
1.0000000000000091
 21
98.0
 31
0.0
  0
LINE
  5
E2
  8
0
 10
1.0000000000000091
 20
100.2439999999999
 30
0.0
 11
1.0000000000000091
 21
99.884200000000007
 31
0.0
  0
LINE
  5
E3
  8
0
 10
1.0000000000000091
 20
100.56
 30
0.0
 11
1.0000000000000091
 21
100.2439999999999
 31
0.0
  0
LINE
  5
E4
  8
0
 10
1.0000000000000091
 20
100.801
 30
0.0
 11
1.0000000000000091
 21
100.56
 31
0.0
  0
LINE
  5
E5
  8
0
 10
1.0000000000000091
 20
100.94499999999989
 30
0.0
 11
1.0000000000000091
 21
100.801
 31
0.0
  0
LINE
  5
E6
  8
0
 10
1.0000000000000091
 20
105.116
 30
0.0
 11
1.0000000000000091
 21
104.756
 31
0.0
  0
LINE
  5
E7
  8
0
 10
1.0000000000000091
 20
104.756
 30
0.0
 11
1.0000000000000091
 21
104.4399999999999
 31
0.0
  0
LINE
  5
E8
  8
0
 10
1.0000000000000091
 20
104.4399999999999
 30
0.0
 11
1.0000000000000091
 21
104.1989999999999
 31
0.0
  0
LINE
  5
E9
  8
0
 10
1.0000000000000091
 20
104.1989999999999
 30
0.0
 11
1.0000000000000091
 21
104.05500000000001
 31
0.0
  0
LINE
  5
EA
  8
0
 10
1.0000000000000091
 20
104.05500000000001
 30
0.0
 11
1.0000000000000091
 21
104.0
 31
0.0
  0
LINE
  5
EB
  8
0
 10
1.0000000000000091
 20
106.244
 30
0.0
 11
1.0000000000000091
 21
105.884
 31
0.0
  0
LINE
  5
EC
  8
0
 10
1.0000000000000091
 20
106.56
 30
0.0
 11
1.0000000000000091
 21
106.244
 31
0.0
  0
LINE
  5
ED
  8
0
 10
1.0000000000000091
 20
106.801
 30
0.0
 11
1.0000000000000091
 21
106.56
 31
0.0
  0
LINE
  5
EE
  8
0
 10
1.0000000000000091
 20
106.94499999999999
 30
0.0
 11
1.0000000000000091
 21
106.801
 31
0.0
  0
LINE
  5
EF
  8
0
 10
1.0000000000000091
 20
107.0
 30
0.0
 11
1.0000000000000091
 21
106.94499999999999
 31
0.0
  0
LINE
  5
F0
  8
0
 10
1.0000000000000091
 20
111.1159999999999
 30
0.0
 11
1.0000000000000091
 21
110.756
 31
0.0
  0
LINE
  5
F1
  8
0
 10
1.0000000000000091
 20
110.756
 30
0.0
 11
1.0000000000000091
 21
110.44
 31
0.0
  0
LINE
  5
F2
  8
0
 10
1.0000000000000091
 20
110.44
 30
0.0
 11
1.0000000000000091
 21
110.199
 31
0.0
  0
LINE
  5
F3
  8
0
 10
1.0000000000000091
 20
110.199
 30
0.0
 11
1.0000000000000091
 21
110.05500000000001
 31
0.0
  0
LINE
  5
F4
  8
0
 10
1.0000000000000091
 20
110.05500000000001
 30
0.0
 11
1.0000000000000091
 21
110.0
 31
0.0
  0
LINE
  5
F5
  8
0
 10
1.0000000000000091
 20
111.884
 30
0.0
 11
1.0000000000000091
 21
111.4999999999999
 31
0.0
  0
LINE
  5
F6
  8
0
 10
1.0000000000000091
 20
112.244
 30
0.0
 11
1.0000000000000091
 21
111.884
 31
0.0
  0
LINE
  5
F7
  8
0
 10
1.0000000000000091
 20
112.56
 30
0.0
 11
1.0000000000000091
 21
112.244
 31
0.0
  0
LINE
  5
F8
  8
0
 10
1.0000000000000091
 20
112.8009999999999
 30
0.0
 11
1.0000000000000091
 21
112.56
 31
0.0
  0
LINE
  5
F9
  8
0
 10
1.0000000000000091
 20
112.94499999999999
 30
0.0
 11
1.0000000000000091
 21
112.8009999999999
 31
0.0
  0
LINE
  5
FA
  8
0
 10
1.0000000000000091
 20
113.0
 30
0.0
 11
1.0000000000000091
 21
112.94499999999999
 31
0.0
  0
LINE
  5
FB
  8
0
 10
1.0000000000000091
 20
101.0
 30
0.0
 11
1.0000000000000091
 21
100.94499999999989
 31
0.0
  0
LINE
  5
FC
  8
0
 10
1.0000000000000091
 20
95.0
 30
0.0
 11
1.0000000000000091
 21
94.944500000000005
 31
0.0
  0
LINE
  5
FD
  8
0
 10
1.0
 20
77.0
 30
0.0
 11
1.0
 21
76.944500000000005
 31
0.0
  0
LINE
  5
FE
  8
0
 10
1.0
 20
65.0
 30
0.0
 11
1.0
 21
64.944500000000005
 31
0.0
  0
LINE
  5
FF
  8
0
 10
1.0
 20
59.0
 30
0.0
 11
1.0
 21
58.944499999999991
 31
0.0
  0
LINE
  5
100
  8
0
 10
1.0
 20
58.944499999999991
 30
0.0
 11
1.0
 21
58.800699999999992
 31
0.0
  0
LINE
  5
101
  8
0
 10
1.0
 20
51.0
 30
0.0
 11
1.0000000000000091
 21
119.0
 31
0.0
  0
LINE
  5
102
  8
0
 10
1.0
 20
51.0
 30
0.0
 11
1.0000000000000091
 21
119.0
 31
0.0
  0
LINE
  5
103
  8
0
 10
1.0
 20
51.0
 30
0.0
 11
1.3
 21
50.299999999999997
 31
0.0
  0
LINE
  5
104
  8
0
 10
1.3
 20
50.299999999999997
 30
0.0
 11
1.5
 21
50.299999999999997
 31
0.0
  0
LINE
  5
105
  8
0
 10
1.3
 20
50.299999999999997
 30
0.0
 11
2.0
 21
50.0
 31
0.0
  0
LINE
  5
106
  8
0
 10
1.0000000000000091
 20
119.0
 30
0.0
 11
1.30000000000001
 21
119.7
 31
0.0
  0
LINE
  5
107
  8
0
 10
1.0
 20
49.0
 30
0.0
 11
1.3
 21
49.700000000000003
 31
0.0
  0
LINE
  5
108
  8
0
 10
2.0
 20
-0.0000000000000001
 30
0.0
 11
21.0
 21
-0.0000000000000013
 31
0.0
  0
LINE
  5
109
  8
0
 10
2.0
 20
-0.0000000000000001
 30
0.0
 11
21.0
 21
-0.0000000000000013
 31
0.0
  0
LINE
  5
10A
  8
0
 10
2.0
 20
0.3
 30
0.0
 11
21.0
 21
0.2999999999999989
 31
0.0
  0
LINE
  5
10B
  8
0
 10
2.0
 20
0.3
 30
0.0
 11
21.0
 21
0.2999999999999989
 31
0.0
  0
LINE
  5
10C
  8
0
 10
1.5
 20
0.3
 30
0.0
 11
2.0
 21
0.3
 31
0.0
  0
LINE
  5
10D
  8
0
 10
21.0
 20
-0.0000000000000013
 30
0.0
 11
21.699999999999989
 21
0.2999999999999989
 31
0.0
  0
LINE
  5
10E
  8
0
 10
21.0
 20
-0.0000000000000013
 30
0.0
 11
21.699999999999989
 21
0.2999999999999989
 31
0.0
  0
LINE
  5
10F
  8
0
 10
21.499999999999989
 20
0.2999999999999989
 30
0.0
 11
21.699999999999989
 21
0.9999999999999989
 31
0.0
  0
LINE
  5
110
  8
0
 10
21.499999999999989
 20
0.2999999999999989
 30
0.0
 11
21.699999999999989
 21
0.2999999999999989
 31
0.0
  0
LINE
  5
111
  8
0
 10
21.0
 20
0.2999999999999989
 30
0.0
 11
21.499999999999989
 21
0.2999999999999989
 31
0.0
  0
LINE
  5
112
  8
0
 10
2.0
 20
49.700000000000003
 30
0.0
 11
21.0
 21
49.700000000000003
 31
0.0
  0
LINE
  5
113
  8
0
 10
21.699999999999989
 20
0.2999999999999989
 30
0.0
 11
22.0
 21
0.9999999999999989
 31
0.0
  0
LINE
  5
114
  8
0
 10
21.699999999999989
 20
0.2999999999999989
 30
0.0
 11
22.0
 21
0.9999999999999989
 31
0.0
  0
LINE
  5
115
  8
0
 10
21.699999999999989
 20
0.999999999999996
 30
0.0
 11
21.699999999999989
 21
49.0
 31
0.0
  0
LINE
  5
116
  8
0
 10
22.0
 20
0.999999999999996
 30
0.0
 11
22.0
 21
49.0
 31
0.0
  0
LINE
  5
120
  8
0
 10
22.0
 20
49.0
 30
0.0
 11
22.0
 21
51.0
 31
0.0
  0
LINE
  5
16F
  8
0
 10
22.0
 20
49.0
 30
0.0
 11
22.0
 21
51.0
 31
0.0
  0
LINE
  5
178
  8
0
 10
22.0
 20
0.9999999999999989
 30
0.0
 11
22.0
 21
49.0
 31
0.0
  0
LINE
  5
179
  8
0
 10
21.699999999999989
 20
0.9999999999999989
 30
0.0
 11
21.699999999999989
 21
49.0
 31
0.0
  0
LINE
  5
17A
  8
0
 10
21.699999999999989
 20
49.700000000000003
 30
0.0
 11
22.0
 21
49.0
 31
0.0
  0
LINE
  5
17B
  8
0
 10
21.499999999999989
 20
49.700000000000003
 30
0.0
 11
21.699999999999989
 21
49.700000000000003
 31
0.0
  0
LINE
  5
17C
  8
0
 10
21.499999999999989
 20
49.700000000000003
 30
0.0
 11
21.699999999999989
 21
49.0
 31
0.0
  0
LINE
  5
17D
  8
0
 10
21.0
 20
49.700000000000003
 30
0.0
 11
21.499999999999989
 21
49.700000000000003
 31
0.0
  0
LINE
  5
17E
  8
0
 10
2.0
 20
49.700000000000003
 30
0.0
 11
21.0
 21
49.700000000000003
 31
0.0
  0
LINE
  5
17F
  8
0
 10
1.3
 20
51.0
 30
0.0
 11
1.30000000000001
 21
119.0
 31
0.0
  0
LINE
  5
180
  8
0
 10
1.3
 20
51.0
 30
0.0
 11
1.30000000000001
 21
119.0
 31
0.0
  0
LINE
  5
181
  8
0
 10
1.3
 20
51.0
 30
0.0
 11
1.5
 21
50.299999999999997
 31
0.0
  0
LINE
  5
182
  8
0
 10
1.30000000000001
 20
119.0
 30
0.0
 11
1.50000000000001
 21
119.7
 31
0.0
  0
LINE
  5
183
  8
0
 10
2.0
 20
50.299999999999997
 30
0.0
 11
21.0
 21
50.299999999999997
 31
0.0
  0
LINE
  5
184
  8
0
 10
2.0
 20
50.299999999999997
 30
0.0
 11
21.0
 21
50.299999999999997
 31
0.0
  0
LINE
  5
185
  8
0
 10
1.5
 20
50.299999999999997
 30
0.0
 11
2.0
 21
50.299999999999997
 31
0.0
  0
LINE
  5
186
  8
0
 10
1.50000000000001
 20
119.7
 30
0.0
 11
2.0000000000000102
 21
119.7
 31
0.0
  0
LINE
  5
187
  8
0
 10
1.30000000000001
 20
119.7
 30
0.0
 11
2.0000000000000102
 21
120.0
 31
0.0
  0
LINE
  5
188
  8
0
 10
1.30000000000001
 20
119.7
 30
0.0
 11
1.50000000000001
 21
119.7
 31
0.0
  0
LINE
  5
189
  8
0
 10
2.0
 20
50.0
 30
0.0
 11
21.0
 21
50.0
 31
0.0
  0
LINE
  5
18A
  8
0
 10
2.0000000000000102
 20
120.0
 30
0.0
 11
21.0
 21
120.0
 31
0.0
  0
LINE
  5
18B
  8
0
 10
2.0000000000000102
 20
119.7
 30
0.0
 11
21.0
 21
119.7
 31
0.0
  0
LINE
  5
18C
  8
0
 10
2.0000000000000102
 20
120.0
 30
0.0
 11
21.0
 21
120.0
 31
0.0
  0
LINE
  5
18D
  8
0
 10
21.499999999999989
 20
50.299999999999997
 30
0.0
 11
21.699999999999989
 21
51.0
 31
0.0
  0
LINE
  5
18E
  8
0
 10
21.499999999999989
 20
50.299999999999997
 30
0.0
 11
21.699999999999989
 21
50.299999999999997
 31
0.0
  0
LINE
  5
18F
  8
0
 10
3.5739800000000002
 20
57.1158
 30
0.0
 11
3.7658
 21
56.756100000000004
 31
0.0
  0
LINE
  5
190
  8
0
 10
3.7658
 20
56.756100000000004
 30
0.0
 11
4.086240000000009
 21
56.439700000000002
 31
0.0
  0
LINE
  5
191
  8
0
 10
3.5
 20
57.5
 30
0.0
 11
3.5739800000000002
 21
57.8842
 31
0.0
  0
LINE
  5
192
  8
0
 10
3.5
 20
57.5
 30
0.0
 11
3.5739800000000002
 21
57.1158
 31
0.0
  0
LINE
  5
193
  8
0
 10
3.5739800000000002
 20
57.8842
 30
0.0
 11
3.7658
 21
58.243899999999996
 31
0.0
  0
LINE
  5
194
  8
0
 10
4.086240000000009
 20
56.439700000000002
 30
0.0
 11
4.5081699999999989
 21
56.19939999999999
 31
0.0
  0
LINE
  5
195
  8
0
 10
4.5081699999999989
 20
56.19939999999999
 30
0.0
 11
4.9877399999999996
 21
56.055500000000002
 31
0.0
  0
LINE
  5
196
  8
0
 10
3.7658
 20
58.243899999999996
 30
0.0
 11
4.086240000000009
 21
58.560299999999998
 31
0.0
  0
LINE
  5
197
  8
0
 10
4.086240000000009
 20
58.560299999999998
 30
0.0
 11
4.5081699999999989
 21
58.800699999999992
 31
0.0
  0
LINE
  5
199
  8
0
 10
5.5
 20
56.0
 30
0.0
 11
17.5
 21
56.0
 31
0.0
  0
LINE
  5
19B
  8
0
 10
4.9877399999999996
 20
56.055500000000002
 30
0.0
 11
5.5
 21
56.0
 31
0.0
  0
LINE
  5
19D
  8
0
 10
18.491800000000001
 20
56.19939999999999
 30
0.0
 11
18.913799999999991
 21
56.439700000000002
 31
0.0
  0
LINE
  5
19E
  8
0
 10
18.0123
 20
56.055500000000002
 30
0.0
 11
18.491800000000001
 21
56.19939999999999
 31
0.0
  0
LINE
  5
1A0
  8
0
 10
17.5
 20
56.0
 30
0.0
 11
18.0123
 21
56.055500000000002
 31
0.0
  0
LINE
  5
1A4
  8
0
 10
18.491800000000001
 20
58.800699999999992
 30
0.0
 11
18.913799999999991
 21
58.560299999999998
 31
0.0
  0
LINE
  5
1A5
  8
0
 10
18.0123
 20
58.944499999999991
 30
0.0
 11
18.491800000000001
 21
58.800699999999992
 31
0.0
  0
LINE
  5
1A7
  8
0
 10
4.5081699999999989
 20
58.800699999999992
 30
0.0
 11
4.9877399999999996
 21
58.944499999999991
 31
0.0
  0
LINE
  5
1A8
  8
0
 10
3.5739800000000002
 20
63.1158
 30
0.0
 11
3.7658
 21
62.756100000000004
 31
0.0
  0
LINE
  5
1A9
  8
0
 10
3.5
 20
63.5
 30
0.0
 11
3.5739800000000002
 21
63.884199999999993
 31
0.0
  0
LINE
  5
1AA
  8
0
 10
3.5
 20
63.5
 30
0.0
 11
3.5739800000000002
 21
63.1158
 31
0.0
  0
LINE
  5
1AB
  8
0
 10
3.7658
 20
62.756100000000004
 30
0.0
 11
4.086240000000009
 21
62.439700000000002
 31
0.0
  0
LINE
  5
1AC
  8
0
 10
4.086240000000009
 20
62.439700000000002
 30
0.0
 11
4.5081699999999989
 21
62.199399999999997
 31
0.0
  0
LINE
  5
1AD
  8
0
 10
3.5739800000000002
 20
63.884199999999993
 30
0.0
 11
3.7658
 21
64.243899999999996
 31
0.0
  0
LINE
  5
1AE
  8
0
 10
3.7658
 20
64.243899999999996
 30
0.0
 11
4.086240000000009
 21
64.560299999999998
 31
0.0
  0
LINE
  5
1AF
  8
0
 10
4.5081699999999989
 20
62.199399999999997
 30
0.0
 11
4.9877399999999996
 21
62.055500000000002
 31
0.0
  0
LINE
  5
1B0
  8
0
 10
4.9877399999999996
 20
62.055500000000002
 30
0.0
 11
5.5
 21
62.0
 31
0.0
  0
LINE
  5
1B1
  8
0
 10
4.086240000000009
 20
64.560299999999998
 30
0.0
 11
4.5081699999999989
 21
64.800700000000006
 31
0.0
  0
LINE
  5
1B2
  8
0
 10
3.5
 20
69.5
 30
0.0
 11
3.5739800000000002
 21
69.884200000000007
 31
0.0
  0
LINE
  5
1B3
  8
0
 10
3.5
 20
69.5
 30
0.0
 11
3.5739800000000002
 21
69.115799999999993
 31
0.0
  0
LINE
  5
1B4
  8
0
 10
3.5739800000000002
 20
69.115799999999993
 30
0.0
 11
3.7658
 21
68.756100000000004
 31
0.0
  0
LINE
  5
1B5
  8
0
 10
3.7658
 20
68.756100000000004
 30
0.0
 11
4.086240000000009
 21
68.439700000000002
 31
0.0
  0
LINE
  5
1B6
  8
0
 10
3.5739800000000002
 20
69.884200000000007
 30
0.0
 11
3.7658
 21
70.243899999999996
 31
0.0
  0
LINE
  5
1B7
  8
0
 10
3.7658
 20
70.243899999999996
 30
0.0
 11
4.086240000000009
 21
70.560299999999984
 31
0.0
  0
LINE
  5
1B8
  8
0
 10
3.5739800000000002
 20
75.115799999999993
 30
0.0
 11
3.7658
 21
74.756100000000004
 31
0.0
  0
LINE
  5
1B9
  8
0
 10
3.7658
 20
74.756100000000004
 30
0.0
 11
4.086240000000009
 21
74.439700000000002
 31
0.0
  0
LINE
  5
1BA
  8
0
 10
3.5000000000000089
 20
75.5
 30
0.0
 11
3.573980000000009
 21
75.884200000000007
 31
0.0
  0
LINE
  5
1BB
  8
0
 10
3.5000000000000089
 20
75.5
 30
0.0
 11
3.5739800000000002
 21
75.115799999999993
 31
0.0
  0
LINE
  5
1BC
  8
0
 10
3.573980000000009
 20
75.884200000000007
 30
0.0
 11
3.7658000000000089
 21
76.243899999999996
 31
0.0
  0
LINE
  5
1BD
  8
0
 10
4.086240000000009
 20
68.439700000000002
 30
0.0
 11
4.5081699999999989
 21
68.199399999999983
 31
0.0
  0
LINE
  5
1BE
  8
0
 10
4.5081699999999989
 20
68.199399999999983
 30
0.0
 11
4.9877399999999996
 21
68.055499999999995
 31
0.0
  0
LINE
  5
1BF
  8
0
 10
4.086240000000009
 20
70.560299999999984
 30
0.0
 11
4.5081699999999989
 21
70.800700000000006
 31
0.0
  0
LINE
  5
1C0
  8
0
 10
4.5081699999999989
 20
70.800700000000006
 30
0.0
 11
4.9877399999999996
 21
70.944500000000005
 31
0.0
  0
LINE
  5
1C1
  8
0
 10
4.086240000000009
 20
74.439700000000002
 30
0.0
 11
4.5081699999999989
 21
74.199399999999997
 31
0.0
  0
LINE
  5
1C2
  8
0
 10
4.5081699999999989
 20
74.199399999999997
 30
0.0
 11
4.9877399999999996
 21
74.055499999999995
 31
0.0
  0
LINE
  5
1C3
  8
0
 10
3.7658000000000089
 20
76.243899999999996
 30
0.0
 11
4.086240000000009
 21
76.560299999999998
 31
0.0
  0
LINE
  5
1C4
  8
0
 10
3.5000000000000089
 20
81.5
 30
0.0
 11
3.573980000000009
 21
81.884200000000007
 31
0.0
  0
LINE
  5
1C5
  8
0
 10
3.5000000000000089
 20
81.5
 30
0.0
 11
3.573980000000009
 21
81.115799999999993
 31
0.0
  0
LINE
  5
1C6
  8
0
 10
3.5000000000000089
 20
87.5
 30
0.0
 11
3.573980000000009
 21
87.884200000000007
 31
0.0
  0
LINE
  5
1C7
  8
0
 10
3.5000000000000089
 20
87.5
 30
0.0
 11
3.573980000000009
 21
87.115799999999993
 31
0.0
  0
LINE
  5
1C8
  8
0
 10
3.573980000000009
 20
81.115799999999993
 30
0.0
 11
3.7658000000000089
 21
80.756100000000004
 31
0.0
  0
LINE
  5
1C9
  8
0
 10
3.573980000000009
 20
81.884200000000007
 30
0.0
 11
3.7658000000000089
 21
82.243899999999996
 31
0.0
  0
LINE
  5
1CA
  8
0
 10
3.573980000000009
 20
87.115799999999993
 30
0.0
 11
3.7658000000000089
 21
86.756100000000004
 31
0.0
  0
LINE
  5
1CB
  8
0
 10
3.573980000000009
 20
87.884200000000007
 30
0.0
 11
3.7658000000000089
 21
88.243899999999996
 31
0.0
  0
LINE
  5
1CC
  8
0
 10
3.573980000000009
 20
93.115799999999993
 30
0.0
 11
3.7658000000000089
 21
92.756100000000004
 31
0.0
  0
LINE
  5
1CD
  8
0
 10
3.5000000000000089
 20
93.499999999999986
 30
0.0
 11
3.573980000000009
 21
93.884200000000007
 31
0.0
  0
LINE
  5
1CE
  8
0
 10
3.5000000000000089
 20
93.499999999999986
 30
0.0
 11
3.573980000000009
 21
93.115799999999993
 31
0.0
  0
LINE
  5
1CF
  8
0
 10
3.573980000000009
 20
93.884200000000007
 30
0.0
 11
3.7658000000000089
 21
94.243899999999996
 31
0.0
  0
LINE
  5
1D0
  8
0
 10
3.573980000000009
 20
99.115799999999993
 30
0.0
 11
3.7658000000000089
 21
98.756100000000004
 31
0.0
  0
LINE
  5
1D1
  8
0
 10
3.5000000000000089
 20
99.500000000000014
 30
0.0
 11
3.573980000000009
 21
99.884200000000007
 31
0.0
  0
LINE
  5
1D2
  8
0
 10
3.5000000000000089
 20
99.500000000000014
 30
0.0
 11
3.573980000000009
 21
99.115799999999993
 31
0.0
  0
LINE
  5
1D3
  8
0
 10
3.7658000000000089
 20
80.756100000000004
 30
0.0
 11
4.086240000000009
 21
80.439699999999988
 31
0.0
  0
LINE
  5
1D4
  8
0
 10
4.086240000000009
 20
80.439699999999988
 30
0.0
 11
4.5081700000000087
 21
80.199399999999997
 31
0.0
  0
LINE
  5
1D5
  8
0
 10
3.7658000000000089
 20
82.243899999999996
 30
0.0
 11
4.086240000000009
 21
82.560299999999998
 31
0.0
  0
LINE
  5
1D6
  8
0
 10
4.086240000000009
 20
82.560299999999998
 30
0.0
 11
4.5081700000000087
 21
82.800700000000006
 31
0.0
  0
LINE
  5
1D7
  8
0
 10
3.7658000000000089
 20
86.756100000000004
 30
0.0
 11
4.086240000000009
 21
86.439700000000016
 31
0.0
  0
LINE
  5
1D8
  8
0
 10
4.086240000000009
 20
86.439700000000016
 30
0.0
 11
4.5081700000000087
 21
86.199399999999983
 31
0.0
  0
LINE
  5
1D9
  8
0
 10
3.7658000000000089
 20
88.243899999999996
 30
0.0
 11
4.086240000000009
 21
88.560299999999998
 31
0.0
  0
LINE
  5
1DA
  8
0
 10
4.086240000000009
 20
88.560299999999998
 30
0.0
 11
4.5081700000000087
 21
88.800700000000006
 31
0.0
  0
LINE
  5
1DB
  8
0
 10
3.7658000000000089
 20
92.756100000000004
 30
0.0
 11
4.086240000000009
 21
92.439700000000002
 31
0.0
  0
LINE
  5
1DC
  8
0
 10
4.086240000000009
 20
92.439700000000002
 30
0.0
 11
4.5081700000000087
 21
92.199399999999983
 31
0.0
  0
LINE
  5
1DD
  8
0
 10
3.7658000000000089
 20
94.243899999999996
 30
0.0
 11
4.086240000000009
 21
94.560299999999998
 31
0.0
  0
LINE
  5
1DE
  8
0
 10
4.086240000000009
 20
94.560299999999998
 30
0.0
 11
4.5081700000000087
 21
94.800700000000006
 31
0.0
  0
LINE
  5
1DF
  8
0
 10
3.7658000000000089
 20
98.756100000000004
 30
0.0
 11
4.086240000000009
 21
98.439700000000002
 31
0.0
  0
LINE
  5
1E0
  8
0
 10
4.086240000000009
 20
98.439700000000002
 30
0.0
 11
4.5081700000000087
 21
98.199399999999997
 31
0.0
  0
LINE
  5
1E1
  8
0
 10
3.573980000000009
 20
99.884200000000007
 30
0.0
 11
3.7658000000000089
 21
100.2439999999999
 31
0.0
  0
LINE
  5
1E2
  8
0
 10
3.573980000000009
 20
105.116
 30
0.0
 11
3.7658000000000089
 21
104.756
 31
0.0
  0
LINE
  5
1E3
  8
0
 10
3.5000000000000089
 20
105.4999999999999
 30
0.0
 11
3.573980000000009
 21
105.884
 31
0.0
  0
LINE
  5
1E4
  8
0
 10
3.5000000000000089
 20
105.4999999999999
 30
0.0
 11
3.573980000000009
 21
105.116
 31
0.0
  0
LINE
  5
1E5
  8
0
 10
3.7658000000000089
 20
104.756
 30
0.0
 11
4.086240000000009
 21
104.4399999999999
 31
0.0
  0
LINE
  5
1E6
  8
0
 10
4.086240000000009
 20
104.4399999999999
 30
0.0
 11
4.5081700000000087
 21
104.1989999999999
 31
0.0
  0
LINE
  5
1E7
  8
0
 10
3.573980000000009
 20
105.884
 30
0.0
 11
3.7658000000000089
 21
106.244
 31
0.0
  0
LINE
  5
1E8
  8
0
 10
3.573980000000009
 20
111.1159999999999
 30
0.0
 11
3.7658000000000089
 21
110.756
 31
0.0
  0
LINE
  5
1E9
  8
0
 10
3.7658000000000089
 20
110.756
 30
0.0
 11
4.086240000000009
 21
110.44
 31
0.0
  0
LINE
  5
1EA
  8
0
 10
3.5000000000000089
 20
111.4999999999999
 30
0.0
 11
3.573980000000009
 21
111.884
 31
0.0
  0
LINE
  5
1EB
  8
0
 10
3.5000000000000089
 20
111.4999999999999
 30
0.0
 11
3.573980000000009
 21
111.1159999999999
 31
0.0
  0
LINE
  5
1EC
  8
0
 10
3.573980000000009
 20
111.884
 30
0.0
 11
3.7658000000000089
 21
112.244
 31
0.0
  0
LINE
  5
1ED
  8
0
 10
3.7658000000000089
 20
112.244
 30
0.0
 11
4.086240000000009
 21
112.56
 31
0.0
  0
LINE
  5
1EE
  8
0
 10
3.7658000000000089
 20
106.244
 30
0.0
 11
4.086240000000009
 21
106.56
 31
0.0
  0
LINE
  5
1EF
  8
0
 10
4.086240000000009
 20
106.56
 30
0.0
 11
4.5081700000000087
 21
106.801
 31
0.0
  0
LINE
  5
1F0
  8
0
 10
3.7658000000000089
 20
100.2439999999999
 30
0.0
 11
4.086240000000009
 21
100.56
 31
0.0
  0
LINE
  5
1F1
  8
0
 10
4.5081700000000087
 20
80.199399999999997
 30
0.0
 11
4.9877400000000094
 21
80.055499999999995
 31
0.0
  0
LINE
  5
1F2
  8
0
 10
4.5081700000000087
 20
82.800700000000006
 30
0.0
 11
4.9877400000000094
 21
82.944500000000005
 31
0.0
  0
LINE
  5
1F3
  8
0
 10
4.086240000000009
 20
110.44
 30
0.0
 11
4.5081700000000087
 21
110.199
 31
0.0
  0
LINE
  5
1F4
  8
0
 10
4.086240000000009
 20
112.56
 30
0.0
 11
4.5081700000000087
 21
112.8009999999999
 31
0.0
  0
LINE
  5
1F5
  8
0
 10
4.5081700000000087
 20
86.199399999999983
 30
0.0
 11
4.9877400000000094
 21
86.055499999999995
 31
0.0
  0
LINE
  5
1F6
  8
0
 10
4.086240000000009
 20
100.56
 30
0.0
 11
4.5081700000000087
 21
100.801
 31
0.0
  0
LINE
  5
1F7
  8
0
 10
4.086240000000009
 20
76.560299999999998
 30
0.0
 11
4.5081700000000087
 21
76.800700000000006
 31
0.0
  0
LINE
  5
1F8
  8
0
 10
4.9877399999999996
 20
68.055499999999995
 30
0.0
 11
5.5000000000000089
 21
68.0
 31
0.0
  0
LINE
  5
1F9
  8
0
 10
4.9877399999999996
 20
70.944500000000005
 30
0.0
 11
5.5000000000000089
 21
71.0
 31
0.0
  0
LINE
  5
1FA
  8
0
 10
4.5081700000000087
 20
88.800700000000006
 30
0.0
 11
4.9877400000000094
 21
88.944500000000005
 31
0.0
  0
LINE
  5
1FB
  8
0
 10
4.5081700000000087
 20
92.199399999999983
 30
0.0
 11
4.9877400000000094
 21
92.055499999999995
 31
0.0
  0
LINE
  5
1FC
  8
0
 10
4.5081700000000087
 20
94.800700000000006
 30
0.0
 11
4.9877400000000094
 21
94.944500000000005
 31
0.0
  0
LINE
  5
1FD
  8
0
 10
4.5081700000000087
 20
104.1989999999999
 30
0.0
 11
4.9877400000000094
 21
104.05500000000001
 31
0.0
  0
LINE
  5
1FE
  8
0
 10
4.5081700000000087
 20
106.801
 30
0.0
 11
4.9877400000000094
 21
106.94499999999999
 31
0.0
  0
LINE
  5
1FF
  8
0
 10
4.5081700000000087
 20
98.199399999999997
 30
0.0
 11
4.9877400000000094
 21
98.055499999999995
 31
0.0
  0
LINE
  5
200
  8
0
 10
4.5081700000000087
 20
110.199
 30
0.0
 11
4.9877400000000094
 21
110.05500000000001
 31
0.0
  0
LINE
  5
201
  8
0
 10
4.5081700000000087
 20
112.8009999999999
 30
0.0
 11
4.9877400000000094
 21
112.94499999999999
 31
0.0
  0
LINE
  5
202
  8
0
 10
4.5081700000000087
 20
100.801
 30
0.0
 11
4.9877400000000094
 21
100.94499999999989
 31
0.0
  0
LINE
  5
203
  8
0
 10
4.9877399999999996
 20
74.055499999999995
 30
0.0
 11
5.5000000000000089
 21
74.0
 31
0.0
  0
LINE
  5
204
  8
0
 10
4.5081700000000087
 20
76.800700000000006
 30
0.0
 11
4.9877400000000094
 21
76.944500000000005
 31
0.0
  0
LINE
  5
205
  8
0
 10
4.5081699999999989
 20
64.800700000000006
 30
0.0
 11
4.9877399999999996
 21
64.944500000000005
 31
0.0
  0
LINE
  5
208
  8
0
 10
5.5
 20
62.0
 30
0.0
 11
17.5
 21
62.0
 31
0.0
  0
LINE
  5
20B
  8
0
 10
17.5
 20
62.0
 30
0.0
 11
18.0123
 21
62.055500000000002
 31
0.0
  0
LINE
  5
20F
  8
0
 10
4.9877400000000094
 20
80.055499999999995
 30
0.0
 11
5.5000000000000089
 21
80.0
 31
0.0
  0
LINE
  5
210
  8
0
 10
4.9877400000000094
 20
82.944500000000005
 30
0.0
 11
5.5000000000000089
 21
83.0
 31
0.0
  0
LINE
  5
211
  8
0
 10
4.9877400000000094
 20
86.055499999999995
 30
0.0
 11
5.5000000000000089
 21
86.0
 31
0.0
  0
LINE
  5
214
  8
0
 10
5.5000000000000089
 20
71.0
 30
0.0
 11
17.5
 21
71.0
 31
0.0
  0
LINE
  5
219
  8
0
 10
5.5000000000000089
 20
68.0
 30
0.0
 11
17.5
 21
68.0
 31
0.0
  0
LINE
  5
21D
  8
0
 10
17.5
 20
68.0
 30
0.0
 11
18.0123
 21
68.055499999999995
 31
0.0
  0
LINE
  5
21F
  8
0
 10
5.5000000000000089
 20
74.0
 30
0.0
 11
17.5
 21
74.0
 31
0.0
  0
LINE
  5
221
  8
0
 10
4.9877400000000094
 20
88.944500000000005
 30
0.0
 11
5.5000000000000089
 21
89.0
 31
0.0
  0
LINE
  5
222
  8
0
 10
4.9877400000000094
 20
92.055499999999995
 30
0.0
 11
5.5000000000000089
 21
92.0
 31
0.0
  0
LINE
  5
223
  8
0
 10
4.9877400000000094
 20
94.944500000000005
 30
0.0
 11
5.5000000000000089
 21
95.0
 31
0.0
  0
LINE
  5
226
  8
0
 10
5.5000000000000089
 20
80.0
 30
0.0
 11
17.5
 21
80.0
 31
0.0
  0
LINE
  5
227
  8
0
 10
5.5000000000000089
 20
83.0
 30
0.0
 11
17.5
 21
83.0
 31
0.0
  0
LINE
  5
22C
  8
0
 10
5.5000000000000089
 20
86.0
 30
0.0
 11
17.5
 21
86.0
 31
0.0
  0
LINE
  5
22F
  8
0
 10
5.5000000000000089
 20
92.0
 30
0.0
 11
17.5
 21
92.0
 31
0.0
  0
LINE
  5
230
  8
0
 10
5.5000000000000089
 20
98.0
 30
0.0
 11
17.5
 21
98.0
 31
0.0
  0
LINE
  5
231
  8
0
 10
4.9877400000000094
 20
98.055499999999995
 30
0.0
 11
5.5000000000000089
 21
98.0
 31
0.0
  0
LINE
  5
232
  8
0
 10
4.9877400000000094
 20
104.05500000000001
 30
0.0
 11
5.5000000000000089
 21
104.0
 31
0.0
  0
LINE
  5
233
  8
0
 10
4.9877400000000094
 20
110.05500000000001
 30
0.0
 11
5.5000000000000089
 21
110.0
 31
0.0
  0
LINE
  5
234
  8
0
 10
4.9877400000000094
 20
112.94499999999999
 30
0.0
 11
5.5000000000000089
 21
113.0
 31
0.0
  0
LINE
  5
235
  8
0
 10
4.9877400000000094
 20
106.94499999999999
 30
0.0
 11
5.5000000000000089
 21
107.0
 31
0.0
  0
LINE
  5
236
  8
0
 10
4.9877400000000094
 20
100.94499999999989
 30
0.0
 11
5.5000000000000089
 21
101.0
 31
0.0
  0
LINE
  5
237
  8
0
 10
5.5000000000000089
 20
89.0
 30
0.0
 11
17.5
 21
89.0
 31
0.0
  0
LINE
  5
23B
  8
0
 10
5.5000000000000089
 20
95.0
 30
0.0
 11
17.5
 21
95.0
 31
0.0
  0
LINE
  5
240
  8
0
 10
5.5000000000000089
 20
104.0
 30
0.0
 11
17.5
 21
104.0
 31
0.0
  0
LINE
  5
241
  8
0
 10
5.5000000000000089
 20
107.0
 30
0.0
 11
17.5
 21
107.0
 31
0.0
  0
LINE
  5
242
  8
0
 10
5.5000000000000089
 20
110.0
 30
0.0
 11
17.5
 21
110.0
 31
0.0
  0
LINE
  5
243
  8
0
 10
5.5000000000000089
 20
113.0
 30
0.0
 11
17.5
 21
113.0
 31
0.0
  0
LINE
  5
244
  8
0
 10
5.5000000000000089
 20
101.0
 30
0.0
 11
17.5
 21
101.0
 31
0.0
  0
LINE
  5
246
  8
0
 10
5.5000000000000089
 20
77.0
 30
0.0
 11
17.5
 21
77.0
 31
0.0
  0
LINE
  5
248
  8
0
 10
4.9877400000000094
 20
76.944500000000005
 30
0.0
 11
5.5000000000000089
 21
77.0
 31
0.0
  0
LINE
  5
249
  8
0
 10
5.5000000000000089
 20
65.0
 30
0.0
 11
17.5
 21
65.0
 31
0.0
  0
LINE
  5
24A
  8
0
 10
17.5
 20
65.0
 30
0.0
 11
18.0123
 21
64.944500000000005
 31
0.0
  0
LINE
  5
24C
  8
0
 10
4.9877399999999996
 20
64.944500000000005
 30
0.0
 11
5.5000000000000089
 21
65.0
 31
0.0
  0
LINE
  5
24D
  8
0
 10
5.5
 20
59.0
 30
0.0
 11
17.5
 21
59.0
 31
0.0
  0
LINE
  5
24E
  8
0
 10
18.491800000000001
 20
62.199399999999997
 30
0.0
 11
18.913799999999991
 21
62.439700000000002
 31
0.0
  0
LINE
  5
24F
  8
0
 10
18.0123
 20
62.055500000000002
 30
0.0
 11
18.491800000000001
 21
62.199399999999997
 31
0.0
  0
LINE
  5
250
  8
0
 10
18.491800000000001
 20
64.800700000000006
 30
0.0
 11
18.913799999999991
 21
64.560299999999998
 31
0.0
  0
LINE
  5
251
  8
0
 10
17.5
 20
71.0
 30
0.0
 11
18.0123
 21
70.944500000000005
 31
0.0
  0
LINE
  5
254
  8
0
 10
17.5
 20
74.0
 30
0.0
 11
18.0123
 21
74.055499999999995
 31
0.0
  0
LINE
  5
257
  8
0
 10
17.5
 20
80.0
 30
0.0
 11
18.0123
 21
80.055499999999995
 31
0.0
  0
LINE
  5
25A
  8
0
 10
17.5
 20
83.0
 30
0.0
 11
18.0123
 21
82.944500000000005
 31
0.0
  0
LINE
  5
25D
  8
0
 10
17.5
 20
86.0
 30
0.0
 11
18.0123
 21
86.055499999999995
 31
0.0
  0
LINE
  5
260
  8
0
 10
17.5
 20
89.0
 30
0.0
 11
18.0123
 21
88.944500000000005
 31
0.0
  0
LINE
  5
263
  8
0
 10
17.5
 20
92.0
 30
0.0
 11
18.0123
 21
92.055499999999995
 31
0.0
  0
LINE
  5
266
  8
0
 10
17.5
 20
95.0
 30
0.0
 11
18.0123
 21
94.944500000000005
 31
0.0
  0
LINE
  5
26A
  8
0
 10
17.5
 20
98.0
 30
0.0
 11
18.0123
 21
98.055499999999995
 31
0.0
  0
LINE
  5
26C
  8
0
 10
17.5
 20
110.0
 30
0.0
 11
18.0123
 21
110.05500000000001
 31
0.0
  0
LINE
  5
26D
  8
0
 10
17.5
 20
113.0
 30
0.0
 11
18.0123
 21
112.94499999999999
 31
0.0
  0
LINE
  5
26E
  8
0
 10
17.5
 20
104.0
 30
0.0
 11
18.0123
 21
104.05500000000001
 31
0.0
  0
LINE
  5
26F
  8
0
 10
17.5
 20
107.0
 30
0.0
 11
18.0123
 21
106.94499999999999
 31
0.0
  0
LINE
  5
270
  8
0
 10
17.5
 20
101.0
 30
0.0
 11
18.0123
 21
100.94499999999989
 31
0.0
  0
LINE
  5
273
  8
0
 10
18.0123
 20
68.055499999999995
 30
0.0
 11
18.491800000000001
 21
68.199399999999983
 31
0.0
  0
LINE
  5
274
  8
0
 10
18.491800000000001
 20
68.199399999999983
 30
0.0
 11
18.913799999999991
 21
68.439700000000002
 31
0.0
  0
LINE
  5
275
  8
0
 10
18.491800000000001
 20
70.800700000000006
 30
0.0
 11
18.913799999999991
 21
70.560299999999984
 31
0.0
  0
LINE
  5
276
  8
0
 10
18.0123
 20
70.944500000000005
 30
0.0
 11
18.491800000000001
 21
70.800700000000006
 31
0.0
  0
LINE
  5
277
  8
0
 10
18.491800000000001
 20
74.199399999999997
 30
0.0
 11
18.913799999999991
 21
74.439700000000002
 31
0.0
  0
LINE
  5
278
  8
0
 10
18.0123
 20
74.055499999999995
 30
0.0
 11
18.491800000000001
 21
74.199399999999997
 31
0.0
  0
LINE
  5
279
  8
0
 10
18.491800000000001
 20
76.800700000000006
 30
0.0
 11
18.913799999999991
 21
76.560299999999998
 31
0.0
  0
LINE
  5
27A
  8
0
 10
18.0123
 20
80.055499999999995
 30
0.0
 11
18.491800000000001
 21
80.199399999999997
 31
0.0
  0
LINE
  5
27B
  8
0
 10
18.0123
 20
82.944500000000005
 30
0.0
 11
18.491800000000001
 21
82.800700000000006
 31
0.0
  0
LINE
  5
27C
  8
0
 10
18.0123
 20
86.055499999999995
 30
0.0
 11
18.491800000000001
 21
86.199399999999983
 31
0.0
  0
LINE
  5
27D
  8
0
 10
18.0123
 20
88.944500000000005
 30
0.0
 11
18.491800000000001
 21
88.800700000000006
 31
0.0
  0
LINE
  5
27E
  8
0
 10
18.0123
 20
92.055499999999995
 30
0.0
 11
18.491800000000001
 21
92.199399999999983
 31
0.0
  0
LINE
  5
27F
  8
0
 10
18.0123
 20
94.944500000000005
 30
0.0
 11
18.491800000000001
 21
94.800700000000006
 31
0.0
  0
LINE
  5
280
  8
0
 10
18.0123
 20
110.05500000000001
 30
0.0
 11
18.491800000000001
 21
110.199
 31
0.0
  0
LINE
  5
281
  8
0
 10
18.0123
 20
112.94499999999999
 30
0.0
 11
18.491800000000001
 21
112.8009999999999
 31
0.0
  0
LINE
  5
282
  8
0
 10
18.0123
 20
104.05500000000001
 30
0.0
 11
18.491800000000001
 21
104.1989999999999
 31
0.0
  0
LINE
  5
283
  8
0
 10
18.0123
 20
106.94499999999999
 30
0.0
 11
18.491800000000001
 21
106.801
 31
0.0
  0
LINE
  5
284
  8
0
 10
18.0123
 20
98.055499999999995
 30
0.0
 11
18.491800000000001
 21
98.199399999999997
 31
0.0
  0
LINE
  5
285
  8
0
 10
18.491800000000001
 20
80.199399999999997
 30
0.0
 11
18.913799999999991
 21
80.439699999999988
 31
0.0
  0
LINE
  5
286
  8
0
 10
18.491800000000001
 20
82.800700000000006
 30
0.0
 11
18.913799999999991
 21
82.560299999999998
 31
0.0
  0
LINE
  5
287
  8
0
 10
18.491800000000001
 20
86.199399999999983
 30
0.0
 11
18.913799999999991
 21
86.439700000000016
 31
0.0
  0
LINE
  5
288
  8
0
 10
18.491800000000001
 20
88.800700000000006
 30
0.0
 11
18.913799999999991
 21
88.560299999999998
 31
0.0
  0
LINE
  5
289
  8
0
 10
18.491800000000001
 20
92.199399999999983
 30
0.0
 11
18.913799999999991
 21
92.439700000000002
 31
0.0
  0
LINE
  5
28A
  8
0
 10
18.491800000000001
 20
94.800700000000006
 30
0.0
 11
18.913799999999991
 21
94.560299999999998
 31
0.0
  0
LINE
  5
28B
  8
0
 10
18.491800000000001
 20
98.199399999999997
 30
0.0
 11
18.913799999999991
 21
98.439700000000002
 31
0.0
  0
LINE
  5
28C
  8
0
 10
18.491800000000001
 20
110.199
 30
0.0
 11
18.913799999999991
 21
110.44
 31
0.0
  0
LINE
  5
28D
  8
0
 10
18.491800000000001
 20
112.8009999999999
 30
0.0
 11
18.913799999999991
 21
112.56
 31
0.0
  0
LINE
  5
28E
  8
0
 10
18.491800000000001
 20
104.1989999999999
 30
0.0
 11
18.913799999999991
 21
104.4399999999999
 31
0.0
  0
LINE
  5
28F
  8
0
 10
18.491800000000001
 20
106.801
 30
0.0
 11
18.913799999999991
 21
106.56
 31
0.0
  0
LINE
  5
290
  8
0
 10
18.491800000000001
 20
100.801
 30
0.0
 11
18.913799999999991
 21
100.56
 31
0.0
  0
LINE
  5
291
  8
0
 10
18.0123
 20
100.94499999999989
 30
0.0
 11
18.491800000000001
 21
100.801
 31
0.0
  0
LINE
  5
292
  8
0
 10
18.0123
 20
76.944500000000005
 30
0.0
 11
18.491800000000001
 21
76.800700000000006
 31
0.0
  0
LINE
  5
293
  8
0
 10
17.5
 20
77.0
 30
0.0
 11
18.0123
 21
76.944500000000005
 31
0.0
  0
LINE
  5
294
  8
0
 10
18.0123
 20
64.944500000000005
 30
0.0
 11
18.491800000000001
 21
64.800700000000006
 31
0.0
  0
LINE
  5
295
  8
0
 10
17.5
 20
59.0
 30
0.0
 11
18.0123
 21
58.944499999999991
 31
0.0
  0
LINE
  5
296
  8
0
 10
4.9877399999999996
 20
58.944499999999991
 30
0.0
 11
5.5
 21
59.0
 31
0.0
  0
LINE
  5
297
  8
0
 10
19.234200000000001
 20
56.756100000000004
 30
0.0
 11
19.425999999999991
 21
57.1158
 31
0.0
  0
LINE
  5
298
  8
0
 10
18.913799999999991
 20
56.439700000000002
 30
0.0
 11
19.234200000000001
 21
56.756100000000004
 31
0.0
  0
LINE
  5
299
  8
0
 10
19.425999999999991
 20
57.1158
 30
0.0
 11
19.5
 21
57.5
 31
0.0
  0
LINE
  5
29A
  8
0
 10
19.425999999999991
 20
57.8842
 30
0.0
 11
19.5
 21
57.5
 31
0.0
  0
LINE
  5
29B
  8
0
 10
19.234200000000001
 20
58.243899999999996
 30
0.0
 11
19.425999999999991
 21
57.8842
 31
0.0
  0
LINE
  5
29C
  8
0
 10
18.913799999999991
 20
68.439700000000002
 30
0.0
 11
19.234200000000001
 21
68.756100000000004
 31
0.0
  0
LINE
  5
29D
  8
0
 10
18.913799999999991
 20
62.439700000000002
 30
0.0
 11
19.234200000000001
 21
62.756100000000004
 31
0.0
  0
LINE
  5
29E
  8
0
 10
19.425999999999991
 20
63.1158
 30
0.0
 11
19.5
 21
63.5
 31
0.0
  0
LINE
  5
29F
  8
0
 10
19.234200000000001
 20
62.756100000000004
 30
0.0
 11
19.425999999999991
 21
63.1158
 31
0.0
  0
LINE
  5
2A0
  8
0
 10
19.425999999999991
 20
63.884199999999993
 30
0.0
 11
19.5
 21
63.5
 31
0.0
  0
LINE
  5
2A1
  8
0
 10
18.913799999999991
 20
70.560299999999984
 30
0.0
 11
19.234200000000001
 21
70.243899999999996
 31
0.0
  0
LINE
  5
2A2
  8
0
 10
18.913799999999991
 20
80.439699999999988
 30
0.0
 11
19.234200000000001
 21
80.756100000000004
 31
0.0
  0
LINE
  5
2A3
  8
0
 10
18.913799999999991
 20
82.560299999999998
 30
0.0
 11
19.234200000000001
 21
82.243899999999996
 31
0.0
  0
LINE
  5
2A4
  8
0
 10
18.913799999999991
 20
86.439700000000016
 30
0.0
 11
19.234200000000001
 21
86.756100000000004
 31
0.0
  0
LINE
  5
2A5
  8
0
 10
18.913799999999991
 20
88.560299999999998
 30
0.0
 11
19.234200000000001
 21
88.243899999999996
 31
0.0
  0
LINE
  5
2A6
  8
0
 10
18.913799999999991
 20
92.439700000000002
 30
0.0
 11
19.234200000000001
 21
92.756100000000004
 31
0.0
  0
LINE
  5
2A7
  8
0
 10
18.913799999999991
 20
94.560299999999998
 30
0.0
 11
19.234200000000001
 21
94.243899999999996
 31
0.0
  0
LINE
  5
2A8
  8
0
 10
18.913799999999991
 20
110.44
 30
0.0
 11
19.234200000000001
 21
110.756
 31
0.0
  0
LINE
  5
2A9
  8
0
 10
18.913799999999991
 20
112.56
 30
0.0
 11
19.234200000000001
 21
112.244
 31
0.0
  0
LINE
  5
2AA
  8
0
 10
18.913799999999991
 20
104.4399999999999
 30
0.0
 11
19.234200000000001
 21
104.756
 31
0.0
  0
LINE
  5
2AB
  8
0
 10
18.913799999999991
 20
106.56
 30
0.0
 11
19.234200000000001
 21
106.244
 31
0.0
  0
LINE
  5
2AC
  8
0
 10
18.913799999999991
 20
98.439700000000002
 30
0.0
 11
19.234200000000001
 21
98.756100000000004
 31
0.0
  0
LINE
  5
2AD
  8
0
 10
18.913799999999991
 20
100.56
 30
0.0
 11
19.234200000000001
 21
100.2439999999999
 31
0.0
  0
LINE
  5
2AE
  8
0
 10
18.913799999999991
 20
74.439700000000002
 30
0.0
 11
19.234200000000001
 21
74.756100000000004
 31
0.0
  0
LINE
  5
2AF
  8
0
 10
19.234200000000001
 20
68.756100000000004
 30
0.0
 11
19.425999999999991
 21
69.115799999999993
 31
0.0
  0
LINE
  5
2B0
  8
0
 10
19.425999999999991
 20
69.115799999999993
 30
0.0
 11
19.5
 21
69.5
 31
0.0
  0
LINE
  5
2B1
  8
0
 10
19.425999999999991
 20
69.884200000000007
 30
0.0
 11
19.5
 21
69.5
 31
0.0
  0
LINE
  5
2B2
  8
0
 10
19.234200000000001
 20
70.243899999999996
 30
0.0
 11
19.425999999999991
 21
69.884200000000007
 31
0.0
  0
LINE
  5
2B3
  8
0
 10
19.425999999999991
 20
75.115799999999993
 30
0.0
 11
19.5
 21
75.5
 31
0.0
  0
LINE
  5
2B4
  8
0
 10
19.234200000000001
 20
74.756100000000004
 30
0.0
 11
19.425999999999991
 21
75.115799999999993
 31
0.0
  0
LINE
  5
2B5
  8
0
 10
19.425999999999991
 20
75.884200000000007
 30
0.0
 11
19.5
 21
75.5
 31
0.0
  0
LINE
  5
2B6
  8
0
 10
19.234200000000001
 20
80.756100000000004
 30
0.0
 11
19.425999999999991
 21
81.115799999999993
 31
0.0
  0
LINE
  5
2B7
  8
0
 10
19.234200000000001
 20
82.243899999999996
 30
0.0
 11
19.425999999999991
 21
81.884200000000007
 31
0.0
  0
LINE
  5
2B8
  8
0
 10
19.234200000000001
 20
86.756100000000004
 30
0.0
 11
19.425999999999991
 21
87.115799999999993
 31
0.0
  0
LINE
  5
2B9
  8
0
 10
19.234200000000001
 20
88.243899999999996
 30
0.0
 11
19.425999999999991
 21
87.884200000000007
 31
0.0
  0
LINE
  5
2BA
  8
0
 10
19.234200000000001
 20
92.756100000000004
 30
0.0
 11
19.425999999999991
 21
93.115799999999993
 31
0.0
  0
LINE
  5
2BB
  8
0
 10
19.234200000000001
 20
94.243899999999996
 30
0.0
 11
19.425999999999991
 21
93.884200000000007
 31
0.0
  0
LINE
  5
2BC
  8
0
 10
19.234200000000001
 20
110.756
 30
0.0
 11
19.425999999999991
 21
111.1159999999999
 31
0.0
  0
LINE
  5
2BD
  8
0
 10
19.234200000000001
 20
112.244
 30
0.0
 11
19.425999999999991
 21
111.884
 31
0.0
  0
LINE
  5
2BE
  8
0
 10
19.234200000000001
 20
104.756
 30
0.0
 11
19.425999999999991
 21
105.116
 31
0.0
  0
LINE
  5
2BF
  8
0
 10
19.234200000000001
 20
106.244
 30
0.0
 11
19.425999999999991
 21
105.884
 31
0.0
  0
LINE
  5
2C0
  8
0
 10
19.234200000000001
 20
98.756100000000004
 30
0.0
 11
19.425999999999991
 21
99.115799999999993
 31
0.0
  0
LINE
  5
2C1
  8
0
 10
19.425999999999991
 20
81.115799999999993
 30
0.0
 11
19.5
 21
81.5
 31
0.0
  0
LINE
  5
2C2
  8
0
 10
19.425999999999991
 20
81.884200000000007
 30
0.0
 11
19.5
 21
81.5
 31
0.0
  0
LINE
  5
2C3
  8
0
 10
19.425999999999991
 20
87.115799999999993
 30
0.0
 11
19.5
 21
87.5
 31
0.0
  0
LINE
  5
2C4
  8
0
 10
19.425999999999991
 20
87.884200000000007
 30
0.0
 11
19.5
 21
87.5
 31
0.0
  0
LINE
  5
2C5
  8
0
 10
19.425999999999991
 20
93.115799999999993
 30
0.0
 11
19.5
 21
93.499999999999986
 31
0.0
  0
LINE
  5
2C6
  8
0
 10
19.425999999999991
 20
93.884200000000007
 30
0.0
 11
19.5
 21
93.499999999999986
 31
0.0
  0
LINE
  5
2C7
  8
0
 10
19.425999999999991
 20
99.115799999999993
 30
0.0
 11
19.5
 21
99.500000000000014
 31
0.0
  0
LINE
  5
2C8
  8
0
 10
19.425999999999991
 20
111.1159999999999
 30
0.0
 11
19.5
 21
111.4999999999999
 31
0.0
  0
LINE
  5
2C9
  8
0
 10
19.425999999999991
 20
111.884
 30
0.0
 11
19.5
 21
111.4999999999999
 31
0.0
  0
LINE
  5
2CA
  8
0
 10
19.425999999999991
 20
105.116
 30
0.0
 11
19.5
 21
105.4999999999999
 31
0.0
  0
LINE
  5
2CB
  8
0
 10
19.425999999999991
 20
105.884
 30
0.0
 11
19.5
 21
105.4999999999999
 31
0.0
  0
LINE
  5
2CC
  8
0
 10
19.425999999999991
 20
99.884200000000007
 30
0.0
 11
19.5
 21
99.500000000000014
 31
0.0
  0
LINE
  5
2CD
  8
0
 10
19.234200000000001
 20
100.2439999999999
 30
0.0
 11
19.425999999999991
 21
99.884200000000007
 31
0.0
  0
LINE
  5
2CE
  8
0
 10
19.234200000000001
 20
76.243899999999996
 30
0.0
 11
19.425999999999991
 21
75.884200000000007
 31
0.0
  0
LINE
  5
2CF
  8
0
 10
18.913799999999991
 20
76.560299999999998
 30
0.0
 11
19.234200000000001
 21
76.243899999999996
 31
0.0
  0
LINE
  5
2D0
  8
0
 10
19.234200000000001
 20
64.243899999999996
 30
0.0
 11
19.425999999999991
 21
63.884199999999993
 31
0.0
  0
LINE
  5
2D1
  8
0
 10
18.913799999999991
 20
64.560299999999998
 30
0.0
 11
19.234200000000001
 21
64.243899999999996
 31
0.0
  0
LINE
  5
2D2
  8
0
 10
18.913799999999991
 20
58.560299999999998
 30
0.0
 11
19.234200000000001
 21
58.243899999999996
 31
0.0
  0
LINE
  5
2D3
  8
0
 10
21.0
 20
50.299999999999997
 30
0.0
 11
21.499999999999989
 21
50.299999999999997
 31
0.0
  0
LINE
  5
2D4
  8
0
 10
21.699999999999989
 20
50.299999999999997
 30
0.0
 11
22.0
 21
51.0
 31
0.0
  0
LINE
  5
2D5
  8
0
 10
21.699999999999989
 20
51.0
 30
0.0
 11
21.699999999999989
 21
119.0
 31
0.0
  0
LINE
  5
2D6
  8
0
 10
22.0
 20
51.0
 30
0.0
 11
22.0
 21
49.0
 31
0.0
  0
LINE
  5
33F
  8
0
 10
22.0
 20
51.0
 30
0.0
 11
22.0
 21
119.0
 31
0.0
  0
LINE
  5
340
  8
0
 10
22.0
 20
51.0
 30
0.0
 11
22.0
 21
119.0
 31
0.0
  0
LINE
  5
341
  8
0
 10
21.699999999999989
 20
51.0
 30
0.0
 11
21.699999999999989
 21
119.0
 31
0.0
  0
LINE
  5
342
  8
0
 10
21.699999999999989
 20
119.7
 30
0.0
 11
22.0
 21
119.0
 31
0.0
  0
LINE
  5
343
  8
0
 10
21.499999999999989
 20
119.7
 30
0.0
 11
21.699999999999989
 21
119.7
 31
0.0
  0
LINE
  5
344
  8
0
 10
21.499999999999989
 20
119.7
 30
0.0
 11
21.699999999999989
 21
119.0
 31
0.0
  0
LINE
  5
345
  8
0
 10
21.0
 20
120.0
 30
0.0
 11
21.699999999999989
 21
119.7
 31
0.0
  0
LINE
  5
346
  8
0
 10
21.0
 20
119.7
 30
0.0
 11
21.499999999999989
 21
119.7
 31
0.0
  0
LINE
  5
347
  8
0
 10
2.0000000000000102
 20
119.7
 30
0.0
 11
21.0
 21
119.7
 31
0.0
  0
LINE
  5
348
  8
0
 10
21.0
 20
50.0
 30
0.0
 11
21.699999999999989
 21
49.700000000000003
 31
0.0
  0
LINE
  5
349
  8
0
 10
21.0
 20
50.0
 30
0.0
 11
21.699999999999989
 21
50.299999999999997
 31
0.0
  0
LINE
  5
34A
  8
0
 10
2.0
 20
50.0
 30
0.0
 11
21.0
 21
50.0
 31
0.0
  0
LINE
  5
34B
  8
0
 10
1.5
 20
49.700000000000003
 30
0.0
 11
2.0
 21
49.700000000000003
 31
0.0
  0
LINE
  5
34C
  8
0
 10
1.3
 20
49.700000000000003
 30
0.0
 11
2.0
 21
50.0
 31
0.0
  0
LINE
  5
34D
  8
0
 10
1.3
 20
49.700000000000003
 30
0.0
 11
1.5
 21
49.700000000000003
 31
0.0
  0
LINE
  5
352
  8
0
 10
0.0000000000000035
 20
57.5
 30
0.0
 11
0.124151773724634
 21
58.184578970070334
 31
0.0
  0
LINE
  5
353
  8
0
 10
0.124151773724634
 20
58.184578970070334
 30
0.0
 11
0.5232550000000039
 21
58.664900000000003
 31
0.0
  0
LINE
  5
354
  8
0
 10
0.5232550000000039
 20
70.664900000000003
 30
0.0
 11
0.116279000000004
 21
70.113100000000003
 31
0.0
  0
LINE
  5
355
  8
0
 10
0.5232550000000061
 20
104.33499999999989
 30
0.0
 11
1.0000000000000091
 21
104.05500000000001
 31
0.0
  0
LINE
  5
356
  8
0
 10
0.116279000000006
 20
104.8869999999999
 30
0.0
 11
0.0401421386095535
 21
105.4063974703278
 31
0.0
  0
LINE
  5
357
  8
0
 10
0.0401421386095535
 20
105.4063974703278
 30
0.0
 11
0.0569126522035504
 21
105.9259567802698
 31
0.0
  0
LINE
  5
358
  8
0
 10
0.0569126522035504
 20
105.9259567802698
 30
0.0
 11
0.116279000000007
 21
106.1129999999999
 31
0.0
  0
LINE
  5
359
  8
0
 10
0.0000000000000054
 20
87.5
 30
0.0
 11
0.116279000000005
 21
88.113100000000003
 31
0.0
  0
ENDSEC
  0
EOF
