  0
SECTION
  2
HEADER
  9
$ACADVER
  1
AC1009
  9
$INSBASE
 10
0.0
 20
0.0
 30
0.0
  9
$EXTMIN
 10
0.0
 20
-0.0000000000000013
 30
0.0
  9
$EXTMAX
 10
122.0
 20
120.0
 30
0.0
  9
$LIMMIN
 10
0.0
 20
0.0
  9
$LIMMAX
 10
12.0
 20
9.0
  9
$ORTHOMODE
 70
     0
  9
$REGENMODE
 70
     1
  9
$FILLMODE
 70
     1
  9
$QTEXTMODE
 70
     0
  9
$MIRRTEXT
 70
     1
  9
$DRAGMODE
 70
     2
  9
$LTSCALE
 40
1.0
  9
$OSMODE
 70
    37
  9
$ATTMODE
 70
     1
  9
$TEXTSIZE
 40
0.2
  9
$TRACEWID
 40
0.05
  9
$TEXTSTYLE
  7
STANDARD
  9
$CLAYER
  8
0
  9
$CELTYPE
  6
CONTINUOUS
  9
$CECOLOR
 62
   256
  9
$DIMSCALE
 40
1.0
  9
$DIMASZ
 40
0.18
  9
$DIMEXO
 40
0.0625
  9
$DIMDLI
 40
0.38
  9
$DIMRND
 40
0.0
  9
$DIMDLE
 40
0.0
  9
$DIMEXE
 40
0.18
  9
$DIMTP
 40
0.0
  9
$DIMTM
 40
0.0
  9
$DIMTXT
 40
0.18
  9
$DIMCEN
 40
0.09
  9
$DIMTSZ
 40
0.0
  9
$DIMTOL
 70
     0
  9
$DIMLIM
 70
     0
  9
$DIMTIH
 70
     1
  9
$DIMTOH
 70
     1
  9
$DIMSE1
 70
     0
  9
$DIMSE2
 70
     0
  9
$DIMTAD
 70
     0
  9
$DIMZIN
 70
     0
  9
$DIMBLK
  1

  9
$DIMASO
 70
     1
  9
$DIMSHO
 70
     1
  9
$DIMPOST
  1

  9
$DIMAPOST
  1

  9
$DIMALT
 70
     0
  9
$DIMALTD
 70
     2
  9
$DIMALTF
 40
25.399999999999999
  9
$DIMLFAC
 40
1.0
  9
$DIMTOFL
 70
     0
  9
$DIMTVP
 40
0.0
  9
$DIMTIX
 70
     0
  9
$DIMSOXD
 70
     0
  9
$DIMSAH
 70
     0
  9
$DIMBLK1
  1

  9
$DIMBLK2
  1

  9
$DIMSTYLE
  2
STANDARD
  9
$DIMCLRD
 70
     0
  9
$DIMCLRE
 70
     0
  9
$DIMCLRT
 70
     0
  9
$DIMTFAC
 40
1.0
  9
$DIMGAP
 40
0.09
  9
$LUNITS
 70
     2
  9
$LUPREC
 70
     4
  9
$SKETCHINC
 40
0.1
  9
$FILLETRAD
 40
0.0
  9
$AUNITS
 70
     0
  9
$AUPREC
 70
     0
  9
$MENU
  1
.
  9
$ELEVATION
 40
0.0
  9
$PELEVATION
 40
0.0
  9
$THICKNESS
 40
0.0
  9
$LIMCHECK
 70
     0
  9
$BLIPMODE
 70
     0
  9
$CHAMFERA
 40
0.0
  9
$CHAMFERB
 40
0.0
  9
$SKPOLY
 70
     0
  9
$TDCREATE
 40
2454674.6154739931
  9
$TDUPDATE
 40
2454674.6187436678
  9
$TDINDWG
 40
0.0032698495
  9
$TDUSRTIMER
 40
0.0032698495
  9
$USRTIMER
 70
     1
  9
$ANGBASE
 50
0.0
  9
$ANGDIR
 70
     0
  9
$PDMODE
 70
     0
  9
$PDSIZE
 40
0.0
  9
$PLINEWID
 40
0.0
  9
$COORDS
 70
     1
  9
$SPLFRAME
 70
     0
  9
$SPLINETYPE
 70
     6
  9
$SPLINESEGS
 70
     8
  9
$ATTDIA
 70
     0
  9
$ATTREQ
 70
     1
  9
$HANDLING
 70
 22529
  9
$HANDSEED
  5
2EE
  9
$SURFTAB1
 70
     6
  9
$SURFTAB2
 70
     6
  9
$SURFTYPE
 70
     6
  9
$SURFU
 70
     6
  9
$SURFV
 70
     6
  9
$UCSNAME
  2

  9
$UCSORG
 10
0.0
 20
0.0
 30
0.0
  9
$UCSXDIR
 10
1.0
 20
0.0
 30
0.0
  9
$UCSYDIR
 10
0.0
 20
1.0
 30
0.0
  9
$PUCSNAME
  2

  9
$PUCSORG
 10
0.0
 20
0.0
 30
0.0
  9
$PUCSXDIR
 10
1.0
 20
0.0
 30
0.0
  9
$PUCSYDIR
 10
0.0
 20
1.0
 30
0.0
  9
$USERI1
 70
     0
  9
$USERI2
 70
     0
  9
$USERI3
 70
     0
  9
$USERI4
 70
     0
  9
$USERI5
 70
     0
  9
$USERR1
 40
0.0
  9
$USERR2
 40
0.0
  9
$USERR3
 40
0.0
  9
$USERR4
 40
0.0
  9
$USERR5
 40
0.0
  9
$WORLDVIEW
 70
     1
  9
$SHADEDGE
 70
     3
  9
$SHADEDIF
 70
    70
  9
$TILEMODE
 70
     1
  9
$MAXACTVP
 70
    64
  9
$PLIMCHECK
 70
     0
  9
$PEXTMIN
 10
1.0000000000000000E+020
 20
1.0000000000000000E+020
 30
1.0000000000000000E+020
  9
$PEXTMAX
 10
-1.0000000000000000E+020
 20
-1.0000000000000000E+020
 30
-1.0000000000000000E+020
  9
$PLIMMIN
 10
0.0
 20
0.0
  9
$PLIMMAX
 10
12.0
 20
9.0
  9
$UNITMODE
 70
     0
  9
$VISRETAIN
 70
     1
  9
$PLINEGEN
 70
     0
  9
$PSLTSCALE
 70
     1
  0
ENDSEC
  0
SECTION
  2
TABLES
  0
TABLE
  2
VPORT
 70
     4
  0
VPORT
  2
*ACTIVE
 70
     0
 10
0.0
 20
0.0
 11
1.0
 21
1.0
 12
61.0
 22
60.0
 13
0.0
 23
0.0
 14
1.0
 24
1.0
 15
0.0
 25
0.0
 16
0.0
 26
0.0
 36
1.0
 17
0.0
 27
0.0
 37
0.0
 40
120.92071611253191
 41
2.0435339308578739
 42
50.0
 43
0.0
 44
0.0
 50
0.0
 51
0.0
 71
     0
 72
   100
 73
     1
 74
     3
 75
     0
 76
     0
 77
     0
 78
     0
  0
ENDTAB
  0
TABLE
  2
LTYPE
 70
     1
  0
LTYPE
  2
CONTINUOUS
 70
     0
  3
Solid line
 72
    65
 73
     0
 40
0.0
  0
ENDTAB
  0
TABLE
  2
LAYER
 70
     1
  0
LAYER
  2
0
 70
     0
 62
     7
  6
CONTINUOUS
  0
ENDTAB
  0
TABLE
  2
STYLE
 70
     1
  0
STYLE
  2
STANDARD
 70
     0
 40
0.0
 41
1.0
 50
0.0
 71
     0
 42
0.2
  3
txt
  4

  0
ENDTAB
  0
TABLE
  2
VIEW
 70
     0
  0
ENDTAB
  0
TABLE
  2
UCS
 70
     0
  0
ENDTAB
  0
TABLE
  2
APPID
 70
     1
  0
APPID
  2
ACAD
 70
     0
  0
ENDTAB
  0
TABLE
  2
DIMSTYLE
 70
     1
  0
DIMSTYLE
  2
STANDARD
 70
     0
  3

  4

  5

  6

  7

 40
1.0
 41
0.18
 42
0.0625
 43
0.38
 44
0.18
 45
0.0
 46
0.0
 47
0.0
 48
0.0
140
0.18
141
0.09
142
0.0
143
25.399999999999999
144
1.0
145
0.0
146
1.0
147
0.09
 71
     0
 72
     0
 73
     1
 74
     1
 75
     0
 76
     0
 77
     0
 78
     0
170
     0
171
     2
172
     0
173
     0
174
     0
175
     0
176
     0
177
     0
178
     0
  0
ENDTAB
  0
ENDSEC
  0
SECTION
  2
BLOCKS
  0
BLOCK
  8
0
  2
$MODEL_SPACE
 70
     0
 10
0.0
 20
0.0
 30
0.0
  3
$MODEL_SPACE
  1

  0
ENDBLK
  5
20
  8
0
  0
BLOCK
 67
     1
  8
0
  2
$PAPER_SPACE
 70
     0
 10
0.0
 20
0.0
 30
0.0
  3
$PAPER_SPACE
  1

  0
ENDBLK
  5
1C
 67
     1
  8
0
  0
ENDSEC
  0
SECTION
  2
ENTITIES
  0
LINE
  5
22
  8
0
 10
1.0
 20
1.0
 30
0.0
 11
1.0
 21
49.0
 31
0.0
  0
LINE
  5
23
  8
0
 10
1.0
 20
0.9999999999999989
 30
0.0
 11
1.3
 21
0.2999999999999989
 31
0.0
  0
LINE
  5
24
  8
0
 10
1.3
 20
0.2999999999999989
 30
0.0
 11
2.0
 21
-0.0000000000000013
 31
0.0
  0
LINE
  5
25
  8
0
 10
1.3
 20
0.2999999999999989
 30
0.0
 11
2.0
 21
-0.0000000000000013
 31
0.0
  0
LINE
  5
26
  8
0
 10
1.3
 20
0.3
 30
0.0
 11
1.5
 21
0.3
 31
0.0
  0
LINE
  5
27
  8
0
 10
1.3
 20
1.0
 30
0.0
 11
1.3
 21
49.0
 31
0.0
  0
LINE
  5
28
  8
0
 10
1.3
 20
1.0
 30
0.0
 11
1.5
 21
0.3
 31
0.0
  0
LINE
  5
29
  8
0
 10
1.3
 20
1.0
 30
0.0
 11
1.5
 21
0.3
 31
0.0
  0
LINE
  5
2A
  8
0
 10
1.0
 20
49.0
 30
0.0
 11
1.3
 21
49.700000000000003
 31
0.0
  0
LINE
  5
2B
  8
0
 10
1.0
 20
49.0
 30
0.0
 11
1.0
 21
1.0
 31
0.0
  0
LINE
  5
2C
  8
0
 10
0.0
 20
81.5
 30
0.0
 11
0.116279
 21
82.113100000000003
 31
0.0
  0
LINE
  5
2D
  8
0
 10
0.0
 20
81.5
 30
0.0
 11
0.116279
 21
80.886899999999983
 31
0.0
  0
LINE
  5
2E
  8
0
 10
0.0
 20
87.5
 30
0.0
 11
0.116279
 21
88.113100000000003
 31
0.0
  0
LINE
  5
2F
  8
0
 10
0.0
 20
87.5
 30
0.0
 11
0.116279
 21
86.886899999999983
 31
0.0
  0
LINE
  5
30
  8
0
 10
0.0
 20
111.4999999999999
 30
0.0
 11
0.116279
 21
112.1129999999999
 31
0.0
  0
LINE
  5
31
  8
0
 10
0.0
 20
111.4999999999999
 30
0.0
 11
0.116279
 21
110.887
 31
0.0
  0
LINE
  5
32
  8
0
 10
0.0
 20
105.4999999999999
 30
0.0
 11
0.116279
 21
106.1129999999999
 31
0.0
  0
LINE
  5
33
  8
0
 10
0.0
 20
105.4999999999999
 30
0.0
 11
0.116279
 21
104.8869999999999
 31
0.0
  0
LINE
  5
34
  8
0
 10
0.0
 20
93.499999999999986
 30
0.0
 11
0.116279
 21
94.113100000000003
 31
0.0
  0
LINE
  5
35
  8
0
 10
0.0
 20
93.499999999999986
 30
0.0
 11
0.116279
 21
92.886899999999997
 31
0.0
  0
LINE
  5
36
  8
0
 10
0.0
 20
99.500000000000014
 30
0.0
 11
0.116279
 21
100.113
 31
0.0
  0
LINE
  5
37
  8
0
 10
0.0
 20
99.500000000000014
 30
0.0
 11
0.116279
 21
98.886899999999997
 31
0.0
  0
LINE
  5
38
  8
0
 10
0.0
 20
75.5
 30
0.0
 11
0.116279
 21
76.113100000000003
 31
0.0
  0
LINE
  5
39
  8
0
 10
0.0
 20
75.5
 30
0.0
 11
0.116279
 21
74.886899999999997
 31
0.0
  0
LINE
  5
3A
  8
0
 10
0.0
 20
69.5
 30
0.0
 11
0.116279
 21
70.113100000000003
 31
0.0
  0
LINE
  5
3B
  8
0
 10
0.0
 20
69.5
 30
0.0
 11
0.116279
 21
68.886899999999997
 31
0.0
  0
LINE
  5
3C
  8
0
 10
0.0
 20
63.5
 30
0.0
 11
0.116279
 21
64.113100000000003
 31
0.0
  0
LINE
  5
3D
  8
0
 10
0.0
 20
63.5
 30
0.0
 11
0.116279
 21
62.88689999999999
 31
0.0
  0
LINE
  5
3E
  8
0
 10
0.116279
 20
56.886899999999997
 30
0.0
 11
0.523255
 21
56.335099999999997
 31
0.0
  0
LINE
  5
3F
  8
0
 10
0.523255
 20
56.335099999999997
 30
0.0
 11
1.0
 21
56.0
 31
0.0
  0
LINE
  5
40
  8
0
 10
1.0
 20
57.1158
 30
0.0
 11
1.0
 21
57.5
 31
0.0
  0
LINE
  5
41
  8
0
 10
1.0
 20
56.756100000000004
 30
0.0
 11
1.0
 21
57.1158
 31
0.0
  0
LINE
  5
42
  8
0
 10
1.0
 20
56.439700000000002
 30
0.0
 11
1.0
 21
56.756100000000004
 31
0.0
  0
LINE
  5
43
  8
0
 10
1.0
 20
56.19939999999999
 30
0.0
 11
1.0
 21
56.439700000000002
 31
0.0
  0
LINE
  5
44
  8
0
 10
1.0
 20
56.055500000000002
 30
0.0
 11
1.0
 21
56.19939999999999
 31
0.0
  0
LINE
  5
45
  8
0
 10
0.523255
 20
56.3352
 30
0.0
 11
1.0
 21
56.0
 31
0.0
  0
LINE
  5
46
  8
0
 10
1.0
 20
56.0
 30
0.0
 11
1.0
 21
56.055500000000002
 31
0.0
  0
LINE
  5
47
  8
0
 10
0.116279
 20
56.886899999999997
 30
0.0
 11
0.523255
 21
56.3352
 31
0.0
  0
LINE
  5
48
  8
0
 10
0.116279
 20
56.886899999999997
 30
0.0
 11
0.523255
 21
56.335099999999997
 31
0.0
  0
LINE
  5
49
  8
0
 10
0.116279
 20
58.113100000000003
 30
0.0
 11
0.523255
 21
58.664900000000003
 31
0.0
  0
LINE
  5
4A
  8
0
 10
1.0
 20
57.5
 30
0.0
 11
1.0
 21
57.8842
 31
0.0
  0
LINE
  5
4B
  8
0
 10
1.0
 20
57.8842
 30
0.0
 11
1.0
 21
58.243899999999996
 31
0.0
  0
LINE
  5
4C
  8
0
 10
1.0
 20
58.243899999999996
 30
0.0
 11
1.0
 21
58.560299999999998
 31
0.0
  0
LINE
  5
4D
  8
0
 10
1.0
 20
58.560299999999998
 30
0.0
 11
1.0
 21
58.800699999999992
 31
0.0
  0
LINE
  5
4E
  8
0
 10
0.116279
 20
62.88689999999999
 30
0.0
 11
0.523255
 21
62.3352
 31
0.0
  0
LINE
  5
4F
  8
0
 10
0.116279
 20
62.88689999999999
 30
0.0
 11
0.523255
 21
62.33509999999999
 31
0.0
  0
LINE
  5
50
  8
0
 10
0.116279
 20
82.113100000000003
 30
0.0
 11
0.523255
 21
82.664900000000003
 31
0.0
  0
LINE
  5
51
  8
0
 10
0.116279
 20
80.886899999999983
 30
0.0
 11
0.523255
 21
80.335200000000015
 31
0.0
  0
LINE
  5
52
  8
0
 10
0.116279
 20
80.886899999999983
 30
0.0
 11
0.523255
 21
80.335099999999997
 31
0.0
  0
LINE
  5
53
  8
0
 10
0.116279
 20
88.113100000000003
 30
0.0
 11
0.523255
 21
88.664900000000003
 31
0.0
  0
LINE
  5
54
  8
0
 10
0.116279
 20
86.886899999999983
 30
0.0
 11
0.523255
 21
86.3352
 31
0.0
  0
LINE
  5
55
  8
0
 10
0.116279
 20
86.886899999999983
 30
0.0
 11
0.523255
 21
86.335099999999997
 31
0.0
  0
LINE
  5
56
  8
0
 10
0.116279
 20
94.113100000000003
 30
0.0
 11
0.523255
 21
94.664900000000003
 31
0.0
  0
LINE
  5
57
  8
0
 10
0.116279
 20
92.886899999999997
 30
0.0
 11
0.523255
 21
92.3352
 31
0.0
  0
LINE
  5
58
  8
0
 10
0.116279
 20
92.886899999999997
 30
0.0
 11
0.523255
 21
92.335099999999997
 31
0.0
  0
LINE
  5
59
  8
0
 10
0.116279
 20
104.8869999999999
 30
0.0
 11
0.523255
 21
104.33499999999989
 31
0.0
  0
LINE
  5
5A
  8
0
 10
0.116279
 20
110.887
 30
0.0
 11
0.523255
 21
110.33499999999999
 31
0.0
  0
LINE
  5
5B
  8
0
 10
0.116279
 20
112.1129999999999
 30
0.0
 11
0.523255
 21
112.66500000000001
 31
0.0
  0
LINE
  5
5C
  8
0
 10
0.116279
 20
106.1129999999999
 30
0.0
 11
0.523255
 21
106.66500000000001
 31
0.0
  0
LINE
  5
5D
  8
0
 10
0.116279
 20
100.113
 30
0.0
 11
0.523255
 21
100.66500000000001
 31
0.0
  0
LINE
  5
5E
  8
0
 10
0.116279
 20
98.886899999999997
 30
0.0
 11
0.523255
 21
98.3352
 31
0.0
  0
LINE
  5
5F
  8
0
 10
0.116279
 20
98.886899999999997
 30
0.0
 11
0.523255
 21
98.335099999999997
 31
0.0
  0
LINE
  5
60
  8
0
 10
0.116279
 20
76.113100000000003
 30
0.0
 11
0.523255
 21
76.664900000000003
 31
0.0
  0
LINE
  5
61
  8
0
 10
0.116279
 20
74.886899999999997
 30
0.0
 11
0.523255
 21
74.3352
 31
0.0
  0
LINE
  5
62
  8
0
 10
0.116279
 20
74.886899999999997
 30
0.0
 11
0.523255
 21
74.335099999999997
 31
0.0
  0
LINE
  5
63
  8
0
 10
0.116279
 20
70.113100000000003
 30
0.0
 11
0.523255
 21
70.664900000000003
 31
0.0
  0
LINE
  5
64
  8
0
 10
0.116279
 20
68.886899999999997
 30
0.0
 11
0.523255
 21
68.3352
 31
0.0
  0
LINE
  5
65
  8
0
 10
0.116279
 20
68.886899999999997
 30
0.0
 11
0.523255
 21
68.335099999999997
 31
0.0
  0
LINE
  5
66
  8
0
 10
0.116279
 20
68.886899999999997
 30
0.0
 11
0.523255
 21
68.335099999999997
 31
0.0
  0
LINE
  5
67
  8
0
 10
0.116279
 20
80.886899999999983
 30
0.0
 11
0.523255
 21
80.335200000000015
 31
0.0
  0
LINE
  5
68
  8
0
 10
0.116279
 20
80.886899999999983
 30
0.0
 11
0.523255
 21
80.335099999999997
 31
0.0
  0
LINE
  5
69
  8
0
 10
0.116279
 20
82.113100000000003
 30
0.0
 11
0.523255
 21
82.664900000000003
 31
0.0
  0
LINE
  5
6A
  8
0
 10
0.116279
 20
86.886899999999983
 30
0.0
 11
0.523255
 21
86.335099999999997
 31
0.0
  0
LINE
  5
6B
  8
0
 10
0.116279
 20
88.113100000000003
 30
0.0
 11
0.523255
 21
88.664900000000003
 31
0.0
  0
LINE
  5
6C
  8
0
 10
0.116279
 20
92.886899999999997
 30
0.0
 11
0.523255
 21
92.335099999999997
 31
0.0
  0
LINE
  5
6D
  8
0
 10
0.116279
 20
94.113100000000003
 30
0.0
 11
0.523255
 21
94.664900000000003
 31
0.0
  0
LINE
  5
6E
  8
0
 10
0.116279
 20
110.887
 30
0.0
 11
0.523255
 21
110.33499999999999
 31
0.0
  0
LINE
  5
6F
  8
0
 10
0.116279
 20
112.1129999999999
 30
0.0
 11
0.523255
 21
112.66500000000001
 31
0.0
  0
LINE
  5
70
  8
0
 10
0.116279
 20
104.8869999999999
 30
0.0
 11
0.523255
 21
104.33499999999989
 31
0.0
  0
LINE
  5
71
  8
0
 10
0.116279
 20
106.1129999999999
 30
0.0
 11
0.523255
 21
106.66500000000001
 31
0.0
  0
LINE
  5
72
  8
0
 10
0.116279
 20
98.886899999999997
 30
0.0
 11
0.523255
 21
98.3352
 31
0.0
  0
LINE
  5
73
  8
0
 10
0.116279
 20
98.886899999999997
 30
0.0
 11
0.523255
 21
98.335099999999997
 31
0.0
  0
LINE
  5
74
  8
0
 10
0.116279
 20
100.113
 30
0.0
 11
0.523255
 21
100.66500000000001
 31
0.0
  0
LINE
  5
75
  8
0
 10
0.116279
 20
74.886899999999997
 30
0.0
 11
0.523255
 21
74.3352
 31
0.0
  0
LINE
  5
76
  8
0
 10
0.116279
 20
74.886899999999997
 30
0.0
 11
0.523255
 21
74.335099999999997
 31
0.0
  0
LINE
  5
77
  8
0
 10
0.116279
 20
76.113100000000003
 30
0.0
 11
0.523255
 21
76.664900000000003
 31
0.0
  0
LINE
  5
78
  8
0
 10
0.116279
 20
70.113100000000003
 30
0.0
 11
0.523255
 21
70.664900000000003
 31
0.0
  0
LINE
  5
79
  8
0
 10
0.116279
 20
64.113100000000003
 30
0.0
 11
0.523255
 21
64.664900000000003
 31
0.0
  0
LINE
  5
7A
  8
0
 10
0.116279
 20
62.88689999999999
 30
0.0
 11
0.523255
 21
62.3352
 31
0.0
  0
LINE
  5
7B
  8
0
 10
0.116279
 20
62.88689999999999
 30
0.0
 11
0.523255
 21
62.33509999999999
 31
0.0
  0
LINE
  5
7C
  8
0
 10
0.523255
 20
62.33509999999999
 30
0.0
 11
1.0
 21
62.0
 31
0.0
  0
LINE
  5
7D
  8
0
 10
0.523255
 20
62.3352
 30
0.0
 11
1.0
 21
62.0
 31
0.0
  0
LINE
  5
7E
  8
0
 10
1.0
 20
63.1158
 30
0.0
 11
1.0
 21
63.5
 31
0.0
  0
LINE
  5
7F
  8
0
 10
1.0
 20
62.756100000000004
 30
0.0
 11
1.0
 21
63.1158
 31
0.0
  0
LINE
  5
80
  8
0
 10
1.0
 20
62.439700000000002
 30
0.0
 11
1.0
 21
62.756100000000004
 31
0.0
  0
LINE
  5
81
  8
0
 10
1.0
 20
62.199399999999997
 30
0.0
 11
1.0
 21
62.439700000000002
 31
0.0
  0
LINE
  5
82
  8
0
 10
1.0
 20
62.055500000000002
 30
0.0
 11
1.0
 21
62.199399999999997
 31
0.0
  0
LINE
  5
83
  8
0
 10
1.0
 20
62.0
 30
0.0
 11
1.0
 21
62.055500000000002
 31
0.0
  0
LINE
  5
84
  8
0
 10
1.0
 20
63.5
 30
0.0
 11
1.0
 21
63.884199999999993
 31
0.0
  0
LINE
  5
85
  8
0
 10
1.0
 20
63.884199999999993
 30
0.0
 11
1.0
 21
64.243899999999996
 31
0.0
  0
LINE
  5
86
  8
0
 10
1.0
 20
64.243899999999996
 30
0.0
 11
1.0
 21
64.560299999999998
 31
0.0
  0
LINE
  5
87
  8
0
 10
1.0
 20
64.560299999999998
 30
0.0
 11
1.0
 21
64.800700000000006
 31
0.0
  0
LINE
  5
88
  8
0
 10
1.0
 20
64.800700000000006
 30
0.0
 11
1.0
 21
64.944500000000005
 31
0.0
  0
LINE
  5
89
  8
0
 10
0.523255
 20
64.664900000000003
 30
0.0
 11
1.0
 21
65.0
 31
0.0
  0
LINE
  5
8A
  8
0
 10
0.523255
 20
68.335099999999997
 30
0.0
 11
1.0
 21
68.0
 31
0.0
  0
LINE
  5
8B
  8
0
 10
0.523255
 20
68.3352
 30
0.0
 11
1.0
 21
68.0
 31
0.0
  0
LINE
  5
8C
  8
0
 10
1.0
 20
69.115799999999993
 30
0.0
 11
1.0
 21
69.5
 31
0.0
  0
LINE
  5
8D
  8
0
 10
1.0
 20
68.756100000000004
 30
0.0
 11
1.0
 21
69.115799999999993
 31
0.0
  0
LINE
  5
8E
  8
0
 10
1.0
 20
68.439700000000002
 30
0.0
 11
1.0
 21
68.756100000000004
 31
0.0
  0
LINE
  5
8F
  8
0
 10
1.0
 20
68.199399999999983
 30
0.0
 11
1.0
 21
68.439700000000002
 31
0.0
  0
LINE
  5
90
  8
0
 10
1.0
 20
68.055499999999995
 30
0.0
 11
1.0
 21
68.199399999999983
 31
0.0
  0
LINE
  5
91
  8
0
 10
1.0
 20
68.0
 30
0.0
 11
1.0
 21
68.055499999999995
 31
0.0
  0
LINE
  5
92
  8
0
 10
1.0
 20
69.5
 30
0.0
 11
1.0
 21
69.884200000000007
 31
0.0
  0
LINE
  5
93
  8
0
 10
1.0
 20
69.884200000000007
 30
0.0
 11
1.0
 21
70.243899999999996
 31
0.0
  0
LINE
  5
94
  8
0
 10
1.0
 20
70.243899999999996
 30
0.0
 11
1.0
 21
70.560299999999984
 31
0.0
  0
LINE
  5
95
  8
0
 10
1.0
 20
70.560299999999984
 30
0.0
 11
1.0
 21
70.800700000000006
 31
0.0
  0
LINE
  5
96
  8
0
 10
1.0
 20
70.800700000000006
 30
0.0
 11
1.0
 21
70.944500000000005
 31
0.0
  0
LINE
  5
97
  8
0
 10
0.523255
 20
70.664900000000003
 30
0.0
 11
1.0
 21
71.0
 31
0.0
  0
LINE
  5
98
  8
0
 10
0.523255
 20
74.335099999999997
 30
0.0
 11
1.0
 21
74.0
 31
0.0
  0
LINE
  5
99
  8
0
 10
0.523255
 20
74.3352
 30
0.0
 11
1.0
 21
74.0
 31
0.0
  0
LINE
  5
9A
  8
0
 10
1.0
 20
75.115799999999993
 30
0.0
 11
1.0
 21
75.5
 31
0.0
  0
LINE
  5
9B
  8
0
 10
1.0
 20
74.756100000000004
 30
0.0
 11
1.0
 21
75.115799999999993
 31
0.0
  0
LINE
  5
9C
  8
0
 10
1.0
 20
74.439700000000002
 30
0.0
 11
1.0
 21
74.756100000000004
 31
0.0
  0
LINE
  5
9D
  8
0
 10
1.0
 20
74.199399999999997
 30
0.0
 11
1.0
 21
74.439700000000002
 31
0.0
  0
LINE
  5
9E
  8
0
 10
1.0
 20
74.055499999999995
 30
0.0
 11
1.0
 21
74.199399999999997
 31
0.0
  0
LINE
  5
9F
  8
0
 10
1.0
 20
74.0
 30
0.0
 11
1.0
 21
74.055499999999995
 31
0.0
  0
LINE
  5
A0
  8
0
 10
1.0
 20
75.5
 30
0.0
 11
1.0
 21
75.884200000000007
 31
0.0
  0
LINE
  5
A1
  8
0
 10
1.0
 20
75.884200000000007
 30
0.0
 11
1.0
 21
76.243899999999996
 31
0.0
  0
LINE
  5
A2
  8
0
 10
1.0
 20
76.243899999999996
 30
0.0
 11
1.0
 21
76.560299999999998
 31
0.0
  0
LINE
  5
A3
  8
0
 10
1.0
 20
76.560299999999998
 30
0.0
 11
1.0
 21
76.800700000000006
 31
0.0
  0
LINE
  5
A4
  8
0
 10
1.0
 20
76.800700000000006
 30
0.0
 11
1.0
 21
76.944500000000005
 31
0.0
  0
LINE
  5
A5
  8
0
 10
0.523255
 20
76.664900000000003
 30
0.0
 11
1.0
 21
77.0
 31
0.0
  0
LINE
  5
A6
  8
0
 10
0.523255
 20
80.335099999999997
 30
0.0
 11
1.0
 21
80.0
 31
0.0
  0
LINE
  5
A7
  8
0
 10
0.523255
 20
80.335200000000015
 30
0.0
 11
1.0
 21
80.0
 31
0.0
  0
LINE
  5
A8
  8
0
 10
0.523255
 20
82.664900000000003
 30
0.0
 11
1.0
 21
83.0
 31
0.0
  0
LINE
  5
A9
  8
0
 10
0.523255
 20
86.335099999999997
 30
0.0
 11
1.0
 21
86.0
 31
0.0
  0
LINE
  5
AA
  8
0
 10
0.523255
 20
86.3352
 30
0.0
 11
1.0
 21
86.0
 31
0.0
  0
LINE
  5
AB
  8
0
 10
0.523255
 20
88.664900000000003
 30
0.0
 11
1.0
 21
89.0
 31
0.0
  0
LINE
  5
AC
  8
0
 10
0.523255
 20
92.335099999999997
 30
0.0
 11
1.0
 21
92.0
 31
0.0
  0
LINE
  5
AD
  8
0
 10
0.523255
 20
92.3352
 30
0.0
 11
1.0
 21
92.0
 31
0.0
  0
LINE
  5
AE
  8
0
 10
0.523255
 20
94.664900000000003
 30
0.0
 11
1.0
 21
95.0
 31
0.0
  0
LINE
  5
AF
  8
0
 10
0.523255
 20
98.335099999999997
 30
0.0
 11
1.0
 21
98.0
 31
0.0
  0
LINE
  5
B0
  8
0
 10
0.523255
 20
98.3352
 30
0.0
 11
1.0
 21
98.0
 31
0.0
  0
LINE
  5
B1
  8
0
 10
1.0
 20
81.115799999999993
 30
0.0
 11
1.0
 21
81.5
 31
0.0
  0
LINE
  5
B2
  8
0
 10
1.0
 20
80.756100000000004
 30
0.0
 11
1.0
 21
81.115799999999993
 31
0.0
  0
LINE
  5
B3
  8
0
 10
1.0
 20
80.439699999999988
 30
0.0
 11
1.0
 21
80.756100000000004
 31
0.0
  0
LINE
  5
B4
  8
0
 10
1.0
 20
80.199399999999997
 30
0.0
 11
1.0
 21
80.439699999999988
 31
0.0
  0
LINE
  5
B5
  8
0
 10
1.0
 20
80.055499999999995
 30
0.0
 11
1.0
 21
80.199399999999997
 31
0.0
  0
LINE
  5
B6
  8
0
 10
1.0
 20
80.0
 30
0.0
 11
1.0
 21
80.055499999999995
 31
0.0
  0
LINE
  5
B7
  8
0
 10
1.0
 20
81.5
 30
0.0
 11
1.0
 21
81.884200000000007
 31
0.0
  0
LINE
  5
B8
  8
0
 10
1.0
 20
81.884200000000007
 30
0.0
 11
1.0
 21
82.243899999999996
 31
0.0
  0
LINE
  5
B9
  8
0
 10
1.0
 20
82.243899999999996
 30
0.0
 11
1.0
 21
82.560299999999998
 31
0.0
  0
LINE
  5
BA
  8
0
 10
1.0
 20
82.560299999999998
 30
0.0
 11
1.0
 21
82.800700000000006
 31
0.0
  0
LINE
  5
BB
  8
0
 10
1.0
 20
82.800700000000006
 30
0.0
 11
1.0
 21
82.944500000000005
 31
0.0
  0
LINE
  5
BC
  8
0
 10
1.0
 20
82.944500000000005
 30
0.0
 11
1.0
 21
83.0
 31
0.0
  0
LINE
  5
BD
  8
0
 10
1.0
 20
87.115799999999993
 30
0.0
 11
1.0
 21
87.5
 31
0.0
  0
LINE
  5
BE
  8
0
 10
1.0
 20
86.756100000000004
 30
0.0
 11
1.0
 21
87.115799999999993
 31
0.0
  0
LINE
  5
BF
  8
0
 10
1.0
 20
86.439700000000016
 30
0.0
 11
1.0
 21
86.756100000000004
 31
0.0
  0
LINE
  5
C0
  8
0
 10
1.0
 20
86.199399999999983
 30
0.0
 11
1.0
 21
86.439700000000016
 31
0.0
  0
LINE
  5
C1
  8
0
 10
1.0
 20
86.055499999999995
 30
0.0
 11
1.0
 21
86.199399999999983
 31
0.0
  0
LINE
  5
C2
  8
0
 10
1.0
 20
86.0
 30
0.0
 11
1.0
 21
86.055499999999995
 31
0.0
  0
LINE
  5
C3
  8
0
 10
1.0
 20
87.5
 30
0.0
 11
1.0
 21
87.884200000000007
 31
0.0
  0
LINE
  5
C4
  8
0
 10
1.0
 20
87.884200000000007
 30
0.0
 11
1.0
 21
88.243899999999996
 31
0.0
  0
LINE
  5
C5
  8
0
 10
1.0
 20
88.243899999999996
 30
0.0
 11
1.0
 21
88.560299999999998
 31
0.0
  0
LINE
  5
C6
  8
0
 10
1.0
 20
88.560299999999998
 30
0.0
 11
1.0
 21
88.800700000000006
 31
0.0
  0
LINE
  5
C7
  8
0
 10
1.0
 20
88.800700000000006
 30
0.0
 11
1.0
 21
88.944500000000005
 31
0.0
  0
LINE
  5
C8
  8
0
 10
1.0
 20
88.944500000000005
 30
0.0
 11
1.0
 21
89.0
 31
0.0
  0
LINE
  5
C9
  8
0
 10
1.0
 20
93.115799999999993
 30
0.0
 11
1.0
 21
93.499999999999986
 31
0.0
  0
LINE
  5
CA
  8
0
 10
1.0
 20
92.756100000000004
 30
0.0
 11
1.0
 21
93.115799999999993
 31
0.0
  0
LINE
  5
CB
  8
0
 10
1.0
 20
92.439700000000002
 30
0.0
 11
1.0
 21
92.756100000000004
 31
0.0
  0
LINE
  5
CC
  8
0
 10
1.0
 20
92.199399999999983
 30
0.0
 11
1.0
 21
92.439700000000002
 31
0.0
  0
LINE
  5
CD
  8
0
 10
1.0
 20
92.055499999999995
 30
0.0
 11
1.0
 21
92.199399999999983
 31
0.0
  0
LINE
  5
CE
  8
0
 10
1.0
 20
92.0
 30
0.0
 11
1.0
 21
92.055499999999995
 31
0.0
  0
LINE
  5
CF
  8
0
 10
1.0
 20
93.499999999999986
 30
0.0
 11
1.0
 21
93.884200000000007
 31
0.0
  0
LINE
  5
D0
  8
0
 10
1.0
 20
93.884200000000007
 30
0.0
 11
1.0
 21
94.243899999999996
 31
0.0
  0
LINE
  5
D1
  8
0
 10
1.0
 20
94.243899999999996
 30
0.0
 11
1.0
 21
94.560299999999998
 31
0.0
  0
LINE
  5
D2
  8
0
 10
1.0
 20
94.560299999999998
 30
0.0
 11
1.0
 21
94.800700000000006
 31
0.0
  0
LINE
  5
D3
  8
0
 10
1.0
 20
94.800700000000006
 30
0.0
 11
1.0
 21
94.944500000000005
 31
0.0
  0
LINE
  5
D4
  8
0
 10
1.0
 20
94.944500000000005
 30
0.0
 11
1.0
 21
95.0
 31
0.0
  0
LINE
  5
D5
  8
0
 10
1.0
 20
99.115799999999993
 30
0.0
 11
1.0
 21
99.500000000000014
 31
0.0
  0
LINE
  5
D6
  8
0
 10
1.0
 20
98.756100000000004
 30
0.0
 11
1.0
 21
99.115799999999993
 31
0.0
  0
LINE
  5
D7
  8
0
 10
1.0
 20
98.439700000000002
 30
0.0
 11
1.0
 21
98.756100000000004
 31
0.0
  0
LINE
  5
D8
  8
0
 10
1.0
 20
98.199399999999997
 30
0.0
 11
1.0
 21
98.439700000000002
 31
0.0
  0
LINE
  5
D9
  8
0
 10
1.0
 20
98.055499999999995
 30
0.0
 11
1.0
 21
98.199399999999997
 31
0.0
  0
LINE
  5
DA
  8
0
 10
1.0
 20
98.0
 30
0.0
 11
1.0
 21
98.055499999999995
 31
0.0
  0
LINE
  5
DB
  8
0
 10
1.0
 20
99.500000000000014
 30
0.0
 11
1.0
 21
99.884200000000007
 31
0.0
  0
LINE
  5
DC
  8
0
 10
1.0
 20
99.884200000000007
 30
0.0
 11
1.0
 21
100.2439999999999
 31
0.0
  0
LINE
  5
DD
  8
0
 10
1.0
 20
100.2439999999999
 30
0.0
 11
1.0
 21
100.56
 31
0.0
  0
LINE
  5
DE
  8
0
 10
1.0
 20
100.56
 30
0.0
 11
1.0
 21
100.801
 31
0.0
  0
LINE
  5
DF
  8
0
 10
1.0
 20
100.801
 30
0.0
 11
1.0
 21
100.94499999999989
 31
0.0
  0
LINE
  5
E0
  8
0
 10
0.523255
 20
100.66500000000001
 30
0.0
 11
1.0
 21
101.0
 31
0.0
  0
LINE
  5
E1
  8
0
 10
1.0
 20
105.116
 30
0.0
 11
1.0
 21
105.4999999999999
 31
0.0
  0
LINE
  5
E2
  8
0
 10
1.0
 20
104.756
 30
0.0
 11
1.0
 21
105.116
 31
0.0
  0
LINE
  5
E3
  8
0
 10
1.0
 20
104.4399999999999
 30
0.0
 11
1.0
 21
104.756
 31
0.0
  0
LINE
  5
E4
  8
0
 10
1.0
 20
104.1989999999999
 30
0.0
 11
1.0
 21
104.4399999999999
 31
0.0
  0
LINE
  5
E5
  8
0
 10
1.0
 20
104.05500000000001
 30
0.0
 11
1.0
 21
104.1989999999999
 31
0.0
  0
LINE
  5
E6
  8
0
 10
1.0
 20
104.0
 30
0.0
 11
1.0
 21
104.05500000000001
 31
0.0
  0
LINE
  5
E7
  8
0
 10
1.0
 20
105.4999999999999
 30
0.0
 11
1.0
 21
105.884
 31
0.0
  0
LINE
  5
E8
  8
0
 10
1.0
 20
105.884
 30
0.0
 11
1.0
 21
106.244
 31
0.0
  0
LINE
  5
E9
  8
0
 10
1.0
 20
106.244
 30
0.0
 11
1.0
 21
106.56
 31
0.0
  0
LINE
  5
EA
  8
0
 10
1.0
 20
106.56
 30
0.0
 11
1.0
 21
106.801
 31
0.0
  0
LINE
  5
EB
  8
0
 10
1.0
 20
106.801
 30
0.0
 11
1.0
 21
106.94499999999999
 31
0.0
  0
LINE
  5
EC
  8
0
 10
0.523255
 20
106.66500000000001
 30
0.0
 11
1.0
 21
107.0
 31
0.0
  0
LINE
  5
ED
  8
0
 10
1.0
 20
111.1159999999999
 30
0.0
 11
1.0
 21
111.4999999999999
 31
0.0
  0
LINE
  5
EE
  8
0
 10
1.0
 20
110.756
 30
0.0
 11
1.0
 21
111.1159999999999
 31
0.0
  0
LINE
  5
EF
  8
0
 10
1.0
 20
110.44
 30
0.0
 11
1.0
 21
110.756
 31
0.0
  0
LINE
  5
F0
  8
0
 10
1.0
 20
110.199
 30
0.0
 11
1.0
 21
110.44
 31
0.0
  0
LINE
  5
F1
  8
0
 10
1.0
 20
110.05500000000001
 30
0.0
 11
1.0
 21
110.199
 31
0.0
  0
LINE
  5
F2
  8
0
 10
1.0
 20
110.0
 30
0.0
 11
1.0
 21
110.05500000000001
 31
0.0
  0
LINE
  5
F3
  8
0
 10
1.0
 20
111.4999999999999
 30
0.0
 11
1.0
 21
111.884
 31
0.0
  0
LINE
  5
F4
  8
0
 10
1.0
 20
111.884
 30
0.0
 11
1.0
 21
112.244
 31
0.0
  0
LINE
  5
F5
  8
0
 10
1.0
 20
112.244
 30
0.0
 11
1.0
 21
112.56
 31
0.0
  0
LINE
  5
F6
  8
0
 10
1.0
 20
112.56
 30
0.0
 11
1.0
 21
112.8009999999999
 31
0.0
  0
LINE
  5
F7
  8
0
 10
1.0
 20
112.8009999999999
 30
0.0
 11
1.0
 21
112.94499999999999
 31
0.0
  0
LINE
  5
F8
  8
0
 10
0.523255
 20
112.66500000000001
 30
0.0
 11
1.0
 21
113.0
 31
0.0
  0
LINE
  5
F9
  8
0
 10
1.0
 20
112.94499999999999
 30
0.0
 11
1.0
 21
113.0
 31
0.0
  0
LINE
  5
FA
  8
0
 10
1.0
 20
106.94499999999999
 30
0.0
 11
1.0
 21
107.0
 31
0.0
  0
LINE
  5
FB
  8
0
 10
1.0
 20
100.94499999999989
 30
0.0
 11
1.0
 21
101.0
 31
0.0
  0
LINE
  5
FC
  8
0
 10
1.0
 20
76.944500000000005
 30
0.0
 11
1.0
 21
77.0
 31
0.0
  0
LINE
  5
FD
  8
0
 10
1.0
 20
70.944500000000005
 30
0.0
 11
1.0
 21
71.0
 31
0.0
  0
LINE
  5
FE
  8
0
 10
1.0
 20
64.944500000000005
 30
0.0
 11
1.0
 21
65.0
 31
0.0
  0
LINE
  5
FF
  8
0
 10
0.116279
 20
64.113100000000003
 30
0.0
 11
0.523255
 21
64.664900000000003
 31
0.0
  0
LINE
  5
100
  8
0
 10
1.0
 20
58.800699999999992
 30
0.0
 11
1.0
 21
58.944499999999991
 31
0.0
  0
LINE
  5
101
  8
0
 10
0.523255
 20
58.664900000000003
 30
0.0
 11
1.0
 21
59.0
 31
0.0
  0
LINE
  5
102
  8
0
 10
1.0
 20
58.944499999999991
 30
0.0
 11
1.0
 21
59.0
 31
0.0
  0
LINE
  5
103
  8
0
 10
0.116279
 20
58.113100000000003
 30
0.0
 11
0.523255
 21
58.664900000000003
 31
0.0
  0
LINE
  5
104
  8
0
 10
0.0
 20
57.5
 30
0.0
 11
0.116279
 21
58.113100000000003
 31
0.0
  0
LINE
  5
105
  8
0
 10
0.0
 20
57.5
 30
0.0
 11
0.116279
 21
56.886899999999997
 31
0.0
  0
LINE
  5
106
  8
0
 10
1.0
 20
51.0
 30
0.0
 11
1.0
 21
119.0
 31
0.0
  0
LINE
  5
107
  8
0
 10
1.0
 20
51.0
 30
0.0
 11
1.3
 21
50.299999999999997
 31
0.0
  0
LINE
  5
108
  8
0
 10
1.3
 20
50.299999999999997
 30
0.0
 11
1.5
 21
50.299999999999997
 31
0.0
  0
LINE
  5
109
  8
0
 10
1.3
 20
50.299999999999997
 30
0.0
 11
2.0
 21
50.0
 31
0.0
  0
LINE
  5
10A
  8
0
 10
1.3
 20
51.0
 30
0.0
 11
1.3
 21
119.0
 31
0.0
  0
LINE
  5
10B
  8
0
 10
1.3
 20
51.0
 30
0.0
 11
1.5
 21
50.299999999999997
 31
0.0
  0
LINE
  5
10C
  8
0
 10
1.0
 20
119.0
 30
0.0
 11
1.3
 21
119.7
 31
0.0
  0
LINE
  5
10D
  8
0
 10
1.0
 20
119.0
 30
0.0
 11
1.0
 21
51.0
 31
0.0
  0
LINE
  5
10E
  8
0
 10
1.3
 20
119.0
 30
0.0
 11
1.5
 21
119.7
 31
0.0
  0
LINE
  5
10F
  8
0
 10
1.3
 20
119.0
 30
0.0
 11
1.3
 21
51.0
 31
0.0
  0
LINE
  5
110
  8
0
 10
1.3
 20
119.7
 30
0.0
 11
2.0
 21
120.0
 31
0.0
  0
LINE
  5
111
  8
0
 10
1.3
 20
119.7
 30
0.0
 11
1.5
 21
119.7
 31
0.0
  0
LINE
  5
112
  8
0
 10
1.3
 20
49.0
 30
0.0
 11
1.5
 21
49.700000000000003
 31
0.0
  0
LINE
  5
113
  8
0
 10
1.3
 20
49.0
 30
0.0
 11
1.3
 21
1.0
 31
0.0
  0
LINE
  5
114
  8
0
 10
2.0
 20
-0.0000000000000013
 30
0.0
 11
120.0
 21
-0.0000000000000013
 31
0.0
  0
LINE
  5
115
  8
0
 10
2.0
 20
0.3
 30
0.0
 11
120.0
 21
0.3
 31
0.0
  0
LINE
  5
116
  8
0
 10
1.5
 20
0.3
 30
0.0
 11
2.0
 21
0.3
 31
0.0
  0
LINE
  5
117
  8
0
 10
2.0
 20
-0.0000000000000013
 30
0.0
 11
120.0
 21
-0.0000000000000013
 31
0.0
  0
LINE
  5
118
  8
0
 10
2.0
 20
0.3
 30
0.0
 11
120.0
 21
0.3
 31
0.0
  0
LINE
  5
119
  8
0
 10
120.5
 20
0.3
 30
0.0
 11
120.7
 21
1.0
 31
0.0
  0
LINE
  5
11A
  8
0
 10
120.5
 20
0.3
 30
0.0
 11
120.7
 21
1.0
 31
0.0
  0
LINE
  5
11B
  8
0
 10
120.5
 20
0.3
 30
0.0
 11
120.7
 21
0.3
 31
0.0
  0
LINE
  5
11C
  8
0
 10
120.0
 20
0.3
 30
0.0
 11
120.5
 21
0.3
 31
0.0
  0
LINE
  5
11D
  8
0
 10
2.0
 20
49.700000000000003
 30
0.0
 11
120.0
 21
49.700000000000003
 31
0.0
  0
LINE
  5
11E
  8
0
 10
120.7
 20
0.2999999999999989
 30
0.0
 11
121.0
 21
0.9999999999999989
 31
0.0
  0
LINE
  5
11F
  8
0
 10
120.7
 20
49.0
 30
0.0
 11
120.7
 21
1.0
 31
0.0
  0
LINE
  5
120
  8
0
 10
121.0
 20
49.0
 30
0.0
 11
121.0
 21
1.0
 31
0.0
  0
LINE
  5
121
  8
0
 10
121.0
 20
1.0
 30
0.0
 11
121.0
 21
49.0
 31
0.0
  0
LINE
  5
122
  8
0
 10
120.7
 20
1.0
 30
0.0
 11
120.7
 21
49.0
 31
0.0
  0
LINE
  5
123
  8
0
 10
120.7
 20
49.700000000000003
 30
0.0
 11
121.0
 21
49.0
 31
0.0
  0
LINE
  5
124
  8
0
 10
120.5
 20
49.700000000000003
 30
0.0
 11
120.7
 21
49.700000000000003
 31
0.0
  0
LINE
  5
125
  8
0
 10
120.5
 20
49.700000000000003
 30
0.0
 11
120.7
 21
49.0
 31
0.0
  0
LINE
  5
126
  8
0
 10
120.0
 20
49.700000000000003
 30
0.0
 11
120.5
 21
49.700000000000003
 31
0.0
  0
LINE
  5
127
  8
0
 10
2.0
 20
49.700000000000003
 30
0.0
 11
120.0
 21
49.700000000000003
 31
0.0
  0
LINE
  5
128
  8
0
 10
1.5
 20
50.299999999999997
 30
0.0
 11
2.0
 21
50.299999999999997
 31
0.0
  0
LINE
  5
129
  8
0
 10
2.0
 20
50.299999999999997
 30
0.0
 11
120.0
 21
50.299999999999997
 31
0.0
  0
LINE
  5
12A
  8
0
 10
2.0
 20
50.299999999999997
 30
0.0
 11
120.0
 21
50.299999999999997
 31
0.0
  0
LINE
  5
12B
  8
0
 10
2.0
 20
119.7
 30
0.0
 11
120.0
 21
119.7
 31
0.0
  0
LINE
  5
12C
  8
0
 10
2.0
 20
120.0
 30
0.0
 11
120.0
 21
120.0
 31
0.0
  0
LINE
  5
12D
  8
0
 10
2.0
 20
120.0
 30
0.0
 11
120.0
 21
120.0
 31
0.0
  0
LINE
  5
12E
  8
0
 10
2.0
 20
119.7
 30
0.0
 11
120.0
 21
119.7
 31
0.0
  0
LINE
  5
12F
  8
0
 10
1.5
 20
119.7
 30
0.0
 11
2.0
 21
119.7
 31
0.0
  0
LINE
  5
130
  8
0
 10
2.0
 20
50.0
 30
0.0
 11
120.0
 21
50.0
 31
0.0
  0
LINE
  5
131
  8
0
 10
5.0739799999999997
 20
57.1158
 30
0.0
 11
5.2657999999999987
 21
56.756100000000004
 31
0.0
  0
LINE
  5
132
  8
0
 10
5.2657999999999987
 20
56.756100000000004
 30
0.0
 11
5.5862400000000001
 21
56.439700000000002
 31
0.0
  0
LINE
  5
133
  8
0
 10
5.0
 20
57.5
 30
0.0
 11
5.0739799999999997
 21
57.8842
 31
0.0
  0
LINE
  5
134
  8
0
 10
5.0
 20
57.5
 30
0.0
 11
5.0739799999999997
 21
57.1158
 31
0.0
  0
LINE
  5
135
  8
0
 10
5.0739799999999997
 20
57.8842
 30
0.0
 11
5.2657999999999987
 21
58.243899999999996
 31
0.0
  0
LINE
  5
136
  8
0
 10
5.5862400000000001
 20
56.439700000000002
 30
0.0
 11
6.0081699999999989
 21
56.19939999999999
 31
0.0
  0
LINE
  5
137
  8
0
 10
6.0081699999999989
 20
56.19939999999999
 30
0.0
 11
6.4877399999999996
 21
56.055500000000002
 31
0.0
  0
LINE
  5
138
  8
0
 10
5.2657999999999987
 20
58.243899999999996
 30
0.0
 11
5.5862400000000001
 21
58.560299999999998
 31
0.0
  0
LINE
  5
139
  8
0
 10
5.5862400000000001
 20
58.560299999999998
 30
0.0
 11
6.0081699999999989
 21
58.800699999999992
 31
0.0
  0
LINE
  5
13A
  8
0
 10
6.9999999999999902
 20
56.0
 30
0.0
 11
113.0
 21
56.0
 31
0.0
  0
LINE
  5
13D
  8
0
 10
6.4877399999999996
 20
56.055500000000002
 30
0.0
 11
7.0
 21
56.0
 31
0.0
  0
LINE
  5
13F
  8
0
 10
113.992
 20
56.19939999999999
 30
0.0
 11
114.4139999999999
 21
56.439700000000002
 31
0.0
  0
LINE
  5
140
  8
0
 10
113.512
 20
56.055500000000002
 30
0.0
 11
113.992
 21
56.19939999999999
 31
0.0
  0
LINE
  5
142
  8
0
 10
113.0
 20
56.0
 30
0.0
 11
113.512
 21
56.055500000000002
 31
0.0
  0
LINE
  5
144
  8
0
 10
114.73399999999999
 20
56.756100000000004
 30
0.0
 11
114.9259999999999
 21
57.1158
 31
0.0
  0
LINE
  5
145
  8
0
 10
114.4139999999999
 20
56.439700000000002
 30
0.0
 11
114.73399999999999
 21
56.756100000000004
 31
0.0
  0
LINE
  5
148
  8
0
 10
114.9259999999999
 20
57.1158
 30
0.0
 11
115.0
 21
57.5
 31
0.0
  0
LINE
  5
149
  8
0
 10
114.9259999999999
 20
57.8842
 30
0.0
 11
115.0
 21
57.5
 31
0.0
  0
LINE
  5
14A
  8
0
 10
114.73399999999999
 20
58.243899999999996
 30
0.0
 11
114.9259999999999
 21
57.8842
 31
0.0
  0
LINE
  5
14B
  8
0
 10
114.4139999999999
 20
58.560299999999998
 30
0.0
 11
114.73399999999999
 21
58.243899999999996
 31
0.0
  0
LINE
  5
14C
  8
0
 10
113.992
 20
58.800699999999992
 30
0.0
 11
114.4139999999999
 21
58.560299999999998
 31
0.0
  0
LINE
  5
14D
  8
0
 10
113.512
 20
58.944499999999991
 30
0.0
 11
113.992
 21
58.800699999999992
 31
0.0
  0
LINE
  5
14F
  8
0
 10
6.0081699999999989
 20
58.800699999999992
 30
0.0
 11
6.4877399999999996
 21
58.944499999999991
 31
0.0
  0
LINE
  5
150
  8
0
 10
5.0739799999999997
 20
63.1158
 30
0.0
 11
5.2657999999999987
 21
62.756100000000004
 31
0.0
  0
LINE
  5
151
  8
0
 10
5.0
 20
63.5
 30
0.0
 11
5.0739799999999997
 21
63.884199999999993
 31
0.0
  0
LINE
  5
152
  8
0
 10
5.0
 20
63.5
 30
0.0
 11
5.0739799999999997
 21
63.1158
 31
0.0
  0
LINE
  5
153
  8
0
 10
5.2657999999999987
 20
62.756100000000004
 30
0.0
 11
5.5862400000000001
 21
62.439700000000002
 31
0.0
  0
LINE
  5
154
  8
0
 10
5.5862400000000001
 20
62.439700000000002
 30
0.0
 11
6.0081699999999989
 21
62.199399999999997
 31
0.0
  0
LINE
  5
155
  8
0
 10
5.0739799999999997
 20
63.884199999999993
 30
0.0
 11
5.2657999999999987
 21
64.243899999999996
 31
0.0
  0
LINE
  5
156
  8
0
 10
5.2657999999999987
 20
64.243899999999996
 30
0.0
 11
5.5862400000000001
 21
64.560299999999998
 31
0.0
  0
LINE
  5
157
  8
0
 10
6.0081699999999989
 20
62.199399999999997
 30
0.0
 11
6.4877399999999996
 21
62.055500000000002
 31
0.0
  0
LINE
  5
158
  8
0
 10
6.4877399999999996
 20
62.055500000000002
 30
0.0
 11
7.0
 21
62.0
 31
0.0
  0
LINE
  5
159
  8
0
 10
5.5862400000000001
 20
64.560299999999998
 30
0.0
 11
6.0081699999999989
 21
64.800700000000006
 31
0.0
  0
LINE
  5
15A
  8
0
 10
5.0739799999999997
 20
69.115799999999993
 30
0.0
 11
5.2657999999999987
 21
68.756100000000004
 31
0.0
  0
LINE
  5
15B
  8
0
 10
5.0
 20
69.5
 30
0.0
 11
5.0739799999999997
 21
69.884200000000007
 31
0.0
  0
LINE
  5
15C
  8
0
 10
5.0
 20
69.5
 30
0.0
 11
5.0739799999999997
 21
69.115799999999993
 31
0.0
  0
LINE
  5
15D
  8
0
 10
5.0739799999999997
 20
69.884200000000007
 30
0.0
 11
5.2657999999999987
 21
70.243899999999996
 31
0.0
  0
LINE
  5
15E
  8
0
 10
5.0739799999999997
 20
75.115799999999993
 30
0.0
 11
5.2657999999999987
 21
74.756100000000004
 31
0.0
  0
LINE
  5
15F
  8
0
 10
5.0
 20
75.5
 30
0.0
 11
5.0739799999999997
 21
75.884200000000007
 31
0.0
  0
LINE
  5
160
  8
0
 10
5.0
 20
75.5
 30
0.0
 11
5.0739799999999997
 21
75.115799999999993
 31
0.0
  0
LINE
  5
161
  8
0
 10
5.2657999999999987
 20
68.756100000000004
 30
0.0
 11
5.5862400000000001
 21
68.439700000000002
 31
0.0
  0
LINE
  5
162
  8
0
 10
5.5862400000000001
 20
68.439700000000002
 30
0.0
 11
6.0081699999999989
 21
68.199399999999983
 31
0.0
  0
LINE
  5
163
  8
0
 10
5.2657999999999987
 20
70.243899999999996
 30
0.0
 11
5.5862400000000001
 21
70.560299999999984
 31
0.0
  0
LINE
  5
164
  8
0
 10
5.5862400000000001
 20
70.560299999999984
 30
0.0
 11
6.0081699999999989
 21
70.800700000000006
 31
0.0
  0
LINE
  5
165
  8
0
 10
5.2657999999999987
 20
74.756100000000004
 30
0.0
 11
5.5862400000000001
 21
74.439700000000002
 31
0.0
  0
LINE
  5
166
  8
0
 10
5.5862400000000001
 20
74.439700000000002
 30
0.0
 11
6.0081699999999989
 21
74.199399999999997
 31
0.0
  0
LINE
  5
167
  8
0
 10
5.0739799999999997
 20
75.884200000000007
 30
0.0
 11
5.2657999999999987
 21
76.243899999999996
 31
0.0
  0
LINE
  5
168
  8
0
 10
5.2657999999999987
 20
76.243899999999996
 30
0.0
 11
5.5862400000000001
 21
76.560299999999998
 31
0.0
  0
LINE
  5
169
  8
0
 10
6.0081699999999989
 20
68.199399999999983
 30
0.0
 11
6.4877399999999996
 21
68.055499999999995
 31
0.0
  0
LINE
  5
16A
  8
0
 10
6.4877399999999996
 20
68.055499999999995
 30
0.0
 11
7.0
 21
68.0
 31
0.0
  0
LINE
  5
16B
  8
0
 10
6.0081699999999989
 20
70.800700000000006
 30
0.0
 11
6.4877399999999996
 21
70.944500000000005
 31
0.0
  0
LINE
  5
16C
  8
0
 10
6.4877399999999996
 20
70.944500000000005
 30
0.0
 11
7.0
 21
71.0
 31
0.0
  0
LINE
  5
16D
  8
0
 10
6.0081699999999989
 20
74.199399999999997
 30
0.0
 11
6.4877399999999996
 21
74.055499999999995
 31
0.0
  0
LINE
  5
16E
  8
0
 10
6.4877399999999996
 20
74.055499999999995
 30
0.0
 11
7.0
 21
74.0
 31
0.0
  0
LINE
  5
16F
  8
0
 10
5.5862400000000001
 20
76.560299999999998
 30
0.0
 11
6.0081699999999989
 21
76.800700000000006
 31
0.0
  0
LINE
  5
170
  8
0
 10
5.0
 20
81.5
 30
0.0
 11
5.0739799999999997
 21
81.884200000000007
 31
0.0
  0
LINE
  5
171
  8
0
 10
5.0
 20
81.5
 30
0.0
 11
5.0739799999999997
 21
81.115799999999993
 31
0.0
  0
LINE
  5
172
  8
0
 10
5.0739799999999997
 20
81.115799999999993
 30
0.0
 11
5.2657999999999987
 21
80.756100000000004
 31
0.0
  0
LINE
  5
173
  8
0
 10
5.0739799999999997
 20
81.884200000000007
 30
0.0
 11
5.2657999999999987
 21
82.243899999999996
 31
0.0
  0
LINE
  5
174
  8
0
 10
5.0739799999999997
 20
87.115799999999993
 30
0.0
 11
5.2657999999999987
 21
86.756100000000004
 31
0.0
  0
LINE
  5
175
  8
0
 10
5.0
 20
87.5
 30
0.0
 11
5.0739799999999997
 21
87.884200000000007
 31
0.0
  0
LINE
  5
176
  8
0
 10
5.0
 20
87.5
 30
0.0
 11
5.0739799999999997
 21
87.115799999999993
 31
0.0
  0
LINE
  5
177
  8
0
 10
5.0739799999999997
 20
87.884200000000007
 30
0.0
 11
5.2657999999999987
 21
88.243899999999996
 31
0.0
  0
LINE
  5
178
  8
0
 10
5.0739799999999997
 20
93.115799999999993
 30
0.0
 11
5.2657999999999987
 21
92.756100000000004
 31
0.0
  0
LINE
  5
179
  8
0
 10
5.0
 20
93.499999999999986
 30
0.0
 11
5.0739799999999997
 21
93.884200000000007
 31
0.0
  0
LINE
  5
17A
  8
0
 10
5.0
 20
93.499999999999986
 30
0.0
 11
5.0739799999999997
 21
93.115799999999993
 31
0.0
  0
LINE
  5
17B
  8
0
 10
5.2657999999999987
 20
80.756100000000004
 30
0.0
 11
5.5862400000000001
 21
80.439699999999988
 31
0.0
  0
LINE
  5
17C
  8
0
 10
5.5862400000000001
 20
80.439699999999988
 30
0.0
 11
6.0081699999999989
 21
80.199399999999997
 31
0.0
  0
LINE
  5
17D
  8
0
 10
5.2657999999999987
 20
82.243899999999996
 30
0.0
 11
5.5862400000000001
 21
82.560299999999998
 31
0.0
  0
LINE
  5
17E
  8
0
 10
5.5862400000000001
 20
82.560299999999998
 30
0.0
 11
6.0081699999999989
 21
82.800700000000006
 31
0.0
  0
LINE
  5
17F
  8
0
 10
5.2657999999999987
 20
86.756100000000004
 30
0.0
 11
5.5862400000000001
 21
86.439700000000016
 31
0.0
  0
LINE
  5
180
  8
0
 10
5.5862400000000001
 20
86.439700000000016
 30
0.0
 11
6.0081699999999989
 21
86.199399999999983
 31
0.0
  0
LINE
  5
181
  8
0
 10
5.2657999999999987
 20
88.243899999999996
 30
0.0
 11
5.5862400000000001
 21
88.560299999999998
 31
0.0
  0
LINE
  5
182
  8
0
 10
5.5862400000000001
 20
88.560299999999998
 30
0.0
 11
6.0081699999999989
 21
88.800700000000006
 31
0.0
  0
LINE
  5
183
  8
0
 10
5.2657999999999987
 20
92.756100000000004
 30
0.0
 11
5.5862400000000001
 21
92.439700000000002
 31
0.0
  0
LINE
  5
184
  8
0
 10
5.5862400000000001
 20
92.439700000000002
 30
0.0
 11
6.0081699999999989
 21
92.199399999999983
 31
0.0
  0
LINE
  5
185
  8
0
 10
5.0739799999999997
 20
93.884200000000007
 30
0.0
 11
5.2657999999999987
 21
94.243899999999996
 31
0.0
  0
LINE
  5
186
  8
0
 10
5.2657999999999987
 20
94.243899999999996
 30
0.0
 11
5.5862400000000001
 21
94.560299999999998
 31
0.0
  0
LINE
  5
187
  8
0
 10
6.0081699999999989
 20
80.199399999999997
 30
0.0
 11
6.4877399999999996
 21
80.055499999999995
 31
0.0
  0
LINE
  5
188
  8
0
 10
6.4877399999999996
 20
80.055499999999995
 30
0.0
 11
7.0
 21
80.0
 31
0.0
  0
LINE
  5
189
  8
0
 10
6.0081699999999989
 20
82.800700000000006
 30
0.0
 11
6.4877399999999996
 21
82.944500000000005
 31
0.0
  0
LINE
  5
18A
  8
0
 10
6.4877399999999996
 20
82.944500000000005
 30
0.0
 11
7.0
 21
83.0
 31
0.0
  0
LINE
  5
18B
  8
0
 10
6.0081699999999989
 20
86.199399999999983
 30
0.0
 11
6.4877399999999996
 21
86.055499999999995
 31
0.0
  0
LINE
  5
18C
  8
0
 10
6.4877399999999996
 20
86.055499999999995
 30
0.0
 11
7.0
 21
86.0
 31
0.0
  0
LINE
  5
18D
  8
0
 10
6.0081699999999989
 20
88.800700000000006
 30
0.0
 11
6.4877399999999996
 21
88.944500000000005
 31
0.0
  0
LINE
  5
18E
  8
0
 10
6.4877399999999996
 20
88.944500000000005
 30
0.0
 11
7.0
 21
89.0
 31
0.0
  0
LINE
  5
18F
  8
0
 10
6.0081699999999989
 20
92.199399999999983
 30
0.0
 11
6.4877399999999996
 21
92.055499999999995
 31
0.0
  0
LINE
  5
190
  8
0
 10
6.4877399999999996
 20
92.055499999999995
 30
0.0
 11
7.0
 21
92.0
 31
0.0
  0
LINE
  5
191
  8
0
 10
5.5862400000000001
 20
94.560299999999998
 30
0.0
 11
6.0081699999999989
 21
94.800700000000006
 31
0.0
  0
LINE
  5
192
  8
0
 10
5.0739799999999997
 20
99.115799999999993
 30
0.0
 11
5.2657999999999987
 21
98.756100000000004
 31
0.0
  0
LINE
  5
193
  8
0
 10
5.0
 20
99.500000000000014
 30
0.0
 11
5.0739799999999997
 21
99.884200000000007
 31
0.0
  0
LINE
  5
194
  8
0
 10
5.0
 20
99.500000000000014
 30
0.0
 11
5.0739799999999997
 21
99.115799999999993
 31
0.0
  0
LINE
  5
195
  8
0
 10
5.2657999999999987
 20
98.756100000000004
 30
0.0
 11
5.5862400000000001
 21
98.439700000000002
 31
0.0
  0
LINE
  5
196
  8
0
 10
5.5862400000000001
 20
98.439700000000002
 30
0.0
 11
6.0081699999999989
 21
98.199399999999997
 31
0.0
  0
LINE
  5
197
  8
0
 10
5.0739799999999997
 20
99.884200000000007
 30
0.0
 11
5.2657999999999987
 21
100.2439999999999
 31
0.0
  0
LINE
  5
198
  8
0
 10
5.2657999999999987
 20
100.2439999999999
 30
0.0
 11
5.5862400000000001
 21
100.56
 31
0.0
  0
LINE
  5
199
  8
0
 10
6.0081699999999989
 20
98.199399999999997
 30
0.0
 11
6.4877399999999996
 21
98.055499999999995
 31
0.0
  0
LINE
  5
19A
  8
0
 10
6.4877399999999996
 20
98.055499999999995
 30
0.0
 11
7.0
 21
98.0
 31
0.0
  0
LINE
  5
19B
  8
0
 10
5.5862400000000001
 20
100.56
 30
0.0
 11
6.0081699999999989
 21
100.801
 31
0.0
  0
LINE
  5
19C
  8
0
 10
5.0739799999999997
 20
105.116
 30
0.0
 11
5.2657999999999987
 21
104.756
 31
0.0
  0
LINE
  5
19D
  8
0
 10
5.0
 20
105.4999999999999
 30
0.0
 11
5.0739799999999997
 21
105.884
 31
0.0
  0
LINE
  5
19E
  8
0
 10
5.0
 20
105.4999999999999
 30
0.0
 11
5.0739799999999997
 21
105.116
 31
0.0
  0
LINE
  5
19F
  8
0
 10
5.0739799999999997
 20
105.884
 30
0.0
 11
5.2657999999999987
 21
106.244
 31
0.0
  0
LINE
  5
1A0
  8
0
 10
5.0739799999999997
 20
111.1159999999999
 30
0.0
 11
5.2657999999999987
 21
110.756
 31
0.0
  0
LINE
  5
1A1
  8
0
 10
5.0
 20
111.4999999999999
 30
0.0
 11
5.0739799999999997
 21
111.884
 31
0.0
  0
LINE
  5
1A2
  8
0
 10
5.0
 20
111.4999999999999
 30
0.0
 11
5.0739799999999997
 21
111.1159999999999
 31
0.0
  0
LINE
  5
1A3
  8
0
 10
5.2657999999999987
 20
104.756
 30
0.0
 11
5.5862400000000001
 21
104.4399999999999
 31
0.0
  0
LINE
  5
1A4
  8
0
 10
5.5862400000000001
 20
104.4399999999999
 30
0.0
 11
6.0081699999999989
 21
104.1989999999999
 31
0.0
  0
LINE
  5
1A5
  8
0
 10
5.2657999999999987
 20
106.244
 30
0.0
 11
5.5862400000000001
 21
106.56
 31
0.0
  0
LINE
  5
1A6
  8
0
 10
5.5862400000000001
 20
106.56
 30
0.0
 11
6.0081699999999989
 21
106.801
 31
0.0
  0
LINE
  5
1A7
  8
0
 10
5.2657999999999987
 20
110.756
 30
0.0
 11
5.5862400000000001
 21
110.44
 31
0.0
  0
LINE
  5
1A8
  8
0
 10
5.5862400000000001
 20
110.44
 30
0.0
 11
6.0081699999999989
 21
110.199
 31
0.0
  0
LINE
  5
1A9
  8
0
 10
5.0739799999999997
 20
111.884
 30
0.0
 11
5.2657999999999987
 21
112.244
 31
0.0
  0
LINE
  5
1AA
  8
0
 10
5.2657999999999987
 20
112.244
 30
0.0
 11
5.5862400000000001
 21
112.56
 31
0.0
  0
LINE
  5
1AB
  8
0
 10
6.0081699999999989
 20
104.1989999999999
 30
0.0
 11
6.4877399999999996
 21
104.05500000000001
 31
0.0
  0
LINE
  5
1AC
  8
0
 10
6.4877399999999996
 20
104.05500000000001
 30
0.0
 11
7.0
 21
104.0
 31
0.0
  0
LINE
  5
1AD
  8
0
 10
6.0081699999999989
 20
106.801
 30
0.0
 11
6.4877399999999996
 21
106.94499999999999
 31
0.0
  0
LINE
  5
1AE
  8
0
 10
6.4877399999999996
 20
106.94499999999999
 30
0.0
 11
7.0
 21
107.0
 31
0.0
  0
LINE
  5
1AF
  8
0
 10
6.0081699999999989
 20
110.199
 30
0.0
 11
6.4877399999999996
 21
110.05500000000001
 31
0.0
  0
LINE
  5
1B0
  8
0
 10
6.4877399999999996
 20
110.05500000000001
 30
0.0
 11
7.0
 21
110.0
 31
0.0
  0
LINE
  5
1B1
  8
0
 10
5.5862400000000001
 20
112.56
 30
0.0
 11
6.0081699999999989
 21
112.8009999999999
 31
0.0
  0
LINE
  5
1B2
  8
0
 10
6.0081699999999989
 20
112.8009999999999
 30
0.0
 11
6.4877399999999996
 21
112.94499999999999
 31
0.0
  0
LINE
  5
1B3
  8
0
 10
6.4877399999999996
 20
112.94499999999999
 30
0.0
 11
7.0
 21
113.0
 31
0.0
  0
LINE
  5
1B4
  8
0
 10
6.0081699999999989
 20
100.801
 30
0.0
 11
6.4877399999999996
 21
100.94499999999989
 31
0.0
  0
LINE
  5
1B5
  8
0
 10
6.4877399999999996
 20
100.94499999999989
 30
0.0
 11
7.0
 21
101.0
 31
0.0
  0
LINE
  5
1B6
  8
0
 10
6.0081699999999989
 20
94.800700000000006
 30
0.0
 11
6.4877399999999996
 21
94.944500000000005
 31
0.0
  0
LINE
  5
1B7
  8
0
 10
6.4877399999999996
 20
94.944500000000005
 30
0.0
 11
7.0
 21
95.0
 31
0.0
  0
LINE
  5
1B8
  8
0
 10
6.0081699999999989
 20
76.800700000000006
 30
0.0
 11
6.4877399999999996
 21
76.944500000000005
 31
0.0
  0
LINE
  5
1B9
  8
0
 10
6.4877399999999996
 20
76.944500000000005
 30
0.0
 11
7.0
 21
77.0
 31
0.0
  0
LINE
  5
1BA
  8
0
 10
6.0081699999999989
 20
64.800700000000006
 30
0.0
 11
6.4877399999999996
 21
64.944500000000005
 31
0.0
  0
LINE
  5
1BB
  8
0
 10
6.9999999999999902
 20
62.0
 30
0.0
 11
113.0
 21
62.0
 31
0.0
  0
LINE
  5
1C0
  8
0
 10
113.0
 20
62.0
 30
0.0
 11
113.512
 21
62.055500000000002
 31
0.0
  0
LINE
  5
1C5
  8
0
 10
6.9999999999999902
 20
68.0
 30
0.0
 11
113.0
 21
68.0
 31
0.0
  0
LINE
  5
1C7
  8
0
 10
7.0
 20
71.0
 30
0.0
 11
113.0
 21
71.0
 31
0.0
  0
LINE
  5
1CB
  8
0
 10
6.9999999999999902
 20
74.0
 30
0.0
 11
113.0
 21
74.0
 31
0.0
  0
LINE
  5
1CD
  8
0
 10
6.9999999999999902
 20
80.0
 30
0.0
 11
113.0
 21
80.0
 31
0.0
  0
LINE
  5
1CE
  8
0
 10
6.9999999999999902
 20
86.0
 30
0.0
 11
113.0
 21
86.0
 31
0.0
  0
LINE
  5
1D1
  8
0
 10
7.0
 20
83.0
 30
0.0
 11
113.0
 21
83.0
 31
0.0
  0
LINE
  5
1D7
  8
0
 10
7.0
 20
89.0
 30
0.0
 11
113.0
 21
89.0
 31
0.0
  0
LINE
  5
1D9
  8
0
 10
6.9999999999999902
 20
92.0
 30
0.0
 11
113.0
 21
92.0
 31
0.0
  0
LINE
  5
1DD
  8
0
 10
6.9999999999999902
 20
98.0
 30
0.0
 11
113.0
 21
98.0
 31
0.0
  0
LINE
  5
1E1
  8
0
 10
6.9999999999999902
 20
104.0
 30
0.0
 11
113.0
 21
104.0
 31
0.0
  0
LINE
  5
1E2
  8
0
 10
7.0
 20
107.0
 30
0.0
 11
113.0
 21
107.0
 31
0.0
  0
LINE
  5
1E3
  8
0
 10
6.9999999999999902
 20
110.0
 30
0.0
 11
113.0
 21
110.0
 31
0.0
  0
LINE
  5
1E4
  8
0
 10
7.0
 20
113.0
 30
0.0
 11
113.0
 21
113.0
 31
0.0
  0
LINE
  5
1E5
  8
0
 10
7.0
 20
101.0
 30
0.0
 11
113.0
 21
101.0
 31
0.0
  0
LINE
  5
1E7
  8
0
 10
7.0
 20
95.0
 30
0.0
 11
113.0
 21
95.0
 31
0.0
  0
LINE
  5
1E9
  8
0
 10
7.0
 20
77.0
 30
0.0
 11
113.0
 21
77.0
 31
0.0
  0
LINE
  5
1ED
  8
0
 10
113.0
 20
68.0
 30
0.0
 11
113.512
 21
68.055499999999995
 31
0.0
  0
LINE
  5
1F0
  8
0
 10
113.0
 20
71.0
 30
0.0
 11
113.512
 21
70.944500000000005
 31
0.0
  0
LINE
  5
1F4
  8
0
 10
113.0
 20
74.0
 30
0.0
 11
113.512
 21
74.055499999999995
 31
0.0
  0
LINE
  5
1F8
  8
0
 10
113.0
 20
80.0
 30
0.0
 11
113.512
 21
80.055499999999995
 31
0.0
  0
LINE
  5
1FB
  8
0
 10
113.0
 20
83.0
 30
0.0
 11
113.512
 21
82.944500000000005
 31
0.0
  0
LINE
  5
1FE
  8
0
 10
113.0
 20
86.0
 30
0.0
 11
113.512
 21
86.055499999999995
 31
0.0
  0
LINE
  5
201
  8
0
 10
113.0
 20
89.0
 30
0.0
 11
113.512
 21
88.944500000000005
 31
0.0
  0
LINE
  5
204
  8
0
 10
113.0
 20
92.0
 30
0.0
 11
113.512
 21
92.055499999999995
 31
0.0
  0
LINE
  5
208
  8
0
 10
113.0
 20
98.0
 30
0.0
 11
113.512
 21
98.055499999999995
 31
0.0
  0
LINE
  5
20A
  8
0
 10
113.0
 20
104.0
 30
0.0
 11
113.512
 21
104.05500000000001
 31
0.0
  0
LINE
  5
20B
  8
0
 10
113.0
 20
107.0
 30
0.0
 11
113.512
 21
106.94499999999999
 31
0.0
  0
LINE
  5
20C
  8
0
 10
113.0
 20
110.0
 30
0.0
 11
113.512
 21
110.05500000000001
 31
0.0
  0
LINE
  5
20D
  8
0
 10
113.0
 20
113.0
 30
0.0
 11
113.512
 21
112.94499999999999
 31
0.0
  0
LINE
  5
20E
  8
0
 10
113.0
 20
101.0
 30
0.0
 11
113.512
 21
100.94499999999989
 31
0.0
  0
LINE
  5
211
  8
0
 10
113.0
 20
95.0
 30
0.0
 11
113.512
 21
94.944500000000005
 31
0.0
  0
LINE
  5
212
  8
0
 10
113.0
 20
77.0
 30
0.0
 11
113.512
 21
76.944500000000005
 31
0.0
  0
LINE
  5
214
  8
0
 10
7.0
 20
65.0
 30
0.0
 11
113.0
 21
65.0
 31
0.0
  0
LINE
  5
215
  8
0
 10
113.0
 20
65.0
 30
0.0
 11
113.512
 21
64.944500000000005
 31
0.0
  0
LINE
  5
217
  8
0
 10
6.4877399999999996
 20
64.944500000000005
 30
0.0
 11
7.0
 21
65.0
 31
0.0
  0
LINE
  5
218
  8
0
 10
7.0
 20
59.0
 30
0.0
 11
113.0
 21
59.0
 31
0.0
  0
LINE
  5
219
  8
0
 10
113.992
 20
62.199399999999997
 30
0.0
 11
114.4139999999999
 21
62.439700000000002
 31
0.0
  0
LINE
  5
21A
  8
0
 10
113.512
 20
62.055500000000002
 30
0.0
 11
113.992
 21
62.199399999999997
 31
0.0
  0
LINE
  5
21B
  8
0
 10
114.73399999999999
 20
62.756100000000004
 30
0.0
 11
114.9259999999999
 21
63.1158
 31
0.0
  0
LINE
  5
21C
  8
0
 10
114.4139999999999
 20
62.439700000000002
 30
0.0
 11
114.73399999999999
 21
62.756100000000004
 31
0.0
  0
LINE
  5
21D
  8
0
 10
114.9259999999999
 20
63.1158
 30
0.0
 11
115.0
 21
63.5
 31
0.0
  0
LINE
  5
21E
  8
0
 10
114.9259999999999
 20
63.884199999999993
 30
0.0
 11
115.0
 21
63.5
 31
0.0
  0
LINE
  5
21F
  8
0
 10
114.73399999999999
 20
64.243899999999996
 30
0.0
 11
114.9259999999999
 21
63.884199999999993
 31
0.0
  0
LINE
  5
220
  8
0
 10
114.4139999999999
 20
64.560299999999998
 30
0.0
 11
114.73399999999999
 21
64.243899999999996
 31
0.0
  0
LINE
  5
221
  8
0
 10
113.992
 20
64.800700000000006
 30
0.0
 11
114.4139999999999
 21
64.560299999999998
 31
0.0
  0
LINE
  5
222
  8
0
 10
113.512
 20
68.055499999999995
 30
0.0
 11
113.992
 21
68.199399999999983
 31
0.0
  0
LINE
  5
223
  8
0
 10
113.512
 20
70.944500000000005
 30
0.0
 11
113.992
 21
70.800700000000006
 31
0.0
  0
LINE
  5
224
  8
0
 10
113.512
 20
80.055499999999995
 30
0.0
 11
113.992
 21
80.199399999999997
 31
0.0
  0
LINE
  5
225
  8
0
 10
113.512
 20
82.944500000000005
 30
0.0
 11
113.992
 21
82.800700000000006
 31
0.0
  0
LINE
  5
226
  8
0
 10
113.512
 20
86.055499999999995
 30
0.0
 11
113.992
 21
86.199399999999983
 31
0.0
  0
LINE
  5
227
  8
0
 10
113.512
 20
88.944500000000005
 30
0.0
 11
113.992
 21
88.800700000000006
 31
0.0
  0
LINE
  5
228
  8
0
 10
113.512
 20
104.05500000000001
 30
0.0
 11
113.992
 21
104.1989999999999
 31
0.0
  0
LINE
  5
229
  8
0
 10
113.512
 20
106.94499999999999
 30
0.0
 11
113.992
 21
106.801
 31
0.0
  0
LINE
  5
22A
  8
0
 10
113.512
 20
110.05500000000001
 30
0.0
 11
113.992
 21
110.199
 31
0.0
  0
LINE
  5
22B
  8
0
 10
113.512
 20
112.94499999999999
 30
0.0
 11
113.992
 21
112.8009999999999
 31
0.0
  0
LINE
  5
22C
  8
0
 10
113.512
 20
98.055499999999995
 30
0.0
 11
113.992
 21
98.199399999999997
 31
0.0
  0
LINE
  5
22D
  8
0
 10
113.512
 20
100.94499999999989
 30
0.0
 11
113.992
 21
100.801
 31
0.0
  0
LINE
  5
22E
  8
0
 10
113.512
 20
92.055499999999995
 30
0.0
 11
113.992
 21
92.199399999999983
 31
0.0
  0
LINE
  5
22F
  8
0
 10
113.512
 20
94.944500000000005
 30
0.0
 11
113.992
 21
94.800700000000006
 31
0.0
  0
LINE
  5
230
  8
0
 10
113.512
 20
74.055499999999995
 30
0.0
 11
113.992
 21
74.199399999999997
 31
0.0
  0
LINE
  5
231
  8
0
 10
113.992
 20
68.199399999999983
 30
0.0
 11
114.4139999999999
 21
68.439700000000002
 31
0.0
  0
LINE
  5
232
  8
0
 10
114.4139999999999
 20
68.439700000000002
 30
0.0
 11
114.73399999999999
 21
68.756100000000004
 31
0.0
  0
LINE
  5
233
  8
0
 10
114.4139999999999
 20
70.560299999999984
 30
0.0
 11
114.73399999999999
 21
70.243899999999996
 31
0.0
  0
LINE
  5
234
  8
0
 10
113.992
 20
70.800700000000006
 30
0.0
 11
114.4139999999999
 21
70.560299999999984
 31
0.0
  0
LINE
  5
235
  8
0
 10
114.4139999999999
 20
74.439700000000002
 30
0.0
 11
114.73399999999999
 21
74.756100000000004
 31
0.0
  0
LINE
  5
236
  8
0
 10
113.992
 20
74.199399999999997
 30
0.0
 11
114.4139999999999
 21
74.439700000000002
 31
0.0
  0
LINE
  5
237
  8
0
 10
114.73399999999999
 20
68.756100000000004
 30
0.0
 11
114.9259999999999
 21
69.115799999999993
 31
0.0
  0
LINE
  5
238
  8
0
 10
114.9259999999999
 20
69.115799999999993
 30
0.0
 11
115.0
 21
69.5
 31
0.0
  0
LINE
  5
239
  8
0
 10
114.9259999999999
 20
69.884200000000007
 30
0.0
 11
115.0
 21
69.5
 31
0.0
  0
LINE
  5
23A
  8
0
 10
114.73399999999999
 20
70.243899999999996
 30
0.0
 11
114.9259999999999
 21
69.884200000000007
 31
0.0
  0
LINE
  5
23B
  8
0
 10
114.9259999999999
 20
75.115799999999993
 30
0.0
 11
115.0
 21
75.5
 31
0.0
  0
LINE
  5
23C
  8
0
 10
114.73399999999999
 20
74.756100000000004
 30
0.0
 11
114.9259999999999
 21
75.115799999999993
 31
0.0
  0
LINE
  5
23D
  8
0
 10
114.9259999999999
 20
75.884200000000007
 30
0.0
 11
115.0
 21
75.5
 31
0.0
  0
LINE
  5
23E
  8
0
 10
114.73399999999999
 20
76.243899999999996
 30
0.0
 11
114.9259999999999
 21
75.884200000000007
 31
0.0
  0
LINE
  5
23F
  8
0
 10
114.4139999999999
 20
76.560299999999998
 30
0.0
 11
114.73399999999999
 21
76.243899999999996
 31
0.0
  0
LINE
  5
240
  8
0
 10
113.992
 20
80.199399999999997
 30
0.0
 11
114.4139999999999
 21
80.439699999999988
 31
0.0
  0
LINE
  5
241
  8
0
 10
113.992
 20
82.800700000000006
 30
0.0
 11
114.4139999999999
 21
82.560299999999998
 31
0.0
  0
LINE
  5
242
  8
0
 10
113.992
 20
86.199399999999983
 30
0.0
 11
114.4139999999999
 21
86.439700000000016
 31
0.0
  0
LINE
  5
243
  8
0
 10
113.992
 20
88.800700000000006
 30
0.0
 11
114.4139999999999
 21
88.560299999999998
 31
0.0
  0
LINE
  5
244
  8
0
 10
113.992
 20
104.1989999999999
 30
0.0
 11
114.4139999999999
 21
104.4399999999999
 31
0.0
  0
LINE
  5
245
  8
0
 10
113.992
 20
106.801
 30
0.0
 11
114.4139999999999
 21
106.56
 31
0.0
  0
LINE
  5
246
  8
0
 10
113.992
 20
110.199
 30
0.0
 11
114.4139999999999
 21
110.44
 31
0.0
  0
LINE
  5
247
  8
0
 10
113.992
 20
112.8009999999999
 30
0.0
 11
114.4139999999999
 21
112.56
 31
0.0
  0
LINE
  5
248
  8
0
 10
113.992
 20
98.199399999999997
 30
0.0
 11
114.4139999999999
 21
98.439700000000002
 31
0.0
  0
LINE
  5
249
  8
0
 10
113.992
 20
100.801
 30
0.0
 11
114.4139999999999
 21
100.56
 31
0.0
  0
LINE
  5
24A
  8
0
 10
113.992
 20
92.199399999999983
 30
0.0
 11
114.4139999999999
 21
92.439700000000002
 31
0.0
  0
LINE
  5
24B
  8
0
 10
114.4139999999999
 20
80.439699999999988
 30
0.0
 11
114.73399999999999
 21
80.756100000000004
 31
0.0
  0
LINE
  5
24C
  8
0
 10
114.4139999999999
 20
82.560299999999998
 30
0.0
 11
114.73399999999999
 21
82.243899999999996
 31
0.0
  0
LINE
  5
24D
  8
0
 10
114.4139999999999
 20
86.439700000000016
 30
0.0
 11
114.73399999999999
 21
86.756100000000004
 31
0.0
  0
LINE
  5
24E
  8
0
 10
114.73399999999999
 20
80.756100000000004
 30
0.0
 11
114.9259999999999
 21
81.115799999999993
 31
0.0
  0
LINE
  5
24F
  8
0
 10
114.73399999999999
 20
82.243899999999996
 30
0.0
 11
114.9259999999999
 21
81.884200000000007
 31
0.0
  0
LINE
  5
250
  8
0
 10
114.73399999999999
 20
86.756100000000004
 30
0.0
 11
114.9259999999999
 21
87.115799999999993
 31
0.0
  0
LINE
  5
251
  8
0
 10
114.73399999999999
 20
88.243899999999996
 30
0.0
 11
114.9259999999999
 21
87.884200000000007
 31
0.0
  0
LINE
  5
252
  8
0
 10
114.4139999999999
 20
88.560299999999998
 30
0.0
 11
114.73399999999999
 21
88.243899999999996
 31
0.0
  0
LINE
  5
253
  8
0
 10
114.73399999999999
 20
92.756100000000004
 30
0.0
 11
114.9259999999999
 21
93.115799999999993
 31
0.0
  0
LINE
  5
254
  8
0
 10
114.4139999999999
 20
92.439700000000002
 30
0.0
 11
114.73399999999999
 21
92.756100000000004
 31
0.0
  0
LINE
  5
255
  8
0
 10
114.9259999999999
 20
81.115799999999993
 30
0.0
 11
115.0
 21
81.5
 31
0.0
  0
LINE
  5
256
  8
0
 10
114.9259999999999
 20
81.884200000000007
 30
0.0
 11
115.0
 21
81.5
 31
0.0
  0
LINE
  5
257
  8
0
 10
114.9259999999999
 20
87.115799999999993
 30
0.0
 11
115.0
 21
87.5
 31
0.0
  0
LINE
  5
258
  8
0
 10
114.9259999999999
 20
87.884200000000007
 30
0.0
 11
115.0
 21
87.5
 31
0.0
  0
LINE
  5
259
  8
0
 10
114.9259999999999
 20
93.115799999999993
 30
0.0
 11
115.0
 21
93.499999999999986
 31
0.0
  0
LINE
  5
25A
  8
0
 10
114.9259999999999
 20
93.884200000000007
 30
0.0
 11
115.0
 21
93.499999999999986
 31
0.0
  0
LINE
  5
25B
  8
0
 10
114.73399999999999
 20
94.243899999999996
 30
0.0
 11
114.9259999999999
 21
93.884200000000007
 31
0.0
  0
LINE
  5
25C
  8
0
 10
114.4139999999999
 20
104.4399999999999
 30
0.0
 11
114.73399999999999
 21
104.756
 31
0.0
  0
LINE
  5
25D
  8
0
 10
114.4139999999999
 20
106.56
 30
0.0
 11
114.73399999999999
 21
106.244
 31
0.0
  0
LINE
  5
25E
  8
0
 10
114.4139999999999
 20
110.44
 30
0.0
 11
114.73399999999999
 21
110.756
 31
0.0
  0
LINE
  5
25F
  8
0
 10
114.4139999999999
 20
112.56
 30
0.0
 11
114.73399999999999
 21
112.244
 31
0.0
  0
LINE
  5
260
  8
0
 10
114.4139999999999
 20
98.439700000000002
 30
0.0
 11
114.73399999999999
 21
98.756100000000004
 31
0.0
  0
LINE
  5
261
  8
0
 10
114.9259999999999
 20
99.115799999999993
 30
0.0
 11
115.0
 21
99.500000000000014
 31
0.0
  0
LINE
  5
262
  8
0
 10
114.73399999999999
 20
98.756100000000004
 30
0.0
 11
114.9259999999999
 21
99.115799999999993
 31
0.0
  0
LINE
  5
263
  8
0
 10
114.9259999999999
 20
99.884200000000007
 30
0.0
 11
115.0
 21
99.500000000000014
 31
0.0
  0
LINE
  5
264
  8
0
 10
114.73399999999999
 20
104.756
 30
0.0
 11
114.9259999999999
 21
105.116
 31
0.0
  0
LINE
  5
265
  8
0
 10
114.73399999999999
 20
106.244
 30
0.0
 11
114.9259999999999
 21
105.884
 31
0.0
  0
LINE
  5
266
  8
0
 10
114.73399999999999
 20
110.756
 30
0.0
 11
114.9259999999999
 21
111.1159999999999
 31
0.0
  0
LINE
  5
267
  8
0
 10
114.9259999999999
 20
105.116
 30
0.0
 11
115.0
 21
105.4999999999999
 31
0.0
  0
LINE
  5
268
  8
0
 10
114.9259999999999
 20
105.884
 30
0.0
 11
115.0
 21
105.4999999999999
 31
0.0
  0
LINE
  5
269
  8
0
 10
114.9259999999999
 20
111.1159999999999
 30
0.0
 11
115.0
 21
111.4999999999999
 31
0.0
  0
LINE
  5
26A
  8
0
 10
114.9259999999999
 20
111.884
 30
0.0
 11
115.0
 21
111.4999999999999
 31
0.0
  0
LINE
  5
26B
  8
0
 10
114.73399999999999
 20
112.244
 30
0.0
 11
114.9259999999999
 21
111.884
 31
0.0
  0
LINE
  5
26C
  8
0
 10
114.73399999999999
 20
100.2439999999999
 30
0.0
 11
114.9259999999999
 21
99.884200000000007
 31
0.0
  0
LINE
  5
26D
  8
0
 10
114.4139999999999
 20
100.56
 30
0.0
 11
114.73399999999999
 21
100.2439999999999
 31
0.0
  0
LINE
  5
26E
  8
0
 10
114.4139999999999
 20
94.560299999999998
 30
0.0
 11
114.73399999999999
 21
94.243899999999996
 31
0.0
  0
LINE
  5
26F
  8
0
 10
113.992
 20
94.800700000000006
 30
0.0
 11
114.4139999999999
 21
94.560299999999998
 31
0.0
  0
LINE
  5
270
  8
0
 10
113.992
 20
76.800700000000006
 30
0.0
 11
114.4139999999999
 21
76.560299999999998
 31
0.0
  0
LINE
  5
271
  8
0
 10
113.512
 20
76.944500000000005
 30
0.0
 11
113.992
 21
76.800700000000006
 31
0.0
  0
LINE
  5
272
  8
0
 10
113.512
 20
64.944500000000005
 30
0.0
 11
113.992
 21
64.800700000000006
 31
0.0
  0
LINE
  5
273
  8
0
 10
113.0
 20
59.0
 30
0.0
 11
113.512
 21
58.944499999999991
 31
0.0
  0
LINE
  5
274
  8
0
 10
6.4877399999999996
 20
58.944499999999991
 30
0.0
 11
7.0
 21
59.0
 31
0.0
  0
LINE
  5
275
  8
0
 10
120.0
 20
50.299999999999997
 30
0.0
 11
120.5
 21
50.299999999999997
 31
0.0
  0
LINE
  5
276
  8
0
 10
120.0
 20
120.0
 30
0.0
 11
120.7
 21
119.7
 31
0.0
  0
LINE
  5
277
  8
0
 10
120.5
 20
50.299999999999997
 30
0.0
 11
120.7
 21
51.0
 31
0.0
  0
LINE
  5
278
  8
0
 10
120.5
 20
50.299999999999997
 30
0.0
 11
120.7
 21
50.299999999999997
 31
0.0
  0
LINE
  5
279
  8
0
 10
120.7
 20
119.0
 30
0.0
 11
120.7
 21
51.0
 31
0.0
  0
LINE
  5
27A
  8
0
 10
120.7
 20
51.0
 30
0.0
 11
120.7
 21
119.0
 31
0.0
  0
LINE
  5
27B
  8
0
 10
121.0
 20
56.0
 30
0.0
 11
121.477
 21
56.3352
 31
0.0
  0
LINE
  5
27C
  8
0
 10
121.0
 20
56.0
 30
0.0
 11
121.477
 21
56.335099999999997
 31
0.0
  0
LINE
  5
27D
  8
0
 10
121.0
 20
68.0
 30
0.0
 11
121.477
 21
68.3352
 31
0.0
  0
LINE
  5
27E
  8
0
 10
121.0
 20
68.0
 30
0.0
 11
121.477
 21
68.335099999999997
 31
0.0
  0
LINE
  5
27F
  8
0
 10
121.0
 20
71.0
 30
0.0
 11
121.477
 21
70.664900000000003
 31
0.0
  0
LINE
  5
280
  8
0
 10
121.0
 20
80.0
 30
0.0
 11
121.477
 21
80.335200000000015
 31
0.0
  0
LINE
  5
281
  8
0
 10
121.0
 20
80.0
 30
0.0
 11
121.477
 21
80.335099999999997
 31
0.0
  0
LINE
  5
282
  8
0
 10
121.0
 20
83.0
 30
0.0
 11
121.477
 21
82.664900000000003
 31
0.0
  0
LINE
  5
283
  8
0
 10
121.0
 20
86.0
 30
0.0
 11
121.477
 21
86.3352
 31
0.0
  0
LINE
  5
284
  8
0
 10
121.0
 20
86.0
 30
0.0
 11
121.477
 21
86.335099999999997
 31
0.0
  0
LINE
  5
285
  8
0
 10
121.0
 20
89.0
 30
0.0
 11
121.477
 21
88.664900000000003
 31
0.0
  0
LINE
  5
286
  8
0
 10
121.0
 20
92.0
 30
0.0
 11
121.477
 21
92.3352
 31
0.0
  0
LINE
  5
287
  8
0
 10
121.0
 20
92.0
 30
0.0
 11
121.477
 21
92.335099999999997
 31
0.0
  0
LINE
  5
288
  8
0
 10
121.0
 20
95.0
 30
0.0
 11
121.477
 21
94.664900000000003
 31
0.0
  0
LINE
  5
289
  8
0
 10
121.0
 20
113.0
 30
0.0
 11
121.477
 21
112.66500000000001
 31
0.0
  0
LINE
  5
28A
  8
0
 10
121.0
 20
107.0
 30
0.0
 11
121.477
 21
106.66500000000001
 31
0.0
  0
LINE
  5
28B
  8
0
 10
121.0
 20
98.0
 30
0.0
 11
121.477
 21
98.3352
 31
0.0
  0
LINE
  5
28C
  8
0
 10
121.0
 20
98.0
 30
0.0
 11
121.477
 21
98.335099999999997
 31
0.0
  0
LINE
  5
28D
  8
0
 10
121.0
 20
101.0
 30
0.0
 11
121.477
 21
100.66500000000001
 31
0.0
  0
LINE
  5
28E
  8
0
 10
121.0
 20
74.0
 30
0.0
 11
121.477
 21
74.3352
 31
0.0
  0
LINE
  5
28F
  8
0
 10
121.0
 20
74.0
 30
0.0
 11
121.477
 21
74.335099999999997
 31
0.0
  0
LINE
  5
290
  8
0
 10
121.0
 20
77.0
 30
0.0
 11
121.477
 21
76.664900000000003
 31
0.0
  0
LINE
  5
291
  8
0
 10
121.0
 20
62.0
 30
0.0
 11
121.477
 21
62.3352
 31
0.0
  0
LINE
  5
292
  8
0
 10
121.0
 20
62.0
 30
0.0
 11
121.477
 21
62.33509999999999
 31
0.0
  0
LINE
  5
293
  8
0
 10
121.0
 20
65.0
 30
0.0
 11
121.477
 21
64.664900000000003
 31
0.0
  0
LINE
  5
294
  8
0
 10
121.0
 20
59.0
 30
0.0
 11
121.477
 21
58.664900000000003
 31
0.0
  0
LINE
  5
295
  8
0
 10
121.477
 20
56.335099999999997
 30
0.0
 11
121.8839999999999
 21
56.886899999999997
 31
0.0
  0
LINE
  5
296
  8
0
 10
121.477
 20
56.3352
 30
0.0
 11
121.8839999999999
 21
56.886899999999997
 31
0.0
  0
LINE
  5
297
  8
0
 10
121.477
 20
62.33509999999999
 30
0.0
 11
121.8839999999999
 21
62.88689999999999
 31
0.0
  0
LINE
  5
298
  8
0
 10
121.477
 20
62.3352
 30
0.0
 11
121.8839999999999
 21
62.88689999999999
 31
0.0
  0
LINE
  5
299
  8
0
 10
121.0
 20
68.000000000000099
 30
0.0
 11
121.477
 21
68.335099999999997
 31
0.0
  0
LINE
  5
29A
  8
0
 10
121.477
 20
68.335099999999997
 30
0.0
 11
121.8839999999999
 21
68.886899999999997
 31
0.0
  0
LINE
  5
29B
  8
0
 10
121.477
 20
68.3352
 30
0.0
 11
121.8839999999999
 21
68.886899999999997
 31
0.0
  0
LINE
  5
29C
  8
0
 10
121.477
 20
70.664900000000003
 30
0.0
 11
121.8839999999999
 21
70.113100000000003
 31
0.0
  0
LINE
  5
29D
  8
0
 10
121.477
 20
74.335099999999997
 30
0.0
 11
121.8839999999999
 21
74.886899999999997
 31
0.0
  0
LINE
  5
29E
  8
0
 10
121.0
 20
74.000000000000185
 30
0.0
 11
121.477
 21
74.335099999999997
 31
0.0
  0
LINE
  5
29F
  8
0
 10
121.0
 20
86.000000000000099
 30
0.0
 11
121.477
 21
86.335099999999997
 31
0.0
  0
LINE
  5
2A0
  8
0
 10
121.0
 20
92.000000000000213
 30
0.0
 11
121.477
 21
92.335099999999997
 31
0.0
  0
LINE
  5
2A1
  8
0
 10
121.477
 20
80.335099999999997
 30
0.0
 11
121.8839999999999
 21
80.886899999999983
 31
0.0
  0
LINE
  5
2A2
  8
0
 10
121.477
 20
80.335200000000015
 30
0.0
 11
121.8839999999999
 21
80.886899999999983
 31
0.0
  0
LINE
  5
2A3
  8
0
 10
121.477
 20
82.664900000000003
 30
0.0
 11
121.8839999999999
 21
82.113100000000003
 31
0.0
  0
LINE
  5
2A4
  8
0
 10
121.477
 20
86.335099999999997
 30
0.0
 11
121.8839999999999
 21
86.886899999999983
 31
0.0
  0
LINE
  5
2A5
  8
0
 10
121.477
 20
86.3352
 30
0.0
 11
121.8839999999999
 21
86.886899999999983
 31
0.0
  0
LINE
  5
2A6
  8
0
 10
121.477
 20
88.664900000000003
 30
0.0
 11
121.8839999999999
 21
88.113100000000003
 31
0.0
  0
LINE
  5
2A7
  8
0
 10
121.477
 20
92.335099999999997
 30
0.0
 11
121.8839999999999
 21
92.886899999999997
 31
0.0
  0
LINE
  5
2A8
  8
0
 10
121.477
 20
92.3352
 30
0.0
 11
121.8839999999999
 21
92.886899999999997
 31
0.0
  0
LINE
  5
2A9
  8
0
 10
121.477
 20
94.664900000000003
 30
0.0
 11
121.8839999999999
 21
94.113100000000003
 31
0.0
  0
LINE
  5
2AA
  8
0
 10
121.477
 20
98.335099999999997
 30
0.0
 11
121.8839999999999
 21
98.886899999999997
 31
0.0
  0
LINE
  5
2AB
  8
0
 10
121.0
 20
98.000000000000213
 30
0.0
 11
121.477
 21
98.335099999999997
 31
0.0
  0
LINE
  5
2AC
  8
0
 10
121.477
 20
110.33499999999999
 30
0.0
 11
121.8839999999999
 21
110.887
 31
0.0
  0
LINE
  5
2AD
  8
0
 10
121.477
 20
112.66500000000001
 30
0.0
 11
121.8839999999999
 21
112.1129999999999
 31
0.0
  0
LINE
  5
2AE
  8
0
 10
121.477
 20
104.33499999999989
 30
0.0
 11
121.8839999999999
 21
104.8869999999999
 31
0.0
  0
LINE
  5
2AF
  8
0
 10
121.477
 20
106.66500000000001
 30
0.0
 11
121.8839999999999
 21
106.1129999999999
 31
0.0
  0
LINE
  5
2B0
  8
0
 10
121.477
 20
98.3352
 30
0.0
 11
121.8839999999999
 21
98.886899999999997
 31
0.0
  0
LINE
  5
2B1
  8
0
 10
121.477
 20
100.66500000000001
 30
0.0
 11
121.8839999999999
 21
100.113
 31
0.0
  0
LINE
  5
2B2
  8
0
 10
121.477
 20
74.3352
 30
0.0
 11
121.8839999999999
 21
74.886899999999997
 31
0.0
  0
LINE
  5
2B3
  8
0
 10
121.477
 20
76.664900000000003
 30
0.0
 11
121.8839999999999
 21
76.113100000000003
 31
0.0
  0
LINE
  5
2B4
  8
0
 10
121.477
 20
64.664900000000003
 30
0.0
 11
121.8839999999999
 21
64.113100000000003
 31
0.0
  0
LINE
  5
2B5
  8
0
 10
121.8839999999999
 20
70.113100000000003
 30
0.0
 11
122.0
 21
69.5
 31
0.0
  0
LINE
  5
2B6
  8
0
 10
121.8839999999999
 20
82.113100000000003
 30
0.0
 11
122.0
 21
81.5
 31
0.0
  0
LINE
  5
2B7
  8
0
 10
121.8839999999999
 20
88.113100000000003
 30
0.0
 11
122.0
 21
87.5
 31
0.0
  0
LINE
  5
2B8
  8
0
 10
121.8839999999999
 20
94.113100000000003
 30
0.0
 11
122.0
 21
93.499999999999986
 31
0.0
  0
LINE
  5
2B9
  8
0
 10
121.8839999999999
 20
112.1129999999999
 30
0.0
 11
122.0
 21
111.4999999999999
 31
0.0
  0
LINE
  5
2BA
  8
0
 10
121.8839999999999
 20
106.1129999999999
 30
0.0
 11
122.0
 21
105.4999999999999
 31
0.0
  0
LINE
  5
2BB
  8
0
 10
121.8839999999999
 20
100.113
 30
0.0
 11
122.0
 21
99.500000000000014
 31
0.0
  0
LINE
  5
2BC
  8
0
 10
121.8839999999999
 20
76.113100000000003
 30
0.0
 11
122.0
 21
75.5
 31
0.0
  0
LINE
  5
2BD
  8
0
 10
121.8839999999999
 20
64.113100000000003
 30
0.0
 11
122.0
 21
63.5
 31
0.0
  0
LINE
  5
2BE
  8
0
 10
121.477
 20
58.664900000000003
 30
0.0
 11
121.8839999999999
 21
58.113100000000003
 31
0.0
  0
LINE
  5
2BF
  8
0
 10
121.8839999999999
 20
58.113100000000003
 30
0.0
 11
122.0
 21
57.5
 31
0.0
  0
LINE
  5
2C0
  8
0
 10
121.0
 20
119.0
 30
0.0
 11
121.0
 21
51.0
 31
0.0
  0
LINE
  5
2C1
  8
0
 10
121.0
 20
51.0
 30
0.0
 11
121.0
 21
119.0
 31
0.0
  0
LINE
  5
2C2
  8
0
 10
120.7
 20
119.7
 30
0.0
 11
121.0
 21
119.0
 31
0.0
  0
LINE
  5
2C3
  8
0
 10
120.5
 20
119.7
 30
0.0
 11
120.7
 21
119.7
 31
0.0
  0
LINE
  5
2C4
  8
0
 10
120.5
 20
119.7
 30
0.0
 11
120.7
 21
119.0
 31
0.0
  0
LINE
  5
2C5
  8
0
 10
120.0
 20
119.7
 30
0.0
 11
120.5
 21
119.7
 31
0.0
  0
LINE
  5
2C6
  8
0
 10
120.0
 20
50.0
 30
0.0
 11
120.7
 21
49.700000000000003
 31
0.0
  0
LINE
  5
2C7
  8
0
 10
120.0
 20
50.0
 30
0.0
 11
120.7
 21
50.299999999999997
 31
0.0
  0
LINE
  5
2C8
  8
0
 10
2.0
 20
50.0
 30
0.0
 11
120.0
 21
50.0
 31
0.0
  0
LINE
  5
2C9
  8
0
 10
1.5
 20
49.700000000000003
 30
0.0
 11
2.0
 21
49.700000000000003
 31
0.0
  0
LINE
  5
2CA
  8
0
 10
1.3
 20
49.700000000000003
 30
0.0
 11
2.0
 21
50.0
 31
0.0
  0
LINE
  5
2CB
  8
0
 10
1.3
 20
49.700000000000003
 30
0.0
 11
1.5
 21
49.700000000000003
 31
0.0
  0
LINE
  5
2D0
  8
0
 10
122.0
 20
111.4999999999999
 30
0.0
 11
121.8839999999999
 21
110.887
 31
0.0
  0
LINE
  5
2D2
  8
0
 10
122.0
 20
105.4999999999999
 30
0.0
 11
121.8839999999999
 21
104.8869999999999
 31
0.0
  0
LINE
  5
2D3
  8
0
 10
122.0
 20
99.500000000000014
 30
0.0
 11
121.8839999999999
 21
98.886899999999997
 31
0.0
  0
LINE
  5
2D4
  8
0
 10
121.8839999999999
 20
92.886899999999997
 30
0.0
 11
122.0
 21
93.499999999999986
 31
0.0
  0
LINE
  5
2D5
  8
0
 10
121.477
 20
110.33499999999999
 30
0.0
 11
121.0232063178283
 21
109.94511777289421
 31
0.0
  0
LINE
  5
2D6
  8
0
 10
120.9927347163504
 20
104.0679886488645
 30
0.0
 11
121.477
 21
104.33499999999989
 31
0.0
  0
LINE
  5
2D7
  8
0
 10
122.0
 20
87.5
 30
0.0
 11
121.8839999999999
 21
86.886899999999983
 31
0.0
  0
LINE
  5
2D8
  8
0
 10
121.8839999999999
 20
80.886899999999983
 30
0.0
 11
122.0
 21
81.5
 31
0.0
  0
LINE
  5
2D9
  8
0
 10
122.0
 20
75.5
 30
0.0
 11
121.8839999999999
 21
74.886899999999997
 31
0.0
  0
LINE
  5
2DA
  8
0
 10
121.8839999999999
 20
68.886899999999997
 30
0.0
 11
122.0
 21
69.5
 31
0.0
  0
LINE
  5
2DB
  8
0
 10
121.8839999999999
 20
56.886899999999997
 30
0.0
 11
122.0
 21
57.5
 31
0.0
  0
LINE
  5
2DC
  8
0
 10
121.8839999999999
 20
62.88689999999999
 30
0.0
 11
122.0
 21
63.5
 31
0.0
  0
LINE
  5
2DD
  8
0
 10
121.0
 20
51.0
 30
0.0
 11
120.7
 21
50.299999999999997
 31
0.0
  0
LINE
  5
2DE
  8
0
 10
120.0
 20
-0.0000000000000013
 30
0.0
 11
120.7
 21
0.2999999999999989
 31
0.0
  0
LINE
  5
2DF
  8
0
 10
0.9845106844301199
 20
110.1270357183534
 30
0.0
 11
0.523255
 21
110.33499999999999
 31
0.0
  0
LINE
  5
2E0
  8
0
 10
0.523255
 20
104.33499999999989
 30
0.0
 11
1.004692949563263
 21
104.13680108420709
 31
0.0
  0
ENDSEC
  0
EOF
