  0
SECTION
  2
HEADER
  9
$ACADVER
  1
AC1015
  9
$ACADMAINTVER
 70
    13
  9
$DWGCODEPAGE
  3
ANSI_1252
  9
$INSBASE
 10
0.0
 20
0.0
 30
0.0
  9
$EXTMIN
 10
0.0
 20
0.0000000000000369
 30
0.0
  9
$EXTMAX
 10
120.0
 20
819.0
 30
0.0
  9
$LIMMIN
 10
0.0
 20
0.0
  9
$LIMMAX
 10
12.0
 20
9.0
  9
$ORTHOMODE
 70
     0
  9
$REGENMODE
 70
     1
  9
$FILLMODE
 70
     1
  9
$QTEXTMODE
 70
     0
  9
$MIRRTEXT
 70
     1
  9
$LTSCALE
 40
1.0
  9
$ATTMODE
 70
     1
  9
$TEXTSIZE
 40
0.2
  9
$TRACEWID
 40
0.05
  9
$TEXTSTYLE
  7
STANDARD
  9
$CLAYER
  8
0
  9
$CELTYPE
  6
CONTINUOUS
  9
$CECOLOR
 62
   256
  9
$CELTSCALE
 40
1.0
  9
$DISPSILH
 70
     0
  9
$DIMSCALE
 40
1.0
  9
$DIMASZ
 40
0.18
  9
$DIMEXO
 40
0.0625
  9
$DIMDLI
 40
0.38
  9
$DIMRND
 40
0.0
  9
$DIMDLE
 40
0.0
  9
$DIMEXE
 40
0.18
  9
$DIMTP
 40
0.0
  9
$DIMTM
 40
0.0
  9
$DIMTXT
 40
0.18
  9
$DIMCEN
 40
0.09
  9
$DIMTSZ
 40
0.0
  9
$DIMTOL
 70
     0
  9
$DIMLIM
 70
     0
  9
$DIMTIH
 70
     1
  9
$DIMTOH
 70
     1
  9
$DIMSE1
 70
     0
  9
$DIMSE2
 70
     0
  9
$DIMTAD
 70
     0
  9
$DIMZIN
 70
     0
  9
$DIMBLK
  1

  9
$DIMASO
 70
     1
  9
$DIMSHO
 70
     1
  9
$DIMPOST
  1

  9
$DIMAPOST
  1

  9
$DIMALT
 70
     0
  9
$DIMALTD
 70
     2
  9
$DIMALTF
 40
25.4
  9
$DIMLFAC
 40
1.0
  9
$DIMTOFL
 70
     0
  9
$DIMTVP
 40
0.0
  9
$DIMTIX
 70
     0
  9
$DIMSOXD
 70
     0
  9
$DIMSAH
 70
     0
  9
$DIMBLK1
  1

  9
$DIMBLK2
  1

  9
$DIMSTYLE
  2
STANDARD
  9
$DIMCLRD
 70
     0
  9
$DIMCLRE
 70
     0
  9
$DIMCLRT
 70
     0
  9
$DIMTFAC
 40
1.0
  9
$DIMGAP
 40
0.09
  9
$DIMJUST
 70
     0
  9
$DIMSD1
 70
     0
  9
$DIMSD2
 70
     0
  9
$DIMTOLJ
 70
     1
  9
$DIMTZIN
 70
     0
  9
$DIMALTZ
 70
     0
  9
$DIMALTTZ
 70
     0
  9
$DIMUPT
 70
     0
  9
$DIMDEC
 70
     4
  9
$DIMTDEC
 70
     4
  9
$DIMALTU
 70
     2
  9
$DIMALTTD
 70
     2
  9
$DIMTXSTY
  7
STANDARD
  9
$DIMAUNIT
 70
     0
  9
$DIMADEC
 70
     0
  9
$DIMALTRND
 40
0.0
  9
$DIMAZIN
 70
     0
  9
$DIMDSEP
 70
    46
  9
$DIMATFIT
 70
     3
  9
$DIMFRAC
 70
     0
  9
$DIMLDRBLK
  1

  9
$DIMLUNIT
 70
     2
  9
$DIMLWD
 70
    -2
  9
$DIMLWE
 70
    -2
  9
$DIMTMOVE
 70
     0
  9
$LUNITS
 70
     2
  9
$LUPREC
 70
     4
  9
$SKETCHINC
 40
0.1
  9
$FILLETRAD
 40
0.0
  9
$AUNITS
 70
     0
  9
$AUPREC
 70
     0
  9
$MENU
  1
.
  9
$ELEVATION
 40
0.0
  9
$PELEVATION
 40
0.0
  9
$THICKNESS
 40
0.0
  9
$LIMCHECK
 70
     0
  9
$CHAMFERA
 40
0.0
  9
$CHAMFERB
 40
0.0
  9
$CHAMFERC
 40
0.0
  9
$CHAMFERD
 40
0.0
  9
$SKPOLY
 70
     0
  9
$TDCREATE
 40
2454674.525392604
  9
$TDUCREATE
 40
2454674.442059271
  9
$TDUPDATE
 40
2454726.880213368
  9
$TDUUPDATE
 40
2454726.796880034
  9
$TDINDWG
 40
0.0072875116
  9
$TDUSRTIMER
 40
0.0072875116
  9
$USRTIMER
 70
     1
  9
$ANGBASE
 50
0.0
  9
$ANGDIR
 70
     0
  9
$PDMODE
 70
     0
  9
$PDSIZE
 40
0.0
  9
$PLINEWID
 40
0.0
  9
$SPLFRAME
 70
     0
  9
$SPLINETYPE
 70
     6
  9
$SPLINESEGS
 70
     8
  9
$HANDSEED
  5
5D3
  9
$SURFTAB1
 70
     6
  9
$SURFTAB2
 70
     6
  9
$SURFTYPE
 70
     6
  9
$SURFU
 70
     6
  9
$SURFV
 70
     6
  9
$UCSBASE
  2

  9
$UCSNAME
  2

  9
$UCSORG
 10
0.0
 20
0.0
 30
0.0
  9
$UCSXDIR
 10
1.0
 20
0.0
 30
0.0
  9
$UCSYDIR
 10
0.0
 20
1.0
 30
0.0
  9
$UCSORTHOREF
  2

  9
$UCSORTHOVIEW
 70
     0
  9
$UCSORGTOP
 10
0.0
 20
0.0
 30
0.0
  9
$UCSORGBOTTOM
 10
0.0
 20
0.0
 30
0.0
  9
$UCSORGLEFT
 10
0.0
 20
0.0
 30
0.0
  9
$UCSORGRIGHT
 10
0.0
 20
0.0
 30
0.0
  9
$UCSORGFRONT
 10
0.0
 20
0.0
 30
0.0
  9
$UCSORGBACK
 10
0.0
 20
0.0
 30
0.0
  9
$PUCSBASE
  2

  9
$PUCSNAME
  2

  9
$PUCSORG
 10
0.0
 20
0.0
 30
0.0
  9
$PUCSXDIR
 10
1.0
 20
0.0
 30
0.0
  9
$PUCSYDIR
 10
0.0
 20
1.0
 30
0.0
  9
$PUCSORTHOREF
  2

  9
$PUCSORTHOVIEW
 70
     0
  9
$PUCSORGTOP
 10
0.0
 20
0.0
 30
0.0
  9
$PUCSORGBOTTOM
 10
0.0
 20
0.0
 30
0.0
  9
$PUCSORGLEFT
 10
0.0
 20
0.0
 30
0.0
  9
$PUCSORGRIGHT
 10
0.0
 20
0.0
 30
0.0
  9
$PUCSORGFRONT
 10
0.0
 20
0.0
 30
0.0
  9
$PUCSORGBACK
 10
0.0
 20
0.0
 30
0.0
  9
$USERI1
 70
     0
  9
$USERI2
 70
     0
  9
$USERI3
 70
     0
  9
$USERI4
 70
     0
  9
$USERI5
 70
     0
  9
$USERR1
 40
0.0
  9
$USERR2
 40
0.0
  9
$USERR3
 40
0.0
  9
$USERR4
 40
0.0
  9
$USERR5
 40
0.0
  9
$WORLDVIEW
 70
     1
  9
$SHADEDGE
 70
     3
  9
$SHADEDIF
 70
    70
  9
$TILEMODE
 70
     1
  9
$MAXACTVP
 70
    64
  9
$PINSBASE
 10
0.0
 20
0.0
 30
0.0
  9
$PLIMCHECK
 70
     0
  9
$PEXTMIN
 10
1.000000000000000E+20
 20
1.000000000000000E+20
 30
1.000000000000000E+20
  9
$PEXTMAX
 10
-1.000000000000000E+20
 20
-1.000000000000000E+20
 30
-1.000000000000000E+20
  9
$PLIMMIN
 10
0.0
 20
0.0
  9
$PLIMMAX
 10
12.0
 20
9.0
  9
$UNITMODE
 70
     0
  9
$VISRETAIN
 70
     1
  9
$PLINEGEN
 70
     0
  9
$PSLTSCALE
 70
     1
  9
$TREEDEPTH
 70
  3020
  9
$CMLSTYLE
  2
Standard
  9
$CMLJUST
 70
     0
  9
$CMLSCALE
 40
1.0
  9
$PROXYGRAPHICS
 70
     1
  9
$MEASUREMENT
 70
     0
  9
$CELWEIGHT
370
    -1
  9
$ENDCAPS
280
     0
  9
$JOINSTYLE
280
     0
  9
$LWDISPLAY
290
     0
  9
$INSUNITS
 70
     0
  9
$HYPERLINKBASE
  1

  9
$STYLESHEET
  1

  9
$XEDIT
290
     1
  9
$CEPSNTYPE
380
     0
  9
$PSTYLEMODE
290
     1
  9
$FINGERPRINTGUID
  2
{8BDD7908-CCD8-423E-AE71-D8FFEEF36260}
  9
$VERSIONGUID
  2
{79CE183C-682C-4BF9-8E75-06924C30976E}
  9
$EXTNAMES
290
     1
  9
$PSVPSCALE
 40
0.0
  9
$OLESTARTUP
290
     0
  0
ENDSEC
  0
SECTION
  2
CLASSES
  0
CLASS
  1
ACDBDICTIONARYWDFLT
  2
AcDbDictionaryWithDefault
  3
AutoCAD 2000
 90
        0
280
     0
281
     0
  0
CLASS
  1
ACDBPLACEHOLDER
  2
AcDbPlaceHolder
  3
AutoCAD 2000
 90
        0
280
     0
281
     0
  0
CLASS
  1
LAYOUT
  2
AcDbLayout
  3
AutoCAD 2000
 90
        0
280
     0
281
     0
  0
CLASS
  1
DICTIONARYVAR
  2
AcDbDictionaryVar
  3
AutoCAD 2000
 90
        0
280
     0
281
     0
  0
ENDSEC
  0
SECTION
  2
TABLES
  0
TABLE
  2
VPORT
  5
30B
330
0
100
AcDbSymbolTable
 70
     3
  0
VPORT
  5
5D2
330
30B
100
AcDbSymbolTableRecord
100
AcDbViewportTableRecord
  2
*Active
 70
     0
 10
0.0
 20
0.0
 11
1.0
 21
1.0
 12
74.2654705260162
 22
409.4999999999999
 13
0.0
 23
0.0
 14
1.0
 24
1.0
 15
0.0
 25
0.0
 16
0.0
 26
0.0
 36
1.0
 17
0.0
 27
0.0
 37
0.0
 40
825.3841594528854
 41
2.078104993597951
 42
50.0
 43
0.0
 44
0.0
 50
0.0
 51
0.0
 71
     0
 72
   100
 73
     1
 74
     3
 75
     0
 76
     0
 77
     0
 78
     0
281
     0
 65
     1
110
0.0
120
0.0
130
0.0
111
1.0
121
0.0
131
0.0
112
0.0
122
1.0
132
0.0
 79
     0
146
0.0
  0
ENDTAB
  0
TABLE
  2
LTYPE
  5
308
330
0
100
AcDbSymbolTable
 70
     1
  0
LTYPE
  5
316
330
308
100
AcDbSymbolTableRecord
100
AcDbLinetypeTableRecord
  2
ByBlock
 70
     0
  3

 72
    65
 73
     0
 40
0.0
  0
LTYPE
  5
317
330
308
100
AcDbSymbolTableRecord
100
AcDbLinetypeTableRecord
  2
ByLayer
 70
     0
  3

 72
    65
 73
     0
 40
0.0
  0
LTYPE
  5
318
330
308
100
AcDbSymbolTableRecord
100
AcDbLinetypeTableRecord
  2
CONTINUOUS
 70
     0
  3
Solid line
 72
    65
 73
     0
 40
0.0
  0
ENDTAB
  0
TABLE
  2
LAYER
  5
305
330
0
100
AcDbSymbolTable
 70
     1
  0
LAYER
  5
313
330
305
100
AcDbSymbolTableRecord
100
AcDbLayerTableRecord
  2
0
 70
     0
 62
     7
  6
CONTINUOUS
370
    -3
390
312
  0
ENDTAB
  0
TABLE
  2
STYLE
  5
306
330
0
100
AcDbSymbolTable
 70
     1
  0
STYLE
  5
314
330
306
100
AcDbSymbolTableRecord
100
AcDbTextStyleTableRecord
  2
STANDARD
 70
     0
 40
0.0
 41
1.0
 50
0.0
 71
     0
 42
0.2
  3
txt
  4

  0
ENDTAB
  0
TABLE
  2
VIEW
  5
309
330
0
100
AcDbSymbolTable
 70
     0
  0
ENDTAB
  0
TABLE
  2
UCS
  5
30A
330
0
100
AcDbSymbolTable
 70
     0
  0
ENDTAB
  0
TABLE
  2
APPID
  5
30C
330
0
100
AcDbSymbolTable
 70
     1
  0
APPID
  5
315
330
30C
100
AcDbSymbolTableRecord
100
AcDbRegAppTableRecord
  2
ACAD
 70
     0
  0
ENDTAB
  0
TABLE
  2
DIMSTYLE
  5
30D
330
0
100
AcDbSymbolTable
 70
     1
100
AcDbDimStyleTable
 71
     0
  0
DIMSTYLE
105
326
330
30D
100
AcDbSymbolTableRecord
100
AcDbDimStyleTableRecord
  2
STANDARD
 70
     0
279
     2
340
314
  0
ENDTAB
  0
TABLE
  2
BLOCK_RECORD
  5
304
330
0
100
AcDbSymbolTable
 70
     2
  0
BLOCK_RECORD
  5
321
330
304
100
AcDbSymbolTableRecord
100
AcDbBlockTableRecord
  2
*Model_Space
340
324
  0
BLOCK_RECORD
  5
31D
330
304
100
AcDbSymbolTableRecord
100
AcDbBlockTableRecord
  2
*Paper_Space
340
320
  0
BLOCK_RECORD
  5
328
330
304
100
AcDbSymbolTableRecord
100
AcDbBlockTableRecord
  2
$MODEL_SPACE
340
0
  0
BLOCK_RECORD
  5
32B
330
304
100
AcDbSymbolTableRecord
100
AcDbBlockTableRecord
  2
$PAPER_SPACE
340
0
  0
ENDTAB
  0
ENDSEC
  0
SECTION
  2
BLOCKS
  0
BLOCK
  5
322
330
321
100
AcDbEntity
  8
0
100
AcDbBlockBegin
  2
*Model_Space
 70
     0
 10
0.0
 20
0.0
 30
0.0
  3
*Model_Space
  1

  0
ENDBLK
  5
323
330
321
100
AcDbEntity
  8
0
100
AcDbBlockEnd
  0
BLOCK
  5
31E
330
31D
100
AcDbEntity
 67
     1
  8
0
100
AcDbBlockBegin
  2
*Paper_Space
 70
     0
 10
0.0
 20
0.0
 30
0.0
  3
*Paper_Space
  1

  0
ENDBLK
  5
31F
330
31D
100
AcDbEntity
 67
     1
  8
0
100
AcDbBlockEnd
  0
BLOCK
  5
329
330
328
100
AcDbEntity
  8
0
100
AcDbBlockBegin
  2
$MODEL_SPACE
 70
     0
 10
0.0
 20
0.0
 30
0.0
  3
$MODEL_SPACE
  1

  0
ENDBLK
  5
32A
330
328
100
AcDbEntity
  8
0
100
AcDbBlockEnd
  0
BLOCK
  5
32C
330
32B
100
AcDbEntity
  8
0
100
AcDbBlockBegin
  2
$PAPER_SPACE
 70
     0
 10
0.0
 20
0.0
 30
0.0
  3
$PAPER_SPACE
  1

  0
ENDBLK
  5
32D
330
32B
100
AcDbEntity
  8
0
100
AcDbBlockEnd
  0
ENDSEC
  0
SECTION
  2
ENTITIES
  0
LINE
  5
32E
330
321
100
AcDbEntity
  8
0
100
AcDbLine
 10
0.0
 20
664.0
 30
0.0
 11
0.0
 21
669.0
 31
0.0
  0
LINE
  5
32F
330
321
100
AcDbEntity
  8
0
100
AcDbLine
 10
0.0
 20
669.0
 30
0.0
 11
0.3
 21
669.7000000000001
 31
0.0
  0
LINE
  5
330
330
321
100
AcDbEntity
  8
0
100
AcDbLine
 10
0.0
 20
669.0
 30
0.0
 11
0.3
 21
669.0
 31
0.0
  0
LINE
  5
331
330
321
100
AcDbEntity
  8
0
100
AcDbLine
 10
0.3
 20
669.7000000000001
 30
0.0
 11
1.0
 21
670.0
 31
0.0
  0
LINE
  5
332
330
321
100
AcDbEntity
  8
0
100
AcDbLine
 10
0.3
 20
658.2999999999999
 30
0.0
 11
1.0
 21
658.0
 31
0.0
  0
LINE
  5
333
330
321
100
AcDbEntity
  8
0
100
AcDbLine
 10
0.0
 20
659.0
 30
0.0
 11
0.0
 21
777.0
 31
0.0
  0
LINE
  5
334
330
321
100
AcDbEntity
  8
0
100
AcDbLine
 10
0.0
 20
659.0
 30
0.0
 11
0.0
 21
669.0
 31
0.0
  0
LINE
  5
335
330
321
100
AcDbEntity
  8
0
100
AcDbLine
 10
0.0
 20
659.0
 30
0.0
 11
0.3
 21
658.2999999999999
 31
0.0
  0
LINE
  5
336
330
321
100
AcDbEntity
  8
0
100
AcDbLine
 10
0.0
 20
659.0
 30
0.0
 11
0.0
 21
664.0
 31
0.0
  0
LINE
  5
337
330
321
100
AcDbEntity
  8
0
100
AcDbLine
 10
0.0
 20
777.0
 30
0.0
 11
0.3
 21
777.7000000000001
 31
0.0
  0
LINE
  5
338
330
321
100
AcDbEntity
  8
0
100
AcDbLine
 10
0.0
 20
777.0
 30
0.0
 11
0.0
 21
659.0
 31
0.0
  0
LINE
  5
339
330
321
100
AcDbEntity
  8
0
100
AcDbLine
 10
0.3
 20
659.0
 30
0.0
 11
0.5
 21
658.2999999999999
 31
0.0
  0
LINE
  5
33A
330
321
100
AcDbEntity
  8
0
100
AcDbLine
 10
0.3
 20
659.0
 30
0.0
 11
0.3
 21
664.0
 31
0.0
  0
LINE
  5
33B
330
321
100
AcDbEntity
  8
0
100
AcDbLine
 10
0.3
 20
664.0
 30
0.0
 11
0.3
 21
669.0
 31
0.0
  0
LINE
  5
33C
330
321
100
AcDbEntity
  8
0
100
AcDbLine
 10
0.3
 20
664.0
 30
0.0
 11
0.3
 21
659.0
 31
0.0
  0
LINE
  5
33D
330
321
100
AcDbEntity
  8
0
100
AcDbLine
 10
0.3
 20
669.0
 30
0.0
 11
0.5
 21
669.7000000000001
 31
0.0
  0
LINE
  5
33E
330
321
100
AcDbEntity
  8
0
100
AcDbLine
 10
0.3
 20
669.0
 30
0.0
 11
1.0
 21
669.0
 31
0.0
  0
LINE
  5
33F
330
321
100
AcDbEntity
  8
0
100
AcDbLine
 10
0.3
 20
669.0
 30
0.0
 11
0.3
 21
664.0
 31
0.0
  0
LINE
  5
340
330
321
100
AcDbEntity
  8
0
100
AcDbLine
 10
0.3
 20
658.2999999999999
 30
0.0
 11
1.0
 21
658.0
 31
0.0
  0
LINE
  5
341
330
321
100
AcDbEntity
  8
0
100
AcDbLine
 10
0.3
 20
658.2999999999999
 30
0.0
 11
0.5
 21
658.2999999999999
 31
0.0
  0
LINE
  5
342
330
321
100
AcDbEntity
  8
0
100
AcDbLine
 10
0.5
 20
658.2999999999999
 30
0.0
 11
1.0
 21
658.2999999999999
 31
0.0
  0
LINE
  5
343
330
321
100
AcDbEntity
  8
0
100
AcDbLine
 10
0.5
 20
669.7000000000001
 30
0.0
 11
1.0
 21
669.7000000000001
 31
0.0
  0
LINE
  5
344
330
321
100
AcDbEntity
  8
0
100
AcDbLine
 10
0.3
 20
669.7000000000001
 30
0.0
 11
0.3
 21
777.0
 31
0.0
  0
LINE
  5
345
330
321
100
AcDbEntity
  8
0
100
AcDbLine
 10
0.3
 20
669.7000000000001
 30
0.0
 11
1.0
 21
670.0
 31
0.0
  0
LINE
  5
346
330
321
100
AcDbEntity
  8
0
100
AcDbLine
 10
0.3
 20
669.7000000000001
 30
0.0
 11
0.5
 21
669.7000000000001
 31
0.0
  0
LINE
  5
347
330
321
100
AcDbEntity
  8
0
100
AcDbLine
 10
0.3
 20
777.0
 30
0.0
 11
0.5
 21
777.7000000000001
 31
0.0
  0
LINE
  5
348
330
321
100
AcDbEntity
  8
0
100
AcDbLine
 10
0.3
 20
777.0
 30
0.0
 11
0.3
 21
669.7000000000001
 31
0.0
  0
LINE
  5
349
330
321
100
AcDbEntity
  8
0
100
AcDbLine
 10
0.999999999999996
 20
658.2999999999999
 30
0.0
 11
76.29999999999999
 21
658.2999999999999
 31
0.0
  0
LINE
  5
34A
330
321
100
AcDbEntity
  8
0
100
AcDbLine
 10
0.999999999999996
 20
669.7000000000001
 30
0.0
 11
86.0
 21
669.7000000000001
 31
0.0
  0
LINE
  5
34B
330
321
100
AcDbEntity
  8
0
100
AcDbLine
 10
0.999999999999996
 20
670.0
 30
0.0
 11
86.0
 21
670.0
 31
0.0
  0
LINE
  5
34C
330
321
100
AcDbEntity
  8
0
100
AcDbLine
 10
39.536
 20
616.216
 30
0.0
 11
40.97599999999999
 21
616.7919999999997
 31
0.0
  0
LINE
  5
34D
330
321
100
AcDbEntity
  8
0
100
AcDbLine
 10
38.0
 20
616.0
 30
0.0
 11
39.536
 21
616.216
 31
0.0
  0
LINE
  5
34E
330
321
100
AcDbEntity
  8
0
100
AcDbLine
 10
60.0
 20
617.0
 30
0.0
 11
60.0
 21
641.0
 31
0.0
  0
LINE
  5
34F
330
321
100
AcDbEntity
  8
0
100
AcDbLine
 10
50.0
 20
617.0
 30
0.0
 11
50.0
 21
629.0
 31
0.0
  0
LINE
  5
350
330
321
100
AcDbEntity
  8
0
100
AcDbLine
 10
50.0
 20
617.0
 30
0.0
 11
60.0
 21
617.0
 31
0.0
  0
LINE
  5
351
330
321
100
AcDbEntity
  8
0
100
AcDbLine
 10
50.0
 20
617.0
 30
0.0
 11
50.0
 21
641.0
 31
0.0
  0
LINE
  5
352
330
321
100
AcDbEntity
  8
0
100
AcDbLine
 10
42.248
 20
617.7519999999999
 30
0.0
 11
43.208
 21
619.024
 31
0.0
  0
LINE
  5
353
330
321
100
AcDbEntity
  8
0
100
AcDbLine
 10
40.97599999999999
 20
616.7919999999997
 30
0.0
 11
42.248
 21
617.7519999999999
 31
0.0
  0
LINE
  5
354
330
321
100
AcDbEntity
  8
0
100
AcDbLine
 10
36.46399999999999
 20
616.216
 30
0.0
 11
38.0
 21
616.0
 31
0.0
  0
LINE
  5
355
330
321
100
AcDbEntity
  8
0
100
AcDbLine
 10
35.024
 20
616.7919999999997
 30
0.0
 11
36.46399999999999
 21
616.216
 31
0.0
  0
LINE
  5
356
330
321
100
AcDbEntity
  8
0
100
AcDbLine
 10
43.208
 20
619.024
 30
0.0
 11
43.784
 21
620.4640000000002
 31
0.0
  0
LINE
  5
357
330
321
100
AcDbEntity
  8
0
100
AcDbLine
 10
33.75199999999999
 20
617.7519999999999
 30
0.0
 11
35.024
 21
616.7919999999997
 31
0.0
  0
LINE
  5
358
330
321
100
AcDbEntity
  8
0
100
AcDbLine
 10
32.792
 20
619.024
 30
0.0
 11
33.75199999999999
 21
617.7519999999999
 31
0.0
  0
LINE
  5
359
330
321
100
AcDbEntity
  8
0
100
AcDbLine
 10
76.29999999999999
 20
620.2999999999999
 30
0.0
 11
77.0
 21
620.0
 31
0.0
  0
LINE
  5
35A
330
321
100
AcDbEntity
  8
0
100
AcDbLine
 10
76.29999999999999
 20
620.2999999999999
 30
0.0
 11
76.5
 21
620.2999999999999
 31
0.0
  0
LINE
  5
35B
330
321
100
AcDbEntity
  8
0
100
AcDbLine
 10
76.792
 20
619.024
 30
0.0
 11
77.75199999999998
 21
617.7519999999999
 31
0.0
  0
LINE
  5
35C
330
321
100
AcDbEntity
  8
0
100
AcDbLine
 10
76.5
 20
620.2999999999999
 30
0.0
 11
77.0
 21
620.2999999999999
 31
0.0
  0
LINE
  5
35D
330
321
100
AcDbEntity
  8
0
100
AcDbLine
 10
76.21599999999998
 20
620.4640000000002
 30
0.0
 11
76.792
 21
619.024
 31
0.0
  0
LINE
  5
35E
330
321
100
AcDbEntity
  8
0
100
AcDbLine
 10
43.784
 20
620.4640000000002
 30
0.0
 11
44.0
 21
622.0
 31
0.0
  0
LINE
  5
35F
330
321
100
AcDbEntity
  8
0
100
AcDbLine
 10
32.216
 20
620.4640000000002
 30
0.0
 11
32.792
 21
619.024
 31
0.0
  0
LINE
  5
360
330
321
100
AcDbEntity
  8
0
100
AcDbLine
 10
76.0
 20
621.0
 30
0.0
 11
76.29999999999999
 21
620.2999999999999
 31
0.0
  0
LINE
  5
361
330
321
100
AcDbEntity
  8
0
100
AcDbLine
 10
76.0
 20
621.0
 30
0.0
 11
76.0
 21
658.003947368421
 31
0.0
  0
LINE
  5
362
330
321
100
AcDbEntity
  8
0
100
AcDbLine
 10
76.29999999999999
 20
621.0
 30
0.0
 11
76.5
 21
620.2999999999999
 31
0.0
  0
LINE
  5
363
330
321
100
AcDbEntity
  8
0
100
AcDbLine
 10
76.29999999999999
 20
621.0
 30
0.0
 11
76.29999999999999
 21
658.2999999999999
 31
0.0
  0
LINE
  5
364
330
321
100
AcDbEntity
  8
0
100
AcDbLine
 10
77.0
 20
620.2999999999999
 30
0.0
 11
86.0
 21
620.2999999999999
 31
0.0
  0
LINE
  5
365
330
321
100
AcDbEntity
  8
0
100
AcDbLine
 10
77.75199999999998
 20
617.7519999999999
 30
0.0
 11
79.024
 21
616.7919999999997
 31
0.0
  0
LINE
  5
366
330
321
100
AcDbEntity
  8
0
100
AcDbLine
 10
82.0
 20
616.0
 30
0.0
 11
83.536
 21
616.216
 31
0.0
  0
LINE
  5
367
330
321
100
AcDbEntity
  8
0
100
AcDbLine
 10
80.464
 20
616.216
 30
0.0
 11
82.0
 21
616.0
 31
0.0
  0
LINE
  5
368
330
321
100
AcDbEntity
  8
0
100
AcDbLine
 10
79.024
 20
616.7919999999997
 30
0.0
 11
80.464
 21
616.216
 31
0.0
  0
LINE
  5
369
330
321
100
AcDbEntity
  8
0
100
AcDbLine
 10
86.0
 20
570.615
 30
0.0
 11
86.0
 21
608.3849999999999
 31
0.0
  0
LINE
  5
36A
330
321
100
AcDbEntity
  8
0
100
AcDbLine
 10
86.0
 20
570.615
 30
0.0
 11
86.28799999999998
 21
570.0
 31
0.0
  0
LINE
  5
36B
330
321
100
AcDbEntity
  8
0
100
AcDbLine
 10
86.28799999999998
 20
570.0
 30
0.0
 11
86.72
 21
570.0
 31
0.0
  0
LINE
  5
36C
330
321
100
AcDbEntity
  8
0
100
AcDbLine
 10
86.72
 20
570.0
 30
0.0
 11
87.87200000000002
 21
570.0
 31
0.0
  0
LINE
  5
36D
330
321
100
AcDbEntity
  8
0
100
AcDbLine
 10
87.87200000000002
 20
570.0
 30
0.0
 11
89.74400000000001
 21
570.0
 31
0.0
  0
LINE
  5
36E
330
321
100
AcDbEntity
  8
0
100
AcDbLine
 10
87.87200000000002
 20
570.0
 30
0.0
 11
89.0
 21
570.0
 31
0.0
  0
LINE
  5
36F
330
321
100
AcDbEntity
  8
0
100
AcDbLine
 10
86.28799999999998
 20
609.0
 30
0.0
 11
86.72
 21
609.0
 31
0.0
  0
LINE
  5
370
330
321
100
AcDbEntity
  8
0
100
AcDbLine
 10
86.0
 20
608.3849999999999
 30
0.0
 11
86.28799999999998
 21
609.0
 31
0.0
  0
LINE
  5
371
330
321
100
AcDbEntity
  8
0
100
AcDbLine
 10
86.0
 20
608.3849999999999
 30
0.0
 11
86.0
 21
570.615
 31
0.0
  0
LINE
  5
372
330
321
100
AcDbEntity
  8
0
100
AcDbLine
 10
86.72
 20
609.0
 30
0.0
 11
87.87200000000002
 21
609.0
 31
0.0
  0
LINE
  5
373
330
321
100
AcDbEntity
  8
0
100
AcDbLine
 10
89.0
 20
10.1036
 30
0.0
 11
89.0
 21
9.000000000000039
 31
0.0
  0
LINE
  5
374
330
321
100
AcDbEntity
  8
0
100
AcDbLine
 10
89.0
 20
10.1036
 30
0.0
 11
89.0
 21
13.3956
 31
0.0
  0
LINE
  5
375
330
321
100
AcDbEntity
  8
0
100
AcDbLine
 10
89.0
 20
13.3956
 30
0.0
 11
89.0
 21
18.8195
 31
0.0
  0
LINE
  5
376
330
321
100
AcDbEntity
  8
0
100
AcDbLine
 10
89.0
 20
13.3956
 30
0.0
 11
89.0
 21
10.1036
 31
0.0
  0
LINE
  5
377
330
321
100
AcDbEntity
  8
0
100
AcDbLine
 10
89.0
 20
18.8195
 30
0.0
 11
89.0
 21
26.2827
 31
0.0
  0
LINE
  5
378
330
321
100
AcDbEntity
  8
0
100
AcDbLine
 10
89.0
 20
18.8195
 30
0.0
 11
89.0
 21
13.3956
 31
0.0
  0
LINE
  5
379
330
321
100
AcDbEntity
  8
0
100
AcDbLine
 10
89.0
 20
35.65740000000001
 30
0.0
 11
89.0
 21
26.2827
 31
0.0
  0
LINE
  5
37A
330
321
100
AcDbEntity
  8
0
100
AcDbLine
 10
89.0
 20
35.65740000000001
 30
0.0
 11
89.0
 21
46.7832
 31
0.0
  0
LINE
  5
37B
330
321
100
AcDbEntity
  8
0
100
AcDbLine
 10
89.0
 20
26.2827
 30
0.0
 11
89.0
 21
18.8195
 31
0.0
  0
LINE
  5
37C
330
321
100
AcDbEntity
  8
0
100
AcDbLine
 10
89.0
 20
26.2827
 30
0.0
 11
89.0
 21
35.65740000000001
 31
0.0
  0
LINE
  5
37D
330
321
100
AcDbEntity
  8
0
100
AcDbLine
 10
89.0
 20
18.8195
 30
0.0
 11
89.0
 21
13.3956
 31
0.0
  0
LINE
  5
37E
330
321
100
AcDbEntity
  8
0
100
AcDbLine
 10
89.0
 20
18.8195
 30
0.0
 11
89.0
 21
26.2827
 31
0.0
  0
LINE
  5
37F
330
321
100
AcDbEntity
  8
0
100
AcDbLine
 10
89.0
 20
13.3956
 30
0.0
 11
89.0
 21
10.1036
 31
0.0
  0
LINE
  5
380
330
321
100
AcDbEntity
  8
0
100
AcDbLine
 10
89.0
 20
13.3956
 30
0.0
 11
89.0
 21
18.8195
 31
0.0
  0
LINE
  5
381
330
321
100
AcDbEntity
  8
0
100
AcDbLine
 10
89.0
 20
10.1036
 30
0.0
 11
89.0
 21
9.000000000000039
 31
0.0
  0
LINE
  5
382
330
321
100
AcDbEntity
  8
0
100
AcDbLine
 10
89.0
 20
10.1036
 30
0.0
 11
89.0
 21
13.3956
 31
0.0
  0
LINE
  5
383
330
321
100
AcDbEntity
  8
0
100
AcDbLine
 10
89.0
 20
9.000000000000039
 30
0.0
 11
89.0
 21
10.1036
 31
0.0
  0
LINE
  5
384
330
321
100
AcDbEntity
  8
0
100
AcDbLine
 10
89.0
 20
9.000000000000039
 30
0.0
 11
90.18799999999997
 21
4.536000000000039
 31
0.0
  0
LINE
  5
385
330
321
100
AcDbEntity
  8
0
100
AcDbLine
 10
89.0
 20
9.000000000000039
 30
0.0
 11
89.0
 21
10.1036
 31
0.0
  0
LINE
  5
386
330
321
100
AcDbEntity
  8
0
100
AcDbLine
 10
89.0
 20
46.7832
 30
0.0
 11
89.0
 21
35.65740000000001
 31
0.0
  0
LINE
  5
387
330
321
100
AcDbEntity
  8
0
100
AcDbLine
 10
89.0
 20
46.7832
 30
0.0
 11
89.0
 21
59.46979999999999
 31
0.0
  0
LINE
  5
388
330
321
100
AcDbEntity
  8
0
100
AcDbLine
 10
89.0
 20
35.65740000000001
 30
0.0
 11
89.0
 21
26.2827
 31
0.0
  0
LINE
  5
389
330
321
100
AcDbEntity
  8
0
100
AcDbLine
 10
89.0
 20
35.65740000000001
 30
0.0
 11
89.0
 21
46.7832
 31
0.0
  0
LINE
  5
38A
330
321
100
AcDbEntity
  8
0
100
AcDbLine
 10
89.0
 20
26.2827
 30
0.0
 11
89.0
 21
35.65740000000001
 31
0.0
  0
LINE
  5
38B
330
321
100
AcDbEntity
  8
0
100
AcDbLine
 10
89.0
 20
26.2827
 30
0.0
 11
89.0
 21
18.8195
 31
0.0
  0
LINE
  5
38C
330
321
100
AcDbEntity
  8
0
100
AcDbLine
 10
89.0
 20
59.46979999999999
 30
0.0
 11
89.0
 21
73.5
 31
0.0
  0
LINE
  5
38D
330
321
100
AcDbEntity
  8
0
100
AcDbLine
 10
89.0
 20
59.46979999999999
 30
0.0
 11
89.0
 21
46.7832
 31
0.0
  0
LINE
  5
38E
330
321
100
AcDbEntity
  8
0
100
AcDbLine
 10
89.0
 20
73.5
 30
0.0
 11
89.0
 21
88.63379999999997
 31
0.0
  0
LINE
  5
38F
330
321
100
AcDbEntity
  8
0
100
AcDbLine
 10
89.0
 20
73.5
 30
0.0
 11
89.0
 21
59.46979999999999
 31
0.0
  0
LINE
  5
390
330
321
100
AcDbEntity
  8
0
100
AcDbLine
 10
89.0
 20
88.63379999999997
 30
0.0
 11
89.0
 21
104.6119999999999
 31
0.0
  0
LINE
  5
391
330
321
100
AcDbEntity
  8
0
100
AcDbLine
 10
89.0
 20
88.63379999999997
 30
0.0
 11
89.0
 21
73.5
 31
0.0
  0
LINE
  5
392
330
321
100
AcDbEntity
  8
0
100
AcDbLine
 10
89.0
 20
104.6119999999999
 30
0.0
 11
89.0
 21
121.162
 31
0.0
  0
LINE
  5
393
330
321
100
AcDbEntity
  8
0
100
AcDbLine
 10
89.0
 20
104.6119999999999
 30
0.0
 11
89.0
 21
88.63379999999997
 31
0.0
  0
LINE
  5
394
330
321
100
AcDbEntity
  8
0
100
AcDbLine
 10
89.0
 20
121.162
 30
0.0
 11
89.0
 21
138.0
 31
0.0
  0
LINE
  5
395
330
321
100
AcDbEntity
  8
0
100
AcDbLine
 10
89.0
 20
121.162
 30
0.0
 11
89.0
 21
104.6119999999999
 31
0.0
  0
LINE
  5
396
330
321
100
AcDbEntity
  8
0
100
AcDbLine
 10
89.0
 20
138.0
 30
0.0
 11
89.0
 21
121.162
 31
0.0
  0
LINE
  5
397
330
321
100
AcDbEntity
  8
0
100
AcDbLine
 10
89.0
 20
138.0
 30
0.0
 11
89.0
 21
570.0
 31
0.0
  0
LINE
  5
398
330
321
100
AcDbEntity
  8
0
100
AcDbLine
 10
89.0
 20
121.162
 30
0.0
 11
89.0
 21
138.0
 31
0.0
  0
LINE
  5
399
330
321
100
AcDbEntity
  8
0
100
AcDbLine
 10
89.0
 20
121.162
 30
0.0
 11
89.0
 21
104.6119999999999
 31
0.0
  0
LINE
  5
39A
330
321
100
AcDbEntity
  8
0
100
AcDbLine
 10
89.0
 20
104.6119999999999
 30
0.0
 11
89.0
 21
88.6338000000001
 31
0.0
  0
LINE
  5
39B
330
321
100
AcDbEntity
  8
0
100
AcDbLine
 10
89.0
 20
104.6119999999999
 30
0.0
 11
89.0
 21
121.162
 31
0.0
  0
LINE
  5
39C
330
321
100
AcDbEntity
  8
0
100
AcDbLine
 10
89.0
 20
88.6338000000001
 30
0.0
 11
89.0
 21
104.6119999999999
 31
0.0
  0
LINE
  5
39D
330
321
100
AcDbEntity
  8
0
100
AcDbLine
 10
89.0
 20
88.6338000000001
 30
0.0
 11
89.0
 21
73.5000000000001
 31
0.0
  0
LINE
  5
39E
330
321
100
AcDbEntity
  8
0
100
AcDbLine
 10
89.0
 20
73.5000000000001
 30
0.0
 11
89.0
 21
59.46979999999999
 31
0.0
  0
LINE
  5
39F
330
321
100
AcDbEntity
  8
0
100
AcDbLine
 10
89.0
 20
73.5000000000001
 30
0.0
 11
89.0
 21
88.6338000000001
 31
0.0
  0
LINE
  5
3A0
330
321
100
AcDbEntity
  8
0
100
AcDbLine
 10
89.0
 20
498.5439999999999
 30
0.0
 11
89.0
 21
432.4699999999999
 31
0.0
  0
LINE
  5
3A1
330
321
100
AcDbEntity
  8
0
100
AcDbLine
 10
89.0
 20
498.5439999999999
 30
0.0
 11
89.0
 21
560.0
 31
0.0
  0
LINE
  5
3A2
330
321
100
AcDbEntity
  8
0
100
AcDbLine
 10
89.0
 20
432.4699999999999
 30
0.0
 11
89.0
 21
378.324
 31
0.0
  0
LINE
  5
3A3
330
321
100
AcDbEntity
  8
0
100
AcDbLine
 10
89.0
 20
432.4699999999999
 30
0.0
 11
89.0
 21
498.5439999999999
 31
0.0
  0
LINE
  5
3A4
330
321
100
AcDbEntity
  8
0
100
AcDbLine
 10
89.0
 20
378.324
 30
0.0
 11
89.0
 21
328.35
 31
0.0
  0
LINE
  5
3A5
330
321
100
AcDbEntity
  8
0
100
AcDbLine
 10
89.0
 20
378.324
 30
0.0
 11
89.0
 21
432.4699999999999
 31
0.0
  0
LINE
  5
3A6
330
321
100
AcDbEntity
  8
0
100
AcDbLine
 10
89.0
 20
328.35
 30
0.0
 11
89.0
 21
260.7569999999999
 31
0.0
  0
LINE
  5
3A7
330
321
100
AcDbEntity
  8
0
100
AcDbLine
 10
89.0
 20
328.35
 30
0.0
 11
89.0
 21
378.324
 31
0.0
  0
LINE
  5
3A8
330
321
100
AcDbEntity
  8
0
100
AcDbLine
 10
89.0
 20
260.7569999999999
 30
0.0
 11
89.0
 21
188.6979999999999
 31
0.0
  0
LINE
  5
3A9
330
321
100
AcDbEntity
  8
0
100
AcDbLine
 10
89.0
 20
260.7569999999999
 30
0.0
 11
89.0
 21
328.35
 31
0.0
  0
LINE
  5
3AA
330
321
100
AcDbEntity
  8
0
100
AcDbLine
 10
89.0
 20
570.0
 30
0.0
 11
90.18799999999997
 21
570.0
 31
0.0
  0
LINE
  5
3AB
330
321
100
AcDbEntity
  8
0
100
AcDbLine
 10
89.0
 20
570.0
 30
0.0
 11
89.0
 21
560.0
 31
0.0
  0
LINE
  5
3AC
330
321
100
AcDbEntity
  8
0
100
AcDbLine
 10
89.0
 20
570.0
 30
0.0
 11
89.0
 21
138.0
 31
0.0
  0
LINE
  5
3AD
330
321
100
AcDbEntity
  8
0
100
AcDbLine
 10
89.0
 20
560.0
 30
0.0
 11
89.0
 21
570.0
 31
0.0
  0
LINE
  5
3AE
330
321
100
AcDbEntity
  8
0
100
AcDbLine
 10
89.0
 20
560.0
 30
0.0
 11
89.0
 21
498.5439999999999
 31
0.0
  0
LINE
  5
3AF
330
321
100
AcDbEntity
  8
0
100
AcDbLine
 10
89.0
 20
188.6979999999999
 30
0.0
 11
89.0
 21
138.0
 31
0.0
  0
LINE
  5
3B0
330
321
100
AcDbEntity
  8
0
100
AcDbLine
 10
89.0
 20
188.6979999999999
 30
0.0
 11
89.0
 21
260.7569999999999
 31
0.0
  0
LINE
  5
3B1
330
321
100
AcDbEntity
  8
0
100
AcDbLine
 10
89.0
 20
138.0
 30
0.0
 11
89.0
 21
188.6979999999999
 31
0.0
  0
LINE
  5
3B2
330
321
100
AcDbEntity
  8
0
100
AcDbLine
 10
89.0
 20
138.0
 30
0.0
 11
89.0
 21
121.162
 31
0.0
  0
LINE
  5
3B3
330
321
100
AcDbEntity
  8
0
100
AcDbLine
 10
89.0
 20
59.46979999999999
 30
0.0
 11
89.0
 21
46.7832
 31
0.0
  0
LINE
  5
3B4
330
321
100
AcDbEntity
  8
0
100
AcDbLine
 10
89.0
 20
59.46979999999999
 30
0.0
 11
89.0
 21
73.5000000000001
 31
0.0
  0
LINE
  5
3B5
330
321
100
AcDbEntity
  8
0
100
AcDbLine
 10
89.0
 20
46.7832
 30
0.0
 11
89.0
 21
59.46979999999999
 31
0.0
  0
LINE
  5
3B6
330
321
100
AcDbEntity
  8
0
100
AcDbLine
 10
89.0
 20
46.7832
 30
0.0
 11
89.0
 21
35.65740000000001
 31
0.0
  0
LINE
  5
3B7
330
321
100
AcDbEntity
  8
0
100
AcDbLine
 10
90.18799999999997
 20
4.536000000000039
 30
0.0
 11
93.536
 21
1.188000000000039
 31
0.0
  0
LINE
  5
3B8
330
321
100
AcDbEntity
  8
0
100
AcDbLine
 10
90.18799999999997
 20
4.536000000000039
 30
0.0
 11
93.536
 21
1.188000000000039
 31
0.0
  0
LINE
  5
3B9
330
321
100
AcDbEntity
  8
0
100
AcDbLine
 10
90.18799999999997
 20
570.0
 30
0.0
 11
93.536
 21
570.0
 31
0.0
  0
LINE
  5
3BA
330
321
100
AcDbEntity
  8
0
100
AcDbLine
 10
89.74400000000001
 20
570.0
 30
0.0
 11
92.19199999999998
 21
570.0
 31
0.0
  0
LINE
  5
3BB
330
321
100
AcDbEntity
  8
0
100
AcDbLine
 10
92.19199999999998
 20
570.0
 30
0.0
 11
94.97600000000002
 21
570.0
 31
0.0
  0
LINE
  5
3BC
330
321
100
AcDbEntity
  8
0
100
AcDbLine
 10
87.87200000000002
 20
609.0
 30
0.0
 11
89.74400000000001
 21
609.0
 31
0.0
  0
LINE
  5
3BD
330
321
100
AcDbEntity
  8
0
100
AcDbLine
 10
89.74400000000001
 20
609.0
 30
0.0
 11
92.19199999999998
 21
609.0
 31
0.0
  0
LINE
  5
3BE
330
321
100
AcDbEntity
  8
0
100
AcDbLine
 10
93.536
 20
1.188000000000039
 30
0.0
 11
98.0
 21
0.0000000000000369
 31
0.0
  0
LINE
  5
3BF
330
321
100
AcDbEntity
  8
0
100
AcDbLine
 10
93.536
 20
1.188000000000039
 30
0.0
 11
98.0
 21
0.000000000000037
 31
0.0
  0
LINE
  5
3C0
330
321
100
AcDbEntity
  8
0
100
AcDbLine
 10
93.536
 20
570.0
 30
0.0
 11
98.0
 21
570.0
 31
0.0
  0
LINE
  5
3C1
330
321
100
AcDbEntity
  8
0
100
AcDbLine
 10
98.0
 20
0.000000000000037
 30
0.0
 11
102.4639999999999
 21
1.188000000000039
 31
0.0
  0
LINE
  5
3C2
330
321
100
AcDbEntity
  8
0
100
AcDbLine
 10
98.0
 20
0.0000000000000369
 30
0.0
 11
102.4639999999999
 21
1.188000000000039
 31
0.0
  0
LINE
  5
3C3
330
321
100
AcDbEntity
  8
0
100
AcDbLine
 10
94.97600000000002
 20
570.0
 30
0.0
 11
98.0
 21
570.0
 31
0.0
  0
LINE
  5
3C4
330
321
100
AcDbEntity
  8
0
100
AcDbLine
 10
98.0
 20
570.0
 30
0.0
 11
101.024
 21
570.0
 31
0.0
  0
LINE
  5
3C5
330
321
100
AcDbEntity
  8
0
100
AcDbLine
 10
98.0
 20
570.0
 30
0.0
 11
102.4639999999999
 21
570.0
 31
0.0
  0
LINE
  5
3C6
330
321
100
AcDbEntity
  8
0
100
AcDbLine
 10
92.19199999999998
 20
609.0
 30
0.0
 11
94.97600000000002
 21
609.0
 31
0.0
  0
LINE
  5
3C7
330
321
100
AcDbEntity
  8
0
100
AcDbLine
 10
83.536
 20
616.216
 30
0.0
 11
84.976
 21
616.7919999999997
 31
0.0
  0
LINE
  5
3C8
330
321
100
AcDbEntity
  8
0
100
AcDbLine
 10
84.976
 20
616.7919999999997
 30
0.0
 11
86.0
 21
617.564830188679
 31
0.0
  0
LINE
  5
3C9
330
321
100
AcDbEntity
  8
0
100
AcDbLine
 10
86.0
 20
620.0
 30
0.0
 11
86.0
 21
619.615
 31
0.0
  0
LINE
  5
3CA
330
321
100
AcDbEntity
  8
0
100
AcDbLine
 10
86.0
 20
619.615
 30
0.0
 11
86.0
 21
620.0
 31
0.0
  0
LINE
  5
3CB
330
321
100
AcDbEntity
  8
0
100
AcDbLine
 10
87.59999999999998
 20
610.0
 30
0.0
 11
89.50000000000001
 21
610.0
 31
0.0
  0
LINE
  5
3CC
330
321
100
AcDbEntity
  8
0
100
AcDbLine
 10
86.4
 20
610.0
 30
0.0
 11
87.59999999999998
 21
610.0
 31
0.0
  0
LINE
  5
3CD
330
321
100
AcDbEntity
  8
0
100
AcDbLine
 10
89.50000000000001
 20
610.0
 30
0.0
 11
92.0
 21
610.0
 31
0.0
  0
LINE
  5
3CE
330
321
100
AcDbEntity
  8
0
100
AcDbLine
 10
92.0
 20
610.0
 30
0.0
 11
94.9
 21
610.0
 31
0.0
  0
LINE
  5
3CF
330
321
100
AcDbEntity
  8
0
100
AcDbLine
 10
94.9
 20
610.0
 30
0.0
 11
98.0
 21
610.0
 31
0.0
  0
LINE
  5
3D0
330
321
100
AcDbEntity
  8
0
100
AcDbLine
 10
98.0
 20
610.0
 30
0.0
 11
101.0999999999998
 21
610.0
 31
0.0
  0
LINE
  5
3D1
330
321
100
AcDbEntity
  8
0
100
AcDbLine
 10
86.0
 20
610.0
 30
0.0
 11
87.0
 21
609.0
 31
0.0
  0
LINE
  5
3D2
330
321
100
AcDbEntity
  8
0
100
AcDbLine
 10
86.0
 20
610.0
 30
0.0
 11
86.4
 21
610.0
 31
0.0
  0
LINE
  5
3D3
330
321
100
AcDbEntity
  8
0
100
AcDbLine
 10
86.0
 20
610.0
 30
0.0
 11
86.0
 21
620.2999999999999
 31
0.0
  0
LINE
  5
3D4
330
321
100
AcDbEntity
  8
0
100
AcDbLine
 10
94.97600000000002
 20
609.0
 30
0.0
 11
98.0
 21
609.0
 31
0.0
  0
LINE
  5
3D5
330
321
100
AcDbEntity
  8
0
100
AcDbLine
 10
102.4639999999999
 20
1.188000000000039
 30
0.0
 11
105.812
 21
4.536000000000039
 31
0.0
  0
LINE
  5
3D6
330
321
100
AcDbEntity
  8
0
100
AcDbLine
 10
102.4639999999999
 20
1.188000000000039
 30
0.0
 11
105.812
 21
4.536000000000039
 31
0.0
  0
LINE
  5
3D7
330
321
100
AcDbEntity
  8
0
100
AcDbLine
 10
102.4639999999999
 20
570.0
 30
0.0
 11
105.812
 21
570.0
 31
0.0
  0
LINE
  5
3D8
330
321
100
AcDbEntity
  8
0
100
AcDbLine
 10
103.8079999999998
 20
570.0
 30
0.0
 11
106.2559999999999
 21
570.0
 31
0.0
  0
LINE
  5
3D9
330
321
100
AcDbEntity
  8
0
100
AcDbLine
 10
101.024
 20
570.0
 30
0.0
 11
103.8079999999998
 21
570.0
 31
0.0
  0
LINE
  5
3DA
330
321
100
AcDbEntity
  8
0
100
AcDbLine
 10
107.0
 20
9.000000000000039
 30
0.0
 11
107.0
 21
10.1036
 31
0.0
  0
LINE
  5
3DB
330
321
100
AcDbEntity
  8
0
100
AcDbLine
 10
107.0
 20
10.1036
 30
0.0
 11
107.0
 21
13.3956
 31
0.0
  0
LINE
  5
3DC
330
321
100
AcDbEntity
  8
0
100
AcDbLine
 10
107.0
 20
10.1036
 30
0.0
 11
107.0
 21
9.000000000000039
 31
0.0
  0
LINE
  5
3DD
330
321
100
AcDbEntity
  8
0
100
AcDbLine
 10
107.0
 20
13.3956
 30
0.0
 11
107.0
 21
18.8195
 31
0.0
  0
LINE
  5
3DE
330
321
100
AcDbEntity
  8
0
100
AcDbLine
 10
107.0
 20
13.3956
 30
0.0
 11
107.0
 21
10.1036
 31
0.0
  0
LINE
  5
3DF
330
321
100
AcDbEntity
  8
0
100
AcDbLine
 10
107.0
 20
18.8195
 30
0.0
 11
107.0
 21
26.2827
 31
0.0
  0
LINE
  5
3E0
330
321
100
AcDbEntity
  8
0
100
AcDbLine
 10
107.0
 20
18.8195
 30
0.0
 11
107.0
 21
13.3956
 31
0.0
  0
LINE
  5
3E1
330
321
100
AcDbEntity
  8
0
100
AcDbLine
 10
107.0
 20
26.2827
 30
0.0
 11
107.0
 21
18.8195
 31
0.0
  0
LINE
  5
3E2
330
321
100
AcDbEntity
  8
0
100
AcDbLine
 10
107.0
 20
26.2827
 30
0.0
 11
107.0
 21
35.65740000000001
 31
0.0
  0
LINE
  5
3E3
330
321
100
AcDbEntity
  8
0
100
AcDbLine
 10
107.0
 20
88.6338000000001
 30
0.0
 11
107.0
 21
104.6119999999999
 31
0.0
  0
LINE
  5
3E4
330
321
100
AcDbEntity
  8
0
100
AcDbLine
 10
107.0
 20
88.6338000000001
 30
0.0
 11
107.0
 21
73.5000000000001
 31
0.0
  0
LINE
  5
3E5
330
321
100
AcDbEntity
  8
0
100
AcDbLine
 10
107.0
 20
104.6119999999999
 30
0.0
 11
107.0
 21
121.162
 31
0.0
  0
LINE
  5
3E6
330
321
100
AcDbEntity
  8
0
100
AcDbLine
 10
107.0
 20
104.6119999999999
 30
0.0
 11
107.0
 21
88.6338000000001
 31
0.0
  0
LINE
  5
3E7
330
321
100
AcDbEntity
  8
0
100
AcDbLine
 10
107.0
 20
121.162
 30
0.0
 11
107.0
 21
138.0
 31
0.0
  0
LINE
  5
3E8
330
321
100
AcDbEntity
  8
0
100
AcDbLine
 10
107.0
 20
121.162
 30
0.0
 11
107.0
 21
104.6119999999999
 31
0.0
  0
LINE
  5
3E9
330
321
100
AcDbEntity
  8
0
100
AcDbLine
 10
107.0
 20
138.0
 30
0.0
 11
107.0
 21
188.6979999999999
 31
0.0
  0
LINE
  5
3EA
330
321
100
AcDbEntity
  8
0
100
AcDbLine
 10
107.0
 20
138.0
 30
0.0
 11
107.0
 21
121.162
 31
0.0
  0
LINE
  5
3EB
330
321
100
AcDbEntity
  8
0
100
AcDbLine
 10
107.0
 20
188.6979999999999
 30
0.0
 11
107.0
 21
138.0
 31
0.0
  0
LINE
  5
3EC
330
321
100
AcDbEntity
  8
0
100
AcDbLine
 10
107.0
 20
188.6979999999999
 30
0.0
 11
107.0
 21
260.7569999999999
 31
0.0
  0
LINE
  5
3ED
330
321
100
AcDbEntity
  8
0
100
AcDbLine
 10
107.0
 20
260.7569999999999
 30
0.0
 11
107.0
 21
328.35
 31
0.0
  0
LINE
  5
3EE
330
321
100
AcDbEntity
  8
0
100
AcDbLine
 10
107.0
 20
260.7569999999999
 30
0.0
 11
107.0
 21
188.6979999999999
 31
0.0
  0
LINE
  5
3EF
330
321
100
AcDbEntity
  8
0
100
AcDbLine
 10
107.0
 20
328.35
 30
0.0
 11
107.0
 21
260.7569999999999
 31
0.0
  0
LINE
  5
3F0
330
321
100
AcDbEntity
  8
0
100
AcDbLine
 10
107.0
 20
328.35
 30
0.0
 11
107.0
 21
378.324
 31
0.0
  0
LINE
  5
3F1
330
321
100
AcDbEntity
  8
0
100
AcDbLine
 10
107.0
 20
378.324
 30
0.0
 11
107.0
 21
432.4699999999999
 31
0.0
  0
LINE
  5
3F2
330
321
100
AcDbEntity
  8
0
100
AcDbLine
 10
107.0
 20
378.324
 30
0.0
 11
107.0
 21
328.35
 31
0.0
  0
LINE
  5
3F3
330
321
100
AcDbEntity
  8
0
100
AcDbLine
 10
107.0
 20
73.5000000000001
 30
0.0
 11
107.0
 21
59.46979999999999
 31
0.0
  0
LINE
  5
3F4
330
321
100
AcDbEntity
  8
0
100
AcDbLine
 10
107.0
 20
73.5000000000001
 30
0.0
 11
107.0
 21
88.6338000000001
 31
0.0
  0
LINE
  5
3F5
330
321
100
AcDbEntity
  8
0
100
AcDbLine
 10
107.0
 20
59.46979999999999
 30
0.0
 11
107.0
 21
46.7832
 31
0.0
  0
LINE
  5
3F6
330
321
100
AcDbEntity
  8
0
100
AcDbLine
 10
107.0
 20
59.46979999999999
 30
0.0
 11
107.0
 21
73.5000000000001
 31
0.0
  0
LINE
  5
3F7
330
321
100
AcDbEntity
  8
0
100
AcDbLine
 10
107.0
 20
35.65740000000001
 30
0.0
 11
107.0
 21
46.7832
 31
0.0
  0
LINE
  5
3F8
330
321
100
AcDbEntity
  8
0
100
AcDbLine
 10
107.0
 20
35.65740000000001
 30
0.0
 11
107.0
 21
26.2827
 31
0.0
  0
LINE
  5
3F9
330
321
100
AcDbEntity
  8
0
100
AcDbLine
 10
107.0
 20
46.7832
 30
0.0
 11
107.0
 21
35.65740000000001
 31
0.0
  0
LINE
  5
3FA
330
321
100
AcDbEntity
  8
0
100
AcDbLine
 10
107.0
 20
46.7832
 30
0.0
 11
107.0
 21
59.46979999999999
 31
0.0
  0
LINE
  5
3FB
330
321
100
AcDbEntity
  8
0
100
AcDbLine
 10
105.812
 20
4.536000000000039
 30
0.0
 11
107.0
 21
9.000000000000039
 31
0.0
  0
LINE
  5
3FC
330
321
100
AcDbEntity
  8
0
100
AcDbLine
 10
107.0
 20
432.4699999999999
 30
0.0
 11
107.0
 21
498.5439999999999
 31
0.0
  0
LINE
  5
3FD
330
321
100
AcDbEntity
  8
0
100
AcDbLine
 10
107.0
 20
432.4699999999999
 30
0.0
 11
107.0
 21
378.324
 31
0.0
  0
LINE
  5
3FE
330
321
100
AcDbEntity
  8
0
100
AcDbLine
 10
105.812
 20
570.0
 30
0.0
 11
107.0
 21
570.0
 31
0.0
  0
LINE
  5
3FF
330
321
100
AcDbEntity
  8
0
100
AcDbLine
 10
107.0
 20
498.5439999999999
 30
0.0
 11
107.0
 21
560.0
 31
0.0
  0
LINE
  5
400
330
321
100
AcDbEntity
  8
0
100
AcDbLine
 10
107.0
 20
498.5439999999999
 30
0.0
 11
107.0
 21
432.4699999999999
 31
0.0
  0
LINE
  5
401
330
321
100
AcDbEntity
  8
0
100
AcDbLine
 10
107.0
 20
560.0
 30
0.0
 11
107.0
 21
498.5439999999999
 31
0.0
  0
LINE
  5
402
330
321
100
AcDbEntity
  8
0
100
AcDbLine
 10
107.0
 20
560.0
 30
0.0
 11
107.0
 21
570.0
 31
0.0
  0
LINE
  5
403
330
321
100
AcDbEntity
  8
0
100
AcDbLine
 10
107.0
 20
570.0
 30
0.0
 11
108.1279999999999
 21
570.0
 31
0.0
  0
LINE
  5
404
330
321
100
AcDbEntity
  8
0
100
AcDbLine
 10
107.0
 20
570.0
 30
0.0
 11
107.0
 21
560.0
 31
0.0
  0
LINE
  5
405
330
321
100
AcDbEntity
  8
0
100
AcDbLine
 10
108.1279999999999
 20
570.0
 30
0.0
 11
109.2799999999999
 21
570.0
 31
0.0
  0
LINE
  5
406
330
321
100
AcDbEntity
  8
0
100
AcDbLine
 10
106.2559999999999
 20
570.0
 30
0.0
 11
108.1279999999999
 21
570.0
 31
0.0
  0
LINE
  5
407
330
321
100
AcDbEntity
  8
0
100
AcDbLine
 10
109.0
 20
609.0
 30
0.0
 11
110.0
 21
610.0
 31
0.0
  0
LINE
  5
408
330
321
100
AcDbEntity
  8
0
100
AcDbLine
 10
109.2799999999999
 20
570.0
 30
0.0
 11
109.712
 21
570.0
 31
0.0
  0
LINE
  5
409
330
321
100
AcDbEntity
  8
0
100
AcDbLine
 10
110.0
 20
570.615
 30
0.0
 11
110.0
 21
608.3849999999999
 31
0.0
  0
LINE
  5
40A
330
321
100
AcDbEntity
  8
0
100
AcDbLine
 10
109.712
 20
570.0
 30
0.0
 11
110.0
 21
570.615
 31
0.0
  0
LINE
  5
40B
330
321
100
AcDbEntity
  8
0
100
AcDbLine
 10
110.0
 20
608.3849999999999
 30
0.0
 11
110.0
 21
570.615
 31
0.0
  0
LINE
  5
40C
330
321
100
AcDbEntity
  8
0
100
AcDbLine
 10
109.2799999999999
 20
609.0
 30
0.0
 11
109.712
 21
609.0
 31
0.0
  0
LINE
  5
40D
330
321
100
AcDbEntity
  8
0
100
AcDbLine
 10
109.712
 20
609.0
 30
0.0
 11
110.0
 21
608.3849999999999
 31
0.0
  0
LINE
  5
40E
330
321
100
AcDbEntity
  8
0
100
AcDbLine
 10
108.1279999999999
 20
609.0
 30
0.0
 11
109.2799999999999
 21
609.0
 31
0.0
  0
LINE
  5
40F
330
321
100
AcDbEntity
  8
0
100
AcDbLine
 10
106.2559999999999
 20
609.0
 30
0.0
 11
108.1279999999999
 21
609.0
 31
0.0
  0
LINE
  5
410
330
321
100
AcDbEntity
  8
0
100
AcDbLine
 10
103.8079999999998
 20
609.0
 30
0.0
 11
106.2559999999999
 21
609.0
 31
0.0
  0
LINE
  5
411
330
321
100
AcDbEntity
  8
0
100
AcDbLine
 10
104.0
 20
610.0
 30
0.0
 11
106.4999999999999
 21
610.0
 31
0.0
  0
LINE
  5
412
330
321
100
AcDbEntity
  8
0
100
AcDbLine
 10
101.0999999999998
 20
610.0
 30
0.0
 11
104.0
 21
610.0
 31
0.0
  0
LINE
  5
413
330
321
100
AcDbEntity
  8
0
100
AcDbLine
 10
106.4999999999999
 20
610.0
 30
0.0
 11
108.4
 21
610.0
 31
0.0
  0
LINE
  5
414
330
321
100
AcDbEntity
  8
0
100
AcDbLine
 10
108.4
 20
610.0
 30
0.0
 11
109.5999999999998
 21
610.0
 31
0.0
  0
LINE
  5
415
330
321
100
AcDbEntity
  8
0
100
AcDbLine
 10
109.5999999999998
 20
610.0
 30
0.0
 11
110.0
 21
610.0
 31
0.0
  0
LINE
  5
416
330
321
100
AcDbEntity
  8
0
100
AcDbLine
 10
110.0
 20
610.0
 30
0.0
 11
110.0
 21
669.2999999999999
 31
0.0
  0
LINE
  5
417
330
321
100
AcDbEntity
  8
0
100
AcDbLine
 10
101.024
 20
609.0
 30
0.0
 11
103.8079999999998
 21
609.0
 31
0.0
  0
LINE
  5
418
330
321
100
AcDbEntity
  8
0
100
AcDbLine
 10
98.0
 20
609.0
 30
0.0
 11
101.024
 21
609.0
 31
0.0
  0
LINE
  5
419
330
321
100
AcDbEntity
  8
0
100
AcDbLine
 10
110.0
 20
620.0
 30
0.0
 11
112.7999999999999
 21
620.0
 31
0.0
  0
LINE
  5
41A
330
321
100
AcDbEntity
  8
0
100
AcDbLine
 10
83.2
 20
620.0
 30
0.0
 11
86.0
 21
620.0
 31
0.0
  0
LINE
  5
41B
330
321
100
AcDbEntity
  8
0
100
AcDbLine
 10
80.23000000000001
 20
620.0
 30
0.0
 11
83.2
 21
620.0
 31
0.0
  0
LINE
  5
41C
330
321
100
AcDbEntity
  8
0
100
AcDbLine
 10
77.87
 20
620.0
 30
0.0
 11
80.23000000000001
 21
620.0
 31
0.0
  0
LINE
  5
41D
330
321
100
AcDbEntity
  8
0
100
AcDbLine
 10
86.0
 20
621.0
 30
0.0
 11
86.0
 21
620.2999999999999
 31
0.0
  0
LINE
  5
41E
330
321
100
AcDbEntity
  8
0
100
AcDbLine
 10
86.0
 20
620.2999999999999
 30
0.0
 11
86.0
 21
620.0
 31
0.0
  0
LINE
  5
41F
330
321
100
AcDbEntity
  8
0
100
AcDbLine
 10
86.0
 20
620.2999999999999
 30
0.0
 11
86.0
 21
610.0
 31
0.0
  0
LINE
  5
420
330
321
100
AcDbEntity
  8
0
100
AcDbLine
 10
77.0
 20
620.0
 30
0.0
 11
86.0
 21
620.0
 31
0.0
  0
LINE
  5
421
330
321
100
AcDbEntity
  8
0
100
AcDbLine
 10
77.0
 20
620.0
 30
0.0
 11
77.87
 21
620.0
 31
0.0
  0
LINE
  5
422
330
321
100
AcDbEntity
  8
0
100
AcDbLine
 10
28.0
 20
643.0
 30
0.0
 11
32.0
 21
643.0
 31
0.0
  0
LINE
  5
423
330
321
100
AcDbEntity
  8
0
100
AcDbLine
 10
25.44
 20
643.36
 30
0.0
 11
28.0
 21
643.0
 31
0.0
  0
LINE
  5
424
330
321
100
AcDbEntity
  8
0
100
AcDbLine
 10
23.03999999999999
 20
644.3200000000001
 30
0.0
 11
25.44
 21
643.36
 31
0.0
  0
LINE
  5
425
330
321
100
AcDbEntity
  8
0
100
AcDbLine
 10
23.12059
 20
648.1206
 30
0.0
 11
24.56176
 21
647.0293999999999
 31
0.0
  0
LINE
  5
426
330
321
100
AcDbEntity
  8
0
100
AcDbLine
 10
29.7706
 20
646.35
 30
0.0
 11
31.43819999999999
 21
647.0293999999999
 31
0.0
  0
LINE
  5
427
330
321
100
AcDbEntity
  8
0
100
AcDbLine
 10
28.0
 20
646.1028999999999
 30
0.0
 11
29.7706
 21
646.35
 31
0.0
  0
LINE
  5
428
330
321
100
AcDbEntity
  8
0
100
AcDbLine
 10
31.43819999999999
 20
647.0293999999999
 30
0.0
 11
32.87939999999998
 21
648.1206
 31
0.0
  0
LINE
  5
429
330
321
100
AcDbEntity
  8
0
100
AcDbLine
 10
24.56176
 20
647.0293999999999
 30
0.0
 11
26.22940999999999
 21
646.35
 31
0.0
  0
LINE
  5
42A
330
321
100
AcDbEntity
  8
0
100
AcDbLine
 10
26.22940999999999
 20
646.35
 30
0.0
 11
28.0
 21
646.1028999999999
 31
0.0
  0
LINE
  5
42B
330
321
100
AcDbEntity
  8
0
100
AcDbLine
 10
22.02941
 20
649.5617999999999
 30
0.0
 11
23.12059
 21
648.1206
 31
0.0
  0
LINE
  5
42C
330
321
100
AcDbEntity
  8
0
100
AcDbLine
 10
20.92
 20
645.92
 30
0.0
 11
23.03999999999999
 21
644.3200000000001
 31
0.0
  0
LINE
  5
42D
330
321
100
AcDbEntity
  8
0
100
AcDbLine
 10
19.32
 20
648.0399999999998
 30
0.0
 11
20.92
 21
645.92
 31
0.0
  0
LINE
  5
42E
330
321
100
AcDbEntity
  8
0
100
AcDbLine
 10
21.35
 20
654.7705999999999
 30
0.0
 11
22.02941
 21
656.4382000000001
 31
0.0
  0
LINE
  5
42F
330
321
100
AcDbEntity
  8
0
100
AcDbLine
 10
22.02941
 20
656.4382000000001
 30
0.0
 11
23.12059
 21
657.8794
 31
0.0
  0
LINE
  5
430
330
321
100
AcDbEntity
  8
0
100
AcDbLine
 10
23.12059
 20
657.8794
 30
0.0
 11
23.2798688691352
 21
658.0
 31
0.0
  0
LINE
  5
431
330
321
100
AcDbEntity
  8
0
100
AcDbLine
 10
21.35
 20
651.2294000000001
 30
0.0
 11
22.02941
 21
649.5617999999999
 31
0.0
  0
LINE
  5
432
330
321
100
AcDbEntity
  8
0
100
AcDbLine
 10
21.10294
 20
653.0
 30
0.0
 11
21.35
 21
651.2294000000001
 31
0.0
  0
LINE
  5
433
330
321
100
AcDbEntity
  8
0
100
AcDbLine
 10
21.10294
 20
653.0
 30
0.0
 11
21.35
 21
654.7705999999999
 31
0.0
  0
LINE
  5
434
330
321
100
AcDbEntity
  8
0
100
AcDbLine
 10
19.32
 20
657.96
 30
0.0
 11
19.35018867924539
 21
658.0
 31
0.0
  0
LINE
  5
435
330
321
100
AcDbEntity
  8
0
100
AcDbLine
 10
18.36
 20
655.5599999999999
 30
0.0
 11
19.32
 21
657.96
 31
0.0
  0
LINE
  5
436
330
321
100
AcDbEntity
  8
0
100
AcDbLine
 10
18.36
 20
650.4400000000002
 30
0.0
 11
19.32
 21
648.0399999999998
 31
0.0
  0
LINE
  5
437
330
321
100
AcDbEntity
  8
0
100
AcDbLine
 10
18.0
 20
653.0
 30
0.0
 11
18.36
 21
650.4400000000002
 31
0.0
  0
LINE
  5
438
330
321
100
AcDbEntity
  8
0
100
AcDbLine
 10
18.0
 20
653.0
 30
0.0
 11
18.36
 21
655.5599999999999
 31
0.0
  0
LINE
  5
439
330
321
100
AcDbEntity
  8
0
100
AcDbLine
 10
32.0
 20
643.0
 30
0.0
 11
32.0
 21
622.0
 31
0.0
  0
LINE
  5
43A
330
321
100
AcDbEntity
  8
0
100
AcDbLine
 10
32.0
 20
643.0
 30
0.0
 11
44.5
 21
643.0
 31
0.0
  0
LINE
  5
43B
330
321
100
AcDbEntity
  8
0
100
AcDbLine
 10
76.0
 20
622.0
 30
0.0
 11
76.0
 21
629.0
 31
0.0
  0
LINE
  5
43C
330
321
100
AcDbEntity
  8
0
100
AcDbLine
 10
32.87939999999998
 20
648.1206
 30
0.0
 11
33.97059999999999
 21
649.5617999999999
 31
0.0
  0
LINE
  5
43D
330
321
100
AcDbEntity
  8
0
100
AcDbLine
 10
33.97059999999999
 20
649.5617999999999
 30
0.0
 11
34.64999999999999
 21
651.2294000000001
 31
0.0
  0
LINE
  5
43E
330
321
100
AcDbEntity
  8
0
100
AcDbLine
 10
33.97059999999999
 20
656.4382000000001
 30
0.0
 11
34.64999999999999
 21
654.7705999999999
 31
0.0
  0
LINE
  5
43F
330
321
100
AcDbEntity
  8
0
100
AcDbLine
 10
34.64999999999999
 20
654.7705999999999
 30
0.0
 11
34.8971
 21
653.0
 31
0.0
  0
LINE
  5
440
330
321
100
AcDbEntity
  8
0
100
AcDbLine
 10
32.87939999999998
 20
657.8794
 30
0.0
 11
33.97059999999999
 21
656.4382000000001
 31
0.0
  0
LINE
  5
441
330
321
100
AcDbEntity
  8
0
100
AcDbLine
 10
32.72011781524899
 20
658.0
 30
0.0
 11
32.87939999999998
 21
657.8794
 31
0.0
  0
LINE
  5
442
330
321
100
AcDbEntity
  8
0
100
AcDbLine
 10
34.64999999999999
 20
651.2294000000001
 30
0.0
 11
34.8971
 21
653.0
 31
0.0
  0
LINE
  5
443
330
321
100
AcDbEntity
  8
0
100
AcDbLine
 10
44.0
 20
641.0
 30
0.0
 11
44.576
 21
641.0
 31
0.0
  0
LINE
  5
444
330
321
100
AcDbEntity
  8
0
100
AcDbLine
 10
44.0
 20
641.0
 30
0.0
 11
44.0
 21
629.0
 31
0.0
  0
LINE
  5
445
330
321
100
AcDbEntity
  8
0
100
AcDbLine
 10
44.0
 20
641.0
 30
0.0
 11
46.0
 21
649.0
 31
0.0
  0
LINE
  5
446
330
321
100
AcDbEntity
  8
0
100
AcDbLine
 10
44.0
 20
629.0
 30
0.0
 11
44.576
 21
629.0
 31
0.0
  0
LINE
  5
447
330
321
100
AcDbEntity
  8
0
100
AcDbLine
 10
44.0
 20
629.0
 30
0.0
 11
44.0
 21
641.0
 31
0.0
  0
LINE
  5
448
330
321
100
AcDbEntity
  8
0
100
AcDbLine
 10
60.0
 20
629.0
 30
0.0
 11
64.09600000000001
 21
629.0
 31
0.0
  0
LINE
  5
449
330
321
100
AcDbEntity
  8
0
100
AcDbLine
 10
64.09600000000001
 20
629.0
 30
0.0
 11
67.93600000000001
 21
629.0
 31
0.0
  0
LINE
  5
44A
330
321
100
AcDbEntity
  8
0
100
AcDbLine
 10
67.93600000000001
 20
629.0
 30
0.0
 11
71.328
 21
629.0
 31
0.0
  0
LINE
  5
44B
330
321
100
AcDbEntity
  8
0
100
AcDbLine
 10
71.328
 20
629.0
 30
0.0
 11
73.888
 21
629.0
 31
0.0
  0
LINE
  5
44C
330
321
100
AcDbEntity
  8
0
100
AcDbLine
 10
76.0
 20
629.0
 30
0.0
 11
76.0
 21
641.0
 31
0.0
  0
LINE
  5
44D
330
321
100
AcDbEntity
  8
0
100
AcDbLine
 10
76.0
 20
629.0
 30
0.0
 11
76.0
 21
622.0
 31
0.0
  0
LINE
  5
44E
330
321
100
AcDbEntity
  8
0
100
AcDbLine
 10
73.888
 20
629.0
 30
0.0
 11
75.42399999999997
 21
629.0
 31
0.0
  0
LINE
  5
44F
330
321
100
AcDbEntity
  8
0
100
AcDbLine
 10
75.42399999999997
 20
629.0
 30
0.0
 11
76.0
 21
629.0
 31
0.0
  0
LINE
  5
450
330
321
100
AcDbEntity
  8
0
100
AcDbLine
 10
48.672
 20
629.0
 30
0.0
 11
50.0
 21
629.0
 31
0.0
  0
LINE
  5
451
330
321
100
AcDbEntity
  8
0
100
AcDbLine
 10
46.11199999999999
 20
629.0
 30
0.0
 11
48.672
 21
629.0
 31
0.0
  0
LINE
  5
452
330
321
100
AcDbEntity
  8
0
100
AcDbLine
 10
44.576
 20
629.0
 30
0.0
 11
46.11199999999999
 21
629.0
 31
0.0
  0
LINE
  5
453
330
321
100
AcDbEntity
  8
0
100
AcDbLine
 10
48.672
 20
641.0
 30
0.0
 11
50.0
 21
641.0
 31
0.0
  0
LINE
  5
454
330
321
100
AcDbEntity
  8
0
100
AcDbLine
 10
46.11199999999999
 20
641.0
 30
0.0
 11
48.672
 21
641.0
 31
0.0
  0
LINE
  5
455
330
321
100
AcDbEntity
  8
0
100
AcDbLine
 10
46.0
 20
658.0
 30
0.0
 11
46.0
 21
649.0
 31
0.0
  0
LINE
  5
456
330
321
100
AcDbEntity
  8
0
100
AcDbLine
 10
47.84799999999999
 20
649.0
 30
0.0
 11
50.088
 21
649.0
 31
0.0
  0
LINE
  5
457
330
321
100
AcDbEntity
  8
0
100
AcDbLine
 10
46.504
 20
649.0
 30
0.0
 11
47.84799999999999
 21
649.0
 31
0.0
  0
LINE
  5
458
330
321
100
AcDbEntity
  8
0
100
AcDbLine
 10
46.0
 20
649.0
 30
0.0
 11
46.504
 21
649.0
 31
0.0
  0
LINE
  5
459
330
321
100
AcDbEntity
  8
0
100
AcDbLine
 10
46.0
 20
649.0
 30
0.0
 11
46.0
 21
658.0
 31
0.0
  0
LINE
  5
45A
330
321
100
AcDbEntity
  8
0
100
AcDbLine
 10
44.576
 20
641.0
 30
0.0
 11
46.11199999999999
 21
641.0
 31
0.0
  0
LINE
  5
45B
330
321
100
AcDbEntity
  8
0
100
AcDbLine
 10
64.09600000000001
 20
641.0
 30
0.0
 11
67.93600000000001
 21
641.0
 31
0.0
  0
LINE
  5
45C
330
321
100
AcDbEntity
  8
0
100
AcDbLine
 10
67.93600000000001
 20
641.0
 30
0.0
 11
71.328
 21
641.0
 31
0.0
  0
LINE
  5
45D
330
321
100
AcDbEntity
  8
0
100
AcDbLine
 10
71.328
 20
641.0
 30
0.0
 11
73.888
 21
641.0
 31
0.0
  0
LINE
  5
45E
330
321
100
AcDbEntity
  8
0
100
AcDbLine
 10
73.888
 20
641.0
 30
0.0
 11
75.42399999999997
 21
641.0
 31
0.0
  0
LINE
  5
45F
330
321
100
AcDbEntity
  8
0
100
AcDbLine
 10
76.0
 20
641.0
 30
0.0
 11
76.0
 21
629.0
 31
0.0
  0
LINE
  5
460
330
321
100
AcDbEntity
  8
0
100
AcDbLine
 10
75.42399999999997
 20
641.0
 30
0.0
 11
76.0
 21
641.0
 31
0.0
  0
LINE
  5
461
330
321
100
AcDbEntity
  8
0
100
AcDbLine
 10
60.0
 20
649.0
 30
0.0
 11
63.58399999999999
 21
649.0
 31
0.0
  0
LINE
  5
462
330
321
100
AcDbEntity
  8
0
100
AcDbLine
 10
60.0
 20
649.0
 30
0.0
 11
60.0
 21
641.0
 31
0.0
  0
LINE
  5
463
330
321
100
AcDbEntity
  8
0
100
AcDbLine
 10
63.58399999999999
 20
649.0
 30
0.0
 11
66.944
 21
649.0
 31
0.0
  0
LINE
  5
464
330
321
100
AcDbEntity
  8
0
100
AcDbLine
 10
66.944
 20
649.0
 30
0.0
 11
69.91199999999999
 21
649.0
 31
0.0
  0
LINE
  5
465
330
321
100
AcDbEntity
  8
0
100
AcDbLine
 10
69.91199999999999
 20
649.0
 30
0.0
 11
72.152
 21
649.0
 31
0.0
  0
LINE
  5
466
330
321
100
AcDbEntity
  8
0
100
AcDbLine
 10
75.5
 20
643.0
 30
0.0
 11
76.0
 21
643.0
 31
0.0
  0
LINE
  5
467
330
321
100
AcDbEntity
  8
0
100
AcDbLine
 10
74.0
 20
649.0
 30
0.0
 11
74.0
 21
658.0
 31
0.0
  0
LINE
  5
468
330
321
100
AcDbEntity
  8
0
100
AcDbLine
 10
74.0
 20
649.0
 30
0.0
 11
76.0
 21
641.0
 31
0.0
  0
LINE
  5
469
330
321
100
AcDbEntity
  8
0
100
AcDbLine
 10
72.152
 20
649.0
 30
0.0
 11
73.49600000000002
 21
649.0
 31
0.0
  0
LINE
  5
46A
330
321
100
AcDbEntity
  8
0
100
AcDbLine
 10
73.49600000000002
 20
649.0
 30
0.0
 11
74.0
 21
649.0
 31
0.0
  0
LINE
  5
46B
330
321
100
AcDbEntity
  8
0
100
AcDbLine
 10
56.416
 20
649.0
 30
0.0
 11
60.0
 21
649.0
 31
0.0
  0
LINE
  5
46C
330
321
100
AcDbEntity
  8
0
100
AcDbLine
 10
74.0
 20
658.0
 30
0.0
 11
74.0
 21
649.0
 31
0.0
  0
LINE
  5
46D
330
321
100
AcDbEntity
  8
0
100
AcDbLine
 10
60.0
 20
658.0
 30
0.0
 11
60.0
 21
649.0
 31
0.0
  0
LINE
  5
46E
330
321
100
AcDbEntity
  8
0
100
AcDbLine
 10
53.056
 20
649.0
 30
0.0
 11
56.416
 21
649.0
 31
0.0
  0
LINE
  5
46F
330
321
100
AcDbEntity
  8
0
100
AcDbLine
 10
50.088
 20
649.0
 30
0.0
 11
53.056
 21
649.0
 31
0.0
  0
LINE
  5
470
330
321
100
AcDbEntity
  8
0
100
AcDbLine
 10
60.0
 20
641.0
 30
0.0
 11
60.0
 21
617.0
 31
0.0
  0
LINE
  5
471
330
321
100
AcDbEntity
  8
0
100
AcDbLine
 10
60.0
 20
641.0
 30
0.0
 11
64.09600000000001
 21
641.0
 31
0.0
  0
LINE
  5
472
330
321
100
AcDbEntity
  8
0
100
AcDbLine
 10
50.0
 20
641.0
 30
0.0
 11
50.0
 21
617.0
 31
0.0
  0
LINE
  5
473
330
321
100
AcDbEntity
  8
0
100
AcDbLine
 10
50.0
 20
641.0
 30
0.0
 11
60.0
 21
641.0
 31
0.0
  0
LINE
  5
474
330
321
100
AcDbEntity
  8
0
100
AcDbLine
 10
50.0
 20
629.0
 30
0.0
 11
50.0
 21
617.0
 31
0.0
  0
LINE
  5
475
330
321
100
AcDbEntity
  8
0
100
AcDbLine
 10
44.0
 20
630.0
 30
0.0
 11
44.0
 21
622.0
 31
0.0
  0
LINE
  5
476
330
321
100
AcDbEntity
  8
0
100
AcDbLine
 10
44.0
 20
622.0
 30
0.0
 11
44.0
 21
630.0
 31
0.0
  0
LINE
  5
477
330
321
100
AcDbEntity
  8
0
100
AcDbLine
 10
32.0
 20
622.0
 30
0.0
 11
32.216
 21
620.4640000000002
 31
0.0
  0
LINE
  5
478
330
321
100
AcDbEntity
  8
0
100
AcDbLine
 10
32.0
 20
622.0
 30
0.0
 11
32.0
 21
643.0
 31
0.0
  0
LINE
  5
479
330
321
100
AcDbEntity
  8
0
100
AcDbLine
 10
110.0
 20
621.0
 30
0.0
 11
110.0
 21
620.2999999999999
 31
0.0
  0
LINE
  5
47A
330
321
100
AcDbEntity
  8
0
100
AcDbLine
 10
110.0
 20
620.2999999999999
 30
0.0
 11
119.0
 21
620.2999999999999
 31
0.0
  0
LINE
  5
47B
330
321
100
AcDbEntity
  8
0
100
AcDbLine
 10
1.0
 20
658.2999999999999
 30
0.0
 11
76.29999999999999
 21
658.2999999999999
 31
0.0
  0
LINE
  5
47C
330
321
100
AcDbEntity
  8
0
100
AcDbLine
 10
1.0
 20
669.0
 30
0.0
 11
86.0
 21
669.0
 31
0.0
  0
LINE
  5
47D
330
321
100
AcDbEntity
  8
0
100
AcDbLine
 10
1.0
 20
669.7000000000001
 30
0.0
 11
86.0
 21
669.7000000000001
 31
0.0
  0
LINE
  5
47E
330
321
100
AcDbEntity
  8
0
100
AcDbLine
 10
76.0
 20
658.003947368421
 30
0.0
 11
76.0
 21
621.0
 31
0.0
  0
LINE
  5
47F
330
321
100
AcDbEntity
  8
0
100
AcDbLine
 10
76.29999999999999
 20
658.2999999999999
 30
0.0
 11
76.29999999999999
 21
621.0
 31
0.0
  0
LINE
  5
480
330
321
100
AcDbEntity
  8
0
100
AcDbLine
 10
86.0
 20
670.0
 30
0.0
 11
86.0
 21
621.0
 31
0.0
  0
LINE
  5
481
330
321
100
AcDbEntity
  8
0
100
AcDbLine
 10
110.0
 20
669.2999999999999
 30
0.0
 11
110.0
 21
621.0
 31
0.0
  0
LINE
  5
482
330
321
100
AcDbEntity
  8
0
100
AcDbLine
 10
110.0
 20
669.2999999999999
 30
0.0
 11
110.0
 21
610.0
 31
0.0
  0
LINE
  5
483
330
321
100
AcDbEntity
  8
0
100
AcDbLine
 10
86.0
 20
669.7000000000001
 30
0.0
 11
86.0
 21
783.4999999999999
 31
0.0
  0
LINE
  5
484
330
321
100
AcDbEntity
  8
0
100
AcDbLine
 10
110.0
 20
669.2999999999999
 30
0.0
 11
110.0
 21
783.4999999999999
 31
0.0
  0
LINE
  5
485
330
321
100
AcDbEntity
  8
0
100
AcDbLine
 10
110.0
 20
669.7000000000001
 30
0.0
 11
119.0
 21
669.7000000000001
 31
0.0
  0
LINE
  5
486
330
321
100
AcDbEntity
  8
0
100
AcDbLine
 10
60.0
 20
700.9199999999998
 30
0.0
 11
64.40999999999999
 21
701.5499999999999
 31
0.0
  0
LINE
  5
487
330
321
100
AcDbEntity
  8
0
100
AcDbLine
 10
42.92
 20
718.0
 30
0.0
 11
43.54999999999999
 21
713.59
 31
0.0
  0
LINE
  5
488
330
321
100
AcDbEntity
  8
0
100
AcDbLine
 10
42.92
 20
718.0
 30
0.0
 11
43.54999999999999
 21
722.4099999999999
 31
0.0
  0
LINE
  5
489
330
321
100
AcDbEntity
  8
0
100
AcDbLine
 10
43.54999999999999
 20
713.59
 30
0.0
 11
45.22999999999998
 21
709.5299999999999
 31
0.0
  0
LINE
  5
48A
330
321
100
AcDbEntity
  8
0
100
AcDbLine
 10
42.5
 20
718.0
 30
0.0
 11
43.13
 21
713.52
 31
0.0
  0
LINE
  5
48B
330
321
100
AcDbEntity
  8
0
100
AcDbLine
 10
42.5
 20
718.0
 30
0.0
 11
43.13
 21
722.48
 31
0.0
  0
LINE
  5
48C
330
321
100
AcDbEntity
  8
0
100
AcDbLine
 10
43.13
 20
713.52
 30
0.0
 11
44.81
 21
709.3200000000002
 31
0.0
  0
LINE
  5
48D
330
321
100
AcDbEntity
  8
0
100
AcDbLine
 10
45.22999999999998
 20
709.5299999999999
 30
0.0
 11
47.96
 21
705.96
 31
0.0
  0
LINE
  5
48E
330
321
100
AcDbEntity
  8
0
100
AcDbLine
 10
47.96
 20
705.96
 30
0.0
 11
51.53
 21
703.23
 31
0.0
  0
LINE
  5
48F
330
321
100
AcDbEntity
  8
0
100
AcDbLine
 10
44.81
 20
709.3200000000002
 30
0.0
 11
47.61
 21
705.61
 31
0.0
  0
LINE
  5
490
330
321
100
AcDbEntity
  8
0
100
AcDbLine
 10
47.61
 20
705.61
 30
0.0
 11
51.32
 21
702.8099999999999
 31
0.0
  0
LINE
  5
491
330
321
100
AcDbEntity
  8
0
100
AcDbLine
 10
51.53
 20
703.23
 30
0.0
 11
55.59000000000001
 21
701.5499999999999
 31
0.0
  0
LINE
  5
492
330
321
100
AcDbEntity
  8
0
100
AcDbLine
 10
51.32
 20
702.8099999999999
 30
0.0
 11
55.52
 21
701.13
 31
0.0
  0
LINE
  5
493
330
321
100
AcDbEntity
  8
0
100
AcDbLine
 10
64.40999999999999
 20
701.5499999999999
 30
0.0
 11
68.47
 21
703.23
 31
0.0
  0
LINE
  5
494
330
321
100
AcDbEntity
  8
0
100
AcDbLine
 10
55.59000000000001
 20
701.5499999999999
 30
0.0
 11
60.0
 21
700.9199999999998
 31
0.0
  0
LINE
  5
495
330
321
100
AcDbEntity
  8
0
100
AcDbLine
 10
55.52
 20
701.13
 30
0.0
 11
60.0
 21
700.4999999999999
 31
0.0
  0
LINE
  5
496
330
321
100
AcDbEntity
  8
0
100
AcDbLine
 10
76.45
 20
713.59
 30
0.0
 11
77.08
 21
718.0
 31
0.0
  0
LINE
  5
497
330
321
100
AcDbEntity
  8
0
100
AcDbLine
 10
74.76999999999998
 20
709.5299999999999
 30
0.0
 11
76.45
 21
713.59
 31
0.0
  0
LINE
  5
498
330
321
100
AcDbEntity
  8
0
100
AcDbLine
 10
72.04000000000002
 20
705.96
 30
0.0
 11
74.76999999999998
 21
709.5299999999999
 31
0.0
  0
LINE
  5
499
330
321
100
AcDbEntity
  8
0
100
AcDbLine
 10
68.47
 20
703.23
 30
0.0
 11
72.04000000000002
 21
705.96
 31
0.0
  0
LINE
  5
49A
330
321
100
AcDbEntity
  8
0
100
AcDbLine
 10
43.54999999999999
 20
722.4099999999999
 30
0.0
 11
45.22999999999998
 21
726.47
 31
0.0
  0
LINE
  5
49B
330
321
100
AcDbEntity
  8
0
100
AcDbLine
 10
43.13
 20
722.48
 30
0.0
 11
44.81
 21
726.6799999999998
 31
0.0
  0
LINE
  5
49C
330
321
100
AcDbEntity
  8
0
100
AcDbLine
 10
45.22999999999998
 20
726.47
 30
0.0
 11
47.96
 21
730.0399999999998
 31
0.0
  0
LINE
  5
49D
330
321
100
AcDbEntity
  8
0
100
AcDbLine
 10
47.96
 20
730.0399999999998
 30
0.0
 11
51.53
 21
732.77
 31
0.0
  0
LINE
  5
49E
330
321
100
AcDbEntity
  8
0
100
AcDbLine
 10
44.81
 20
726.6799999999998
 30
0.0
 11
47.61
 21
730.3899999999998
 31
0.0
  0
LINE
  5
49F
330
321
100
AcDbEntity
  8
0
100
AcDbLine
 10
47.61
 20
730.3899999999998
 30
0.0
 11
51.32
 21
733.19
 31
0.0
  0
LINE
  5
4A0
330
321
100
AcDbEntity
  8
0
100
AcDbLine
 10
51.53
 20
732.77
 30
0.0
 11
55.59000000000001
 21
734.45
 31
0.0
  0
LINE
  5
4A1
330
321
100
AcDbEntity
  8
0
100
AcDbLine
 10
55.59000000000001
 20
734.45
 30
0.0
 11
60.0
 21
735.08
 31
0.0
  0
LINE
  5
4A2
330
321
100
AcDbEntity
  8
0
100
AcDbLine
 10
51.32
 20
733.19
 30
0.0
 11
55.52
 21
734.87
 31
0.0
  0
LINE
  5
4A3
330
321
100
AcDbEntity
  8
0
100
AcDbLine
 10
55.52
 20
734.87
 30
0.0
 11
60.0
 21
735.5
 31
0.0
  0
LINE
  5
4A4
330
321
100
AcDbEntity
  8
0
100
AcDbLine
 10
64.40999999999999
 20
734.45
 30
0.0
 11
68.47
 21
732.77
 31
0.0
  0
LINE
  5
4A5
330
321
100
AcDbEntity
  8
0
100
AcDbLine
 10
60.0
 20
735.08
 30
0.0
 11
64.40999999999999
 21
734.45
 31
0.0
  0
LINE
  5
4A6
330
321
100
AcDbEntity
  8
0
100
AcDbLine
 10
72.04000000000002
 20
730.0399999999998
 30
0.0
 11
74.76999999999998
 21
726.47
 31
0.0
  0
LINE
  5
4A7
330
321
100
AcDbEntity
  8
0
100
AcDbLine
 10
68.47
 20
732.77
 30
0.0
 11
72.04000000000002
 21
730.0399999999998
 31
0.0
  0
LINE
  5
4A8
330
321
100
AcDbEntity
  8
0
100
AcDbLine
 10
76.45
 20
722.4099999999999
 30
0.0
 11
77.08
 21
718.0
 31
0.0
  0
LINE
  5
4A9
330
321
100
AcDbEntity
  8
0
100
AcDbLine
 10
74.76999999999998
 20
726.47
 30
0.0
 11
76.45
 21
722.4099999999999
 31
0.0
  0
LINE
  5
4AA
330
321
100
AcDbEntity
  8
0
100
AcDbLine
 10
76.87000000000001
 20
722.48
 30
0.0
 11
77.5
 21
718.0
 31
0.0
  0
LINE
  5
4AB
330
321
100
AcDbEntity
  8
0
100
AcDbLine
 10
75.19
 20
726.6799999999998
 30
0.0
 11
76.87000000000001
 21
722.48
 31
0.0
  0
LINE
  5
4AC
330
321
100
AcDbEntity
  8
0
100
AcDbLine
 10
72.39
 20
730.3899999999998
 30
0.0
 11
75.19
 21
726.6799999999998
 31
0.0
  0
LINE
  5
4AD
330
321
100
AcDbEntity
  8
0
100
AcDbLine
 10
68.68000000000001
 20
733.19
 30
0.0
 11
72.39
 21
730.3899999999998
 31
0.0
  0
LINE
  5
4AE
330
321
100
AcDbEntity
  8
0
100
AcDbLine
 10
64.48
 20
734.87
 30
0.0
 11
68.68000000000001
 21
733.19
 31
0.0
  0
LINE
  5
4AF
330
321
100
AcDbEntity
  8
0
100
AcDbLine
 10
60.0
 20
735.5
 30
0.0
 11
64.48
 21
734.87
 31
0.0
  0
LINE
  5
4B0
330
321
100
AcDbEntity
  8
0
100
AcDbLine
 10
110.0
 20
670.0
 30
0.0
 11
119.0
 21
670.0
 31
0.0
  0
LINE
  5
4B1
330
321
100
AcDbEntity
  8
0
100
AcDbLine
 10
1.0
 20
670.0
 30
0.0
 11
86.0
 21
670.0
 31
0.0
  0
LINE
  5
4B2
330
321
100
AcDbEntity
  8
0
100
AcDbLine
 10
1.0
 20
658.0
 30
0.0
 11
76.0
 21
658.0
 31
0.0
  0
LINE
  5
4B3
330
321
100
AcDbEntity
  8
0
100
AcDbLine
 10
0.999999999999996
 20
658.0
 30
0.0
 11
76.0
 21
658.0
 31
0.0
  0
LINE
  5
4B4
330
321
100
AcDbEntity
  8
0
100
AcDbLine
 10
0.999999999999996
 20
777.7000000000001
 30
0.0
 11
86.0
 21
777.7000000000001
 31
0.0
  0
LINE
  5
4B5
330
321
100
AcDbEntity
  8
0
100
AcDbLine
 10
112.7999999999999
 20
620.0
 30
0.0
 11
115.7699999999999
 21
620.0
 31
0.0
  0
LINE
  5
4B6
330
321
100
AcDbEntity
  8
0
100
AcDbLine
 10
115.7699999999999
 20
620.0
 30
0.0
 11
118.13
 21
620.0
 31
0.0
  0
LINE
  5
4B7
330
321
100
AcDbEntity
  8
0
100
AcDbLine
 10
118.13
 20
620.0
 30
0.0
 11
119.0
 21
620.0
 31
0.0
  0
LINE
  5
4B8
330
321
100
AcDbEntity
  8
0
100
AcDbLine
 10
119.0
 20
620.0
 30
0.0
 11
119.7
 21
620.2999999999999
 31
0.0
  0
LINE
  5
4B9
330
321
100
AcDbEntity
  8
0
100
AcDbLine
 10
119.0
 20
620.2999999999999
 30
0.0
 11
119.5
 21
620.2999999999999
 31
0.0
  0
LINE
  5
4BA
330
321
100
AcDbEntity
  8
0
100
AcDbLine
 10
119.5
 20
620.2999999999999
 30
0.0
 11
119.7
 21
620.2999999999999
 31
0.0
  0
LINE
  5
4BB
330
321
100
AcDbEntity
  8
0
100
AcDbLine
 10
119.5
 20
620.2999999999999
 30
0.0
 11
119.7
 21
621.0
 31
0.0
  0
LINE
  5
4BC
330
321
100
AcDbEntity
  8
0
100
AcDbLine
 10
119.5
 20
669.7000000000001
 30
0.0
 11
119.7
 21
669.7000000000001
 31
0.0
  0
LINE
  5
4BD
330
321
100
AcDbEntity
  8
0
100
AcDbLine
 10
119.5
 20
669.7000000000001
 30
0.0
 11
119.7
 21
669.0
 31
0.0
  0
LINE
  5
4BE
330
321
100
AcDbEntity
  8
0
100
AcDbLine
 10
119.0
 20
669.7000000000001
 30
0.0
 11
119.5
 21
669.7000000000001
 31
0.0
  0
LINE
  5
4BF
330
321
100
AcDbEntity
  8
0
100
AcDbLine
 10
119.0
 20
670.0
 30
0.0
 11
119.7
 21
669.7000000000001
 31
0.0
  0
LINE
  5
4C0
330
321
100
AcDbEntity
  8
0
100
AcDbLine
 10
119.7
 20
621.0
 30
0.0
 11
119.7
 21
664.0
 31
0.0
  0
LINE
  5
4C1
330
321
100
AcDbEntity
  8
0
100
AcDbLine
 10
119.7
 20
620.2999999999999
 30
0.0
 11
120.0
 21
621.0
 31
0.0
  0
LINE
  5
4C2
330
321
100
AcDbEntity
  8
0
100
AcDbLine
 10
119.7
 20
669.0
 30
0.0
 11
119.7
 21
664.0
 31
0.0
  0
LINE
  5
4C3
330
321
100
AcDbEntity
  8
0
100
AcDbLine
 10
119.7
 20
664.0
 30
0.0
 11
119.7
 21
669.0
 31
0.0
  0
LINE
  5
4C4
330
321
100
AcDbEntity
  8
0
100
AcDbLine
 10
119.7
 20
664.0
 30
0.0
 11
119.7
 21
621.0
 31
0.0
  0
LINE
  5
4C5
330
321
100
AcDbEntity
  8
0
100
AcDbLine
 10
119.7
 20
777.0
 30
0.0
 11
119.7
 21
669.7000000000001
 31
0.0
  0
LINE
  5
4C6
330
321
100
AcDbEntity
  8
0
100
AcDbLine
 10
120.0
 20
659.0
 30
0.0
 11
120.0
 21
621.0
 31
0.0
  0
LINE
  5
4C7
330
321
100
AcDbEntity
  8
0
100
AcDbLine
 10
120.0
 20
621.0
 30
0.0
 11
120.0
 21
664.0
 31
0.0
  0
LINE
  5
4C8
330
321
100
AcDbEntity
  8
0
100
AcDbLine
 10
120.0
 20
664.0
 30
0.0
 11
120.0
 21
669.0
 31
0.0
  0
LINE
  5
4C9
330
321
100
AcDbEntity
  8
0
100
AcDbLine
 10
120.0
 20
777.0
 30
0.0
 11
120.0
 21
669.0
 31
0.0
  0
LINE
  5
4CA
330
321
100
AcDbEntity
  8
0
100
AcDbLine
 10
120.0
 20
669.0
 30
0.0
 11
120.0
 21
777.0
 31
0.0
  0
LINE
  5
4CB
330
321
100
AcDbEntity
  8
0
100
AcDbLine
 10
120.0
 20
669.0
 30
0.0
 11
120.0
 21
659.0
 31
0.0
  0
LINE
  5
4CC
330
321
100
AcDbEntity
  8
0
100
AcDbLine
 10
119.7
 20
669.7000000000001
 30
0.0
 11
119.7
 21
777.0
 31
0.0
  0
LINE
  5
4CD
330
321
100
AcDbEntity
  8
0
100
AcDbLine
 10
119.7
 20
669.7000000000001
 30
0.0
 11
120.0
 21
669.0
 31
0.0
  0
LINE
  5
4CE
330
321
100
AcDbEntity
  8
0
100
AcDbLine
 10
119.7
 20
777.7000000000001
 30
0.0
 11
120.0
 21
777.0
 31
0.0
  0
LINE
  5
4CF
330
321
100
AcDbEntity
  8
0
100
AcDbLine
 10
119.5
 20
777.7000000000001
 30
0.0
 11
119.7
 21
777.7000000000001
 31
0.0
  0
LINE
  5
4D0
330
321
100
AcDbEntity
  8
0
100
AcDbLine
 10
119.5
 20
777.7000000000001
 30
0.0
 11
119.7
 21
777.0
 31
0.0
  0
LINE
  5
4D1
330
321
100
AcDbEntity
  8
0
100
AcDbLine
 10
119.0
 20
777.7000000000001
 30
0.0
 11
119.5
 21
777.7000000000001
 31
0.0
  0
LINE
  5
4D2
330
321
100
AcDbEntity
  8
0
100
AcDbLine
 10
110.0
 20
777.7000000000001
 30
0.0
 11
119.0
 21
777.7000000000001
 31
0.0
  0
LINE
  5
4D3
330
321
100
AcDbEntity
  8
0
100
AcDbLine
 10
1.0
 20
777.7000000000001
 30
0.0
 11
86.0
 21
777.7000000000001
 31
0.0
  0
LINE
  5
4D4
330
321
100
AcDbEntity
  8
0
100
AcDbLine
 10
0.5
 20
777.7000000000001
 30
0.0
 11
1.0
 21
777.7000000000001
 31
0.0
  0
LINE
  5
4D5
330
321
100
AcDbEntity
  8
0
100
AcDbLine
 10
32.71970659340678
 20
778.0
 30
0.0
 11
32.87939999999998
 21
778.1210000000002
 31
0.0
  0
LINE
  5
4D6
330
321
100
AcDbEntity
  8
0
100
AcDbLine
 10
74.0
 20
778.0
 30
0.0
 11
74.0
 21
789.1018889524899
 31
0.0
  0
LINE
  5
4D7
330
321
100
AcDbEntity
  8
0
100
AcDbLine
 10
46.0
 20
778.0
 30
0.0
 11
46.0
 21
789.1018889524899
 31
0.0
  0
LINE
  5
4D8
330
321
100
AcDbEntity
  8
0
100
AcDbLine
 10
1.0
 20
778.0
 30
0.0
 11
86.0
 21
778.0
 31
0.0
  0
LINE
  5
4D9
330
321
100
AcDbEntity
  8
0
100
AcDbLine
 10
32.87939999999998
 20
778.1210000000002
 30
0.0
 11
33.97059999999999
 21
779.562
 31
0.0
  0
LINE
  5
4DA
330
321
100
AcDbEntity
  8
0
100
AcDbLine
 10
85.9471
 20
779.5209999999998
 30
0.0
 11
86.0
 21
779.4514310515428
 31
0.0
  0
LINE
  5
4DB
330
321
100
AcDbEntity
  8
0
100
AcDbLine
 10
23.12059
 20
778.1210000000002
 30
0.0
 11
23.28028008241739
 21
778.0
 31
0.0
  0
LINE
  5
4DC
330
321
100
AcDbEntity
  8
0
100
AcDbLine
 10
23.05881999999999
 20
778.0589999999998
 30
0.0
 11
23.13637794064728
 21
778.0
 31
0.0
  0
LINE
  5
4DD
330
321
100
AcDbEntity
  8
0
100
AcDbLine
 10
33.97059999999999
 20
779.562
 30
0.0
 11
34.64999999999999
 21
781.2289999999998
 31
0.0
  0
LINE
  5
4DE
330
321
100
AcDbEntity
  8
0
100
AcDbLine
 10
22.02941
 20
779.562
 30
0.0
 11
23.12059
 21
778.1210000000002
 31
0.0
  0
LINE
  5
4DF
330
321
100
AcDbEntity
  8
0
100
AcDbLine
 10
19.32
 20
778.0399999999998
 30
0.0
 11
19.3501886792452
 21
778.0
 31
0.0
  0
LINE
  5
4E0
330
321
100
AcDbEntity
  8
0
100
AcDbLine
 10
21.10294
 20
783.0
 30
0.0
 11
21.35
 21
781.2289999999998
 31
0.0
  0
LINE
  5
4E1
330
321
100
AcDbEntity
  8
0
100
AcDbLine
 10
21.10294
 20
783.0
 30
0.0
 11
21.35
 21
784.771
 31
0.0
  0
LINE
  5
4E2
330
321
100
AcDbEntity
  8
0
100
AcDbLine
 10
85.34999999999998
 20
781.2289999999998
 30
0.0
 11
86.0
 21
779.634136885487
 31
0.0
  0
LINE
  5
4E3
330
321
100
AcDbEntity
  8
0
100
AcDbLine
 10
34.64999999999999
 20
781.2289999999998
 30
0.0
 11
34.8971
 21
783.0
 31
0.0
  0
LINE
  5
4E4
330
321
100
AcDbEntity
  8
0
100
AcDbLine
 10
85.10290000000001
 20
783.0
 30
0.0
 11
85.34999999999998
 21
781.2289999999998
 31
0.0
  0
LINE
  5
4E5
330
321
100
AcDbEntity
  8
0
100
AcDbLine
 10
85.10290000000001
 20
783.0
 30
0.0
 11
85.34999999999998
 21
784.771
 31
0.0
  0
LINE
  5
4E6
330
321
100
AcDbEntity
  8
0
100
AcDbLine
 10
21.35
 20
781.2289999999998
 30
0.0
 11
22.02941
 21
779.562
 31
0.0
  0
LINE
  5
4E7
330
321
100
AcDbEntity
  8
0
100
AcDbLine
 10
18.0
 20
783.0
 30
0.0
 11
18.36
 21
780.4400000000001
 31
0.0
  0
LINE
  5
4E8
330
321
100
AcDbEntity
  8
0
100
AcDbLine
 10
18.0
 20
783.0
 30
0.0
 11
18.36
 21
785.5599999999998
 31
0.0
  0
LINE
  5
4E9
330
321
100
AcDbEntity
  8
0
100
AcDbLine
 10
18.36
 20
780.4400000000001
 30
0.0
 11
19.32
 21
778.0399999999998
 31
0.0
  0
LINE
  5
4EA
330
321
100
AcDbEntity
  8
0
100
AcDbLine
 10
87.59999999999998
 20
783.4999999999999
 30
0.0
 11
89.50000000000001
 21
783.4999999999999
 31
0.0
  0
LINE
  5
4EB
330
321
100
AcDbEntity
  8
0
100
AcDbLine
 10
86.4
 20
783.4999999999999
 30
0.0
 11
87.59999999999998
 21
783.4999999999999
 31
0.0
  0
LINE
  5
4EC
330
321
100
AcDbEntity
  8
0
100
AcDbLine
 10
89.50000000000001
 20
783.4999999999999
 30
0.0
 11
92.0
 21
783.4999999999999
 31
0.0
  0
LINE
  5
4ED
330
321
100
AcDbEntity
  8
0
100
AcDbLine
 10
92.0
 20
783.4999999999999
 30
0.0
 11
94.9
 21
783.4999999999999
 31
0.0
  0
LINE
  5
4EE
330
321
100
AcDbEntity
  8
0
100
AcDbLine
 10
94.9
 20
783.4999999999999
 30
0.0
 11
98.0
 21
783.4999999999999
 31
0.0
  0
LINE
  5
4EF
330
321
100
AcDbEntity
  8
0
100
AcDbLine
 10
104.0
 20
783.4999999999999
 30
0.0
 11
106.4999999999999
 21
783.4999999999999
 31
0.0
  0
LINE
  5
4F0
330
321
100
AcDbEntity
  8
0
100
AcDbLine
 10
101.0999999999998
 20
783.4999999999999
 30
0.0
 11
104.0
 21
783.4999999999999
 31
0.0
  0
LINE
  5
4F1
330
321
100
AcDbEntity
  8
0
100
AcDbLine
 10
98.0
 20
783.4999999999999
 30
0.0
 11
101.0999999999998
 21
783.4999999999999
 31
0.0
  0
LINE
  5
4F2
330
321
100
AcDbEntity
  8
0
100
AcDbLine
 10
21.35
 20
784.771
 30
0.0
 11
22.02941
 21
786.4379999999998
 31
0.0
  0
LINE
  5
4F3
330
321
100
AcDbEntity
  8
0
100
AcDbLine
 10
22.02941
 20
786.4379999999998
 30
0.0
 11
23.12059
 21
787.8789999999997
 31
0.0
  0
LINE
  5
4F4
330
321
100
AcDbEntity
  8
0
100
AcDbLine
 10
33.97059999999999
 20
786.4379999999998
 30
0.0
 11
34.64999999999999
 21
784.771
 31
0.0
  0
LINE
  5
4F5
330
321
100
AcDbEntity
  8
0
100
AcDbLine
 10
34.64999999999999
 20
784.771
 30
0.0
 11
34.8971
 21
783.0
 31
0.0
  0
LINE
  5
4F6
330
321
100
AcDbEntity
  8
0
100
AcDbLine
 10
32.87939999999998
 20
787.8789999999997
 30
0.0
 11
33.97059999999999
 21
786.4379999999998
 31
0.0
  0
LINE
  5
4F7
330
321
100
AcDbEntity
  8
0
100
AcDbLine
 10
85.34999999999998
 20
784.771
 30
0.0
 11
86.0
 21
786.3658631145129
 31
0.0
  0
LINE
  5
4F8
330
321
100
AcDbEntity
  8
0
100
AcDbLine
 10
23.12059
 20
787.8789999999997
 30
0.0
 11
24.56176
 21
788.971
 31
0.0
  0
LINE
  5
4F9
330
321
100
AcDbEntity
  8
0
100
AcDbLine
 10
24.56176
 20
788.971
 30
0.0
 11
26.22940999999999
 21
789.6499999999998
 31
0.0
  0
LINE
  5
4FA
330
321
100
AcDbEntity
  8
0
100
AcDbLine
 10
31.43819999999999
 20
788.971
 30
0.0
 11
32.87939999999998
 21
787.8789999999997
 31
0.0
  0
LINE
  5
4FB
330
321
100
AcDbEntity
  8
0
100
AcDbLine
 10
73.37086046668459
 20
788.6610951409401
 30
0.0
 11
84.976
 21
796.7919999999998
 31
0.0
  0
LINE
  5
4FC
330
321
100
AcDbEntity
  8
0
100
AcDbLine
 10
26.22940999999999
 20
789.6499999999998
 30
0.0
 11
28.0
 21
789.8969999999998
 31
0.0
  0
LINE
  5
4FD
330
321
100
AcDbEntity
  8
0
100
AcDbLine
 10
28.0
 20
789.8969999999998
 30
0.0
 11
29.7706
 21
789.6499999999998
 31
0.0
  0
LINE
  5
4FE
330
321
100
AcDbEntity
  8
0
100
AcDbLine
 10
29.7706
 20
789.6499999999998
 30
0.0
 11
31.43819999999999
 21
788.971
 31
0.0
  0
LINE
  5
4FF
330
321
100
AcDbEntity
  8
0
100
AcDbLine
 10
46.0
 20
789.1018889524899
 30
0.0
 11
46.0
 21
778.0
 31
0.0
  0
LINE
  5
500
330
321
100
AcDbEntity
  8
0
100
AcDbLine
 10
74.0
 20
789.1018889524899
 30
0.0
 11
74.0
 21
778.0
 31
0.0
  0
LINE
  5
501
330
321
100
AcDbEntity
  8
0
100
AcDbLine
 10
79.56372549019597
 20
793.0
 30
0.0
 11
86.0
 21
793.0
 31
0.0
  0
LINE
  5
502
330
321
100
AcDbEntity
  8
0
100
AcDbLine
 10
32.792
 20
799.024
 30
0.0
 11
33.75199999999999
 21
797.7519999999998
 31
0.0
  0
LINE
  5
503
330
321
100
AcDbEntity
  8
0
100
AcDbLine
 10
60.0
 20
795.0
 30
0.0
 11
70.0
 21
795.0
 31
0.0
  0
LINE
  5
504
330
321
100
AcDbEntity
  8
0
100
AcDbLine
 10
60.0
 20
795.0
 30
0.0
 11
60.0
 21
807.4999999999999
 31
0.0
  0
LINE
  5
505
330
321
100
AcDbEntity
  8
0
100
AcDbLine
 10
84.976
 20
796.7919999999998
 30
0.0
 11
86.0
 21
797.564830188679
 31
0.0
  0
LINE
  5
506
330
321
100
AcDbEntity
  8
0
100
AcDbLine
 10
70.0
 20
795.0
 30
0.0
 11
70.0
 21
807.4999999999999
 31
0.0
  0
LINE
  5
507
330
321
100
AcDbEntity
  8
0
100
AcDbLine
 10
35.024
 20
796.7919999999998
 30
0.0
 11
46.0
 21
789.1018889524899
 31
0.0
  0
LINE
  5
508
330
321
100
AcDbEntity
  8
0
100
AcDbLine
 10
35.024
 20
796.7919999999998
 30
0.0
 11
46.6291395333154
 21
788.6610951409401
 31
0.0
  0
LINE
  5
509
330
321
100
AcDbEntity
  8
0
100
AcDbLine
 10
33.75199999999999
 20
797.7519999999998
 30
0.0
 11
35.024
 21
796.7919999999998
 31
0.0
  0
LINE
  5
50A
330
321
100
AcDbEntity
  8
0
100
AcDbLine
 10
60.0
 20
803.0
 30
0.0
 11
60.0
 21
778.0
 31
0.0
  0
LINE
  5
50B
330
321
100
AcDbEntity
  8
0
100
AcDbLine
 10
32.216
 20
800.464
 30
0.0
 11
32.792
 21
799.024
 31
0.0
  0
LINE
  5
50C
330
321
100
AcDbEntity
  8
0
100
AcDbLine
 10
32.0
 20
802.0
 30
0.0
 11
32.216
 21
800.464
 31
0.0
  0
LINE
  5
50D
330
321
100
AcDbEntity
  8
0
100
AcDbLine
 10
32.0
 20
802.0
 30
0.0
 11
32.216
 21
803.5359999999998
 31
0.0
  0
LINE
  5
50E
330
321
100
AcDbEntity
  8
0
100
AcDbLine
 10
28.0
 20
793.0
 30
0.0
 11
40.436274509804
 21
793.0
 31
0.0
  0
LINE
  5
50F
330
321
100
AcDbEntity
  8
0
100
AcDbLine
 10
28.0
 20
793.0
 30
0.0
 11
40.436274509804
 21
793.0
 31
0.0
  0
LINE
  5
510
330
321
100
AcDbEntity
  8
0
100
AcDbLine
 10
25.44
 20
792.64
 30
0.0
 11
28.0
 21
793.0
 31
0.0
  0
LINE
  5
511
330
321
100
AcDbEntity
  8
0
100
AcDbLine
 10
23.03999999999999
 20
791.6799999999998
 30
0.0
 11
25.44
 21
792.64
 31
0.0
  0
LINE
  5
512
330
321
100
AcDbEntity
  8
0
100
AcDbLine
 10
20.92
 20
790.08
 30
0.0
 11
23.03999999999999
 21
791.6799999999998
 31
0.0
  0
LINE
  5
513
330
321
100
AcDbEntity
  8
0
100
AcDbLine
 10
19.32
 20
787.96
 30
0.0
 11
20.92
 21
790.08
 31
0.0
  0
LINE
  5
514
330
321
100
AcDbEntity
  8
0
100
AcDbLine
 10
18.36
 20
785.5599999999998
 30
0.0
 11
19.32
 21
787.96
 31
0.0
  0
LINE
  5
515
330
321
100
AcDbEntity
  8
0
100
AcDbLine
 10
44.576
 20
808.0
 30
0.0
 11
46.11199999999999
 21
808.0
 31
0.0
  0
LINE
  5
516
330
321
100
AcDbEntity
  8
0
100
AcDbLine
 10
38.0
 20
808.0
 30
0.0
 11
44.576
 21
808.0
 31
0.0
  0
LINE
  5
517
330
321
100
AcDbEntity
  8
0
100
AcDbLine
 10
36.46399999999999
 20
807.784
 30
0.0
 11
38.0
 21
808.0
 31
0.0
  0
LINE
  5
518
330
321
100
AcDbEntity
  8
0
100
AcDbLine
 10
35.024
 20
807.2079999999999
 30
0.0
 11
36.46399999999999
 21
807.784
 31
0.0
  0
LINE
  5
519
330
321
100
AcDbEntity
  8
0
100
AcDbLine
 10
33.75199999999999
 20
806.248
 30
0.0
 11
35.024
 21
807.2079999999999
 31
0.0
  0
LINE
  5
51A
330
321
100
AcDbEntity
  8
0
100
AcDbLine
 10
32.792
 20
804.976
 30
0.0
 11
33.75199999999999
 21
806.248
 31
0.0
  0
LINE
  5
51B
330
321
100
AcDbEntity
  8
0
100
AcDbLine
 10
32.216
 20
803.5359999999998
 30
0.0
 11
32.792
 21
804.976
 31
0.0
  0
LINE
  5
51C
330
321
100
AcDbEntity
  8
0
100
AcDbLine
 10
45.54
 20
811.0
 30
0.0
 11
46.97999999999999
 21
811.0
 31
0.0
  0
LINE
  5
51D
330
321
100
AcDbEntity
  8
0
100
AcDbLine
 10
45.54
 20
811.0
 30
0.0
 11
46.0
 21
811.0
 31
0.0
  0
LINE
  5
51E
330
321
100
AcDbEntity
  8
0
100
AcDbLine
 10
45.54
 20
813.0
 30
0.0
 11
46.97999999999999
 21
813.0
 31
0.0
  0
LINE
  5
51F
330
321
100
AcDbEntity
  8
0
100
AcDbLine
 10
45.0
 20
813.0
 30
0.0
 11
45.54
 21
813.0
 31
0.0
  0
LINE
  5
520
330
321
100
AcDbEntity
  8
0
100
AcDbLine
 10
45.0
 20
813.0
 30
0.0
 11
45.0
 21
811.0
 31
0.0
  0
LINE
  5
521
330
321
100
AcDbEntity
  8
0
100
AcDbLine
 10
45.0
 20
811.0
 30
0.0
 11
45.54
 21
811.0
 31
0.0
  0
LINE
  5
522
330
321
100
AcDbEntity
  8
0
100
AcDbLine
 10
45.0
 20
811.0
 30
0.0
 11
45.0
 21
813.0
 31
0.0
  0
LINE
  5
523
330
321
100
AcDbEntity
  8
0
100
AcDbLine
 10
45.54
 20
815.0
 30
0.0
 11
46.97999999999999
 21
815.0
 31
0.0
  0
LINE
  5
524
330
321
100
AcDbEntity
  8
0
100
AcDbLine
 10
45.54
 20
815.0
 30
0.0
 11
46.0
 21
815.0
 31
0.0
  0
LINE
  5
525
330
321
100
AcDbEntity
  8
0
100
AcDbLine
 10
45.0
 20
815.0
 30
0.0
 11
45.54
 21
815.0
 31
0.0
  0
LINE
  5
526
330
321
100
AcDbEntity
  8
0
100
AcDbLine
 10
45.0
 20
815.0
 30
0.0
 11
45.0
 21
817.0
 31
0.0
  0
LINE
  5
527
330
321
100
AcDbEntity
  8
0
100
AcDbLine
 10
46.0
 20
813.0
 30
0.0
 11
46.0
 21
815.0
 31
0.0
  0
LINE
  5
528
330
321
100
AcDbEntity
  8
0
100
AcDbLine
 10
46.0
 20
808.0
 30
0.0
 11
46.0
 21
811.0
 31
0.0
  0
LINE
  5
529
330
321
100
AcDbEntity
  8
0
100
AcDbLine
 10
46.0
 20
811.0
 30
0.0
 11
46.0
 21
808.0
 31
0.0
  0
LINE
  5
52A
330
321
100
AcDbEntity
  8
0
100
AcDbLine
 10
45.54
 20
817.0
 30
0.0
 11
46.97999999999999
 21
817.0
 31
0.0
  0
LINE
  5
52B
330
321
100
AcDbEntity
  8
0
100
AcDbLine
 10
45.0
 20
817.0
 30
0.0
 11
45.54
 21
817.0
 31
0.0
  0
LINE
  5
52C
330
321
100
AcDbEntity
  8
0
100
AcDbLine
 10
45.0
 20
817.0
 30
0.0
 11
45.0
 21
815.0
 31
0.0
  0
LINE
  5
52D
330
321
100
AcDbEntity
  8
0
100
AcDbLine
 10
46.0
 20
817.0
 30
0.0
 11
46.0
 21
819.0
 31
0.0
  0
LINE
  5
52E
330
321
100
AcDbEntity
  8
0
100
AcDbLine
 10
46.0
 20
815.0
 30
0.0
 11
46.0
 21
813.0
 31
0.0
  0
LINE
  5
52F
330
321
100
AcDbEntity
  8
0
100
AcDbLine
 10
46.97999999999999
 20
813.0
 30
0.0
 11
49.38
 21
813.0
 31
0.0
  0
LINE
  5
530
330
321
100
AcDbEntity
  8
0
100
AcDbLine
 10
46.97999999999999
 20
811.0
 30
0.0
 11
49.38
 21
811.0
 31
0.0
  0
LINE
  5
531
330
321
100
AcDbEntity
  8
0
100
AcDbLine
 10
46.97999999999999
 20
817.0
 30
0.0
 11
49.38
 21
817.0
 31
0.0
  0
LINE
  5
532
330
321
100
AcDbEntity
  8
0
100
AcDbLine
 10
46.97999999999999
 20
815.0
 30
0.0
 11
49.38
 21
815.0
 31
0.0
  0
LINE
  5
533
330
321
100
AcDbEntity
  8
0
100
AcDbLine
 10
46.11199999999999
 20
808.0
 30
0.0
 11
48.672
 21
808.0
 31
0.0
  0
LINE
  5
534
330
321
100
AcDbEntity
  8
0
100
AcDbLine
 10
52.06399999999999
 20
808.0
 30
0.0
 11
55.90399999999998
 21
808.0
 31
0.0
  0
LINE
  5
535
330
321
100
AcDbEntity
  8
0
100
AcDbLine
 10
49.38
 20
813.0
 30
0.0
 11
52.56
 21
813.0
 31
0.0
  0
LINE
  5
536
330
321
100
AcDbEntity
  8
0
100
AcDbLine
 10
49.38
 20
811.0
 30
0.0
 11
52.56
 21
811.0
 31
0.0
  0
LINE
  5
537
330
321
100
AcDbEntity
  8
0
100
AcDbLine
 10
49.38
 20
817.0
 30
0.0
 11
52.56
 21
817.0
 31
0.0
  0
LINE
  5
538
330
321
100
AcDbEntity
  8
0
100
AcDbLine
 10
52.56
 20
813.0
 30
0.0
 11
56.15999999999999
 21
813.0
 31
0.0
  0
LINE
  5
539
330
321
100
AcDbEntity
  8
0
100
AcDbLine
 10
52.56
 20
811.0
 30
0.0
 11
56.15999999999999
 21
811.0
 31
0.0
  0
LINE
  5
53A
330
321
100
AcDbEntity
  8
0
100
AcDbLine
 10
52.56
 20
817.0
 30
0.0
 11
56.15999999999999
 21
817.0
 31
0.0
  0
LINE
  5
53B
330
321
100
AcDbEntity
  8
0
100
AcDbLine
 10
52.56
 20
815.0
 30
0.0
 11
56.15999999999999
 21
815.0
 31
0.0
  0
LINE
  5
53C
330
321
100
AcDbEntity
  8
0
100
AcDbLine
 10
49.38
 20
815.0
 30
0.0
 11
52.56
 21
815.0
 31
0.0
  0
LINE
  5
53D
330
321
100
AcDbEntity
  8
0
100
AcDbLine
 10
48.672
 20
808.0
 30
0.0
 11
52.06399999999999
 21
808.0
 31
0.0
  0
LINE
  5
53E
330
321
100
AcDbEntity
  8
0
100
AcDbLine
 10
60.0
 20
808.0
 30
0.0
 11
64.09600000000001
 21
808.0
 31
0.0
  0
LINE
  5
53F
330
321
100
AcDbEntity
  8
0
100
AcDbLine
 10
56.15999999999999
 20
813.0
 30
0.0
 11
60.0
 21
813.0
 31
0.0
  0
LINE
  5
540
330
321
100
AcDbEntity
  8
0
100
AcDbLine
 10
56.15999999999999
 20
811.0
 30
0.0
 11
60.0
 21
811.0
 31
0.0
  0
LINE
  5
541
330
321
100
AcDbEntity
  8
0
100
AcDbLine
 10
56.15999999999999
 20
817.0
 30
0.0
 11
60.0
 21
817.0
 31
0.0
  0
LINE
  5
542
330
321
100
AcDbEntity
  8
0
100
AcDbLine
 10
60.0
 20
813.0
 30
0.0
 11
63.84
 21
813.0
 31
0.0
  0
LINE
  5
543
330
321
100
AcDbEntity
  8
0
100
AcDbLine
 10
60.0
 20
811.0
 30
0.0
 11
63.84
 21
811.0
 31
0.0
  0
LINE
  5
544
330
321
100
AcDbEntity
  8
0
100
AcDbLine
 10
60.0
 20
817.0
 30
0.0
 11
63.84
 21
817.0
 31
0.0
  0
LINE
  5
545
330
321
100
AcDbEntity
  8
0
100
AcDbLine
 10
60.0
 20
815.0
 30
0.0
 11
63.84
 21
815.0
 31
0.0
  0
LINE
  5
546
330
321
100
AcDbEntity
  8
0
100
AcDbLine
 10
56.15999999999999
 20
815.0
 30
0.0
 11
60.0
 21
815.0
 31
0.0
  0
LINE
  5
547
330
321
100
AcDbEntity
  8
0
100
AcDbLine
 10
55.90399999999998
 20
808.0
 30
0.0
 11
60.0
 21
808.0
 31
0.0
  0
LINE
  5
548
330
321
100
AcDbEntity
  8
0
100
AcDbLine
 10
60.0
 20
807.4999999999999
 30
0.0
 11
60.0
 21
795.0
 31
0.0
  0
LINE
  5
549
330
321
100
AcDbEntity
  8
0
100
AcDbLine
 10
60.0
 20
807.4999999999999
 30
0.0
 11
70.0
 21
807.4999999999999
 31
0.0
  0
LINE
  5
54A
330
321
100
AcDbEntity
  8
0
100
AcDbLine
 10
60.0
 20
819.0
 30
0.0
 11
63.58399999999999
 21
819.0
 31
0.0
  0
LINE
  5
54B
330
321
100
AcDbEntity
  8
0
100
AcDbLine
 10
64.09600000000001
 20
808.0
 30
0.0
 11
67.93600000000001
 21
808.0
 31
0.0
  0
LINE
  5
54C
330
321
100
AcDbEntity
  8
0
100
AcDbLine
 10
63.84
 20
813.0
 30
0.0
 11
67.43999999999998
 21
813.0
 31
0.0
  0
LINE
  5
54D
330
321
100
AcDbEntity
  8
0
100
AcDbLine
 10
67.43999999999998
 20
813.0
 30
0.0
 11
70.62000000000002
 21
813.0
 31
0.0
  0
LINE
  5
54E
330
321
100
AcDbEntity
  8
0
100
AcDbLine
 10
63.84
 20
811.0
 30
0.0
 11
67.43999999999998
 21
811.0
 31
0.0
  0
LINE
  5
54F
330
321
100
AcDbEntity
  8
0
100
AcDbLine
 10
67.43999999999998
 20
811.0
 30
0.0
 11
70.62000000000002
 21
811.0
 31
0.0
  0
LINE
  5
550
330
321
100
AcDbEntity
  8
0
100
AcDbLine
 10
63.84
 20
817.0
 30
0.0
 11
67.43999999999998
 21
817.0
 31
0.0
  0
LINE
  5
551
330
321
100
AcDbEntity
  8
0
100
AcDbLine
 10
67.43999999999998
 20
817.0
 30
0.0
 11
70.62000000000002
 21
817.0
 31
0.0
  0
LINE
  5
552
330
321
100
AcDbEntity
  8
0
100
AcDbLine
 10
63.84
 20
815.0
 30
0.0
 11
67.43999999999998
 21
815.0
 31
0.0
  0
LINE
  5
553
330
321
100
AcDbEntity
  8
0
100
AcDbLine
 10
67.43999999999998
 20
815.0
 30
0.0
 11
70.62000000000002
 21
815.0
 31
0.0
  0
LINE
  5
554
330
321
100
AcDbEntity
  8
0
100
AcDbLine
 10
67.93600000000001
 20
808.0
 30
0.0
 11
71.328
 21
808.0
 31
0.0
  0
LINE
  5
555
330
321
100
AcDbEntity
  8
0
100
AcDbLine
 10
63.58399999999999
 20
819.0
 30
0.0
 11
66.944
 21
819.0
 31
0.0
  0
LINE
  5
556
330
321
100
AcDbEntity
  8
0
100
AcDbLine
 10
66.944
 20
819.0
 30
0.0
 11
69.91199999999999
 21
819.0
 31
0.0
  0
LINE
  5
557
330
321
100
AcDbEntity
  8
0
100
AcDbLine
 10
70.62000000000002
 20
813.0
 30
0.0
 11
73.01999999999998
 21
813.0
 31
0.0
  0
LINE
  5
558
330
321
100
AcDbEntity
  8
0
100
AcDbLine
 10
70.62000000000002
 20
811.0
 30
0.0
 11
73.01999999999998
 21
811.0
 31
0.0
  0
LINE
  5
559
330
321
100
AcDbEntity
  8
0
100
AcDbLine
 10
70.62000000000002
 20
817.0
 30
0.0
 11
73.01999999999998
 21
817.0
 31
0.0
  0
LINE
  5
55A
330
321
100
AcDbEntity
  8
0
100
AcDbLine
 10
70.62000000000002
 20
815.0
 30
0.0
 11
73.01999999999998
 21
815.0
 31
0.0
  0
LINE
  5
55B
330
321
100
AcDbEntity
  8
0
100
AcDbLine
 10
73.01999999999998
 20
813.0
 30
0.0
 11
74.45999999999997
 21
813.0
 31
0.0
  0
LINE
  5
55C
330
321
100
AcDbEntity
  8
0
100
AcDbLine
 10
73.01999999999998
 20
811.0
 30
0.0
 11
74.45999999999997
 21
811.0
 31
0.0
  0
LINE
  5
55D
330
321
100
AcDbEntity
  8
0
100
AcDbLine
 10
73.01999999999998
 20
817.0
 30
0.0
 11
74.45999999999997
 21
817.0
 31
0.0
  0
LINE
  5
55E
330
321
100
AcDbEntity
  8
0
100
AcDbLine
 10
73.01999999999998
 20
815.0
 30
0.0
 11
74.45999999999997
 21
815.0
 31
0.0
  0
LINE
  5
55F
330
321
100
AcDbEntity
  8
0
100
AcDbLine
 10
71.328
 20
808.0
 30
0.0
 11
73.888
 21
808.0
 31
0.0
  0
LINE
  5
560
330
321
100
AcDbEntity
  8
0
100
AcDbLine
 10
70.0
 20
807.4999999999999
 30
0.0
 11
70.0
 21
795.0
 31
0.0
  0
LINE
  5
561
330
321
100
AcDbEntity
  8
0
100
AcDbLine
 10
69.91199999999999
 20
819.0
 30
0.0
 11
72.152
 21
819.0
 31
0.0
  0
LINE
  5
562
330
321
100
AcDbEntity
  8
0
100
AcDbLine
 10
72.152
 20
819.0
 30
0.0
 11
73.49600000000002
 21
819.0
 31
0.0
  0
LINE
  5
563
330
321
100
AcDbEntity
  8
0
100
AcDbLine
 10
75.42399999999997
 20
808.0
 30
0.0
 11
82.0
 21
808.0
 31
0.0
  0
LINE
  5
564
330
321
100
AcDbEntity
  8
0
100
AcDbLine
 10
82.0
 20
808.0
 30
0.0
 11
83.536
 21
807.784
 31
0.0
  0
LINE
  5
565
330
321
100
AcDbEntity
  8
0
100
AcDbLine
 10
83.536
 20
807.784
 30
0.0
 11
84.976
 21
807.2079999999999
 31
0.0
  0
LINE
  5
566
330
321
100
AcDbEntity
  8
0
100
AcDbLine
 10
84.976
 20
807.2079999999999
 30
0.0
 11
86.24799999999996
 21
806.248
 31
0.0
  0
LINE
  5
567
330
321
100
AcDbEntity
  8
0
100
AcDbLine
 10
73.888
 20
808.0
 30
0.0
 11
75.42399999999997
 21
808.0
 31
0.0
  0
LINE
  5
568
330
321
100
AcDbEntity
  8
0
100
AcDbLine
 10
74.0
 20
811.0
 30
0.0
 11
74.0
 21
808.0
 31
0.0
  0
LINE
  5
569
330
321
100
AcDbEntity
  8
0
100
AcDbLine
 10
74.0
 20
811.0
 30
0.0
 11
74.45999999999997
 21
811.0
 31
0.0
  0
LINE
  5
56A
330
321
100
AcDbEntity
  8
0
100
AcDbLine
 10
74.0
 20
815.0
 30
0.0
 11
74.0
 21
813.0
 31
0.0
  0
LINE
  5
56B
330
321
100
AcDbEntity
  8
0
100
AcDbLine
 10
74.0
 20
815.0
 30
0.0
 11
74.45999999999997
 21
815.0
 31
0.0
  0
LINE
  5
56C
330
321
100
AcDbEntity
  8
0
100
AcDbLine
 10
74.0
 20
819.0
 30
0.0
 11
74.0
 21
817.0
 31
0.0
  0
LINE
  5
56D
330
321
100
AcDbEntity
  8
0
100
AcDbLine
 10
74.0
 20
813.0
 30
0.0
 11
74.0
 21
815.0
 31
0.0
  0
LINE
  5
56E
330
321
100
AcDbEntity
  8
0
100
AcDbLine
 10
75.0
 20
811.0
 30
0.0
 11
75.0
 21
813.0
 31
0.0
  0
LINE
  5
56F
330
321
100
AcDbEntity
  8
0
100
AcDbLine
 10
75.0
 20
813.0
 30
0.0
 11
75.0
 21
811.0
 31
0.0
  0
LINE
  5
570
330
321
100
AcDbEntity
  8
0
100
AcDbLine
 10
74.45999999999997
 20
813.0
 30
0.0
 11
75.0
 21
813.0
 31
0.0
  0
LINE
  5
571
330
321
100
AcDbEntity
  8
0
100
AcDbLine
 10
74.45999999999997
 20
811.0
 30
0.0
 11
75.0
 21
811.0
 31
0.0
  0
LINE
  5
572
330
321
100
AcDbEntity
  8
0
100
AcDbLine
 10
75.0
 20
815.0
 30
0.0
 11
75.0
 21
817.0
 31
0.0
  0
LINE
  5
573
330
321
100
AcDbEntity
  8
0
100
AcDbLine
 10
75.0
 20
817.0
 30
0.0
 11
75.0
 21
815.0
 31
0.0
  0
LINE
  5
574
330
321
100
AcDbEntity
  8
0
100
AcDbLine
 10
74.45999999999997
 20
817.0
 30
0.0
 11
75.0
 21
817.0
 31
0.0
  0
LINE
  5
575
330
321
100
AcDbEntity
  8
0
100
AcDbLine
 10
74.45999999999997
 20
815.0
 30
0.0
 11
75.0
 21
815.0
 31
0.0
  0
LINE
  5
576
330
321
100
AcDbEntity
  8
0
100
AcDbLine
 10
74.0
 20
817.0
 30
0.0
 11
74.0
 21
819.0
 31
0.0
  0
LINE
  5
577
330
321
100
AcDbEntity
  8
0
100
AcDbLine
 10
74.0
 20
808.0
 30
0.0
 11
74.0
 21
811.0
 31
0.0
  0
LINE
  5
578
330
321
100
AcDbEntity
  8
0
100
AcDbLine
 10
73.49600000000002
 20
819.0
 30
0.0
 11
74.0
 21
819.0
 31
0.0
  0
LINE
  5
579
330
321
100
AcDbEntity
  8
0
100
AcDbLine
 10
56.416
 20
819.0
 30
0.0
 11
60.0
 21
819.0
 31
0.0
  0
LINE
  5
57A
330
321
100
AcDbEntity
  8
0
100
AcDbLine
 10
53.056
 20
819.0
 30
0.0
 11
56.416
 21
819.0
 31
0.0
  0
LINE
  5
57B
330
321
100
AcDbEntity
  8
0
100
AcDbLine
 10
50.088
 20
819.0
 30
0.0
 11
53.056
 21
819.0
 31
0.0
  0
LINE
  5
57C
330
321
100
AcDbEntity
  8
0
100
AcDbLine
 10
47.84799999999999
 20
819.0
 30
0.0
 11
50.088
 21
819.0
 31
0.0
  0
LINE
  5
57D
330
321
100
AcDbEntity
  8
0
100
AcDbLine
 10
46.504
 20
819.0
 30
0.0
 11
47.84799999999999
 21
819.0
 31
0.0
  0
LINE
  5
57E
330
321
100
AcDbEntity
  8
0
100
AcDbLine
 10
46.0
 20
819.0
 30
0.0
 11
46.504
 21
819.0
 31
0.0
  0
LINE
  5
57F
330
321
100
AcDbEntity
  8
0
100
AcDbLine
 10
46.0
 20
819.0
 30
0.0
 11
46.0
 21
817.0
 31
0.0
  0
LINE
  5
580
330
321
100
AcDbEntity
  8
0
100
AcDbLine
 10
86.0
 20
803.5
 30
0.0
 11
86.0
 21
784.4999999999999
 31
0.0
  0
LINE
  5
581
330
321
100
AcDbEntity
  8
0
100
AcDbLine
 10
86.0
 20
803.5
 30
0.0
 11
86.5
 21
804.0
 31
0.0
  0
LINE
  5
582
330
321
100
AcDbEntity
  8
0
100
AcDbLine
 10
86.0
 20
803.5
 30
0.0
 11
86.4
 21
803.5
 31
0.0
  0
LINE
  5
583
330
321
100
AcDbEntity
  8
0
100
AcDbLine
 10
88.49999999999999
 20
784.0
 30
0.0
 11
90.20000000000001
 21
784.0
 31
0.0
  0
LINE
  5
584
330
321
100
AcDbEntity
  8
0
100
AcDbLine
 10
87.4
 20
784.0
 30
0.0
 11
88.49999999999999
 21
784.0
 31
0.0
  0
LINE
  5
585
330
321
100
AcDbEntity
  8
0
100
AcDbLine
 10
87.0
 20
784.0
 30
0.0
 11
87.4
 21
784.0
 31
0.0
  0
LINE
  5
586
330
321
100
AcDbEntity
  8
0
100
AcDbLine
 10
90.20000000000001
 20
784.0
 30
0.0
 11
92.5
 21
784.0
 31
0.0
  0
LINE
  5
587
330
321
100
AcDbEntity
  8
0
100
AcDbLine
 10
92.5
 20
784.0
 30
0.0
 11
95.20000000000001
 21
784.0
 31
0.0
  0
LINE
  5
588
330
321
100
AcDbEntity
  8
0
100
AcDbLine
 10
95.20000000000001
 20
784.0
 30
0.0
 11
98.0
 21
784.0
 31
0.0
  0
LINE
  5
589
330
321
100
AcDbEntity
  8
0
100
AcDbLine
 10
103.4999999999999
 20
784.0
 30
0.0
 11
105.8
 21
784.0
 31
0.0
  0
LINE
  5
58A
330
321
100
AcDbEntity
  8
0
100
AcDbLine
 10
100.8
 20
784.0
 30
0.0
 11
103.4999999999999
 21
784.0
 31
0.0
  0
LINE
  5
58B
330
321
100
AcDbEntity
  8
0
100
AcDbLine
 10
98.0
 20
784.0
 30
0.0
 11
100.8
 21
784.0
 31
0.0
  0
LINE
  5
58C
330
321
100
AcDbEntity
  8
0
100
AcDbLine
 10
87.59999999999998
 20
784.4999999999999
 30
0.0
 11
89.50000000000001
 21
784.4999999999999
 31
0.0
  0
LINE
  5
58D
330
321
100
AcDbEntity
  8
0
100
AcDbLine
 10
86.4
 20
784.4999999999999
 30
0.0
 11
87.59999999999998
 21
784.4999999999999
 31
0.0
  0
LINE
  5
58E
330
321
100
AcDbEntity
  8
0
100
AcDbLine
 10
89.50000000000001
 20
784.4999999999999
 30
0.0
 11
92.0
 21
784.4999999999999
 31
0.0
  0
LINE
  5
58F
330
321
100
AcDbEntity
  8
0
100
AcDbLine
 10
92.0
 20
784.4999999999999
 30
0.0
 11
94.9
 21
784.4999999999999
 31
0.0
  0
LINE
  5
590
330
321
100
AcDbEntity
  8
0
100
AcDbLine
 10
94.9
 20
784.4999999999999
 30
0.0
 11
98.0
 21
784.4999999999999
 31
0.0
  0
LINE
  5
591
330
321
100
AcDbEntity
  8
0
100
AcDbLine
 10
104.0
 20
784.4999999999999
 30
0.0
 11
106.4999999999999
 21
784.4999999999999
 31
0.0
  0
LINE
  5
592
330
321
100
AcDbEntity
  8
0
100
AcDbLine
 10
101.0999999999998
 20
784.4999999999999
 30
0.0
 11
104.0
 21
784.4999999999999
 31
0.0
  0
LINE
  5
593
330
321
100
AcDbEntity
  8
0
100
AcDbLine
 10
87.59999999999998
 20
803.5
 30
0.0
 11
89.50000000000001
 21
803.5
 31
0.0
  0
LINE
  5
594
330
321
100
AcDbEntity
  8
0
100
AcDbLine
 10
86.4
 20
803.5
 30
0.0
 11
87.59999999999998
 21
803.5
 31
0.0
  0
LINE
  5
595
330
321
100
AcDbEntity
  8
0
100
AcDbLine
 10
89.50000000000001
 20
803.5
 30
0.0
 11
92.0
 21
803.5
 31
0.0
  0
LINE
  5
596
330
321
100
AcDbEntity
  8
0
100
AcDbLine
 10
88.0
 20
804.0
 30
0.0
 11
89.9
 21
804.0
 31
0.0
  0
LINE
  5
597
330
321
100
AcDbEntity
  8
0
100
AcDbLine
 10
86.90000000000001
 20
804.0
 30
0.0
 11
88.0
 21
804.0
 31
0.0
  0
LINE
  5
598
330
321
100
AcDbEntity
  8
0
100
AcDbLine
 10
86.5
 20
804.0
 30
0.0
 11
86.90000000000001
 21
804.0
 31
0.0
  0
LINE
  5
599
330
321
100
AcDbEntity
  8
0
100
AcDbLine
 10
89.9
 20
804.0
 30
0.0
 11
92.3
 21
804.0
 31
0.0
  0
LINE
  5
59A
330
321
100
AcDbEntity
  8
0
100
AcDbLine
 10
92.3
 20
804.0
 30
0.0
 11
95.0
 21
804.0
 31
0.0
  0
LINE
  5
59B
330
321
100
AcDbEntity
  8
0
100
AcDbLine
 10
92.0
 20
803.5
 30
0.0
 11
94.9
 21
803.5
 31
0.0
  0
LINE
  5
59C
330
321
100
AcDbEntity
  8
0
100
AcDbLine
 10
95.0
 20
804.0
 30
0.0
 11
98.0
 21
804.0
 31
0.0
  0
LINE
  5
59D
330
321
100
AcDbEntity
  8
0
100
AcDbLine
 10
94.9
 20
803.5
 30
0.0
 11
98.0
 21
803.5
 31
0.0
  0
LINE
  5
59E
330
321
100
AcDbEntity
  8
0
100
AcDbLine
 10
86.24799999999996
 20
806.248
 30
0.0
 11
87.208
 21
804.976
 31
0.0
  0
LINE
  5
59F
330
321
100
AcDbEntity
  8
0
100
AcDbLine
 10
87.208
 20
804.976
 30
0.0
 11
87.59839999999988
 21
804.0
 31
0.0
  0
LINE
  5
5A0
330
321
100
AcDbEntity
  8
0
100
AcDbLine
 10
98.0
 20
804.0
 30
0.0
 11
101.0
 21
804.0
 31
0.0
  0
LINE
  5
5A1
330
321
100
AcDbEntity
  8
0
100
AcDbLine
 10
104.0
 20
803.5
 30
0.0
 11
106.4999999999999
 21
803.5
 31
0.0
  0
LINE
  5
5A2
330
321
100
AcDbEntity
  8
0
100
AcDbLine
 10
103.7
 20
804.0
 30
0.0
 11
106.0999999999998
 21
804.0
 31
0.0
  0
LINE
  5
5A3
330
321
100
AcDbEntity
  8
0
100
AcDbLine
 10
101.0
 20
804.0
 30
0.0
 11
103.7
 21
804.0
 31
0.0
  0
LINE
  5
5A4
330
321
100
AcDbEntity
  8
0
100
AcDbLine
 10
101.0999999999998
 20
803.5
 30
0.0
 11
104.0
 21
803.5
 31
0.0
  0
LINE
  5
5A5
330
321
100
AcDbEntity
  8
0
100
AcDbLine
 10
98.0
 20
803.5
 30
0.0
 11
101.0999999999998
 21
803.5
 31
0.0
  0
LINE
  5
5A6
330
321
100
AcDbEntity
  8
0
100
AcDbLine
 10
98.0
 20
784.4999999999999
 30
0.0
 11
101.0999999999998
 21
784.4999999999999
 31
0.0
  0
LINE
  5
5A7
330
321
100
AcDbEntity
  8
0
100
AcDbLine
 10
106.0999999999998
 20
804.0
 30
0.0
 11
108.0
 21
804.0
 31
0.0
  0
LINE
  5
5A8
330
321
100
AcDbEntity
  8
0
100
AcDbLine
 10
105.8
 20
784.0
 30
0.0
 11
107.4999999999999
 21
784.0
 31
0.0
  0
LINE
  5
5A9
330
321
100
AcDbEntity
  8
0
100
AcDbLine
 10
86.0
 20
784.4999999999999
 30
0.0
 11
87.0
 21
784.0
 31
0.0
  0
LINE
  5
5AA
330
321
100
AcDbEntity
  8
0
100
AcDbLine
 10
86.0
 20
784.4999999999999
 30
0.0
 11
86.4
 21
784.4999999999999
 31
0.0
  0
LINE
  5
5AB
330
321
100
AcDbEntity
  8
0
100
AcDbLine
 10
86.0
 20
784.4999999999999
 30
0.0
 11
86.0
 21
803.5
 31
0.0
  0
LINE
  5
5AC
330
321
100
AcDbEntity
  8
0
100
AcDbLine
 10
86.0
 20
783.4999999999999
 30
0.0
 11
86.0
 21
669.7000000000001
 31
0.0
  0
LINE
  5
5AD
330
321
100
AcDbEntity
  8
0
100
AcDbLine
 10
86.0
 20
783.4999999999999
 30
0.0
 11
87.0
 21
784.0
 31
0.0
  0
LINE
  5
5AE
330
321
100
AcDbEntity
  8
0
100
AcDbLine
 10
86.0
 20
783.4999999999999
 30
0.0
 11
86.4
 21
783.4999999999999
 31
0.0
  0
LINE
  5
5AF
330
321
100
AcDbEntity
  8
0
100
AcDbLine
 10
106.4999999999999
 20
783.4999999999999
 30
0.0
 11
108.4
 21
783.4999999999999
 31
0.0
  0
LINE
  5
5B0
330
321
100
AcDbEntity
  8
0
100
AcDbLine
 10
107.4999999999999
 20
784.0
 30
0.0
 11
108.6
 21
784.0
 31
0.0
  0
LINE
  5
5B1
330
321
100
AcDbEntity
  8
0
100
AcDbLine
 10
108.6
 20
784.0
 30
0.0
 11
109.0
 21
784.0
 31
0.0
  0
LINE
  5
5B2
330
321
100
AcDbEntity
  8
0
100
AcDbLine
 10
108.4
 20
783.4999999999999
 30
0.0
 11
109.5999999999998
 21
783.4999999999999
 31
0.0
  0
LINE
  5
5B3
330
321
100
AcDbEntity
  8
0
100
AcDbLine
 10
110.0
 20
783.4999999999999
 30
0.0
 11
110.0
 21
669.2999999999999
 31
0.0
  0
LINE
  5
5B4
330
321
100
AcDbEntity
  8
0
100
AcDbLine
 10
109.5999999999998
 20
783.4999999999999
 30
0.0
 11
110.0
 21
783.4999999999999
 31
0.0
  0
LINE
  5
5B5
330
321
100
AcDbEntity
  8
0
100
AcDbLine
 10
106.4999999999999
 20
784.4999999999999
 30
0.0
 11
108.4
 21
784.4999999999999
 31
0.0
  0
LINE
  5
5B6
330
321
100
AcDbEntity
  8
0
100
AcDbLine
 10
106.4999999999999
 20
803.5
 30
0.0
 11
108.4
 21
803.5
 31
0.0
  0
LINE
  5
5B7
330
321
100
AcDbEntity
  8
0
100
AcDbLine
 10
108.0
 20
804.0
 30
0.0
 11
109.0999999999998
 21
804.0
 31
0.0
  0
LINE
  5
5B8
330
321
100
AcDbEntity
  8
0
100
AcDbLine
 10
109.0999999999998
 20
804.0
 30
0.0
 11
109.4999999999999
 21
804.0
 31
0.0
  0
LINE
  5
5B9
330
321
100
AcDbEntity
  8
0
100
AcDbLine
 10
108.4
 20
803.5
 30
0.0
 11
109.5999999999998
 21
803.5
 31
0.0
  0
LINE
  5
5BA
330
321
100
AcDbEntity
  8
0
100
AcDbLine
 10
109.5999999999998
 20
803.5
 30
0.0
 11
110.0
 21
803.5
 31
0.0
  0
LINE
  5
5BB
330
321
100
AcDbEntity
  8
0
100
AcDbLine
 10
108.4
 20
784.4999999999999
 30
0.0
 11
109.5999999999998
 21
784.4999999999999
 31
0.0
  0
LINE
  5
5BC
330
321
100
AcDbEntity
  8
0
100
AcDbLine
 10
110.0
 20
803.5
 30
0.0
 11
110.0
 21
784.4999999999999
 31
0.0
  0
LINE
  5
5BD
330
321
100
AcDbEntity
  8
0
100
AcDbLine
 10
109.5999999999998
 20
784.4999999999999
 30
0.0
 11
110.0
 21
784.4999999999999
 31
0.0
  0
LINE
  5
5BE
330
321
100
AcDbEntity
  8
0
100
AcDbLine
 10
109.4999999999999
 20
804.0
 30
0.0
 11
110.0
 21
803.5
 31
0.0
  0
LINE
  5
5BF
330
321
100
AcDbEntity
  8
0
100
AcDbLine
 10
110.0
 20
784.4999999999999
 30
0.0
 11
110.0
 21
803.5
 31
0.0
  0
LINE
  5
5C0
330
321
100
AcDbEntity
  8
0
100
AcDbLine
 10
109.0
 20
784.0
 30
0.0
 11
110.0
 21
783.4999999999999
 31
0.0
  0
LINE
  5
5C1
330
321
100
AcDbEntity
  8
0
100
AcDbLine
 10
109.0
 20
784.0
 30
0.0
 11
110.0
 21
784.4999999999999
 31
0.0
  0
LINE
  5
5C2
330
321
100
AcDbEntity
  8
0
100
AcDbLine
 10
0.999999999999996
 20
778.0
 30
0.0
 11
86.0
 21
778.0
 31
0.0
  0
LINE
  5
5C3
330
321
100
AcDbEntity
  8
0
100
AcDbLine
 10
119.0
 20
778.0
 30
0.0
 11
119.7
 21
777.7000000000001
 31
0.0
  0
LINE
  5
5C4
330
321
100
AcDbEntity
  8
0
100
AcDbLine
 10
110.0
 20
778.0
 30
0.0
 11
119.0
 21
778.0
 31
0.0
  0
LINE
  5
5C5
330
321
100
AcDbEntity
  8
0
100
AcDbLine
 10
0.3
 20
777.7000000000001
 30
0.0
 11
0.5
 21
777.7000000000001
 31
0.0
  0
LINE
  5
5C6
330
321
100
AcDbEntity
  8
0
100
AcDbLine
 10
0.3
 20
777.7000000000001
 30
0.0
 11
1.0
 21
778.0
 31
0.0
  0
LINE
  5
5C7
330
321
100
AcDbEntity
  8
0
100
AcDbLine
 10
0.3
 20
777.7000000000001
 30
0.0
 11
1.0
 21
778.0
 31
0.0
  0
LINE
  5
5C8
330
321
100
AcDbEntity
  8
0
100
AcDbLine
 10
60.0
 20
700.4999999999999
 30
0.0
 11
64.48419434772221
 21
701.1830348300291
 31
0.0
  0
LINE
  5
5C9
330
321
100
AcDbEntity
  8
0
100
AcDbLine
 10
64.48419434772221
 20
701.1830348300291
 30
0.0
 11
68.61087442321331
 21
702.9013600648831
 31
0.0
  0
LINE
  5
5CA
330
321
100
AcDbEntity
  8
0
100
AcDbLine
 10
68.61087442321331
 20
702.9013600648831
 30
0.0
 11
72.39366383796642
 21
705.7652399398384
 31
0.0
  0
LINE
  5
5CB
330
321
100
AcDbEntity
  8
0
100
AcDbLine
 10
72.39366383796642
 20
705.7652399398384
 30
0.0
 11
75.14478127050733
 21
709.4310040276857
 31
0.0
  0
LINE
  5
5CC
330
321
100
AcDbEntity
  8
0
100
AcDbLine
 10
75.14478127050733
 20
709.4310040276857
 30
0.0
 11
76.69228924382604
 21
713.6695425533139
 31
0.0
  0
LINE
  5
5CD
330
321
100
AcDbEntity
  8
0
100
AcDbLine
 10
76.69228924382604
 20
713.6695425533139
 30
0.0
 11
77.5
 21
718.0
 31
0.0
  0
ENDSEC
  0
SECTION
  2
OBJECTS
  0
DICTIONARY
  5
30F
330
0
100
AcDbDictionary
281
     1
  3
ACAD_GROUP
350
310
  3
ACAD_LAYOUT
350
31C
  3
ACAD_MLINESTYLE
350
319
  3
ACAD_PLOTSETTINGS
350
31B
  3
ACAD_PLOTSTYLENAME
350
311
  3
AcDbVariableDictionary
350
5D0
  0
DICTIONARY
  5
310
102
{ACAD_REACTORS
330
30F
102
}
330
30F
100
AcDbDictionary
281
     1
  0
DICTIONARY
  5
31C
102
{ACAD_REACTORS
330
30F
102
}
330
30F
100
AcDbDictionary
281
     1
  3
Layout1
350
320
  3
Model
350
324
  0
DICTIONARY
  5
319
102
{ACAD_REACTORS
330
30F
102
}
330
30F
100
AcDbDictionary
281
     1
  3
Standard
350
31A
  0
DICTIONARY
  5
31B
102
{ACAD_REACTORS
330
30F
102
}
330
30F
100
AcDbDictionary
281
     1
  0
ACDBDICTIONARYWDFLT
  5
311
102
{ACAD_REACTORS
330
30F
102
}
330
30F
100
AcDbDictionary
281
     1
  3
Normal
350
312
100
AcDbDictionaryWithDefault
340
312
  0
DICTIONARY
  5
5D0
102
{ACAD_REACTORS
330
30F
102
}
330
30F
100
AcDbDictionary
281
     1
  3
DIMASSOC
350
5D1
  0
LAYOUT
  5
320
102
{ACAD_REACTORS
330
31C
102
}
330
31C
100
AcDbPlotSettings
  1

  2
hp deskjet 980c series
  4

  6

 40
0.0
 41
0.0
 42
0.0
 43
0.0
 44
0.0
 45
0.0
 46
0.0
 47
0.0
 48
0.0
 49
0.0
140
0.0
141
0.0
142
1.0
143
1.0
 70
   688
 72
     0
 73
     0
 74
     5
  7

 75
    16
147
1.0
148
0.0
149
0.0
100
AcDbLayout
  1
Layout1
 70
     1
 71
     1
 10
0.0
 20
0.0
 11
12.0
 21
9.0
 12
0.0
 22
0.0
 32
0.0
 14
1.000000000000000E+20
 24
1.000000000000000E+20
 34
1.000000000000000E+20
 15
-1.000000000000000E+20
 25
-1.000000000000000E+20
 35
-1.000000000000000E+20
146
0.0
 13
0.0
 23
0.0
 33
0.0
 16
1.0
 26
0.0
 36
0.0
 17
0.0
 27
1.0
 37
0.0
 76
     0
330
31D
  0
LAYOUT
  5
324
102
{ACAD_REACTORS
330
31C
102
}
330
31C
100
AcDbPlotSettings
  1

  2
hp deskjet 980c series
  4

  6

 40
0.0
 41
0.0
 42
0.0
 43
0.0
 44
0.0
 45
0.0
 46
0.0
 47
0.0
 48
0.0
 49
0.0
140
0.0
141
0.0
142
1.0
143
1.0
 70
  1712
 72
     0
 73
     0
 74
     0
  7

 75
     0
147
1.0
148
0.0
149
0.0
100
AcDbLayout
  1
Model
 70
     1
 71
     0
 10
0.0
 20
0.0
 11
12.0
 21
9.0
 12
0.0
 22
0.0
 32
0.0
 14
0.0
 24
0.0
 34
0.0
 15
0.0
 25
0.0
 35
0.0
146
0.0
 13
0.0
 23
0.0
 33
0.0
 16
1.0
 26
0.0
 36
0.0
 17
0.0
 27
1.0
 37
0.0
 76
     0
330
321
  0
MLINESTYLE
  5
31A
102
{ACAD_REACTORS
330
319
102
}
330
319
100
AcDbMlineStyle
  2
STANDARD
 70
     0
  3

 62
   256
 51
90.0
 52
90.0
 71
     2
 49
0.5
 62
   256
  6
BYLAYER
 49
-0.5
 62
   256
  6
BYLAYER
  0
ACDBPLACEHOLDER
  5
312
102
{ACAD_REACTORS
330
311
102
}
330
311
  0
DICTIONARYVAR
  5
5D1
102
{ACAD_REACTORS
330
5D0
102
}
330
5D0
100
DictionaryVariables
280
     0
  1
1
  0
ENDSEC
  0
EOF
