  0
SECTION
  2
HEADER
  9
$ACADVER
  1
AC1009
  9
$INSBASE
 10
0.0
 20
0.0
 30
0.0
  9
$EXTMIN
 10
-0.0000000000000136
 20
-0.0000000000000041
 30
0.0
  9
$EXTMAX
 10
123.0
 20
120.0
 30
0.0
  9
$LIMMIN
 10
0.0
 20
0.0
  9
$LIMMAX
 10
12.0
 20
9.0
  9
$ORTHOMODE
 70
     0
  9
$REGENMODE
 70
     1
  9
$FILLMODE
 70
     1
  9
$QTEXTMODE
 70
     0
  9
$MIRRTEXT
 70
     1
  9
$DRAGMODE
 70
     2
  9
$LTSCALE
 40
1.0
  9
$OSMODE
 70
    37
  9
$ATTMODE
 70
     1
  9
$TEXTSIZE
 40
0.2
  9
$TRACEWID
 40
0.05
  9
$TEXTSTYLE
  7
STANDARD
  9
$CLAYER
  8
0
  9
$CELTYPE
  6
CONTINUOUS
  9
$CECOLOR
 62
   256
  9
$DIMSCALE
 40
1.0
  9
$DIMASZ
 40
0.18
  9
$DIMEXO
 40
0.0625
  9
$DIMDLI
 40
0.38
  9
$DIMRND
 40
0.0
  9
$DIMDLE
 40
0.0
  9
$DIMEXE
 40
0.18
  9
$DIMTP
 40
0.0
  9
$DIMTM
 40
0.0
  9
$DIMTXT
 40
0.18
  9
$DIMCEN
 40
0.09
  9
$DIMTSZ
 40
0.0
  9
$DIMTOL
 70
     0
  9
$DIMLIM
 70
     0
  9
$DIMTIH
 70
     1
  9
$DIMTOH
 70
     1
  9
$DIMSE1
 70
     0
  9
$DIMSE2
 70
     0
  9
$DIMTAD
 70
     0
  9
$DIMZIN
 70
     0
  9
$DIMBLK
  1

  9
$DIMASO
 70
     1
  9
$DIMSHO
 70
     1
  9
$DIMPOST
  1

  9
$DIMAPOST
  1

  9
$DIMALT
 70
     0
  9
$DIMALTD
 70
     2
  9
$DIMALTF
 40
25.399999999999999
  9
$DIMLFAC
 40
1.0
  9
$DIMTOFL
 70
     0
  9
$DIMTVP
 40
0.0
  9
$DIMTIX
 70
     0
  9
$DIMSOXD
 70
     0
  9
$DIMSAH
 70
     0
  9
$DIMBLK1
  1

  9
$DIMBLK2
  1

  9
$DIMSTYLE
  2
STANDARD
  9
$DIMCLRD
 70
     0
  9
$DIMCLRE
 70
     0
  9
$DIMCLRT
 70
     0
  9
$DIMTFAC
 40
1.0
  9
$DIMGAP
 40
0.09
  9
$LUNITS
 70
     2
  9
$LUPREC
 70
     4
  9
$SKETCHINC
 40
0.1
  9
$FILLETRAD
 40
0.0
  9
$AUNITS
 70
     0
  9
$AUPREC
 70
     0
  9
$MENU
  1
.
  9
$ELEVATION
 40
0.0
  9
$PELEVATION
 40
0.0
  9
$THICKNESS
 40
0.0
  9
$LIMCHECK
 70
     0
  9
$BLIPMODE
 70
     0
  9
$CHAMFERA
 40
0.0
  9
$CHAMFERB
 40
0.0
  9
$SKPOLY
 70
     0
  9
$TDCREATE
 40
2454674.5817174772
  9
$TDUPDATE
 40
2454674.5825036112
  9
$TDINDWG
 40
0.0007863194
  9
$TDUSRTIMER
 40
0.0007863194
  9
$USRTIMER
 70
     1
  9
$ANGBASE
 50
0.0
  9
$ANGDIR
 70
     0
  9
$PDMODE
 70
     0
  9
$PDSIZE
 40
0.0
  9
$PLINEWID
 40
0.0
  9
$COORDS
 70
     1
  9
$SPLFRAME
 70
     0
  9
$SPLINETYPE
 70
     6
  9
$SPLINESEGS
 70
     8
  9
$ATTDIA
 70
     0
  9
$ATTREQ
 70
     1
  9
$HANDLING
 70
 22529
  9
$HANDSEED
  5
221
  9
$SURFTAB1
 70
     6
  9
$SURFTAB2
 70
     6
  9
$SURFTYPE
 70
     6
  9
$SURFU
 70
     6
  9
$SURFV
 70
     6
  9
$UCSNAME
  2

  9
$UCSORG
 10
0.0
 20
0.0
 30
0.0
  9
$UCSXDIR
 10
1.0
 20
0.0
 30
0.0
  9
$UCSYDIR
 10
0.0
 20
1.0
 30
0.0
  9
$PUCSNAME
  2

  9
$PUCSORG
 10
0.0
 20
0.0
 30
0.0
  9
$PUCSXDIR
 10
1.0
 20
0.0
 30
0.0
  9
$PUCSYDIR
 10
0.0
 20
1.0
 30
0.0
  9
$USERI1
 70
     0
  9
$USERI2
 70
     0
  9
$USERI3
 70
     0
  9
$USERI4
 70
     0
  9
$USERI5
 70
     0
  9
$USERR1
 40
0.0
  9
$USERR2
 40
0.0
  9
$USERR3
 40
0.0
  9
$USERR4
 40
0.0
  9
$USERR5
 40
0.0
  9
$WORLDVIEW
 70
     1
  9
$SHADEDGE
 70
     3
  9
$SHADEDIF
 70
    70
  9
$TILEMODE
 70
     1
  9
$MAXACTVP
 70
    64
  9
$PLIMCHECK
 70
     0
  9
$PEXTMIN
 10
1.0000000000000000E+020
 20
1.0000000000000000E+020
 30
1.0000000000000000E+020
  9
$PEXTMAX
 10
-1.0000000000000000E+020
 20
-1.0000000000000000E+020
 30
-1.0000000000000000E+020
  9
$PLIMMIN
 10
0.0
 20
0.0
  9
$PLIMMAX
 10
12.0
 20
9.0
  9
$UNITMODE
 70
     0
  9
$VISRETAIN
 70
     1
  9
$PLINEGEN
 70
     0
  9
$PSLTSCALE
 70
     1
  0
ENDSEC
  0
SECTION
  2
TABLES
  0
TABLE
  2
VPORT
 70
     3
  0
VPORT
  2
*ACTIVE
 70
     0
 10
0.0
 20
0.0
 11
1.0
 21
1.0
 12
61.499999999999993
 22
60.0
 13
0.0
 23
0.0
 14
1.0
 24
1.0
 15
0.0
 25
0.0
 16
0.0
 26
0.0
 36
1.0
 17
0.0
 27
0.0
 37
0.0
 40
120.92071611253191
 41
2.0435339308578739
 42
50.0
 43
0.0
 44
0.0
 50
0.0
 51
0.0
 71
     0
 72
   100
 73
     1
 74
     3
 75
     0
 76
     0
 77
     0
 78
     0
  0
ENDTAB
  0
TABLE
  2
LTYPE
 70
     1
  0
LTYPE
  2
CONTINUOUS
 70
     0
  3
Solid line
 72
    65
 73
     0
 40
0.0
  0
ENDTAB
  0
TABLE
  2
LAYER
 70
     1
  0
LAYER
  2
0
 70
     0
 62
     7
  6
CONTINUOUS
  0
ENDTAB
  0
TABLE
  2
STYLE
 70
     1
  0
STYLE
  2
STANDARD
 70
     0
 40
0.0
 41
1.0
 50
0.0
 71
     0
 42
0.2
  3
txt
  4

  0
ENDTAB
  0
TABLE
  2
VIEW
 70
     0
  0
ENDTAB
  0
TABLE
  2
UCS
 70
     0
  0
ENDTAB
  0
TABLE
  2
APPID
 70
     1
  0
APPID
  2
ACAD
 70
     0
  0
ENDTAB
  0
TABLE
  2
DIMSTYLE
 70
     1
  0
DIMSTYLE
  2
STANDARD
 70
     0
  3

  4

  5

  6

  7

 40
1.0
 41
0.18
 42
0.0625
 43
0.38
 44
0.18
 45
0.0
 46
0.0
 47
0.0
 48
0.0
140
0.18
141
0.09
142
0.0
143
25.399999999999999
144
1.0
145
0.0
146
1.0
147
0.09
 71
     0
 72
     0
 73
     1
 74
     1
 75
     0
 76
     0
 77
     0
 78
     0
170
     0
171
     2
172
     0
173
     0
174
     0
175
     0
176
     0
177
     0
178
     0
  0
ENDTAB
  0
ENDSEC
  0
SECTION
  2
BLOCKS
  0
BLOCK
  8
0
  2
$MODEL_SPACE
 70
     0
 10
0.0
 20
0.0
 30
0.0
  3
$MODEL_SPACE
  1

  0
ENDBLK
  5
20
  8
0
  0
BLOCK
 67
     1
  8
0
  2
$PAPER_SPACE
 70
     0
 10
0.0
 20
0.0
 30
0.0
  3
$PAPER_SPACE
  1

  0
ENDBLK
  5
1C
 67
     1
  8
0
  0
ENDSEC
  0
SECTION
  2
ENTITIES
  0
LINE
  5
22
  8
0
 10
0.608973999999988
 20
36.0
 30
0.0
 11
37.390999999999998
 21
36.0
 31
0.0
  0
LINE
  5
23
  8
0
 10
0.6089739999999871
 20
36.0
 30
0.0
 11
37.390999999999998
 21
36.0
 31
0.0
  0
LINE
  5
24
  8
0
 10
0.6089739999999871
 20
36.0
 30
0.0
 11
0.6089739999999871
 21
36.863999999999997
 31
0.0
  0
LINE
  5
25
  8
0
 10
-0.0000000000000135
 20
36.576000000000001
 30
0.0
 11
0.6089739999999871
 21
36.0
 31
0.0
  0
LINE
  5
26
  8
0
 10
-0.0000000000000135
 20
37.439999999999991
 30
0.0
 11
-0.0000000000000134
 21
39.744
 31
0.0
  0
LINE
  5
27
  8
0
 10
-0.0000000000000136
 20
36.576000000000001
 30
0.0
 11
0.6089739999999871
 21
36.0
 31
0.0
  0
LINE
  5
28
  8
0
 10
-0.0000000000000136
 20
36.576000000000001
 30
0.0
 11
-0.0000000000000135
 21
37.439999999999991
 31
0.0
  0
LINE
  5
29
  8
0
 10
0.6089739999999871
 20
39.167999999999999
 30
0.0
 11
0.6089739999999871
 21
43.008000000000003
 31
0.0
  0
LINE
  5
2A
  8
0
 10
0.6089739999999871
 20
36.863999999999997
 30
0.0
 11
0.6089739999999871
 21
36.0
 31
0.0
  0
LINE
  5
2B
  8
0
 10
0.6089739999999871
 20
36.863999999999997
 30
0.0
 11
0.6089739999999871
 21
39.167999999999999
 31
0.0
  0
LINE
  5
2C
  8
0
 10
-0.0000000000000131
 20
43.487999999999992
 30
0.0
 11
-0.0000000000000128
 21
48.384
 31
0.0
  0
LINE
  5
2D
  8
0
 10
-0.0000000000000134
 20
39.744
 30
0.0
 11
-0.0000000000000131
 21
43.487999999999992
 31
0.0
  0
LINE
  5
2E
  8
0
 10
0.6089739999999871
 20
48.095999999999997
 30
0.0
 11
0.608973999999988
 21
53.856000000000002
 31
0.0
  0
LINE
  5
2F
  8
0
 10
0.6089739999999871
 20
43.008000000000003
 30
0.0
 11
0.6089739999999871
 21
48.095999999999997
 31
0.0
  0
LINE
  5
30
  8
0
 10
-0.0000000000000128
 20
48.384
 30
0.0
 11
-0.0000000000000125
 21
53.951999999999991
 31
0.0
  0
LINE
  5
31
  8
0
 10
-0.0000000000000121
 20
60.0
 30
0.0
 11
-0.0000000000000118
 21
66.048000000000002
 31
0.0
  0
LINE
  5
32
  8
0
 10
-0.0000000000000118
 20
66.048000000000002
 30
0.0
 11
-0.0000000000000114
 21
71.615999999999985
 31
0.0
  0
LINE
  5
33
  8
0
 10
-0.0000000000000114
 20
71.615999999999985
 30
0.0
 11
-0.0000000000000111
 21
76.512
 31
0.0
  0
LINE
  5
34
  8
0
 10
-0.0000000000000111
 20
76.512
 30
0.0
 11
-0.0000000000000109
 21
80.256
 31
0.0
  0
LINE
  5
35
  8
0
 10
-0.0000000000000109
 20
80.256
 30
0.0
 11
-0.0000000000000108
 21
82.560000000000002
 31
0.0
  0
LINE
  5
36
  8
0
 10
-0.0000000000000107
 20
83.423999999999992
 30
0.0
 11
0.6089739999999891
 21
84.0
 31
0.0
  0
LINE
  5
37
  8
0
 10
-0.0000000000000108
 20
82.560000000000002
 30
0.0
 11
-0.0000000000000107
 21
83.423999999999992
 31
0.0
  0
LINE
  5
38
  8
0
 10
-0.0000000000000107
 20
83.423999999999992
 30
0.0
 11
0.6089739999999891
 21
84.0
 31
0.0
  0
LINE
  5
39
  8
0
 10
0.608973999999988
 20
60.0
 30
0.0
 11
0.608973999999988
 21
66.143999999999991
 31
0.0
  0
LINE
  5
3A
  8
0
 10
0.608973999999988
 20
66.143999999999991
 30
0.0
 11
0.6089739999999891
 21
71.903999999999996
 31
0.0
  0
LINE
  5
3B
  8
0
 10
0.6089739999999891
 20
71.903999999999996
 30
0.0
 11
0.6089739999999891
 21
76.992000000000004
 31
0.0
  0
LINE
  5
3C
  8
0
 10
0.6089739999999891
 20
76.992000000000004
 30
0.0
 11
0.6089739999999891
 21
80.831999999999994
 31
0.0
  0
LINE
  5
3D
  8
0
 10
22.463999999999999
 20
54.208599999999997
 30
0.0
 11
24.0
 21
53.993200000000002
 31
0.0
  0
LINE
  5
3E
  8
0
 10
21.024000000000001
 20
54.790700000000001
 30
0.0
 11
22.463999999999999
 21
54.208599999999997
 31
0.0
  0
LINE
  5
3F
  8
0
 10
19.751999999999999
 20
55.751300000000001
 30
0.0
 11
21.024000000000001
 21
54.790700000000001
 31
0.0
  0
LINE
  5
40
  8
0
 10
18.792000000000002
 20
57.026099999999992
 30
0.0
 11
19.751999999999999
 21
55.751300000000001
 31
0.0
  0
LINE
  5
41
  8
0
 10
18.21599999999999
 20
58.463999999999999
 30
0.0
 11
18.792000000000002
 21
57.026099999999992
 31
0.0
  0
LINE
  5
42
  8
0
 10
29.783999999999999
 20
58.463999999999999
 30
0.0
 11
30.0
 21
60.0
 31
0.0
  0
LINE
  5
43
  8
0
 10
29.207999999999998
 20
57.026099999999992
 30
0.0
 11
29.783999999999999
 21
58.463999999999999
 31
0.0
  0
LINE
  5
44
  8
0
 10
28.248000000000001
 20
55.751300000000001
 30
0.0
 11
29.207999999999998
 21
57.026099999999992
 31
0.0
  0
LINE
  5
45
  8
0
 10
26.975999999999988
 20
54.790700000000001
 30
0.0
 11
28.248000000000001
 21
55.751300000000001
 31
0.0
  0
LINE
  5
46
  8
0
 10
25.535999999999991
 20
54.208599999999997
 30
0.0
 11
26.975999999999988
 21
54.790700000000001
 31
0.0
  0
LINE
  5
47
  8
0
 10
24.0
 20
53.993200000000002
 30
0.0
 11
25.535999999999991
 21
54.208599999999997
 31
0.0
  0
LINE
  5
48
  8
0
 10
22.463999999999999
 20
65.791399999999996
 30
0.0
 11
24.0
 21
66.006799999999998
 31
0.0
  0
LINE
  5
49
  8
0
 10
24.0
 20
66.006799999999998
 30
0.0
 11
25.535999999999991
 21
65.791399999999996
 31
0.0
  0
LINE
  5
4A
  8
0
 10
21.024000000000001
 20
65.209299999999985
 30
0.0
 11
22.463999999999999
 21
65.791399999999996
 31
0.0
  0
LINE
  5
4B
  8
0
 10
25.535999999999991
 20
65.791399999999996
 30
0.0
 11
26.975999999999988
 21
65.209299999999985
 31
0.0
  0
LINE
  5
4C
  8
0
 10
19.751999999999999
 20
64.248699999999999
 30
0.0
 11
21.024000000000001
 21
65.209299999999985
 31
0.0
  0
LINE
  5
4D
  8
0
 10
26.975999999999988
 20
65.209299999999985
 30
0.0
 11
28.248000000000001
 21
64.248699999999999
 31
0.0
  0
LINE
  5
4E
  8
0
 10
18.792000000000002
 20
62.9739
 30
0.0
 11
19.751999999999999
 21
64.248699999999999
 31
0.0
  0
LINE
  5
4F
  8
0
 10
28.248000000000001
 20
64.248699999999999
 30
0.0
 11
29.207999999999998
 21
62.9739
 31
0.0
  0
LINE
  5
50
  8
0
 10
18.21599999999999
 20
61.536000000000001
 30
0.0
 11
18.792000000000002
 21
62.9739
 31
0.0
  0
LINE
  5
51
  8
0
 10
29.207999999999998
 20
62.9739
 30
0.0
 11
29.783999999999999
 21
61.536000000000001
 31
0.0
  0
LINE
  5
52
  8
0
 10
18.0
 20
60.0
 30
0.0
 11
18.21599999999999
 21
61.536000000000001
 31
0.0
  0
LINE
  5
53
  8
0
 10
18.0
 20
60.0
 30
0.0
 11
18.21599999999999
 21
58.463999999999999
 31
0.0
  0
LINE
  5
54
  8
0
 10
29.783999999999999
 20
61.536000000000001
 30
0.0
 11
30.0
 21
60.0
 31
0.0
  0
LINE
  5
55
  8
0
 10
24.0
 20
83.314800000000005
 30
0.0
 11
25.535999999999991
 21
83.337999999999994
 31
0.0
  0
LINE
  5
56
  8
0
 10
22.463999999999999
 20
83.337999999999994
 30
0.0
 11
24.0
 21
83.314800000000005
 31
0.0
  0
LINE
  5
57
  8
0
 10
21.024000000000001
 20
83.425299999999993
 30
0.0
 11
22.463999999999999
 21
83.337999999999994
 31
0.0
  0
LINE
  5
58
  8
0
 10
25.535999999999991
 20
83.337999999999994
 30
0.0
 11
26.975999999999988
 21
83.425299999999993
 31
0.0
  0
LINE
  5
59
  8
0
 10
19.751999999999999
 20
83.570700000000002
 30
0.0
 11
21.024000000000001
 21
83.425299999999993
 31
0.0
  0
LINE
  5
5A
  8
0
 10
26.975999999999988
 20
83.425299999999993
 30
0.0
 11
28.248000000000001
 21
83.570700000000002
 31
0.0
  0
LINE
  5
5B
  8
0
 10
18.792000000000002
 20
83.745199999999997
 30
0.0
 11
19.751999999999999
 21
83.570700000000002
 31
0.0
  0
LINE
  5
5C
  8
0
 10
28.248000000000001
 20
83.570700000000002
 30
0.0
 11
29.207999999999998
 21
83.745199999999997
 31
0.0
  0
LINE
  5
5D
  8
0
 10
18.21599999999999
 20
83.954599999999985
 30
0.0
 11
18.792000000000002
 21
83.745199999999997
 31
0.0
  0
LINE
  5
5E
  8
0
 10
29.207999999999998
 20
83.745199999999997
 30
0.0
 11
29.783999999999999
 21
83.954599999999985
 31
0.0
  0
LINE
  5
5F
  8
0
 10
29.783999999999999
 20
83.954599999999985
 30
0.0
 11
30.0
 21
84.199999999999989
 31
0.0
  0
LINE
  5
60
  8
0
 10
18.0
 20
84.0
 30
0.0
 11
18.0
 21
84.199999999999989
 31
0.0
  0
LINE
  5
61
  8
0
 10
0.6089739999999891
 20
83.135999999999996
 30
0.0
 11
0.6089739999999891
 21
84.0
 31
0.0
  0
LINE
  5
62
  8
0
 10
0.6089739999999891
 20
80.831999999999994
 30
0.0
 11
0.6089739999999891
 21
83.135999999999996
 31
0.0
  0
LINE
  5
63
  8
0
 10
0.6089739999999891
 20
84.0
 30
0.0
 11
0.6089739999999891
 21
83.135999999999996
 31
0.0
  0
LINE
  5
64
  8
0
 10
0.6089739999999891
 20
84.0
 30
0.0
 11
18.014399999999991
 21
84.0
 31
0.0
  0
LINE
  5
65
  8
0
 10
0.608973999999988
 20
84.0
 30
0.0
 11
18.014399999999991
 21
84.0
 31
0.0
  0
LINE
  5
66
  8
0
 10
18.0
 20
84.199999999999989
 30
0.0
 11
30.0
 21
84.199999999999989
 31
0.0
  0
LINE
  5
67
  8
0
 10
18.0
 20
84.199999999999989
 30
0.0
 11
18.21599999999999
 21
83.954599999999985
 31
0.0
  0
LINE
  5
68
  8
0
 10
18.0
 20
84.199999999999989
 30
0.0
 11
18.0
 21
84.0
 31
0.0
  0
LINE
  5
69
  8
0
 10
30.0
 20
84.199999999999989
 30
0.0
 11
30.0
 21
84.0
 31
0.0
  0
LINE
  5
6A
  8
0
 10
30.0
 20
84.0
 30
0.0
 11
37.390999999999998
 21
84.0
 31
0.0
  0
LINE
  5
6B
  8
0
 10
30.0
 20
84.0
 30
0.0
 11
30.0
 21
84.199999999999989
 31
0.0
  0
LINE
  5
6C
  8
0
 10
-0.0000000000000125
 20
53.951999999999991
 30
0.0
 11
-0.0000000000000121
 21
60.0
 31
0.0
  0
LINE
  5
6D
  8
0
 10
0.608973999999988
 20
53.856000000000002
 30
0.0
 11
0.608973999999988
 21
60.0
 31
0.0
  0
LINE
  5
6E
  8
0
 10
37.390999999999998
 20
53.856000000000002
 30
0.0
 11
37.390999999999998
 21
48.095999999999997
 31
0.0
  0
LINE
  5
6F
  8
0
 10
37.390999999999998
 20
53.856000000000002
 30
0.0
 11
37.390999999999998
 21
60.0
 31
0.0
  0
LINE
  5
70
  8
0
 10
37.390999999999998
 20
48.095999999999997
 30
0.0
 11
37.390999999999998
 21
43.008000000000003
 31
0.0
  0
LINE
  5
71
  8
0
 10
37.390999999999998
 20
48.095999999999997
 30
0.0
 11
37.390999999999998
 21
53.856000000000002
 31
0.0
  0
LINE
  5
72
  8
0
 10
37.390999999999998
 20
43.008000000000003
 30
0.0
 11
37.390999999999998
 21
39.167999999999999
 31
0.0
  0
LINE
  5
73
  8
0
 10
37.390999999999998
 20
43.008000000000003
 30
0.0
 11
37.390999999999998
 21
48.095999999999997
 31
0.0
  0
LINE
  5
74
  8
0
 10
37.390999999999998
 20
39.167999999999999
 30
0.0
 11
37.390999999999998
 21
36.863999999999997
 31
0.0
  0
LINE
  5
75
  8
0
 10
37.390999999999998
 20
39.167999999999999
 30
0.0
 11
37.390999999999998
 21
43.008000000000003
 31
0.0
  0
LINE
  5
76
  8
0
 10
37.390999999999998
 20
60.0
 30
0.0
 11
37.390999999999998
 21
66.143999999999991
 31
0.0
  0
LINE
  5
77
  8
0
 10
37.390999999999998
 20
66.143999999999991
 30
0.0
 11
37.390999999999998
 21
71.903999999999996
 31
0.0
  0
LINE
  5
78
  8
0
 10
37.390999999999998
 20
66.143999999999991
 30
0.0
 11
37.390999999999998
 21
60.0
 31
0.0
  0
LINE
  5
79
  8
0
 10
37.390999999999998
 20
71.903999999999996
 30
0.0
 11
37.390999999999998
 21
76.992000000000004
 31
0.0
  0
LINE
  5
7A
  8
0
 10
37.390999999999998
 20
71.903999999999996
 30
0.0
 11
37.390999999999998
 21
66.143999999999991
 31
0.0
  0
LINE
  5
7B
  8
0
 10
37.390999999999998
 20
76.992000000000004
 30
0.0
 11
37.390999999999998
 21
80.831999999999994
 31
0.0
  0
LINE
  5
7C
  8
0
 10
37.390999999999998
 20
76.992000000000004
 30
0.0
 11
37.390999999999998
 21
71.903999999999996
 31
0.0
  0
LINE
  5
7D
  8
0
 10
37.390999999999998
 20
84.0
 30
0.0
 11
38.0
 21
83.423999999999992
 31
0.0
  0
LINE
  5
7E
  8
0
 10
37.390999999999998
 20
84.0
 30
0.0
 11
37.390999999999998
 21
83.135999999999996
 31
0.0
  0
LINE
  5
7F
  8
0
 10
37.390999999999998
 20
80.831999999999994
 30
0.0
 11
37.390999999999998
 21
83.135999999999996
 31
0.0
  0
LINE
  5
80
  8
0
 10
37.390999999999998
 20
80.831999999999994
 30
0.0
 11
37.390999999999998
 21
76.992000000000004
 31
0.0
  0
LINE
  5
81
  8
0
 10
37.390999999999998
 20
83.135999999999996
 30
0.0
 11
37.390999999999998
 21
84.0
 31
0.0
  0
LINE
  5
82
  8
0
 10
37.390999999999998
 20
83.135999999999996
 30
0.0
 11
37.390999999999998
 21
80.831999999999994
 31
0.0
  0
LINE
  5
83
  8
0
 10
38.0
 20
53.951999999999991
 30
0.0
 11
38.0
 21
60.0
 31
0.0
  0
LINE
  5
84
  8
0
 10
38.0
 20
53.951999999999991
 30
0.0
 11
38.0
 21
48.384
 31
0.0
  0
LINE
  5
85
  8
0
 10
38.0
 20
48.384
 30
0.0
 11
38.0
 21
53.951999999999991
 31
0.0
  0
LINE
  5
86
  8
0
 10
38.0
 20
48.384
 30
0.0
 11
38.0
 21
43.487999999999992
 31
0.0
  0
LINE
  5
87
  8
0
 10
38.0
 20
43.487999999999992
 30
0.0
 11
38.0
 21
48.384
 31
0.0
  0
LINE
  5
88
  8
0
 10
38.0
 20
43.487999999999992
 30
0.0
 11
38.0
 21
39.744
 31
0.0
  0
LINE
  5
89
  8
0
 10
38.0
 20
39.744
 30
0.0
 11
38.0
 21
43.487999999999992
 31
0.0
  0
LINE
  5
8A
  8
0
 10
38.0
 20
39.744
 30
0.0
 11
38.0
 21
37.439999999999991
 31
0.0
  0
LINE
  5
8B
  8
0
 10
38.0
 20
37.439999999999991
 30
0.0
 11
38.0
 21
39.744
 31
0.0
  0
LINE
  5
8C
  8
0
 10
38.0
 20
37.439999999999991
 30
0.0
 11
38.0
 21
36.576000000000001
 31
0.0
  0
LINE
  5
8D
  8
0
 10
37.390999999999998
 20
36.863999999999997
 30
0.0
 11
37.390999999999998
 21
36.0
 31
0.0
  0
LINE
  5
8E
  8
0
 10
37.390999999999998
 20
36.863999999999997
 30
0.0
 11
37.390999999999998
 21
39.167999999999999
 31
0.0
  0
LINE
  5
8F
  8
0
 10
37.390999999999998
 20
36.0
 30
0.0
 11
38.0
 21
36.576000000000001
 31
0.0
  0
LINE
  5
90
  8
0
 10
37.390999999999998
 20
36.0
 30
0.0
 11
37.390999999999998
 21
36.863999999999997
 31
0.0
  0
LINE
  5
91
  8
0
 10
38.0
 20
60.0
 30
0.0
 11
38.0
 21
66.048000000000002
 31
0.0
  0
LINE
  5
92
  8
0
 10
38.0
 20
66.048000000000002
 30
0.0
 11
38.0
 21
71.615999999999985
 31
0.0
  0
LINE
  5
93
  8
0
 10
38.0
 20
66.048000000000002
 30
0.0
 11
38.0
 21
60.0
 31
0.0
  0
LINE
  5
94
  8
0
 10
38.0
 20
71.615999999999985
 30
0.0
 11
38.0
 21
76.512
 31
0.0
  0
LINE
  5
95
  8
0
 10
38.0
 20
71.615999999999985
 30
0.0
 11
38.0
 21
66.048000000000002
 31
0.0
  0
LINE
  5
96
  8
0
 10
38.0
 20
76.512
 30
0.0
 11
38.0
 21
80.256
 31
0.0
  0
LINE
  5
97
  8
0
 10
38.0
 20
76.512
 30
0.0
 11
38.0
 21
71.615999999999985
 31
0.0
  0
LINE
  5
98
  8
0
 10
38.609000000000002
 20
36.0
 30
0.0
 11
47.390999999999998
 21
36.0
 31
0.0
  0
LINE
  5
99
  8
0
 10
38.609000000000002
 20
36.0
 30
0.0
 11
38.609000000000002
 21
36.863999999999997
 31
0.0
  0
LINE
  5
9A
  8
0
 10
48.299999999999997
 20
0.2999999999999971
 30
0.0
 11
48.5
 21
0.2999999999999971
 31
0.0
  0
LINE
  5
9B
  8
0
 10
48.299999999999997
 20
0.2999999999999971
 30
0.0
 11
49.0
 21
-0.000000000000003
 31
0.0
  0
LINE
  5
9C
  8
0
 10
48.299999999999997
 20
0.2999999999999971
 30
0.0
 11
49.0
 21
-0.000000000000003
 31
0.0
  0
LINE
  5
9D
  8
0
 10
49.0
 20
-0.000000000000003
 30
0.0
 11
67.0
 21
-0.0000000000000041
 31
0.0
  0
LINE
  5
9E
  8
0
 10
67.0
 20
-0.0000000000000041
 30
0.0
 11
67.700000000000003
 21
0.299999999999996
 31
0.0
  0
LINE
  5
9F
  8
0
 10
67.0
 20
-0.0000000000000041
 30
0.0
 11
67.700000000000003
 21
0.299999999999996
 31
0.0
  0
LINE
  5
A0
  8
0
 10
67.700000000000003
 20
0.299999999999996
 30
0.0
 11
68.0
 21
0.999999999999996
 31
0.0
  0
LINE
  5
A1
  8
0
 10
67.700000000000003
 20
0.299999999999996
 30
0.0
 11
68.0
 21
0.999999999999996
 31
0.0
  0
LINE
  5
A2
  8
0
 10
67.0
 20
0.299999999999996
 30
0.0
 11
67.5
 21
0.299999999999996
 31
0.0
  0
LINE
  5
A3
  8
0
 10
67.5
 20
0.299999999999996
 30
0.0
 11
67.700000000000003
 21
0.999999999999996
 31
0.0
  0
LINE
  5
A4
  8
0
 10
67.5
 20
0.299999999999996
 30
0.0
 11
67.700000000000003
 21
0.299999999999996
 31
0.0
  0
LINE
  5
A5
  8
0
 10
49.0
 20
0.2999999999999971
 30
0.0
 11
67.0
 21
0.299999999999996
 31
0.0
  0
LINE
  5
A6
  8
0
 10
48.5
 20
0.2999999999999971
 30
0.0
 11
49.0
 21
0.2999999999999971
 31
0.0
  0
LINE
  5
A7
  8
0
 10
68.0
 20
0.999999999999996
 30
0.0
 11
68.0
 21
119.0
 31
0.0
  0
LINE
  5
A8
  8
0
 10
68.0
 20
0.999999999999996
 30
0.0
 11
68.0
 21
119.0
 31
0.0
  0
LINE
  5
A9
  8
0
 10
67.700000000000003
 20
0.999999999999996
 30
0.0
 11
67.700000000000003
 21
119.0
 31
0.0
  0
LINE
  5
AA
  8
0
 10
67.700000000000003
 20
0.999999999999996
 30
0.0
 11
67.700000000000003
 21
119.0
 31
0.0
  0
LINE
  5
AB
  8
0
 10
48.299999999999997
 20
0.999999999999996
 30
0.0
 11
48.299999999999997
 21
119.0
 31
0.0
  0
LINE
  5
AC
  8
0
 10
48.299999999999997
 20
0.9999999999999969
 30
0.0
 11
48.299999999999997
 21
119.0
 31
0.0
  0
LINE
  5
AD
  8
0
 10
48.299999999999997
 20
0.9999999999999969
 30
0.0
 11
48.5
 21
0.2999999999999971
 31
0.0
  0
LINE
  5
AE
  8
0
 10
48.0
 20
0.999999999999996
 30
0.0
 11
48.0
 21
119.0
 31
0.0
  0
LINE
  5
AF
  8
0
 10
71.359999999999999
 20
35.200000000000102
 30
0.0
 11
74.0
 21
35.200000000000102
 31
0.0
  0
LINE
  5
B0
  8
0
 10
71.359999999999999
 20
35.200000000000102
 30
0.0
 11
71.359999999999999
 21
36.0640000000001
 31
0.0
  0
LINE
  5
B1
  8
0
 10
74.0
 20
36.0640000000001
 30
0.0
 11
74.0
 21
38.368000000000102
 31
0.0
  0
LINE
  5
B2
  8
0
 10
74.0
 20
36.412000000000099
 30
0.0
 11
74.0
 21
33.8200000000001
 31
0.0
  0
LINE
  5
B3
  8
0
 10
74.0
 20
36.412000000000099
 30
0.0
 11
74.0
 21
40.624000000000102
 31
0.0
  0
LINE
  5
B4
  8
0
 10
71.359999999999999
 20
36.0640000000001
 30
0.0
 11
71.359999999999999
 21
35.200000000000102
 31
0.0
  0
LINE
  5
B5
  8
0
 10
71.359999999999999
 20
36.0640000000001
 30
0.0
 11
71.359999999999999
 21
38.368000000000102
 31
0.0
  0
LINE
  5
B6
  8
0
 10
71.0
 20
35.776000000000103
 30
0.0
 11
71.0
 21
36.6400000000001
 31
0.0
  0
LINE
  5
B7
  8
0
 10
71.0
 20
35.776000000000103
 30
0.0
 11
71.359999999999999
 21
35.200000000000102
 31
0.0
  0
LINE
  5
B8
  8
0
 10
74.0
 20
35.200000000000102
 30
0.0
 11
74.0
 21
33.8200000000001
 31
0.0
  0
LINE
  5
B9
  8
0
 10
74.0
 20
35.200000000000102
 30
0.0
 11
74.0
 21
36.0640000000001
 31
0.0
  0
LINE
  5
BA
  8
0
 10
74.640000000000001
 20
35.764000000000102
 30
0.0
 11
74.640000000000001
 21
33.172000000000097
 31
0.0
  0
LINE
  5
BB
  8
0
 10
74.640000000000001
 20
35.764000000000102
 30
0.0
 11
74.640000000000001
 21
40.084000000000003
 31
0.0
  0
LINE
  5
BC
  8
0
 10
74.640000000000001
 20
33.172000000000097
 30
0.0
 11
74.640000000000001
 21
32.200000000000102
 31
0.0
  0
LINE
  5
BD
  8
0
 10
74.640000000000001
 20
33.172000000000097
 30
0.0
 11
74.640000000000001
 21
35.764000000000102
 31
0.0
  0
LINE
  5
BE
  8
0
 10
74.0
 20
33.8200000000001
 30
0.0
 11
74.0
 21
35.200000000000102
 31
0.0
  0
LINE
  5
BF
  8
0
 10
74.0
 20
33.8200000000001
 30
0.0
 11
74.0
 21
32.847999999999999
 31
0.0
  0
LINE
  5
C0
  8
0
 10
74.0
 20
33.8200000000001
 30
0.0
 11
74.0
 21
36.412000000000099
 31
0.0
  0
LINE
  5
C1
  8
0
 10
74.0
 20
32.847999999999999
 30
0.0
 11
74.0
 21
33.8200000000001
 31
0.0
  0
LINE
  5
C2
  8
0
 10
74.0
 20
32.847999999999999
 30
0.0
 11
74.640000000000001
 21
32.200000000000102
 31
0.0
  0
LINE
  5
C3
  8
0
 10
89.0
 20
11.19999999999999
 30
0.0
 11
89.612000000000009
 21
11.19999999999999
 31
0.0
  0
LINE
  5
C4
  8
0
 10
89.0
 20
11.19999999999999
 30
0.0
 11
89.0
 21
32.200000000000102
 31
0.0
  0
LINE
  5
C5
  8
0
 10
95.683430000000001
 20
11.19999999999999
 30
0.0
 11
98.772570000000002
 21
11.19999999999999
 31
0.0
  0
LINE
  5
C6
  8
0
 10
93.352000000000004
 20
11.19999999999999
 30
0.0
 11
95.683430000000001
 21
11.19999999999999
 31
0.0
  0
LINE
  5
C7
  8
0
 10
91.953140000000005
 20
11.19999999999999
 30
0.0
 11
93.352000000000004
 21
11.19999999999999
 31
0.0
  0
LINE
  5
C8
  8
0
 10
91.428569999999993
 20
11.19999999999999
 30
0.0
 11
91.953140000000005
 21
11.19999999999999
 31
0.0
  0
LINE
  5
C9
  8
0
 10
109.7302999999999
 20
11.19999999999999
 30
0.0
 11
113.2274
 21
11.19999999999999
 31
0.0
  0
LINE
  5
CA
  8
0
 10
106.0
 20
11.19999999999999
 30
0.0
 11
110.352
 21
11.19999999999999
 31
0.0
  0
LINE
  5
CB
  8
0
 10
106.0
 20
11.19999999999999
 30
0.0
 11
109.7302999999999
 21
11.19999999999999
 31
0.0
  0
LINE
  5
CC
  8
0
 10
113.2274
 20
11.19999999999999
 30
0.0
 11
116.31659999999989
 21
11.19999999999999
 31
0.0
  0
LINE
  5
CD
  8
0
 10
116.31659999999989
 20
11.19999999999999
 30
0.0
 11
118.6479999999999
 21
11.19999999999999
 31
0.0
  0
LINE
  5
CE
  8
0
 10
110.352
 20
11.19999999999999
 30
0.0
 11
114.432
 21
11.19999999999999
 31
0.0
  0
LINE
  5
CF
  8
0
 10
114.432
 20
11.19999999999999
 30
0.0
 11
118.036
 21
11.19999999999999
 31
0.0
  0
LINE
  5
D0
  8
0
 10
118.6479999999999
 20
11.19999999999999
 30
0.0
 11
120.04689999999999
 21
11.19999999999999
 31
0.0
  0
LINE
  5
D1
  8
0
 10
120.04689999999999
 20
11.19999999999999
 30
0.0
 11
120.5713999999999
 21
11.19999999999999
 31
0.0
  0
LINE
  5
D2
  8
0
 10
118.036
 20
11.19999999999999
 30
0.0
 11
120.7559999999999
 21
11.19999999999999
 31
0.0
  0
LINE
  5
D3
  8
0
 10
101.648
 20
11.19999999999999
 30
0.0
 11
106.0
 21
11.19999999999999
 31
0.0
  0
LINE
  5
D4
  8
0
 10
120.7559999999999
 20
11.19999999999999
 30
0.0
 11
122.38799999999991
 21
11.19999999999999
 31
0.0
  0
LINE
  5
D5
  8
0
 10
123.0
 20
11.19999999999999
 30
0.0
 11
123.0
 21
34.200000000000003
 31
0.0
  0
LINE
  5
D6
  8
0
 10
122.38799999999991
 20
11.19999999999999
 30
0.0
 11
123.0
 21
11.19999999999999
 31
0.0
  0
LINE
  5
D7
  8
0
 10
98.772570000000002
 20
11.19999999999999
 30
0.0
 11
101.648
 21
11.19999999999999
 31
0.0
  0
LINE
  5
D8
  8
0
 10
97.567999999999998
 20
11.19999999999999
 30
0.0
 11
101.648
 21
11.19999999999999
 31
0.0
  0
LINE
  5
D9
  8
0
 10
93.963999999999984
 20
11.19999999999999
 30
0.0
 11
97.567999999999998
 21
11.19999999999999
 31
0.0
  0
LINE
  5
DA
  8
0
 10
91.243999999999986
 20
11.19999999999999
 30
0.0
 11
93.963999999999984
 21
11.19999999999999
 31
0.0
  0
LINE
  5
DB
  8
0
 10
123.0
 20
34.200000000000003
 30
0.0
 11
123.0
 21
11.19999999999999
 31
0.0
  0
LINE
  5
DC
  8
0
 10
89.612000000000009
 20
11.19999999999999
 30
0.0
 11
91.243999999999986
 21
11.19999999999999
 31
0.0
  0
LINE
  5
DD
  8
0
 10
89.0
 20
32.200000000000102
 30
0.0
 11
89.0
 21
11.19999999999999
 31
0.0
  0
LINE
  5
DF
  8
0
 10
74.640000000000001
 20
32.200000000000102
 30
0.0
 11
89.0
 21
32.200000000000102
 31
0.0
  0
LINE
  5
E0
  8
0
 10
74.640000000000001
 20
32.200000000000102
 30
0.0
 11
74.640000000000001
 21
33.172000000000097
 31
0.0
  0
LINE
  5
E1
  8
0
 10
48.0
 20
0.9999999999999969
 30
0.0
 11
48.0
 21
119.0
 31
0.0
  0
LINE
  5
E2
  8
0
 10
48.0
 20
0.9999999999999969
 30
0.0
 11
48.299999999999997
 21
0.2999999999999971
 31
0.0
  0
LINE
  5
E3
  8
0
 10
47.390999999999998
 20
36.0
 30
0.0
 11
48.0
 21
36.576000000000001
 31
0.0
  0
LINE
  5
E4
  8
0
 10
47.390999999999998
 20
36.0
 30
0.0
 11
47.390999999999998
 21
36.863999999999997
 31
0.0
  0
LINE
  5
E5
  8
0
 10
38.609000000000002
 20
39.167999999999999
 30
0.0
 11
38.609000000000002
 21
36.863999999999997
 31
0.0
  0
LINE
  5
E6
  8
0
 10
38.609000000000002
 20
39.167999999999999
 30
0.0
 11
38.609000000000002
 21
43.008000000000003
 31
0.0
  0
LINE
  5
E7
  8
0
 10
38.609000000000002
 20
36.863999999999997
 30
0.0
 11
38.609000000000002
 21
36.0
 31
0.0
  0
LINE
  5
E8
  8
0
 10
38.609000000000002
 20
36.863999999999997
 30
0.0
 11
38.609000000000002
 21
39.167999999999999
 31
0.0
  0
LINE
  5
E9
  8
0
 10
38.609000000000002
 20
48.095999999999997
 30
0.0
 11
38.609000000000002
 21
43.008000000000003
 31
0.0
  0
LINE
  5
EA
  8
0
 10
38.609000000000002
 20
48.095999999999997
 30
0.0
 11
38.609000000000002
 21
53.856000000000002
 31
0.0
  0
LINE
  5
EB
  8
0
 10
38.609000000000002
 20
43.008000000000003
 30
0.0
 11
38.609000000000002
 21
39.167999999999999
 31
0.0
  0
LINE
  5
EC
  8
0
 10
38.609000000000002
 20
43.008000000000003
 30
0.0
 11
38.609000000000002
 21
48.095999999999997
 31
0.0
  0
LINE
  5
ED
  8
0
 10
38.609000000000002
 20
60.0
 30
0.0
 11
38.609000000000002
 21
66.143999999999991
 31
0.0
  0
LINE
  5
EE
  8
0
 10
38.609000000000002
 20
66.143999999999991
 30
0.0
 11
38.609000000000002
 21
60.0
 31
0.0
  0
LINE
  5
EF
  8
0
 10
38.609000000000002
 20
66.143999999999991
 30
0.0
 11
38.609000000000002
 21
71.903999999999996
 31
0.0
  0
LINE
  5
F0
  8
0
 10
38.609000000000002
 20
71.903999999999996
 30
0.0
 11
38.609000000000002
 21
66.143999999999991
 31
0.0
  0
LINE
  5
F1
  8
0
 10
38.609000000000002
 20
71.903999999999996
 30
0.0
 11
38.609000000000002
 21
76.992000000000004
 31
0.0
  0
LINE
  5
F2
  8
0
 10
38.609000000000002
 20
76.992000000000004
 30
0.0
 11
38.609000000000002
 21
71.903999999999996
 31
0.0
  0
LINE
  5
F3
  8
0
 10
38.609000000000002
 20
76.992000000000004
 30
0.0
 11
38.609000000000002
 21
80.831999999999994
 31
0.0
  0
LINE
  5
F4
  8
0
 10
38.609000000000002
 20
80.831999999999994
 30
0.0
 11
38.609000000000002
 21
76.992000000000004
 31
0.0
  0
LINE
  5
F5
  8
0
 10
38.609000000000002
 20
80.831999999999994
 30
0.0
 11
38.609000000000002
 21
83.135999999999996
 31
0.0
  0
LINE
  5
F6
  8
0
 10
38.609000000000002
 20
53.856000000000002
 30
0.0
 11
38.609000000000002
 21
48.095999999999997
 31
0.0
  0
LINE
  5
F7
  8
0
 10
38.609000000000002
 20
53.856000000000002
 30
0.0
 11
38.609000000000002
 21
60.0
 31
0.0
  0
LINE
  5
F8
  8
0
 10
47.390999999999998
 20
53.856000000000002
 30
0.0
 11
47.390999999999998
 21
48.095999999999997
 31
0.0
  0
LINE
  5
F9
  8
0
 10
47.390999999999998
 20
53.856000000000002
 30
0.0
 11
47.390999999999998
 21
60.0
 31
0.0
  0
LINE
  5
FA
  8
0
 10
47.390999999999998
 20
48.095999999999997
 30
0.0
 11
47.390999999999998
 21
43.008000000000003
 31
0.0
  0
LINE
  5
FB
  8
0
 10
47.390999999999998
 20
48.095999999999997
 30
0.0
 11
47.390999999999998
 21
53.856000000000002
 31
0.0
  0
LINE
  5
FC
  8
0
 10
47.390999999999998
 20
43.008000000000003
 30
0.0
 11
47.390999999999998
 21
39.167999999999999
 31
0.0
  0
LINE
  5
FD
  8
0
 10
47.390999999999998
 20
43.008000000000003
 30
0.0
 11
47.390999999999998
 21
48.095999999999997
 31
0.0
  0
LINE
  5
FE
  8
0
 10
47.390999999999998
 20
39.167999999999999
 30
0.0
 11
47.390999999999998
 21
36.863999999999997
 31
0.0
  0
LINE
  5
FF
  8
0
 10
47.390999999999998
 20
39.167999999999999
 30
0.0
 11
47.390999999999998
 21
43.008000000000003
 31
0.0
  0
LINE
  5
100
  8
0
 10
71.0
 20
36.6400000000001
 30
0.0
 11
71.0
 21
38.944000000000102
 31
0.0
  0
LINE
  5
101
  8
0
 10
71.0
 20
36.6400000000001
 30
0.0
 11
71.0
 21
35.776000000000103
 31
0.0
  0
LINE
  5
102
  8
0
 10
47.390999999999998
 20
60.0
 30
0.0
 11
47.390999999999998
 21
66.143999999999991
 31
0.0
  0
LINE
  5
103
  8
0
 10
47.390999999999998
 20
66.143999999999991
 30
0.0
 11
47.390999999999998
 21
71.903999999999996
 31
0.0
  0
LINE
  5
104
  8
0
 10
47.390999999999998
 20
66.143999999999991
 30
0.0
 11
47.390999999999998
 21
60.0
 31
0.0
  0
LINE
  5
105
  8
0
 10
47.390999999999998
 20
71.903999999999996
 30
0.0
 11
47.390999999999998
 21
76.992000000000004
 31
0.0
  0
LINE
  5
106
  8
0
 10
47.390999999999998
 20
71.903999999999996
 30
0.0
 11
47.390999999999998
 21
66.143999999999991
 31
0.0
  0
LINE
  5
107
  8
0
 10
47.390999999999998
 20
76.992000000000004
 30
0.0
 11
47.390999999999998
 21
80.831999999999994
 31
0.0
  0
LINE
  5
108
  8
0
 10
47.390999999999998
 20
76.992000000000004
 30
0.0
 11
47.390999999999998
 21
71.903999999999996
 31
0.0
  0
LINE
  5
109
  8
0
 10
47.390999999999998
 20
80.831999999999994
 30
0.0
 11
47.390999999999998
 21
83.135999999999996
 31
0.0
  0
LINE
  5
10A
  8
0
 10
47.390999999999998
 20
80.831999999999994
 30
0.0
 11
47.390999999999998
 21
76.992000000000004
 31
0.0
  0
LINE
  5
10B
  8
0
 10
48.0
 20
53.951999999999991
 30
0.0
 11
48.0
 21
60.0
 31
0.0
  0
LINE
  5
10C
  8
0
 10
48.0
 20
53.951999999999991
 30
0.0
 11
48.0
 21
48.384
 31
0.0
  0
LINE
  5
10D
  8
0
 10
48.0
 20
48.384
 30
0.0
 11
48.0
 21
53.951999999999991
 31
0.0
  0
LINE
  5
10E
  8
0
 10
48.0
 20
48.384
 30
0.0
 11
48.0
 21
43.487999999999992
 31
0.0
  0
LINE
  5
10F
  8
0
 10
48.0
 20
43.487999999999992
 30
0.0
 11
48.0
 21
48.384
 31
0.0
  0
LINE
  5
110
  8
0
 10
48.0
 20
43.487999999999992
 30
0.0
 11
48.0
 21
39.744
 31
0.0
  0
LINE
  5
111
  8
0
 10
48.0
 20
60.0
 30
0.0
 11
48.0
 21
66.048000000000002
 31
0.0
  0
LINE
  5
112
  8
0
 10
48.0
 20
66.048000000000002
 30
0.0
 11
48.0
 21
71.615999999999985
 31
0.0
  0
LINE
  5
113
  8
0
 10
48.0
 20
66.048000000000002
 30
0.0
 11
48.0
 21
60.0
 31
0.0
  0
LINE
  5
114
  8
0
 10
48.0
 20
71.615999999999985
 30
0.0
 11
48.0
 21
76.512
 31
0.0
  0
LINE
  5
115
  8
0
 10
48.0
 20
71.615999999999985
 30
0.0
 11
48.0
 21
66.048000000000002
 31
0.0
  0
LINE
  5
116
  8
0
 10
48.0
 20
76.512
 30
0.0
 11
48.0
 21
80.256
 31
0.0
  0
LINE
  5
117
  8
0
 10
48.0
 20
76.512
 30
0.0
 11
48.0
 21
71.615999999999985
 31
0.0
  0
LINE
  5
119
  8
0
 10
74.0
 20
38.368000000000102
 30
0.0
 11
74.0
 21
42.207999999999991
 31
0.0
  0
LINE
  5
11A
  8
0
 10
71.359999999999999
 20
38.368000000000102
 30
0.0
 11
71.359999999999999
 21
36.0640000000001
 31
0.0
  0
LINE
  5
11B
  8
0
 10
71.359999999999999
 20
38.368000000000102
 30
0.0
 11
71.359999999999999
 21
42.207999999999991
 31
0.0
  0
LINE
  5
11C
  8
0
 10
71.0
 20
38.944000000000102
 30
0.0
 11
71.0
 21
42.688000000000002
 31
0.0
  0
LINE
  5
11D
  8
0
 10
71.0
 20
38.944000000000102
 30
0.0
 11
71.0
 21
36.6400000000001
 31
0.0
  0
LINE
  5
11E
  8
0
 10
74.0
 20
40.624000000000102
 30
0.0
 11
74.0
 21
36.412000000000099
 31
0.0
  0
LINE
  5
11F
  8
0
 10
74.0
 20
40.624000000000102
 30
0.0
 11
74.0
 21
46.132000000000097
 31
0.0
  0
LINE
  5
120
  8
0
 10
106.0
 20
42.200000000000003
 30
0.0
 11
110.352
 21
42.81200000000009
 31
0.0
  0
LINE
  5
121
  8
0
 10
74.640000000000001
 20
40.084000000000003
 30
0.0
 11
74.640000000000001
 21
35.764000000000102
 31
0.0
  0
LINE
  5
122
  8
0
 10
74.640000000000001
 20
40.084000000000003
 30
0.0
 11
74.640000000000001
 21
45.808000000000099
 31
0.0
  0
LINE
  5
123
  8
0
 10
74.0
 20
42.207999999999991
 30
0.0
 11
74.0
 21
47.296000000000113
 31
0.0
  0
LINE
  5
124
  8
0
 10
101.648
 20
42.81200000000009
 30
0.0
 11
106.0
 21
42.200000000000003
 31
0.0
  0
LINE
  5
125
  8
0
 10
97.567999999999998
 20
44.444000000000102
 30
0.0
 11
101.648
 21
42.81200000000009
 31
0.0
  0
LINE
  5
126
  8
0
 10
71.359999999999999
 20
42.207999999999991
 30
0.0
 11
71.359999999999999
 21
38.368000000000102
 31
0.0
  0
LINE
  5
127
  8
0
 10
71.359999999999999
 20
42.207999999999991
 30
0.0
 11
71.359999999999999
 21
47.296000000000113
 31
0.0
  0
LINE
  5
128
  8
0
 10
71.0
 20
42.688000000000002
 30
0.0
 11
71.0
 21
46.200000000000102
 31
0.0
  0
LINE
  5
129
  8
0
 10
71.0
 20
42.688000000000002
 30
0.0
 11
71.0
 21
38.944000000000102
 31
0.0
  0
LINE
  5
12A
  8
0
 10
71.0
 20
42.688000000000002
 30
0.0
 11
71.0
 21
47.583999999999989
 31
0.0
  0
LINE
  5
12B
  8
0
 10
68.0
 20
46.512
 30
0.0
 11
68.359999999999999
 21
46.200000000000102
 31
0.0
  0
LINE
  5
12C
  8
0
 10
74.0
 20
46.132000000000097
 30
0.0
 11
74.0
 21
40.624000000000102
 31
0.0
  0
LINE
  5
12D
  8
0
 10
74.0
 20
46.132000000000097
 30
0.0
 11
74.0
 21
52.3960000000001
 31
0.0
  0
LINE
  5
12E
  8
0
 10
102.2696999999999
 20
45.153100000000101
 30
0.0
 11
106.0
 21
44.628600000000098
 31
0.0
  0
LINE
  5
130
  8
0
 10
74.640000000000001
 20
45.808000000000099
 30
0.0
 11
74.640000000000001
 21
40.084000000000003
 31
0.0
  0
LINE
  5
131
  8
0
 10
74.640000000000001
 20
45.808000000000099
 30
0.0
 11
74.640000000000001
 21
52.288000000000103
 31
0.0
  0
LINE
  5
132
  8
0
 10
98.772570000000002
 20
46.551999999999992
 30
0.0
 11
102.2696999999999
 21
45.153100000000101
 31
0.0
  0
LINE
  5
133
  8
0
 10
71.0
 20
46.200000000000102
 30
0.0
 11
71.0
 21
42.688000000000002
 31
0.0
  0
LINE
  5
134
  8
0
 10
71.0
 20
46.200000000000102
 30
0.0
 11
71.0
 21
46.668000000000099
 31
0.0
  0
LINE
  5
135
  8
0
 10
68.359999999999999
 20
46.200000000000102
 30
0.0
 11
71.0
 21
46.200000000000102
 31
0.0
  0
LINE
  5
136
  8
0
 10
68.359999999999999
 20
46.200000000000102
 30
0.0
 11
68.359999999999999
 21
46.668000000000099
 31
0.0
  0
LINE
  5
137
  8
0
 10
106.0
 20
44.628600000000098
 30
0.0
 11
109.7302999999999
 21
45.153100000000101
 31
0.0
  0
LINE
  5
139
  8
0
 10
110.352
 20
42.81200000000009
 30
0.0
 11
114.432
 21
44.444000000000102
 31
0.0
  0
LINE
  5
13A
  8
0
 10
114.432
 20
44.444000000000102
 30
0.0
 11
118.036
 21
47.164000000000101
 31
0.0
  0
LINE
  5
13B
  8
0
 10
109.7302999999999
 20
45.153100000000101
 30
0.0
 11
113.2274
 21
46.551999999999992
 31
0.0
  0
LINE
  5
13C
  8
0
 10
68.359999999999999
 20
49.996000000000102
 30
0.0
 11
68.359999999999999
 21
47.916000000000103
 31
0.0
  0
LINE
  5
13D
  8
0
 10
68.359999999999999
 20
49.996000000000102
 30
0.0
 11
68.359999999999999
 21
52.752000000000102
 31
0.0
  0
LINE
  5
13E
  8
0
 10
68.359999999999999
 20
47.916000000000103
 30
0.0
 11
68.359999999999999
 21
46.668000000000099
 31
0.0
  0
LINE
  5
13F
  8
0
 10
68.359999999999999
 20
47.916000000000103
 30
0.0
 11
68.359999999999999
 21
49.996000000000102
 31
0.0
  0
LINE
  5
140
  8
0
 10
71.0
 20
47.583999999999989
 30
0.0
 11
71.0
 21
42.688000000000002
 31
0.0
  0
LINE
  5
141
  8
0
 10
71.0
 20
47.583999999999989
 30
0.0
 11
71.0
 21
53.152000000000108
 31
0.0
  0
LINE
  5
142
  8
0
 10
71.0
 20
49.996000000000102
 30
0.0
 11
71.0
 21
52.752000000000102
 31
0.0
  0
LINE
  5
143
  8
0
 10
93.963999999999984
 20
47.164000000000101
 30
0.0
 11
97.567999999999998
 21
44.444000000000102
 31
0.0
  0
LINE
  5
144
  8
0
 10
74.0
 20
47.296000000000113
 30
0.0
 11
74.0
 21
53.055999999999997
 31
0.0
  0
LINE
  5
145
  8
0
 10
95.683430000000001
 20
48.883400000000108
 30
0.0
 11
98.772570000000002
 21
46.551999999999992
 31
0.0
  0
LINE
  5
146
  8
0
 10
93.352000000000004
 20
51.972600000000099
 30
0.0
 11
95.683430000000001
 21
48.883400000000108
 31
0.0
  0
LINE
  5
147
  8
0
 10
91.243999999999986
 20
50.768000000000107
 30
0.0
 11
93.963999999999984
 21
47.164000000000101
 31
0.0
  0
LINE
  5
148
  8
0
 10
71.359999999999999
 20
47.296000000000113
 30
0.0
 11
71.359999999999999
 21
42.207999999999991
 31
0.0
  0
LINE
  5
149
  8
0
 10
71.359999999999999
 20
47.296000000000113
 30
0.0
 11
71.359999999999999
 21
53.055999999999997
 31
0.0
  0
LINE
  5
14A
  8
0
 10
71.0
 20
47.916000000000103
 30
0.0
 11
71.0
 21
49.996000000000102
 31
0.0
  0
LINE
  5
14B
  8
0
 10
71.0
 20
46.668000000000099
 30
0.0
 11
71.0
 21
47.916000000000103
 31
0.0
  0
LINE
  5
14C
  8
0
 10
68.359999999999999
 20
46.668000000000099
 30
0.0
 11
68.359999999999999
 21
46.200000000000102
 31
0.0
  0
LINE
  5
14D
  8
0
 10
68.359999999999999
 20
46.668000000000099
 30
0.0
 11
68.359999999999999
 21
47.916000000000103
 31
0.0
  0
LINE
  5
14E
  8
0
 10
113.2274
 20
46.551999999999992
 30
0.0
 11
116.31659999999989
 21
48.883400000000108
 31
0.0
  0
LINE
  5
14F
  8
0
 10
118.036
 20
47.164000000000101
 30
0.0
 11
120.7559999999999
 21
50.768000000000107
 31
0.0
  0
LINE
  5
150
  8
0
 10
116.31659999999989
 20
48.883400000000108
 30
0.0
 11
118.6479999999999
 21
51.972600000000099
 31
0.0
  0
LINE
  5
151
  8
0
 10
68.359999999999999
 20
55.872000000000099
 30
0.0
 11
68.359999999999999
 21
52.752000000000102
 31
0.0
  0
LINE
  5
152
  8
0
 10
68.359999999999999
 20
55.872000000000099
 30
0.0
 11
68.359999999999999
 21
59.200000000000102
 31
0.0
  0
LINE
  5
153
  8
0
 10
68.359999999999999
 20
52.752000000000102
 30
0.0
 11
68.359999999999999
 21
49.996000000000102
 31
0.0
  0
LINE
  5
154
  8
0
 10
68.359999999999999
 20
52.752000000000102
 30
0.0
 11
68.359999999999999
 21
55.872000000000099
 31
0.0
  0
LINE
  5
155
  8
0
 10
71.0
 20
53.152000000000108
 30
0.0
 11
71.0
 21
47.583999999999989
 31
0.0
  0
LINE
  5
156
  8
0
 10
71.0
 20
53.152000000000108
 30
0.0
 11
71.0
 21
59.200000000000102
 31
0.0
  0
LINE
  5
157
  8
0
 10
71.0
 20
55.872000000000099
 30
0.0
 11
71.0
 21
59.200000000000102
 31
0.0
  0
LINE
  5
158
  8
0
 10
71.0
 20
52.752000000000102
 30
0.0
 11
71.0
 21
55.872000000000099
 31
0.0
  0
LINE
  5
159
  8
0
 10
68.359999999999999
 20
59.200000000000102
 30
0.0
 11
68.359999999999999
 21
62.528000000000112
 31
0.0
  0
LINE
  5
15A
  8
0
 10
68.359999999999999
 20
59.200000000000102
 30
0.0
 11
68.359999999999999
 21
55.872000000000099
 31
0.0
  0
LINE
  5
15B
  8
0
 10
68.359999999999999
 20
62.528000000000112
 30
0.0
 11
68.359999999999999
 21
59.200000000000102
 31
0.0
  0
LINE
  5
15C
  8
0
 10
68.359999999999999
 20
62.528000000000112
 30
0.0
 11
68.359999999999999
 21
65.64800000000011
 31
0.0
  0
LINE
  5
15D
  8
0
 10
71.0
 20
59.200000000000102
 30
0.0
 11
71.0
 21
62.528000000000112
 31
0.0
  0
LINE
  5
15E
  8
0
 10
71.0
 20
59.200000000000102
 30
0.0
 11
71.0
 21
65.248000000000104
 31
0.0
  0
LINE
  5
15F
  8
0
 10
71.0
 20
59.200000000000102
 30
0.0
 11
71.0
 21
53.152000000000108
 31
0.0
  0
LINE
  5
160
  8
0
 10
71.0
 20
65.248000000000104
 30
0.0
 11
71.0
 21
59.200000000000102
 31
0.0
  0
LINE
  5
161
  8
0
 10
71.0
 20
65.248000000000104
 30
0.0
 11
71.0
 21
70.816000000000102
 31
0.0
  0
LINE
  5
162
  8
0
 10
68.359999999999999
 20
65.64800000000011
 30
0.0
 11
68.359999999999999
 21
62.528000000000112
 31
0.0
  0
LINE
  5
163
  8
0
 10
68.359999999999999
 20
65.64800000000011
 30
0.0
 11
68.359999999999999
 21
68.40400000000011
 31
0.0
  0
LINE
  5
164
  8
0
 10
71.0
 20
62.528000000000112
 30
0.0
 11
71.0
 21
65.64800000000011
 31
0.0
  0
LINE
  5
165
  8
0
 10
71.359999999999999
 20
53.055999999999997
 30
0.0
 11
71.359999999999999
 21
47.296000000000113
 31
0.0
  0
LINE
  5
166
  8
0
 10
71.359999999999999
 20
53.055999999999997
 30
0.0
 11
71.359999999999999
 21
59.200000000000102
 31
0.0
  0
LINE
  5
167
  8
0
 10
74.0
 20
52.3960000000001
 30
0.0
 11
74.0
 21
46.132000000000097
 31
0.0
  0
LINE
  5
168
  8
0
 10
74.0
 20
52.3960000000001
 30
0.0
 11
74.0
 21
59.200000000000102
 31
0.0
  0
LINE
  5
169
  8
0
 10
74.0
 20
53.055999999999997
 30
0.0
 11
74.0
 21
59.200000000000102
 31
0.0
  0
LINE
  5
16A
  8
0
 10
71.359999999999999
 20
59.200000000000102
 30
0.0
 11
71.359999999999999
 21
65.344000000000108
 31
0.0
  0
LINE
  5
16B
  8
0
 10
71.359999999999999
 20
59.200000000000102
 30
0.0
 11
71.359999999999999
 21
53.055999999999997
 31
0.0
  0
LINE
  5
16C
  8
0
 10
71.359999999999999
 20
65.344000000000108
 30
0.0
 11
71.359999999999999
 21
59.200000000000102
 31
0.0
  0
LINE
  5
16D
  8
0
 10
71.359999999999999
 20
65.344000000000108
 30
0.0
 11
71.359999999999999
 21
71.104000000000099
 31
0.0
  0
LINE
  5
16E
  8
0
 10
74.640000000000001
 20
52.288000000000103
 30
0.0
 11
74.640000000000001
 21
45.808000000000099
 31
0.0
  0
LINE
  5
16F
  8
0
 10
74.640000000000001
 20
52.288000000000103
 30
0.0
 11
74.640000000000001
 21
59.200000000000102
 31
0.0
  0
LINE
  5
170
  8
0
 10
91.953140000000005
 20
55.469700000000103
 30
0.0
 11
93.352000000000004
 21
51.972600000000099
 31
0.0
  0
LINE
  5
171
  8
0
 10
89.612000000000009
 20
54.848000000000098
 30
0.0
 11
91.243999999999986
 21
50.768000000000107
 31
0.0
  0
LINE
  5
172
  8
0
 10
91.428569999999993
 20
59.200000000000102
 30
0.0
 11
91.953140000000005
 21
62.930300000000102
 31
0.0
  0
LINE
  5
173
  8
0
 10
91.428569999999993
 20
59.200000000000102
 30
0.0
 11
91.953140000000005
 21
55.469700000000103
 31
0.0
  0
LINE
  5
174
  8
0
 10
89.0
 20
59.200000000000102
 30
0.0
 11
89.612000000000009
 21
63.552000000000099
 31
0.0
  0
LINE
  5
175
  8
0
 10
89.0
 20
59.200000000000102
 30
0.0
 11
89.612000000000009
 21
54.848000000000098
 31
0.0
  0
LINE
  5
177
  8
0
 10
74.640000000000001
 20
59.200000000000102
 30
0.0
 11
74.640000000000001
 21
66.112000000000094
 31
0.0
  0
LINE
  5
178
  8
0
 10
91.953140000000005
 20
62.930300000000102
 30
0.0
 11
93.352000000000004
 21
66.427400000000105
 31
0.0
  0
LINE
  5
179
  8
0
 10
89.612000000000009
 20
63.552000000000099
 30
0.0
 11
91.243999999999986
 21
67.632000000000104
 31
0.0
  0
LINE
  5
17B
  8
0
 10
74.0
 20
59.200000000000102
 30
0.0
 11
74.0
 21
65.344000000000108
 31
0.0
  0
LINE
  5
17C
  8
0
 10
74.0
 20
59.200000000000102
 30
0.0
 11
74.0
 21
66.004000000000104
 31
0.0
  0
LINE
  5
17D
  8
0
 10
74.0
 20
59.200000000000102
 30
0.0
 11
74.0
 21
52.3960000000001
 31
0.0
  0
LINE
  5
17E
  8
0
 10
74.0
 20
66.004000000000104
 30
0.0
 11
74.0
 21
59.200000000000102
 31
0.0
  0
LINE
  5
17F
  8
0
 10
74.0
 20
66.004000000000104
 30
0.0
 11
74.0
 21
72.2680000000001
 31
0.0
  0
LINE
  5
180
  8
0
 10
93.352000000000004
 20
66.427400000000105
 30
0.0
 11
95.683430000000001
 21
69.516600000000111
 31
0.0
  0
LINE
  5
181
  8
0
 10
74.640000000000001
 20
66.112000000000094
 30
0.0
 11
74.640000000000001
 21
59.200000000000102
 31
0.0
  0
LINE
  5
182
  8
0
 10
74.640000000000001
 20
66.112000000000094
 30
0.0
 11
74.640000000000001
 21
72.592000000000098
 31
0.0
  0
LINE
  5
184
  8
0
 10
74.0
 20
65.344000000000108
 30
0.0
 11
74.0
 21
71.104000000000099
 31
0.0
  0
LINE
  5
185
  8
0
 10
71.0
 20
65.64800000000011
 30
0.0
 11
71.0
 21
68.40400000000011
 31
0.0
  0
LINE
  5
186
  8
0
 10
118.6479999999999
 20
51.972600000000099
 30
0.0
 11
120.04689999999999
 21
55.469700000000103
 31
0.0
  0
LINE
  5
187
  8
0
 10
120.04689999999999
 20
55.469700000000103
 30
0.0
 11
120.5713999999999
 21
59.200000000000102
 31
0.0
  0
LINE
  5
188
  8
0
 10
68.359999999999999
 20
68.40400000000011
 30
0.0
 11
68.359999999999999
 21
65.64800000000011
 31
0.0
  0
LINE
  5
189
  8
0
 10
68.359999999999999
 20
68.40400000000011
 30
0.0
 11
68.359999999999999
 21
70.484000000000094
 31
0.0
  0
LINE
  5
18A
  8
0
 10
68.359999999999999
 20
70.484000000000094
 30
0.0
 11
68.359999999999999
 21
68.40400000000011
 31
0.0
  0
LINE
  5
18B
  8
0
 10
68.359999999999999
 20
70.484000000000094
 30
0.0
 11
68.359999999999999
 21
71.732000000000099
 31
0.0
  0
LINE
  5
18C
  8
0
 10
71.0
 20
68.40400000000011
 30
0.0
 11
71.0
 21
70.484000000000094
 31
0.0
  0
LINE
  5
18D
  8
0
 10
71.0
 20
70.816000000000102
 30
0.0
 11
71.0
 21
65.248000000000104
 31
0.0
  0
LINE
  5
18E
  8
0
 10
71.0
 20
70.816000000000102
 30
0.0
 11
71.0
 21
75.712000000000089
 31
0.0
  0
LINE
  5
18F
  8
0
 10
68.359999999999999
 20
71.732000000000099
 30
0.0
 11
68.359999999999999
 21
70.484000000000094
 31
0.0
  0
LINE
  5
190
  8
0
 10
68.359999999999999
 20
71.732000000000099
 30
0.0
 11
68.359999999999999
 21
72.200000000000102
 31
0.0
  0
LINE
  5
191
  8
0
 10
71.0
 20
70.484000000000094
 30
0.0
 11
71.0
 21
71.732000000000099
 31
0.0
  0
LINE
  5
192
  8
0
 10
95.683430000000001
 20
69.516600000000111
 30
0.0
 11
98.772570000000002
 21
71.848000000000084
 31
0.0
  0
LINE
  5
193
  8
0
 10
91.243999999999986
 20
67.632000000000104
 30
0.0
 11
93.963999999999984
 21
71.236000000000089
 31
0.0
  0
LINE
  5
194
  8
0
 10
71.359999999999999
 20
71.104000000000099
 30
0.0
 11
71.359999999999999
 21
65.344000000000108
 31
0.0
  0
LINE
  5
195
  8
0
 10
71.359999999999999
 20
71.104000000000099
 30
0.0
 11
71.359999999999999
 21
76.192000000000093
 31
0.0
  0
LINE
  5
196
  8
0
 10
98.772570000000002
 20
71.848000000000084
 30
0.0
 11
102.2696999999999
 21
73.246900000000096
 31
0.0
  0
LINE
  5
197
  8
0
 10
93.963999999999984
 20
71.236000000000089
 30
0.0
 11
97.567999999999998
 21
73.956000000000074
 31
0.0
  0
LINE
  5
198
  8
0
 10
74.0
 20
71.104000000000099
 30
0.0
 11
74.0
 21
76.192000000000093
 31
0.0
  0
LINE
  5
199
  8
0
 10
71.0
 20
71.732000000000099
 30
0.0
 11
71.0
 21
72.200000000000102
 31
0.0
  0
LINE
  5
19A
  8
0
 10
68.0
 20
71.88800000000009
 30
0.0
 11
68.359999999999999
 21
72.200000000000102
 31
0.0
  0
LINE
  5
19B
  8
0
 10
71.0
 20
72.200000000000102
 30
0.0
 11
71.0
 21
75.712000000000089
 31
0.0
  0
LINE
  5
19C
  8
0
 10
71.0
 20
75.712000000000089
 30
0.0
 11
71.0
 21
79.456000000000088
 31
0.0
  0
LINE
  5
19D
  8
0
 10
71.0
 20
75.712000000000089
 30
0.0
 11
71.0
 21
72.200000000000102
 31
0.0
  0
LINE
  5
19E
  8
0
 10
71.0
 20
75.712000000000089
 30
0.0
 11
71.0
 21
70.816000000000102
 31
0.0
  0
LINE
  5
19F
  8
0
 10
74.0
 20
72.2680000000001
 30
0.0
 11
74.0
 21
66.004000000000104
 31
0.0
  0
LINE
  5
1A0
  8
0
 10
74.0
 20
72.2680000000001
 30
0.0
 11
74.0
 21
77.776000000000096
 31
0.0
  0
LINE
  5
1A1
  8
0
 10
74.0
 20
77.776000000000096
 30
0.0
 11
74.0
 21
72.2680000000001
 31
0.0
  0
LINE
  5
1A2
  8
0
 10
74.0
 20
77.776000000000096
 30
0.0
 11
74.0
 21
81.988000000000099
 31
0.0
  0
LINE
  5
1A3
  8
0
 10
71.359999999999999
 20
76.192000000000093
 30
0.0
 11
71.359999999999999
 21
71.104000000000099
 31
0.0
  0
LINE
  5
1A4
  8
0
 10
71.359999999999999
 20
76.192000000000093
 30
0.0
 11
71.359999999999999
 21
80.032000000000096
 31
0.0
  0
LINE
  5
1A5
  8
0
 10
71.359999999999999
 20
80.032000000000096
 30
0.0
 11
71.359999999999999
 21
76.192000000000093
 31
0.0
  0
LINE
  5
1A6
  8
0
 10
71.359999999999999
 20
80.032000000000096
 30
0.0
 11
71.359999999999999
 21
82.336000000000084
 31
0.0
  0
LINE
  5
1A7
  8
0
 10
74.640000000000001
 20
72.592000000000098
 30
0.0
 11
74.640000000000001
 21
66.112000000000094
 31
0.0
  0
LINE
  5
1A8
  8
0
 10
74.640000000000001
 20
72.592000000000098
 30
0.0
 11
74.640000000000001
 21
78.316000000000102
 31
0.0
  0
LINE
  5
1A9
  8
0
 10
102.2696999999999
 20
73.246900000000096
 30
0.0
 11
106.0
 21
73.771400000000099
 31
0.0
  0
LINE
  5
1AA
  8
0
 10
97.567999999999998
 20
73.956000000000074
 30
0.0
 11
101.648
 21
75.588000000000093
 31
0.0
  0
LINE
  5
1AB
  8
0
 10
106.0
 20
73.771400000000099
 30
0.0
 11
109.7302999999999
 21
73.246900000000096
 31
0.0
  0
LINE
  5
1AC
  8
0
 10
109.7302999999999
 20
73.246900000000096
 30
0.0
 11
113.2274
 21
71.848000000000084
 31
0.0
  0
LINE
  5
1AD
  8
0
 10
101.648
 20
75.588000000000093
 30
0.0
 11
106.0
 21
76.200000000000102
 31
0.0
  0
LINE
  5
1AE
  8
0
 10
106.0
 20
76.200000000000102
 30
0.0
 11
110.352
 21
75.588000000000093
 31
0.0
  0
LINE
  5
1AF
  8
0
 10
110.352
 20
75.588000000000093
 30
0.0
 11
114.432
 21
73.956000000000074
 31
0.0
  0
LINE
  5
1B0
  8
0
 10
114.432
 20
73.956000000000074
 30
0.0
 11
118.036
 21
71.236000000000089
 31
0.0
  0
LINE
  5
1B1
  8
0
 10
74.640000000000001
 20
78.316000000000102
 30
0.0
 11
74.640000000000001
 21
72.592000000000098
 31
0.0
  0
LINE
  5
1B2
  8
0
 10
74.640000000000001
 20
78.316000000000102
 30
0.0
 11
74.640000000000001
 21
82.636000000000095
 31
0.0
  0
LINE
  5
1B4
  8
0
 10
74.0
 20
76.192000000000093
 30
0.0
 11
74.0
 21
80.032000000000096
 31
0.0
  0
LINE
  5
1B5
  8
0
 10
74.0
 20
80.032000000000096
 30
0.0
 11
74.0
 21
82.336000000000084
 31
0.0
  0
LINE
  5
1B6
  8
0
 10
71.0
 20
79.456000000000088
 30
0.0
 11
71.0
 21
81.760000000000005
 31
0.0
  0
LINE
  5
1B7
  8
0
 10
71.0
 20
79.456000000000088
 30
0.0
 11
71.0
 21
75.712000000000089
 31
0.0
  0
LINE
  5
1B8
  8
0
 10
74.0
 20
81.988000000000099
 30
0.0
 11
74.0
 21
77.776000000000096
 31
0.0
  0
LINE
  5
1B9
  8
0
 10
74.0
 20
81.988000000000099
 30
0.0
 11
74.0
 21
84.580000000000098
 31
0.0
  0
LINE
  5
1BA
  8
0
 10
71.359999999999999
 20
82.336000000000084
 30
0.0
 11
71.359999999999999
 21
80.032000000000096
 31
0.0
  0
LINE
  5
1BB
  8
0
 10
71.359999999999999
 20
82.336000000000084
 30
0.0
 11
71.359999999999999
 21
83.200000000000102
 31
0.0
  0
LINE
  5
1BC
  8
0
 10
74.0
 20
82.336000000000084
 30
0.0
 11
74.0
 21
83.200000000000102
 31
0.0
  0
LINE
  5
1BD
  8
0
 10
71.0
 20
81.760000000000005
 30
0.0
 11
71.0
 21
82.624000000000095
 31
0.0
  0
LINE
  5
1BE
  8
0
 10
71.0
 20
81.760000000000005
 30
0.0
 11
71.0
 21
79.456000000000088
 31
0.0
  0
LINE
  5
1BF
  8
0
 10
68.359999999999999
 20
72.200000000000102
 30
0.0
 11
71.0
 21
72.200000000000102
 31
0.0
  0
LINE
  5
1C0
  8
0
 10
68.359999999999999
 20
72.200000000000102
 30
0.0
 11
68.359999999999999
 21
71.732000000000099
 31
0.0
  0
LINE
  5
1C1
  8
0
 10
113.2274
 20
71.848000000000084
 30
0.0
 11
116.31659999999989
 21
69.516600000000111
 31
0.0
  0
LINE
  5
1C2
  8
0
 10
118.036
 20
71.236000000000089
 30
0.0
 11
120.7559999999999
 21
67.632000000000104
 31
0.0
  0
LINE
  5
1C3
  8
0
 10
116.31659999999989
 20
69.516600000000111
 30
0.0
 11
118.6479999999999
 21
66.427400000000105
 31
0.0
  0
LINE
  5
1C4
  8
0
 10
118.6479999999999
 20
66.427400000000105
 30
0.0
 11
120.04689999999999
 21
62.930300000000102
 31
0.0
  0
LINE
  5
1C5
  8
0
 10
120.7559999999999
 20
50.768000000000107
 30
0.0
 11
122.38799999999991
 21
54.848000000000098
 31
0.0
  0
LINE
  5
1C6
  8
0
 10
122.38799999999991
 20
54.848000000000098
 30
0.0
 11
123.0
 21
59.200000000000102
 31
0.0
  0
LINE
  5
1C7
  8
0
 10
123.0
 20
84.200000000000102
 30
0.0
 11
123.0
 21
34.200000000000003
 31
0.0
  0
LINE
  5
1C8
  8
0
 10
120.7559999999999
 20
67.632000000000104
 30
0.0
 11
122.38799999999991
 21
63.552000000000099
 31
0.0
  0
LINE
  5
1C9
  8
0
 10
122.38799999999991
 20
63.552000000000099
 30
0.0
 11
123.0
 21
59.200000000000102
 31
0.0
  0
LINE
  5
1CA
  8
0
 10
123.0
 20
34.200000000000003
 30
0.0
 11
123.0
 21
84.200000000000102
 31
0.0
  0
LINE
  5
1CB
  8
0
 10
120.04689999999999
 20
62.930300000000102
 30
0.0
 11
120.5713999999999
 21
59.200000000000102
 31
0.0
  0
LINE
  5
1CD
  8
0
 10
48.0
 20
80.256
 30
0.0
 11
48.0
 21
82.560000000000002
 31
0.0
  0
LINE
  5
1CE
  8
0
 10
48.0
 20
80.256
 30
0.0
 11
48.0
 21
76.512
 31
0.0
  0
LINE
  5
1CF
  8
0
 10
48.0
 20
82.560000000000002
 30
0.0
 11
48.0
 21
83.423999999999992
 31
0.0
  0
LINE
  5
1D0
  8
0
 10
48.0
 20
82.560000000000002
 30
0.0
 11
48.0
 21
80.256
 31
0.0
  0
LINE
  5
1D1
  8
0
 10
48.0
 20
39.744
 30
0.0
 11
48.0
 21
43.487999999999992
 31
0.0
  0
LINE
  5
1D2
  8
0
 10
48.0
 20
39.744
 30
0.0
 11
48.0
 21
37.439999999999991
 31
0.0
  0
LINE
  5
1D3
  8
0
 10
48.0
 20
37.439999999999991
 30
0.0
 11
48.0
 21
39.744
 31
0.0
  0
LINE
  5
1D4
  8
0
 10
48.0
 20
37.439999999999991
 30
0.0
 11
48.0
 21
36.576000000000001
 31
0.0
  0
LINE
  5
1D5
  8
0
 10
47.390999999999998
 20
36.863999999999997
 30
0.0
 11
47.390999999999998
 21
36.0
 31
0.0
  0
LINE
  5
1D6
  8
0
 10
47.390999999999998
 20
36.863999999999997
 30
0.0
 11
47.390999999999998
 21
39.167999999999999
 31
0.0
  0
LINE
  5
1D7
  8
0
 10
48.0
 20
36.576000000000001
 30
0.0
 11
48.0
 21
37.439999999999991
 31
0.0
  0
LINE
  5
1D8
  8
0
 10
38.0
 20
80.256
 30
0.0
 11
38.0
 21
82.560000000000002
 31
0.0
  0
LINE
  5
1D9
  8
0
 10
38.0
 20
80.256
 30
0.0
 11
38.0
 21
76.512
 31
0.0
  0
LINE
  5
1DA
  8
0
 10
47.390999999999998
 20
84.0
 30
0.0
 11
48.0
 21
83.423999999999992
 31
0.0
  0
LINE
  5
1DB
  8
0
 10
47.390999999999998
 20
84.0
 30
0.0
 11
47.390999999999998
 21
83.135999999999996
 31
0.0
  0
LINE
  5
1DC
  8
0
 10
38.609000000000002
 20
83.135999999999996
 30
0.0
 11
38.609000000000002
 21
80.831999999999994
 31
0.0
  0
LINE
  5
1DD
  8
0
 10
38.609000000000002
 20
83.135999999999996
 30
0.0
 11
38.609000000000002
 21
84.0
 31
0.0
  0
LINE
  5
1DE
  8
0
 10
71.0
 20
82.624000000000095
 30
0.0
 11
71.359999999999999
 21
83.200000000000102
 31
0.0
  0
LINE
  5
1DF
  8
0
 10
71.0
 20
82.624000000000095
 30
0.0
 11
71.0
 21
81.760000000000005
 31
0.0
  0
LINE
  5
1E0
  8
0
 10
71.359999999999999
 20
83.200000000000102
 30
0.0
 11
74.0
 21
83.200000000000102
 31
0.0
  0
LINE
  5
1E1
  8
0
 10
71.359999999999999
 20
83.200000000000102
 30
0.0
 11
71.359999999999999
 21
82.336000000000084
 31
0.0
  0
LINE
  5
1E2
  8
0
 10
74.640000000000001
 20
82.636000000000095
 30
0.0
 11
74.640000000000001
 21
78.316000000000102
 31
0.0
  0
LINE
  5
1E3
  8
0
 10
74.640000000000001
 20
82.636000000000095
 30
0.0
 11
74.640000000000001
 21
85.228000000000094
 31
0.0
  0
LINE
  5
1E4
  8
0
 10
74.0
 20
83.200000000000102
 30
0.0
 11
74.0
 21
84.580000000000098
 31
0.0
  0
LINE
  5
1E5
  8
0
 10
48.0
 20
83.423999999999992
 30
0.0
 11
48.0
 21
82.560000000000002
 31
0.0
  0
LINE
  5
1E6
  8
0
 10
47.390999999999998
 20
83.135999999999996
 30
0.0
 11
47.390999999999998
 21
84.0
 31
0.0
  0
LINE
  5
1E7
  8
0
 10
47.390999999999998
 20
83.135999999999996
 30
0.0
 11
47.390999999999998
 21
80.831999999999994
 31
0.0
  0
LINE
  5
1E8
  8
0
 10
48.299999999999997
 20
119.0
 30
0.0
 11
48.5
 21
119.7
 31
0.0
  0
LINE
  5
1E9
  8
0
 10
48.0
 20
119.0
 30
0.0
 11
48.299999999999997
 21
119.7
 31
0.0
  0
LINE
  5
1EA
  8
0
 10
74.640000000000001
 20
85.228000000000094
 30
0.0
 11
74.640000000000001
 21
82.636000000000095
 31
0.0
  0
LINE
  5
1EB
  8
0
 10
74.640000000000001
 20
85.228000000000094
 30
0.0
 11
74.640000000000001
 21
86.200000000000088
 31
0.0
  0
LINE
  5
1EC
  8
0
 10
74.0
 20
84.580000000000098
 30
0.0
 11
74.0
 21
85.552000000000007
 31
0.0
  0
LINE
  5
1ED
  8
0
 10
74.0
 20
84.580000000000098
 30
0.0
 11
74.0
 21
83.200000000000102
 31
0.0
  0
LINE
  5
1EE
  8
0
 10
74.0
 20
84.580000000000098
 30
0.0
 11
74.0
 21
81.988000000000099
 31
0.0
  0
LINE
  5
1EF
  8
0
 10
74.0
 20
85.552000000000007
 30
0.0
 11
74.640000000000001
 21
86.200000000000088
 31
0.0
  0
LINE
  5
1F0
  8
0
 10
74.0
 20
85.552000000000007
 30
0.0
 11
74.0
 21
84.580000000000098
 31
0.0
  0
LINE
  5
1F1
  8
0
 10
101.648
 20
107.2
 30
0.0
 11
106.0
 21
107.2
 31
0.0
  0
LINE
  5
1F2
  8
0
 10
97.567999999999998
 20
107.2
 30
0.0
 11
101.648
 21
107.2
 31
0.0
  0
LINE
  5
1F3
  8
0
 10
93.963999999999984
 20
107.2
 30
0.0
 11
97.567999999999998
 21
107.2
 31
0.0
  0
LINE
  5
1F4
  8
0
 10
91.243999999999986
 20
107.2
 30
0.0
 11
93.963999999999984
 21
107.2
 31
0.0
  0
LINE
  5
1F5
  8
0
 10
89.612000000000009
 20
107.2
 30
0.0
 11
91.243999999999986
 21
107.2
 31
0.0
  0
LINE
  5
1F6
  8
0
 10
89.0
 20
86.200000000000088
 30
0.0
 11
89.0
 21
107.2
 31
0.0
  0
LINE
  5
1F7
  8
0
 10
106.0
 20
107.2
 30
0.0
 11
110.352
 21
107.2
 31
0.0
  0
LINE
  5
1F8
  8
0
 10
110.352
 20
107.2
 30
0.0
 11
114.432
 21
107.2
 31
0.0
  0
LINE
  5
1F9
  8
0
 10
114.432
 20
107.2
 30
0.0
 11
118.036
 21
107.2
 31
0.0
  0
LINE
  5
1FA
  8
0
 10
118.036
 20
107.2
 30
0.0
 11
120.7559999999999
 21
107.2
 31
0.0
  0
LINE
  5
1FB
  8
0
 10
120.7559999999999
 20
107.2
 30
0.0
 11
122.38799999999991
 21
107.2
 31
0.0
  0
LINE
  5
1FC
  8
0
 10
122.38799999999991
 20
107.2
 30
0.0
 11
123.0
 21
107.2
 31
0.0
  0
LINE
  5
1FD
  8
0
 10
123.0
 20
107.2
 30
0.0
 11
123.0
 21
84.200000000000102
 31
0.0
  0
LINE
  5
1FE
  8
0
 10
123.0
 20
84.200000000000102
 30
0.0
 11
123.0
 21
107.2
 31
0.0
  0
LINE
  5
1FF
  8
0
 10
89.0
 20
107.2
 30
0.0
 11
89.0
 21
86.200000000000088
 31
0.0
  0
LINE
  5
200
  8
0
 10
89.0
 20
107.2
 30
0.0
 11
89.612000000000009
 21
107.2
 31
0.0
  0
LINE
  5
201
  8
0
 10
74.640000000000001
 20
86.200000000000088
 30
0.0
 11
89.0
 21
86.200000000000088
 31
0.0
  0
LINE
  5
202
  8
0
 10
74.640000000000001
 20
86.200000000000088
 30
0.0
 11
74.640000000000001
 21
85.228000000000094
 31
0.0
  0
LINE
  5
203
  8
0
 10
67.700000000000003
 20
119.7
 30
0.0
 11
68.0
 21
119.0
 31
0.0
  0
LINE
  5
204
  8
0
 10
67.5
 20
119.7
 30
0.0
 11
67.700000000000003
 21
119.7
 31
0.0
  0
LINE
  5
205
  8
0
 10
67.5
 20
119.7
 30
0.0
 11
67.700000000000003
 21
119.0
 31
0.0
  0
LINE
  5
206
  8
0
 10
67.0
 20
119.7
 30
0.0
 11
67.5
 21
119.7
 31
0.0
  0
LINE
  5
207
  8
0
 10
49.0
 20
119.7
 30
0.0
 11
67.0
 21
119.7
 31
0.0
  0
LINE
  5
208
  8
0
 10
67.0
 20
120.0
 30
0.0
 11
67.700000000000003
 21
119.7
 31
0.0
  0
LINE
  5
209
  8
0
 10
49.0
 20
120.0
 30
0.0
 11
67.0
 21
120.0
 31
0.0
  0
LINE
  5
20A
  8
0
 10
48.5
 20
119.7
 30
0.0
 11
49.0
 21
119.7
 31
0.0
  0
LINE
  5
20B
  8
0
 10
48.299999999999997
 20
119.7
 30
0.0
 11
49.0
 21
120.0
 31
0.0
  0
LINE
  5
20C
  8
0
 10
48.299999999999997
 20
119.7
 30
0.0
 11
48.5
 21
119.7
 31
0.0
  0
LINE
  5
20D
  8
0
 10
38.609000000000002
 20
84.0
 30
0.0
 11
47.390999999999998
 21
84.0
 31
0.0
  0
LINE
  5
20E
  8
0
 10
38.609000000000002
 20
84.0
 30
0.0
 11
38.609000000000002
 21
83.135999999999996
 31
0.0
  0
LINE
  5
20F
  8
0
 10
38.0
 20
83.423999999999992
 30
0.0
 11
38.0
 21
82.560000000000002
 31
0.0
  0
LINE
  5
210
  8
0
 10
38.0
 20
83.423999999999992
 30
0.0
 11
38.609000000000002
 21
84.0
 31
0.0
  0
LINE
  5
211
  8
0
 10
38.0
 20
82.560000000000002
 30
0.0
 11
38.0
 21
83.423999999999992
 31
0.0
  0
LINE
  5
212
  8
0
 10
38.0
 20
82.560000000000002
 30
0.0
 11
38.0
 21
80.256
 31
0.0
  0
LINE
  5
213
  8
0
 10
38.0
 20
36.576000000000001
 30
0.0
 11
38.0
 21
37.439999999999991
 31
0.0
  0
LINE
  5
214
  8
0
 10
38.0
 20
36.576000000000001
 30
0.0
 11
38.609000000000002
 21
36.0
 31
0.0
  0
ENDSEC
  0
EOF
