  0
SECTION
  2
HEADER
  9
$ACADVER
  1
AC1009
  9
$INSBASE
 10
0.0
 20
0.0
 30
0.0
  9
$EXTMIN
 10
0.0
 20
-0.0000000000000005
 30
0.0
  9
$EXTMAX
 10
120.0
 20
104.0
 30
0.0
  9
$LIMMIN
 10
0.0
 20
0.0
  9
$LIMMAX
 10
12.0
 20
9.0
  9
$ORTHOMODE
 70
     0
  9
$REGENMODE
 70
     1
  9
$FILLMODE
 70
     1
  9
$QTEXTMODE
 70
     0
  9
$MIRRTEXT
 70
     1
  9
$DRAGMODE
 70
     2
  9
$LTSCALE
 40
1.0
  9
$OSMODE
 70
    37
  9
$ATTMODE
 70
     1
  9
$TEXTSIZE
 40
0.2
  9
$TRACEWID
 40
0.05
  9
$TEXTSTYLE
  7
STANDARD
  9
$CLAYER
  8
0
  9
$CELTYPE
  6
CONTINUOUS
  9
$CECOLOR
 62
   256
  9
$DIMSCALE
 40
1.0
  9
$DIMASZ
 40
0.18
  9
$DIMEXO
 40
0.0625
  9
$DIMDLI
 40
0.38
  9
$DIMRND
 40
0.0
  9
$DIMDLE
 40
0.0
  9
$DIMEXE
 40
0.18
  9
$DIMTP
 40
0.0
  9
$DIMTM
 40
0.0
  9
$DIMTXT
 40
0.18
  9
$DIMCEN
 40
0.09
  9
$DIMTSZ
 40
0.0
  9
$DIMTOL
 70
     0
  9
$DIMLIM
 70
     0
  9
$DIMTIH
 70
     1
  9
$DIMTOH
 70
     1
  9
$DIMSE1
 70
     0
  9
$DIMSE2
 70
     0
  9
$DIMTAD
 70
     0
  9
$DIMZIN
 70
     0
  9
$DIMBLK
  1

  9
$DIMASO
 70
     1
  9
$DIMSHO
 70
     1
  9
$DIMPOST
  1

  9
$DIMAPOST
  1

  9
$DIMALT
 70
     0
  9
$DIMALTD
 70
     2
  9
$DIMALTF
 40
25.399999999999999
  9
$DIMLFAC
 40
1.0
  9
$DIMTOFL
 70
     0
  9
$DIMTVP
 40
0.0
  9
$DIMTIX
 70
     0
  9
$DIMSOXD
 70
     0
  9
$DIMSAH
 70
     0
  9
$DIMBLK1
  1

  9
$DIMBLK2
  1

  9
$DIMSTYLE
  2
STANDARD
  9
$DIMCLRD
 70
     0
  9
$DIMCLRE
 70
     0
  9
$DIMCLRT
 70
     0
  9
$DIMTFAC
 40
1.0
  9
$DIMGAP
 40
0.09
  9
$LUNITS
 70
     2
  9
$LUPREC
 70
     4
  9
$SKETCHINC
 40
0.1
  9
$FILLETRAD
 40
0.0
  9
$AUNITS
 70
     0
  9
$AUPREC
 70
     0
  9
$MENU
  1
.
  9
$ELEVATION
 40
0.0
  9
$PELEVATION
 40
0.0
  9
$THICKNESS
 40
0.0
  9
$LIMCHECK
 70
     0
  9
$BLIPMODE
 70
     0
  9
$CHAMFERA
 40
0.0
  9
$CHAMFERB
 40
0.0
  9
$SKPOLY
 70
     0
  9
$TDCREATE
 40
2454674.596932685
  9
$TDUPDATE
 40
2454674.602190393
  9
$TDINDWG
 40
0.0047822569
  9
$TDUSRTIMER
 40
0.0047822569
  9
$USRTIMER
 70
     1
  9
$ANGBASE
 50
0.0
  9
$ANGDIR
 70
     0
  9
$PDMODE
 70
     0
  9
$PDSIZE
 40
0.0
  9
$PLINEWID
 40
0.0
  9
$COORDS
 70
     1
  9
$SPLFRAME
 70
     0
  9
$SPLINETYPE
 70
     6
  9
$SPLINESEGS
 70
     8
  9
$ATTDIA
 70
     0
  9
$ATTREQ
 70
     1
  9
$HANDLING
 70
 22529
  9
$HANDSEED
  5
36C
  9
$SURFTAB1
 70
     6
  9
$SURFTAB2
 70
     6
  9
$SURFTYPE
 70
     6
  9
$SURFU
 70
     6
  9
$SURFV
 70
     6
  9
$UCSNAME
  2

  9
$UCSORG
 10
0.0
 20
0.0
 30
0.0
  9
$UCSXDIR
 10
1.0
 20
0.0
 30
0.0
  9
$UCSYDIR
 10
0.0
 20
1.0
 30
0.0
  9
$PUCSNAME
  2

  9
$PUCSORG
 10
0.0
 20
0.0
 30
0.0
  9
$PUCSXDIR
 10
1.0
 20
0.0
 30
0.0
  9
$PUCSYDIR
 10
0.0
 20
1.0
 30
0.0
  9
$USERI1
 70
     0
  9
$USERI2
 70
     0
  9
$USERI3
 70
     0
  9
$USERI4
 70
     0
  9
$USERI5
 70
     0
  9
$USERR1
 40
0.0
  9
$USERR2
 40
0.0
  9
$USERR3
 40
0.0
  9
$USERR4
 40
0.0
  9
$USERR5
 40
0.0
  9
$WORLDVIEW
 70
     1
  9
$SHADEDGE
 70
     3
  9
$SHADEDIF
 70
    70
  9
$TILEMODE
 70
     1
  9
$MAXACTVP
 70
    64
  9
$PLIMCHECK
 70
     0
  9
$PEXTMIN
 10
1.0000000000000000E+020
 20
1.0000000000000000E+020
 30
1.0000000000000000E+020
  9
$PEXTMAX
 10
-1.0000000000000000E+020
 20
-1.0000000000000000E+020
 30
-1.0000000000000000E+020
  9
$PLIMMIN
 10
0.0
 20
0.0
  9
$PLIMMAX
 10
12.0
 20
9.0
  9
$UNITMODE
 70
     0
  9
$VISRETAIN
 70
     1
  9
$PLINEGEN
 70
     0
  9
$PSLTSCALE
 70
     1
  0
ENDSEC
  0
SECTION
  2
TABLES
  0
TABLE
  2
VPORT
 70
     3
  0
VPORT
  2
*ACTIVE
 70
     0
 10
0.0
 20
0.0
 11
1.0
 21
1.0
 12
60.0
 22
52.0
 13
0.0
 23
0.0
 14
1.0
 24
1.0
 15
0.0
 25
0.0
 16
0.0
 26
0.0
 36
1.0
 17
0.0
 27
0.0
 37
0.0
 40
104.79795396419431
 41
2.0435339308578739
 42
50.0
 43
0.0
 44
0.0
 50
0.0
 51
0.0
 71
     0
 72
   100
 73
     1
 74
     3
 75
     0
 76
     0
 77
     0
 78
     0
  0
ENDTAB
  0
TABLE
  2
LTYPE
 70
     1
  0
LTYPE
  2
CONTINUOUS
 70
     0
  3
Solid line
 72
    65
 73
     0
 40
0.0
  0
ENDTAB
  0
TABLE
  2
LAYER
 70
     1
  0
LAYER
  2
0
 70
     0
 62
     7
  6
CONTINUOUS
  0
ENDTAB
  0
TABLE
  2
STYLE
 70
     1
  0
STYLE
  2
STANDARD
 70
     0
 40
0.0
 41
1.0
 50
0.0
 71
     0
 42
0.2
  3
txt
  4

  0
ENDTAB
  0
TABLE
  2
VIEW
 70
     0
  0
ENDTAB
  0
TABLE
  2
UCS
 70
     0
  0
ENDTAB
  0
TABLE
  2
APPID
 70
     1
  0
APPID
  2
ACAD
 70
     0
  0
ENDTAB
  0
TABLE
  2
DIMSTYLE
 70
     1
  0
DIMSTYLE
  2
STANDARD
 70
     0
  3

  4

  5

  6

  7

 40
1.0
 41
0.18
 42
0.0625
 43
0.38
 44
0.18
 45
0.0
 46
0.0
 47
0.0
 48
0.0
140
0.18
141
0.09
142
0.0
143
25.399999999999999
144
1.0
145
0.0
146
1.0
147
0.09
 71
     0
 72
     0
 73
     1
 74
     1
 75
     0
 76
     0
 77
     0
 78
     0
170
     0
171
     2
172
     0
173
     0
174
     0
175
     0
176
     0
177
     0
178
     0
  0
ENDTAB
  0
ENDSEC
  0
SECTION
  2
BLOCKS
  0
BLOCK
  8
0
  2
$MODEL_SPACE
 70
     0
 10
0.0
 20
0.0
 30
0.0
  3
$MODEL_SPACE
  1

  0
ENDBLK
  5
20F
  8
0
  0
BLOCK
 67
     1
  8
0
  2
$PAPER_SPACE
 70
     0
 10
0.0
 20
0.0
 30
0.0
  3
$PAPER_SPACE
  1

  0
ENDBLK
  5
20B
 67
     1
  8
0
  0
ENDSEC
  0
SECTION
  2
ENTITIES
  0
LINE
  5
21A
  8
0
 10
0.0
 20
39.0
 30
0.0
 11
0.0
 21
57.0
 31
0.0
  0
LINE
  5
21B
  8
0
 10
0.3
 20
38.299999999999997
 30
0.0
 11
1.0
 21
38.0
 31
0.0
  0
LINE
  5
21C
  8
0
 10
0.3
 20
38.299999999999997
 30
0.0
 11
1.0
 21
38.0
 31
0.0
  0
LINE
  5
21D
  8
0
 10
0.0
 20
39.0
 30
0.0
 11
0.3
 21
38.299999999999997
 31
0.0
  0
LINE
  5
21E
  8
0
 10
0.0
 20
57.0
 30
0.0
 11
0.3
 21
57.700000000000003
 31
0.0
  0
LINE
  5
21F
  8
0
 10
0.0
 20
57.0
 30
0.0
 11
0.0
 21
39.0
 31
0.0
  0
LINE
  5
220
  8
0
 10
0.3
 20
57.700000000000003
 30
0.0
 11
1.0
 21
58.0
 31
0.0
  0
LINE
  5
221
  8
0
 10
0.3
 20
57.700000000000003
 30
0.0
 11
1.0
 21
58.0
 31
0.0
  0
LINE
  5
222
  8
0
 10
0.3
 20
57.0
 30
0.0
 11
0.5
 21
57.5
 31
0.0
  0
LINE
  5
223
  8
0
 10
0.3
 20
57.0
 30
0.0
 11
0.3
 21
39.0
 31
0.0
  0
LINE
  5
224
  8
0
 10
0.999999999999996
 20
38.0
 30
0.0
 11
42.920000000000002
 21
38.0
 31
0.0
  0
LINE
  5
225
  8
0
 10
1.0
 20
38.0
 30
0.0
 11
42.920000000000002
 21
38.0
 31
0.0
  0
LINE
  5
226
  8
0
 10
0.999999999999996
 20
38.299999999999997
 30
0.0
 11
119.0
 21
38.299999999999997
 31
0.0
  0
LINE
  5
227
  8
0
 10
43.54999999999999
 20
0.0000000000000008
 30
0.0
 11
45.229999999999983
 21
0.000000000000001
 31
0.0
  0
LINE
  5
228
  8
0
 10
42.920000000000002
 20
0.0000000000000005
 30
0.0
 11
43.54999999999999
 21
0.0000000000000003
 31
0.0
  0
LINE
  5
229
  8
0
 10
42.920000000000002
 20
0.0000000000000005
 30
0.0
 11
43.54999999999999
 21
0.0000000000000008
 31
0.0
  0
LINE
  5
22A
  8
0
 10
45.229999999999983
 20
0.000000000000001
 30
0.0
 11
47.960000000000001
 21
0.0000000000000013
 31
0.0
  0
LINE
  5
22B
  8
0
 10
47.960000000000001
 20
0.0000000000000013
 30
0.0
 11
51.530000000000001
 21
0.0000000000000014
 31
0.0
  0
LINE
  5
22C
  8
0
 10
43.54999999999999
 20
0.0000000000000003
 30
0.0
 11
45.229999999999983
 21
0.0
 31
0.0
  0
LINE
  5
22D
  8
0
 10
45.229999999999983
 20
0.0
 30
0.0
 11
47.960000000000001
 21
-0.0000000000000002
 31
0.0
  0
LINE
  5
22E
  8
0
 10
51.530000000000001
 20
0.0000000000000014
 30
0.0
 11
55.590000000000011
 21
0.0000000000000015
 31
0.0
  0
LINE
  5
22F
  8
0
 10
55.590000000000011
 20
0.0000000000000015
 30
0.0
 11
60.0
 21
0.0000000000000016
 31
0.0
  0
LINE
  5
230
  8
0
 10
47.960000000000001
 20
-0.0000000000000002
 30
0.0
 11
51.530000000000001
 21
-0.0000000000000004
 31
0.0
  0
LINE
  5
231
  8
0
 10
51.530000000000001
 20
-0.0000000000000004
 30
0.0
 11
55.590000000000011
 21
-0.0000000000000005
 31
0.0
  0
LINE
  5
232
  8
0
 10
64.409999999999997
 20
0.0000000000000015
 30
0.0
 11
68.469999999999999
 21
0.0000000000000014
 31
0.0
  0
LINE
  5
233
  8
0
 10
60.0
 20
0.0000000000000016
 30
0.0
 11
64.409999999999997
 21
0.0000000000000015
 31
0.0
  0
LINE
  5
234
  8
0
 10
55.590000000000011
 20
-0.0000000000000005
 30
0.0
 11
60.0
 21
-0.0000000000000005
 31
0.0
  0
LINE
  5
235
  8
0
 10
43.130000000000003
 20
0.384615000000001
 30
0.0
 11
44.810000000000002
 21
0.384615000000001
 31
0.0
  0
LINE
  5
236
  8
0
 10
43.130000000000003
 20
37.615400000000001
 30
0.0
 11
44.810000000000002
 21
37.615400000000001
 31
0.0
  0
LINE
  5
237
  8
0
 10
44.810000000000002
 20
37.615400000000001
 30
0.0
 11
47.609999999999999
 21
37.615400000000001
 31
0.0
  0
LINE
  5
238
  8
0
 10
44.810000000000002
 20
0.384615000000001
 30
0.0
 11
47.609999999999999
 21
0.384615000000001
 31
0.0
  0
LINE
  5
239
  8
0
 10
47.609999999999999
 20
0.384615000000001
 30
0.0
 11
51.32
 21
0.384615000000002
 31
0.0
  0
LINE
  5
23A
  8
0
 10
47.609999999999999
 20
37.615400000000001
 30
0.0
 11
51.32
 21
37.615400000000001
 31
0.0
  0
LINE
  5
23B
  8
0
 10
51.32
 20
0.384615000000002
 30
0.0
 11
55.520000000000003
 21
0.384615000000002
 31
0.0
  0
LINE
  5
23C
  8
0
 10
51.32
 20
37.615400000000001
 30
0.0
 11
55.520000000000003
 21
37.615400000000001
 31
0.0
  0
LINE
  5
23D
  8
0
 10
55.520000000000003
 20
0.384615000000002
 30
0.0
 11
60.0
 21
0.384615000000002
 31
0.0
  0
LINE
  5
23E
  8
0
 10
55.520000000000003
 20
37.615400000000001
 30
0.0
 11
60.0
 21
37.615400000000001
 31
0.0
  0
LINE
  5
23F
  8
0
 10
60.0
 20
0.384615000000002
 30
0.0
 11
64.480000000000004
 21
0.384615000000002
 31
0.0
  0
LINE
  5
240
  8
0
 10
60.0
 20
37.615400000000001
 30
0.0
 11
64.480000000000004
 21
37.615400000000001
 31
0.0
  0
LINE
  5
241
  8
0
 10
42.5
 20
0.384615000000001
 30
0.0
 11
42.5
 21
37.615400000000001
 31
0.0
  0
LINE
  5
242
  8
0
 10
42.5
 20
0.384615000000001
 30
0.0
 11
42.920000000000002
 21
0.0000000000000005
 31
0.0
  0
LINE
  5
243
  8
0
 10
42.5
 20
0.384615000000001
 30
0.0
 11
43.130000000000003
 21
0.384615000000001
 31
0.0
  0
LINE
  5
244
  8
0
 10
42.5
 20
0.384615000000001
 30
0.0
 11
42.920000000000002
 21
0.0000000000000005
 31
0.0
  0
LINE
  5
245
  8
0
 10
68.469999999999999
 20
0.0000000000000014
 30
0.0
 11
72.04000000000002
 21
0.0000000000000013
 31
0.0
  0
LINE
  5
246
  8
0
 10
72.04000000000002
 20
0.0000000000000013
 30
0.0
 11
74.769999999999982
 21
0.000000000000001
 31
0.0
  0
LINE
  5
247
  8
0
 10
68.680000000000007
 20
0.384615000000002
 30
0.0
 11
72.390000000000001
 21
0.384615000000001
 31
0.0
  0
LINE
  5
248
  8
0
 10
68.680000000000007
 20
37.615400000000001
 30
0.0
 11
72.390000000000001
 21
37.615400000000001
 31
0.0
  0
LINE
  5
249
  8
0
 10
64.480000000000004
 20
0.384615000000002
 30
0.0
 11
68.680000000000007
 21
0.384615000000002
 31
0.0
  0
LINE
  5
24A
  8
0
 10
64.480000000000004
 20
37.615400000000001
 30
0.0
 11
68.680000000000007
 21
37.615400000000001
 31
0.0
  0
LINE
  5
24B
  8
0
 10
72.390000000000001
 20
0.384615000000001
 30
0.0
 11
75.189999999999998
 21
0.384615000000001
 31
0.0
  0
LINE
  5
24C
  8
0
 10
72.390000000000001
 20
37.615400000000001
 30
0.0
 11
75.189999999999998
 21
37.615400000000001
 31
0.0
  0
LINE
  5
24D
  8
0
 10
72.04000000000002
 20
-0.0000000000000002
 30
0.0
 11
74.769999999999982
 21
0.0
 31
0.0
  0
LINE
  5
24E
  8
0
 10
68.469999999999999
 20
-0.0000000000000004
 30
0.0
 11
72.04000000000002
 21
-0.0000000000000002
 31
0.0
  0
LINE
  5
24F
  8
0
 10
64.409999999999997
 20
-0.0000000000000005
 30
0.0
 11
68.469999999999999
 21
-0.0000000000000004
 31
0.0
  0
LINE
  5
250
  8
0
 10
60.0
 20
-0.0000000000000005
 30
0.0
 11
64.409999999999997
 21
-0.0000000000000005
 31
0.0
  0
LINE
  5
251
  8
0
 10
74.769999999999982
 20
0.000000000000001
 30
0.0
 11
76.450000000000003
 21
0.0000000000000008
 31
0.0
  0
LINE
  5
252
  8
0
 10
76.450000000000003
 20
0.0000000000000008
 30
0.0
 11
77.079999999999998
 21
0.0000000000000005
 31
0.0
  0
LINE
  5
253
  8
0
 10
76.450000000000003
 20
0.0000000000000003
 30
0.0
 11
77.079999999999998
 21
0.0000000000000005
 31
0.0
  0
LINE
  5
254
  8
0
 10
74.769999999999982
 20
0.0
 30
0.0
 11
76.450000000000003
 21
0.0000000000000003
 31
0.0
  0
LINE
  5
255
  8
0
 10
76.870000000000005
 20
0.384615000000001
 30
0.0
 11
77.5
 21
0.384615000000001
 31
0.0
  0
LINE
  5
256
  8
0
 10
76.870000000000005
 20
37.615400000000001
 30
0.0
 11
77.5
 21
37.615400000000001
 31
0.0
  0
LINE
  5
257
  8
0
 10
75.189999999999998
 20
0.384615000000001
 30
0.0
 11
76.870000000000005
 21
0.384615000000001
 31
0.0
  0
LINE
  5
258
  8
0
 10
75.189999999999998
 20
37.615400000000001
 30
0.0
 11
76.870000000000005
 21
37.615400000000001
 31
0.0
  0
LINE
  5
259
  8
0
 10
42.920000000000002
 20
38.0
 30
0.0
 11
43.54999999999999
 21
38.0
 31
0.0
  0
LINE
  5
25A
  8
0
 10
43.54999999999999
 20
38.0
 30
0.0
 11
45.229999999999983
 21
38.0
 31
0.0
  0
LINE
  5
25B
  8
0
 10
45.229999999999983
 20
38.0
 30
0.0
 11
47.960000000000001
 21
38.0
 31
0.0
  0
LINE
  5
25C
  8
0
 10
47.960000000000001
 20
38.0
 30
0.0
 11
51.530000000000001
 21
38.0
 31
0.0
  0
LINE
  5
25D
  8
0
 10
51.530000000000001
 20
38.0
 30
0.0
 11
55.590000000000011
 21
38.0
 31
0.0
  0
LINE
  5
25E
  8
0
 10
55.590000000000011
 20
38.0
 30
0.0
 11
60.0
 21
38.0
 31
0.0
  0
LINE
  5
25F
  8
0
 10
76.450000000000003
 20
38.0
 30
0.0
 11
77.079999999999998
 21
38.0
 31
0.0
  0
LINE
  5
260
  8
0
 10
74.769999999999982
 20
38.0
 30
0.0
 11
76.450000000000003
 21
38.0
 31
0.0
  0
LINE
  5
261
  8
0
 10
72.04000000000002
 20
38.0
 30
0.0
 11
74.769999999999982
 21
38.0
 31
0.0
  0
LINE
  5
262
  8
0
 10
68.469999999999999
 20
38.0
 30
0.0
 11
72.04000000000002
 21
38.0
 31
0.0
  0
LINE
  5
263
  8
0
 10
64.409999999999997
 20
38.0
 30
0.0
 11
68.469999999999999
 21
38.0
 31
0.0
  0
LINE
  5
264
  8
0
 10
60.0
 20
38.0
 30
0.0
 11
64.409999999999997
 21
38.0
 31
0.0
  0
LINE
  5
265
  8
0
 10
42.5
 20
37.615400000000001
 30
0.0
 11
42.920000000000002
 21
38.0
 31
0.0
  0
LINE
  5
266
  8
0
 10
42.5
 20
37.615400000000001
 30
0.0
 11
42.5
 21
0.384615000000001
 31
0.0
  0
LINE
  5
267
  8
0
 10
42.5
 20
37.615400000000001
 30
0.0
 11
43.130000000000003
 21
37.615400000000001
 31
0.0
  0
LINE
  5
268
  8
0
 10
77.079999999999998
 20
0.0000000000000005
 30
0.0
 11
77.5
 21
0.384615000000001
 31
0.0
  0
LINE
  5
269
  8
0
 10
77.079999999999998
 20
0.0000000000000005
 30
0.0
 11
77.5
 21
0.384615000000001
 31
0.0
  0
LINE
  5
26A
  8
0
 10
77.5
 20
0.384615000000001
 30
0.0
 11
77.5
 21
37.615400000000001
 31
0.0
  0
LINE
  5
26B
  8
0
 10
77.5
 20
37.615400000000001
 30
0.0
 11
77.5
 21
0.384615000000001
 31
0.0
  0
LINE
  5
26C
  8
0
 10
77.079999999999998
 20
38.0
 30
0.0
 11
119.0
 21
38.0
 31
0.0
  0
LINE
  5
26D
  8
0
 10
77.079999999999998
 20
38.0
 30
0.0
 11
77.5
 21
37.615400000000001
 31
0.0
  0
LINE
  5
26E
  8
0
 10
119.7
 20
38.299999999999997
 30
0.0
 11
120.0
 21
39.0
 31
0.0
  0
LINE
  5
26F
  8
0
 10
119.0
 20
38.0
 30
0.0
 11
119.7
 21
38.299999999999997
 31
0.0
  0
LINE
  5
270
  8
0
 10
77.079999999999998
 20
38.0
 30
0.0
 11
119.0
 21
38.0
 31
0.0
  0
LINE
  5
271
  8
0
 10
119.5
 20
38.5
 30
0.0
 11
119.7
 21
39.0
 31
0.0
  0
LINE
  5
272
  8
0
 10
119.0
 20
38.299999999999997
 30
0.0
 11
119.5
 21
38.5
 31
0.0
  0
LINE
  5
273
  8
0
 10
1.0
 20
38.299999999999997
 30
0.0
 11
119.0
 21
38.299999999999997
 31
0.0
  0
LINE
  5
274
  8
0
 10
119.7
 20
57.0
 30
0.0
 11
119.7
 21
39.0
 31
0.0
  0
LINE
  5
275
  8
0
 10
0.5
 20
57.5
 30
0.0
 11
1.0
 21
57.700000000000003
 31
0.0
  0
LINE
  5
276
  8
0
 10
1.0
 20
57.700000000000003
 30
0.0
 11
119.0
 21
57.700000000000003
 31
0.0
  0
LINE
  5
277
  8
0
 10
71.712000000000003
 20
58.0
 30
0.0
 11
72.0
 21
58.18
 31
0.0
  0
LINE
  5
278
  8
0
 10
1.0
 20
58.0
 30
0.0
 11
119.0
 21
58.0
 31
0.0
  0
LINE
  5
279
  8
0
 10
44.383999999999993
 20
63.0
 30
0.0
 11
44.960000000000001
 21
63.0
 31
0.0
  0
LINE
  5
27A
  8
0
 10
44.0
 20
63.299999999999997
 30
0.0
 11
44.0
 21
68.0
 31
0.0
  0
LINE
  5
27B
  8
0
 10
44.0
 20
63.299999999999997
 30
0.0
 11
44.576000000000001
 21
63.299999999999997
 31
0.0
  0
LINE
  5
27C
  8
0
 10
44.0
 20
63.299999999999997
 30
0.0
 11
44.383999999999993
 21
63.0
 31
0.0
  0
LINE
  5
27D
  8
0
 10
44.0
 20
68.0
 30
0.0
 11
44.576000000000001
 21
68.0
 31
0.0
  0
LINE
  5
27E
  8
0
 10
44.0
 20
68.0
 30
0.0
 11
44.0
 21
63.299999999999997
 31
0.0
  0
LINE
  5
27F
  8
0
 10
44.576000000000001
 20
63.299999999999997
 30
0.0
 11
46.111999999999988
 21
63.299999999999997
 31
0.0
  0
LINE
  5
280
  8
0
 10
44.576000000000001
 20
68.0
 30
0.0
 11
46.111999999999988
 21
68.0
 31
0.0
  0
LINE
  5
281
  8
0
 10
46.0
 20
60.18
 30
0.0
 11
46.0
 21
63.0
 31
0.0
  0
LINE
  5
282
  8
0
 10
46.0
 20
60.18
 30
0.0
 11
46.503999999999998
 21
60.18
 31
0.0
  0
LINE
  5
283
  8
0
 10
46.0
 20
60.18
 30
0.0
 11
46.335999999999999
 21
60.0
 31
0.0
  0
LINE
  5
284
  8
0
 10
46.0
 20
63.0
 30
0.0
 11
46.503999999999998
 21
63.0
 31
0.0
  0
LINE
  5
285
  8
0
 10
46.0
 20
63.0
 30
0.0
 11
46.0
 21
60.18
 31
0.0
  0
LINE
  5
286
  8
0
 10
44.960000000000001
 20
63.0
 30
0.0
 11
46.496000000000002
 21
63.0
 31
0.0
  0
LINE
  5
287
  8
0
 10
44.960000000000001
 20
63.0
 30
0.0
 11
46.0
 21
63.0
 31
0.0
  0
LINE
  5
288
  8
0
 10
46.335999999999999
 20
60.0
 30
0.0
 11
46.840000000000003
 21
60.0
 31
0.0
  0
LINE
  5
289
  8
0
 10
46.840000000000003
 20
60.0
 30
0.0
 11
48.183999999999997
 21
60.0
 31
0.0
  0
LINE
  5
28A
  8
0
 10
46.840000000000003
 20
60.0
 30
0.0
 11
48.0
 21
60.0
 31
0.0
  0
LINE
  5
28B
  8
0
 10
46.503999999999998
 20
60.18
 30
0.0
 11
47.847999999999992
 21
60.18
 31
0.0
  0
LINE
  5
28C
  8
0
 10
46.503999999999998
 20
63.0
 30
0.0
 11
47.847999999999992
 21
63.0
 31
0.0
  0
LINE
  5
28D
  8
0
 10
47.847999999999992
 20
60.18
 30
0.0
 11
50.088000000000001
 21
60.18
 31
0.0
  0
LINE
  5
28E
  8
0
 10
48.0
 20
58.18
 30
0.0
 11
48.0
 21
60.0
 31
0.0
  0
LINE
  5
28F
  8
0
 10
48.0
 20
58.18
 30
0.0
 11
48.431999999999988
 21
58.18
 31
0.0
  0
LINE
  5
290
  8
0
 10
48.0
 20
58.18
 30
0.0
 11
48.288000000000011
 21
58.0
 31
0.0
  0
LINE
  5
291
  8
0
 10
48.0
 20
60.0
 30
0.0
 11
48.431999999999988
 21
60.0
 31
0.0
  0
LINE
  5
292
  8
0
 10
48.0
 20
60.0
 30
0.0
 11
48.0
 21
58.18
 31
0.0
  0
LINE
  5
293
  8
0
 10
48.431999999999988
 20
58.18
 30
0.0
 11
49.58400000000001
 21
58.18
 31
0.0
  0
LINE
  5
294
  8
0
 10
48.431999999999988
 20
60.0
 30
0.0
 11
49.58400000000001
 21
60.0
 31
0.0
  0
LINE
  5
295
  8
0
 10
48.183999999999997
 20
60.0
 30
0.0
 11
50.368000000000002
 21
60.0
 31
0.0
  0
LINE
  5
296
  8
0
 10
47.847999999999992
 20
63.0
 30
0.0
 11
50.088000000000001
 21
63.0
 31
0.0
  0
LINE
  5
297
  8
0
 10
46.496000000000002
 20
63.0
 30
0.0
 11
48.991999999999997
 21
63.0
 31
0.0
  0
LINE
  5
298
  8
0
 10
46.111999999999988
 20
63.299999999999997
 30
0.0
 11
48.671999999999997
 21
63.299999999999997
 31
0.0
  0
LINE
  5
299
  8
0
 10
46.111999999999988
 20
68.0
 30
0.0
 11
48.671999999999997
 21
68.0
 31
0.0
  0
LINE
  5
29A
  8
0
 10
49.58400000000001
 20
58.18
 30
0.0
 11
51.503999999999998
 21
58.18
 31
0.0
  0
LINE
  5
29B
  8
0
 10
49.58400000000001
 20
60.0
 30
0.0
 11
51.503999999999998
 21
60.0
 31
0.0
  0
LINE
  5
29C
  8
0
 10
50.088000000000001
 20
60.18
 30
0.0
 11
53.055999999999997
 21
60.18
 31
0.0
  0
LINE
  5
29D
  8
0
 10
50.368000000000002
 20
60.0
 30
0.0
 11
53.223999999999997
 21
60.0
 31
0.0
  0
LINE
  5
29E
  8
0
 10
50.088000000000001
 20
63.0
 30
0.0
 11
53.055999999999997
 21
63.0
 31
0.0
  0
LINE
  5
29F
  8
0
 10
48.991999999999997
 20
63.0
 30
0.0
 11
52.256
 21
63.0
 31
0.0
  0
LINE
  5
2A0
  8
0
 10
48.671999999999997
 20
63.299999999999997
 30
0.0
 11
52.063999999999993
 21
63.299999999999997
 31
0.0
  0
LINE
  5
2A1
  8
0
 10
48.671999999999997
 20
68.0
 30
0.0
 11
52.063999999999993
 21
68.0
 31
0.0
  0
LINE
  5
2A2
  8
0
 10
51.503999999999998
 20
58.18
 30
0.0
 11
54.048000000000002
 21
58.18
 31
0.0
  0
LINE
  5
2A3
  8
0
 10
51.503999999999998
 20
60.0
 30
0.0
 11
54.048000000000002
 21
60.0
 31
0.0
  0
LINE
  5
2A4
  8
0
 10
52.256
 20
63.0
 30
0.0
 11
55.968000000000004
 21
63.0
 31
0.0
  0
LINE
  5
2A5
  8
0
 10
52.063999999999993
 20
63.299999999999997
 30
0.0
 11
55.903999999999982
 21
63.299999999999997
 31
0.0
  0
LINE
  5
2A6
  8
0
 10
52.063999999999993
 20
68.0
 30
0.0
 11
55.903999999999982
 21
68.0
 31
0.0
  0
LINE
  5
2A7
  8
0
 10
51.287999999999997
 20
68.0
 30
0.0
 11
55.463999999999999
 21
68.0
 31
0.0
  0
LINE
  5
2A8
  8
0
 10
47.616
 20
68.0
 30
0.0
 11
51.287999999999997
 21
68.0
 31
0.0
  0
LINE
  5
2A9
  8
0
 10
44.808
 20
68.0
 30
0.0
 11
47.616
 21
68.0
 31
0.0
  0
LINE
  5
2AA
  8
0
 10
51.071999999999981
 20
68.599999999999994
 30
0.0
 11
55.39200000000001
 21
68.599999999999994
 31
0.0
  0
LINE
  5
2AB
  8
0
 10
47.256
 20
68.599999999999994
 30
0.0
 11
51.071999999999981
 21
68.599999999999994
 31
0.0
  0
LINE
  5
2AC
  8
0
 10
44.375999999999991
 20
68.599999999999994
 30
0.0
 11
47.256
 21
68.599999999999994
 31
0.0
  0
LINE
  5
2AD
  8
0
 10
42.648000000000003
 20
68.599999999999994
 30
0.0
 11
44.375999999999991
 21
68.599999999999994
 31
0.0
  0
LINE
  5
2AE
  8
0
 10
43.079999999999977
 20
68.0
 30
0.0
 11
44.0
 21
68.0
 31
0.0
  0
LINE
  5
2AF
  8
0
 10
43.079999999999977
 20
68.0
 30
0.0
 11
44.808
 21
68.0
 31
0.0
  0
LINE
  5
2B0
  8
0
 10
42.431999999999981
 20
68.0
 30
0.0
 11
43.079999999999977
 21
68.0
 31
0.0
  0
LINE
  5
2B1
  8
0
 10
42.0
 20
68.599999999999994
 30
0.0
 11
45.64985919521888
 21
88.1267466944212
 31
0.0
  0
LINE
  5
2B2
  8
0
 10
42.0
 20
68.599999999999994
 30
0.0
 11
42.431999999999981
 21
68.0
 31
0.0
  0
LINE
  5
2B3
  8
0
 10
42.0
 20
68.599999999999994
 30
0.0
 11
45.64985919521888
 21
88.1267466944212
 31
0.0
  0
LINE
  5
2B4
  8
0
 10
42.0
 20
68.599999999999994
 30
0.0
 11
42.648000000000003
 21
68.599999999999994
 31
0.0
  0
LINE
  5
2B5
  8
0
 10
54.048000000000002
 20
58.18
 30
0.0
 11
56.927999999999997
 21
58.18
 31
0.0
  0
LINE
  5
2B6
  8
0
 10
54.048000000000002
 20
60.0
 30
0.0
 11
56.927999999999997
 21
60.0
 31
0.0
  0
LINE
  5
2B7
  8
0
 10
53.223999999999997
 20
60.0
 30
0.0
 11
56.472000000000001
 21
60.0
 31
0.0
  0
LINE
  5
2B8
  8
0
 10
53.055999999999997
 20
60.18
 30
0.0
 11
56.415999999999997
 21
60.18
 31
0.0
  0
LINE
  5
2B9
  8
0
 10
53.055999999999997
 20
63.0
 30
0.0
 11
56.415999999999997
 21
63.0
 31
0.0
  0
LINE
  5
2BA
  8
0
 10
56.415999999999997
 20
60.18
 30
0.0
 11
60.0
 21
60.18
 31
0.0
  0
LINE
  5
2BB
  8
0
 10
56.472000000000001
 20
60.0
 30
0.0
 11
60.0
 21
60.0
 31
0.0
  0
LINE
  5
2BC
  8
0
 10
56.415999999999997
 20
63.0
 30
0.0
 11
60.0
 21
63.0
 31
0.0
  0
LINE
  5
2BD
  8
0
 10
55.968000000000004
 20
63.0
 30
0.0
 11
60.0
 21
63.0
 31
0.0
  0
LINE
  5
2BE
  8
0
 10
55.903999999999982
 20
63.299999999999997
 30
0.0
 11
60.0
 21
63.299999999999997
 31
0.0
  0
LINE
  5
2BF
  8
0
 10
55.903999999999982
 20
68.0
 30
0.0
 11
60.0
 21
68.0
 31
0.0
  0
LINE
  5
2C0
  8
0
 10
55.463999999999999
 20
68.0
 30
0.0
 11
60.0
 21
68.0
 31
0.0
  0
LINE
  5
2C1
  8
0
 10
53.628
 20
76.0
 30
0.0
 11
53.628
 21
68.599999999999994
 31
0.0
  0
LINE
  5
2C2
  8
0
 10
55.39200000000001
 20
68.599999999999994
 30
0.0
 11
60.0
 21
68.599999999999994
 31
0.0
  0
LINE
  5
2C3
  8
0
 10
52.481000000000002
 20
76.0
 30
0.0
 11
53.379899999999999
 21
76.0
 31
0.0
  0
LINE
  5
2C4
  8
0
 10
48.493699999999997
 20
82.873599999999968
 30
0.0
 11
50.31819999999999
 21
79.536799999999999
 31
0.0
  0
LINE
  5
2C5
  8
0
 10
50.31819999999999
 20
79.536799999999999
 30
0.0
 11
51.596000000000011
 21
77.1999
 31
0.0
  0
LINE
  5
2C6
  8
0
 10
55.12489999999999
 20
80.150800000000004
 30
0.0
 11
57.587899999999998
 21
79.2791
 31
0.0
  0
LINE
  5
2C7
  8
0
 10
52.603999999999999
 20
81.859499999999983
 30
0.0
 11
55.12489999999999
 21
80.150800000000004
 31
0.0
  0
LINE
  5
2C8
  8
0
 10
52.055
 20
76.360299999999981
 30
0.0
 11
52.481000000000002
 21
76.0
 31
0.0
  0
LINE
  5
2C9
  8
0
 10
51.596000000000011
 20
77.1999
 30
0.0
 11
52.055
 21
76.360299999999981
 31
0.0
  0
LINE
  5
2CA
  8
0
 10
53.379899999999999
 20
76.0
 30
0.0
 11
56.563600000000001
 21
76.0
 31
0.0
  0
LINE
  5
2CB
  8
0
 10
56.927999999999997
 20
58.18
 30
0.0
 11
60.0
 21
58.18
 31
0.0
  0
LINE
  5
2CC
  8
0
 10
56.927999999999997
 20
60.0
 30
0.0
 11
60.0
 21
60.0
 31
0.0
  0
LINE
  5
2CD
  8
0
 10
60.0
 20
58.18
 30
0.0
 11
63.071999999999989
 21
58.18
 31
0.0
  0
LINE
  5
2CE
  8
0
 10
60.0
 20
60.0
 30
0.0
 11
63.527999999999999
 21
60.0
 31
0.0
  0
LINE
  5
2CF
  8
0
 10
60.0
 20
60.0
 30
0.0
 11
63.071999999999989
 21
60.0
 31
0.0
  0
LINE
  5
2D0
  8
0
 10
60.0
 20
60.18
 30
0.0
 11
63.583999999999989
 21
60.18
 31
0.0
  0
LINE
  5
2D1
  8
0
 10
60.0
 20
63.0
 30
0.0
 11
64.031999999999996
 21
63.0
 31
0.0
  0
LINE
  5
2D2
  8
0
 10
60.0
 20
63.0
 30
0.0
 11
63.583999999999989
 21
63.0
 31
0.0
  0
LINE
  5
2D3
  8
0
 10
60.0
 20
63.299999999999997
 30
0.0
 11
64.096000000000004
 21
63.299999999999997
 31
0.0
  0
LINE
  5
2D4
  8
0
 10
60.0
 20
68.0
 30
0.0
 11
64.536000000000001
 21
68.0
 31
0.0
  0
LINE
  5
2D5
  8
0
 10
60.0
 20
68.0
 30
0.0
 11
64.096000000000004
 21
68.0
 31
0.0
  0
LINE
  5
2D6
  8
0
 10
60.0
 20
68.599999999999994
 30
0.0
 11
64.608000000000004
 21
68.599999999999994
 31
0.0
  0
LINE
  5
2D7
  8
0
 10
63.071999999999989
 20
58.18
 30
0.0
 11
65.951999999999998
 21
58.18
 31
0.0
  0
LINE
  5
2D8
  8
0
 10
63.071999999999989
 20
60.0
 30
0.0
 11
65.951999999999998
 21
60.0
 31
0.0
  0
LINE
  5
2D9
  8
0
 10
63.527999999999999
 20
60.0
 30
0.0
 11
66.77600000000001
 21
60.0
 31
0.0
  0
LINE
  5
2DA
  8
0
 10
63.583999999999989
 20
60.18
 30
0.0
 11
66.944000000000003
 21
60.18
 31
0.0
  0
LINE
  5
2DB
  8
0
 10
63.583999999999989
 20
63.0
 30
0.0
 11
66.944000000000003
 21
63.0
 31
0.0
  0
LINE
  5
2DC
  8
0
 10
64.031999999999996
 20
63.0
 30
0.0
 11
67.743999999999986
 21
63.0
 31
0.0
  0
LINE
  5
2DD
  8
0
 10
64.096000000000004
 20
63.299999999999997
 30
0.0
 11
67.936000000000007
 21
63.299999999999997
 31
0.0
  0
LINE
  5
2DE
  8
0
 10
64.096000000000004
 20
68.0
 30
0.0
 11
67.936000000000007
 21
68.0
 31
0.0
  0
LINE
  5
2DF
  8
0
 10
65.951999999999998
 20
58.18
 30
0.0
 11
68.496000000000009
 21
58.18
 31
0.0
  0
LINE
  5
2E0
  8
0
 10
65.951999999999998
 20
60.0
 30
0.0
 11
68.496000000000009
 21
60.0
 31
0.0
  0
LINE
  5
2E1
  8
0
 10
64.536000000000001
 20
68.0
 30
0.0
 11
68.712000000000003
 21
68.0
 31
0.0
  0
LINE
  5
2E2
  8
0
 10
66.371999999999986
 20
76.0
 30
0.0
 11
66.371999999999986
 21
68.599999999999994
 31
0.0
  0
LINE
  5
2E3
  8
0
 10
64.608000000000004
 20
68.599999999999994
 30
0.0
 11
68.927999999999997
 21
68.599999999999994
 31
0.0
  0
LINE
  5
2E4
  8
0
 10
66.77600000000001
 20
60.0
 30
0.0
 11
69.632000000000005
 21
60.0
 31
0.0
  0
LINE
  5
2E5
  8
0
 10
66.944000000000003
 20
60.18
 30
0.0
 11
69.911999999999992
 21
60.18
 31
0.0
  0
LINE
  5
2E6
  8
0
 10
66.944000000000003
 20
63.0
 30
0.0
 11
69.911999999999992
 21
63.0
 31
0.0
  0
LINE
  5
2E7
  8
0
 10
67.743999999999986
 20
63.0
 30
0.0
 11
71.007999999999996
 21
63.0
 31
0.0
  0
LINE
  5
2E8
  8
0
 10
67.936000000000007
 20
63.299999999999997
 30
0.0
 11
71.328000000000003
 21
63.299999999999997
 31
0.0
  0
LINE
  5
2E9
  8
0
 10
68.496000000000009
 20
60.0
 30
0.0
 11
70.415999999999997
 21
60.0
 31
0.0
  0
LINE
  5
2EA
  8
0
 10
68.496000000000009
 20
58.18
 30
0.0
 11
70.415999999999997
 21
58.18
 31
0.0
  0
LINE
  5
2EB
  8
0
 10
67.936000000000007
 20
68.0
 30
0.0
 11
71.328000000000003
 21
68.0
 31
0.0
  0
LINE
  5
2EC
  8
0
 10
68.712000000000003
 20
68.0
 30
0.0
 11
72.384
 21
68.0
 31
0.0
  0
LINE
  5
2ED
  8
0
 10
69.632000000000005
 20
60.0
 30
0.0
 11
71.816000000000003
 21
60.0
 31
0.0
  0
LINE
  5
2EE
  8
0
 10
69.911999999999992
 20
63.0
 30
0.0
 11
72.152000000000001
 21
63.0
 31
0.0
  0
LINE
  5
2EF
  8
0
 10
69.911999999999992
 20
60.18
 30
0.0
 11
72.152000000000001
 21
60.18
 31
0.0
  0
LINE
  5
2F0
  8
0
 10
68.927999999999997
 20
68.599999999999994
 30
0.0
 11
72.743999999999986
 21
68.599999999999994
 31
0.0
  0
LINE
  5
2F1
  8
0
 10
67.518999999999991
 20
76.0
 30
0.0
 11
67.944999999999993
 21
76.360299999999981
 31
0.0
  0
LINE
  5
2F2
  8
0
 10
66.620099999999994
 20
76.0
 30
0.0
 11
67.518999999999991
 21
76.0
 31
0.0
  0
LINE
  5
2F3
  8
0
 10
63.436399999999999
 20
76.0
 30
0.0
 11
66.620099999999994
 21
76.0
 31
0.0
  0
LINE
  5
2F4
  8
0
 10
60.0
 20
76.0
 30
0.0
 11
63.436399999999999
 21
76.0
 31
0.0
  0
LINE
  5
2F5
  8
0
 10
60.166800000000002
 20
78.989500000000007
 30
0.0
 11
62.687800000000003
 21
79.365899999999982
 31
0.0
  0
LINE
  5
2F6
  8
0
 10
68.403999999999996
 20
77.1999
 30
0.0
 11
69.681799999999996
 21
79.536799999999999
 31
0.0
  0
LINE
  5
2F7
  8
0
 10
67.944999999999993
 20
76.360299999999981
 30
0.0
 11
68.403999999999996
 21
77.1999
 31
0.0
  0
LINE
  5
2F8
  8
0
 10
57.587899999999998
 20
79.2791
 30
0.0
 11
60.166800000000002
 21
78.989500000000007
 31
0.0
  0
LINE
  5
2F9
  8
0
 10
67.671700000000001
 20
82.062200000000004
 30
0.0
 11
69.526200000000003
 21
84.494900000000001
 31
0.0
  0
LINE
  5
2FA
  8
0
 10
65.179699999999997
 20
80.321700000000007
 30
0.0
 11
67.671700000000001
 21
82.062200000000004
 31
0.0
  0
LINE
  5
2FB
  8
0
 10
62.687800000000003
 20
79.365899999999982
 30
0.0
 11
65.179699999999997
 21
80.321700000000007
 31
0.0
  0
LINE
  5
2FC
  8
0
 10
69.681799999999996
 20
79.536799999999999
 30
0.0
 11
71.506299999999996
 21
82.873599999999968
 31
0.0
  0
LINE
  5
2FD
  8
0
 10
56.563600000000001
 20
76.0
 30
0.0
 11
60.0
 21
76.0
 31
0.0
  0
LINE
  5
2FE
  8
0
 10
70.415999999999997
 20
60.0
 30
0.0
 11
71.567999999999998
 21
60.0
 31
0.0
  0
LINE
  5
2FF
  8
0
 10
70.415999999999997
 20
58.18
 30
0.0
 11
71.567999999999998
 21
58.18
 31
0.0
  0
LINE
  5
300
  8
0
 10
71.007999999999996
 20
63.0
 30
0.0
 11
73.503999999999976
 21
63.0
 31
0.0
  0
LINE
  5
301
  8
0
 10
71.328000000000003
 20
68.0
 30
0.0
 11
73.888000000000005
 21
68.0
 31
0.0
  0
LINE
  5
302
  8
0
 10
71.567999999999998
 20
60.0
 30
0.0
 11
72.0
 21
60.0
 31
0.0
  0
LINE
  5
303
  8
0
 10
71.567999999999998
 20
58.18
 30
0.0
 11
72.0
 21
58.18
 31
0.0
  0
LINE
  5
304
  8
0
 10
72.0
 20
58.18
 30
0.0
 11
72.0
 21
60.0
 31
0.0
  0
LINE
  5
305
  8
0
 10
71.816000000000003
 20
60.0
 30
0.0
 11
73.159999999999982
 21
60.0
 31
0.0
  0
LINE
  5
306
  8
0
 10
72.152000000000001
 20
63.0
 30
0.0
 11
73.496000000000024
 21
63.0
 31
0.0
  0
LINE
  5
307
  8
0
 10
72.152000000000001
 20
60.18
 30
0.0
 11
73.496000000000024
 21
60.18
 31
0.0
  0
LINE
  5
308
  8
0
 10
72.0
 20
60.0
 30
0.0
 11
73.159999999999982
 21
60.0
 31
0.0
  0
LINE
  5
309
  8
0
 10
72.0
 20
60.0
 30
0.0
 11
72.0
 21
58.18
 31
0.0
  0
LINE
  5
30A
  8
0
 10
71.328000000000003
 20
63.299999999999997
 30
0.0
 11
73.888000000000005
 21
63.299999999999997
 31
0.0
  0
LINE
  5
30B
  8
0
 10
72.384
 20
68.0
 30
0.0
 11
75.191999999999965
 21
68.0
 31
0.0
  0
LINE
  5
30C
  8
0
 10
73.496000000000024
 20
63.0
 30
0.0
 11
74.0
 21
63.0
 31
0.0
  0
LINE
  5
30D
  8
0
 10
73.496000000000024
 20
60.18
 30
0.0
 11
74.0
 21
60.18
 31
0.0
  0
LINE
  5
30E
  8
0
 10
73.159999999999982
 20
60.0
 30
0.0
 11
73.664000000000001
 21
60.0
 31
0.0
  0
LINE
  5
30F
  8
0
 10
72.743999999999986
 20
68.599999999999994
 30
0.0
 11
75.623999999999981
 21
68.599999999999994
 31
0.0
  0
LINE
  5
310
  8
0
 10
71.506299999999996
 20
82.873599999999968
 30
0.0
 11
73.320800000000006
 21
86.192099999999982
 31
0.0
  0
LINE
  5
311
  8
0
 10
45.1051
 20
90.809399999999997
 30
0.0
 11
45.573799999999999
 21
91.7303
 31
0.0
  0
LINE
  5
312
  8
0
 10
45.573799999999999
 20
91.7303
 30
0.0
 11
46.679200000000002
 21
93.807900000000004
 31
0.0
  0
LINE
  5
313
  8
0
 10
45.0
 20
90.0
 30
0.0
 11
45.1051
 21
89.190599999999989
 31
0.0
  0
LINE
  5
314
  8
0
 10
45.0
 20
90.0
 30
0.0
 11
45.1051
 21
90.809399999999997
 31
0.0
  0
LINE
  5
315
  8
0
 10
45.1051
 20
89.190599999999989
 30
0.0
 11
45.573799999999999
 21
88.269700000000014
 31
0.0
  0
LINE
  5
316
  8
0
 10
45.573799999999999
 20
88.269700000000014
 30
0.0
 11
46.679200000000002
 21
86.192099999999982
 31
0.0
  0
LINE
  5
317
  8
0
 10
45.573799999999999
 20
88.269700000000014
 30
0.0
 11
45.64985919521888
 21
88.1267466944212
 31
0.0
  0
LINE
  5
318
  8
0
 10
50.604599999999991
 20
84.234300000000005
 30
0.0
 11
52.603999999999999
 21
81.859499999999983
 31
0.0
  0
LINE
  5
319
  8
0
 10
69.526200000000003
 20
84.494900000000001
 30
0.0
 11
70.598299999999995
 21
87.246199999999988
 31
0.0
  0
LINE
  5
31A
  8
0
 10
73.320800000000006
 20
86.192099999999982
 30
0.0
 11
74.42619999999998
 21
88.269700000000014
 31
0.0
  0
LINE
  5
31B
  8
0
 10
46.679200000000002
 20
86.192099999999982
 30
0.0
 11
48.493699999999997
 21
82.873599999999968
 31
0.0
  0
LINE
  5
31C
  8
0
 10
46.679200000000002
 20
93.807900000000004
 30
0.0
 11
48.493699999999997
 21
97.126400000000004
 31
0.0
  0
LINE
  5
31D
  8
0
 10
48.981900000000003
 20
89.907799999999995
 30
0.0
 11
49.503500000000003
 21
86.808899999999966
 31
0.0
  0
LINE
  5
31E
  8
0
 10
48.981900000000003
 20
89.907799999999995
 30
0.0
 11
49.416499999999999
 21
92.832800000000006
 31
0.0
  0
LINE
  5
31F
  8
0
 10
49.416499999999999
 20
92.832800000000006
 30
0.0
 11
50.517600000000002
 21
95.584199999999996
 31
0.0
  0
LINE
  5
320
  8
0
 10
69.477742697201705
 20
95.587970300315803
 30
0.0
 11
69.7470059316733
 21
94.946170658080774
 31
0.0
  0
LINE
  5
321
  8
0
 10
50.517600000000002
 20
95.584199999999996
 30
0.0
 11
52.690899999999999
 21
98.141300000000001
 31
0.0
  0
LINE
  5
322
  8
0
 10
69.497200000000007
 20
95.563800000000001
 30
0.0
 11
70.598299999999995
 21
92.841399999999979
 31
0.0
  0
LINE
  5
323
  8
0
 10
70.967571130571002
 20
90.0
 30
0.0
 11
70.974999999999994
 21
90.055400000000006
 31
0.0
  0
LINE
  5
324
  8
0
 10
70.598299999999995
 20
92.841399999999979
 30
0.0
 11
70.974999999999994
 21
90.055400000000006
 31
0.0
  0
LINE
  5
325
  8
0
 10
73.320800000000006
 20
93.807900000000004
 30
0.0
 11
74.42619999999998
 21
91.7303
 31
0.0
  0
LINE
  5
326
  8
0
 10
70.598299999999995
 20
87.246199999999988
 30
0.0
 11
70.974999999999994
 21
90.055400000000006
 31
0.0
  0
LINE
  5
327
  8
0
 10
49.503500000000003
 20
86.808899999999966
 30
0.0
 11
50.604599999999991
 21
84.234300000000005
 31
0.0
  0
LINE
  5
328
  8
0
 10
48.493699999999997
 20
97.126400000000004
 30
0.0
 11
50.31819999999999
 21
100.4631999999999
 31
0.0
  0
LINE
  5
329
  8
0
 10
67.642700000000005
 20
97.996499999999983
 30
0.0
 11
69.497200000000007
 21
95.563800000000001
 31
0.0
  0
LINE
  5
32A
  8
0
 10
52.690899999999999
 20
98.141300000000001
 30
0.0
 11
55.1539
 21
99.849999999999994
 31
0.0
  0
LINE
  5
32B
  8
0
 10
62.716700000000003
 20
100.6609
 30
0.0
 11
65.150700000000001
 21
99.647300000000016
 31
0.0
  0
LINE
  5
32C
  8
0
 10
57.587899999999998
 20
100.6609
 30
0.0
 11
60.108800000000002
 21
100.9794999999999
 31
0.0
  0
LINE
  5
32D
  8
0
 10
60.108800000000002
 20
100.9794999999999
 30
0.0
 11
62.716700000000003
 21
100.6609
 31
0.0
  0
LINE
  5
32E
  8
0
 10
55.1539
 20
99.849999999999994
 30
0.0
 11
57.587899999999998
 21
100.6609
 31
0.0
  0
LINE
  5
32F
  8
0
 10
65.150700000000001
 20
99.647300000000016
 30
0.0
 11
67.642700000000005
 21
97.996499999999983
 31
0.0
  0
LINE
  5
330
  8
0
 10
50.31819999999999
 20
100.4631999999999
 30
0.0
 11
51.596000000000011
 21
102.8000999999999
 31
0.0
  0
LINE
  5
331
  8
0
 10
52.055
 20
103.6397
 30
0.0
 11
52.481000000000002
 21
104.0
 31
0.0
  0
LINE
  5
332
  8
0
 10
51.596000000000011
 20
102.8000999999999
 30
0.0
 11
52.055
 21
103.6397
 31
0.0
  0
LINE
  5
333
  8
0
 10
69.681799999999996
 20
100.4631999999999
 30
0.0
 11
71.506299999999996
 21
97.126400000000004
 31
0.0
  0
LINE
  5
334
  8
0
 10
68.403999999999996
 20
102.8000999999999
 30
0.0
 11
69.681799999999996
 21
100.4631999999999
 31
0.0
  0
LINE
  5
335
  8
0
 10
52.481000000000002
 20
104.0
 30
0.0
 11
53.379899999999999
 21
104.0
 31
0.0
  0
LINE
  5
336
  8
0
 10
53.379899999999999
 20
104.0
 30
0.0
 11
56.563600000000001
 21
104.0
 31
0.0
  0
LINE
  5
337
  8
0
 10
56.563600000000001
 20
104.0
 30
0.0
 11
60.0
 21
104.0
 31
0.0
  0
LINE
  5
338
  8
0
 10
60.0
 20
104.0
 30
0.0
 11
63.436399999999999
 21
104.0
 31
0.0
  0
LINE
  5
339
  8
0
 10
67.518999999999991
 20
104.0
 30
0.0
 11
67.944999999999993
 21
103.6397
 31
0.0
  0
LINE
  5
33A
  8
0
 10
66.620099999999994
 20
104.0
 30
0.0
 11
67.518999999999991
 21
104.0
 31
0.0
  0
LINE
  5
33B
  8
0
 10
63.436399999999999
 20
104.0
 30
0.0
 11
66.620099999999994
 21
104.0
 31
0.0
  0
LINE
  5
33C
  8
0
 10
67.944999999999993
 20
103.6397
 30
0.0
 11
68.403999999999996
 21
102.8000999999999
 31
0.0
  0
LINE
  5
33D
  8
0
 10
71.506299999999996
 20
97.126400000000004
 30
0.0
 11
73.320800000000006
 21
93.807900000000004
 31
0.0
  0
LINE
  5
33E
  8
0
 10
73.664000000000001
 20
60.0
 30
0.0
 11
74.0
 21
60.18
 31
0.0
  0
LINE
  5
33F
  8
0
 10
74.0
 20
60.18
 30
0.0
 11
74.0
 21
63.0
 31
0.0
  0
LINE
  5
340
  8
0
 10
73.503999999999976
 20
63.0
 30
0.0
 11
75.040000000000006
 21
63.0
 31
0.0
  0
LINE
  5
341
  8
0
 10
73.888000000000005
 20
68.0
 30
0.0
 11
75.423999999999964
 21
68.0
 31
0.0
  0
LINE
  5
342
  8
0
 10
73.888000000000005
 20
63.299999999999997
 30
0.0
 11
75.423999999999964
 21
63.299999999999997
 31
0.0
  0
LINE
  5
343
  8
0
 10
74.0
 20
63.0
 30
0.0
 11
75.040000000000006
 21
63.0
 31
0.0
  0
LINE
  5
344
  8
0
 10
74.0
 20
63.0
 30
0.0
 11
74.0
 21
60.18
 31
0.0
  0
LINE
  5
345
  8
0
 10
75.040000000000006
 20
63.0
 30
0.0
 11
75.616
 21
63.0
 31
0.0
  0
LINE
  5
346
  8
0
 10
75.423999999999964
 20
63.299999999999997
 30
0.0
 11
76.0
 21
63.299999999999997
 31
0.0
  0
LINE
  5
347
  8
0
 10
75.616
 20
63.0
 30
0.0
 11
76.0
 21
63.299999999999997
 31
0.0
  0
LINE
  5
348
  8
0
 10
75.423999999999964
 20
68.0
 30
0.0
 11
76.0
 21
68.0
 31
0.0
  0
LINE
  5
349
  8
0
 10
76.0
 20
63.299999999999997
 30
0.0
 11
76.0
 21
68.0
 31
0.0
  0
LINE
  5
34A
  8
0
 10
75.191999999999965
 20
68.0
 30
0.0
 11
76.920000000000002
 21
68.0
 31
0.0
  0
LINE
  5
34B
  8
0
 10
76.0
 20
68.0
 30
0.0
 11
76.920000000000002
 21
68.0
 31
0.0
  0
LINE
  5
34C
  8
0
 10
76.0
 20
68.0
 30
0.0
 11
76.0
 21
63.299999999999997
 31
0.0
  0
LINE
  5
34D
  8
0
 10
76.920000000000002
 20
68.0
 30
0.0
 11
77.567999999999998
 21
68.0
 31
0.0
  0
LINE
  5
34E
  8
0
 10
75.623999999999981
 20
68.599999999999994
 30
0.0
 11
77.352000000000004
 21
68.599999999999994
 31
0.0
  0
LINE
  5
34F
  8
0
 10
77.352000000000004
 20
68.599999999999994
 30
0.0
 11
78.0
 21
68.599999999999994
 31
0.0
  0
LINE
  5
350
  8
0
 10
77.567999999999998
 20
68.0
 30
0.0
 11
78.0
 21
68.599999999999994
 31
0.0
  0
LINE
  5
351
  8
0
 10
74.350140804781091
 20
88.1267466944212
 30
0.0
 11
78.0
 21
68.599999999999994
 31
0.0
  0
LINE
  5
352
  8
0
 10
74.42619999999998
 20
88.269700000000014
 30
0.0
 11
74.894900000000007
 21
89.190599999999989
 31
0.0
  0
LINE
  5
353
  8
0
 10
74.894900000000007
 20
90.809399999999997
 30
0.0
 11
75.0
 21
90.0
 31
0.0
  0
LINE
  5
354
  8
0
 10
74.42619999999998
 20
91.7303
 30
0.0
 11
74.894900000000007
 21
90.809399999999997
 31
0.0
  0
LINE
  5
355
  8
0
 10
74.894900000000007
 20
89.190599999999989
 30
0.0
 11
75.0
 21
90.0
 31
0.0
  0
LINE
  5
356
  8
0
 10
74.42619999999998
 20
88.269700000000014
 30
0.0
 11
74.894900000000007
 21
89.190599999999989
 31
0.0
  0
LINE
  5
357
  8
0
 10
0.999999999999996
 20
58.0
 30
0.0
 11
119.0
 21
58.0
 31
0.0
  0
LINE
  5
358
  8
0
 10
119.0
 20
58.0
 30
0.0
 11
119.7
 21
57.700000000000003
 31
0.0
  0
LINE
  5
359
  8
0
 10
0.999999999999996
 20
57.700000000000003
 30
0.0
 11
119.0
 21
57.700000000000003
 31
0.0
  0
LINE
  5
35A
  8
0
 10
119.7
 20
57.700000000000003
 30
0.0
 11
120.0
 21
57.0
 31
0.0
  0
LINE
  5
35B
  8
0
 10
119.0
 20
57.700000000000003
 30
0.0
 11
119.5
 21
57.5
 31
0.0
  0
LINE
  5
35C
  8
0
 10
119.5
 20
57.5
 30
0.0
 11
119.7
 21
57.0
 31
0.0
  0
LINE
  5
35D
  8
0
 10
120.0
 20
57.0
 30
0.0
 11
120.0
 21
39.0
 31
0.0
  0
LINE
  5
35E
  8
0
 10
120.0
 20
39.0
 30
0.0
 11
120.0
 21
57.0
 31
0.0
  0
LINE
  5
35F
  8
0
 10
119.7
 20
39.0
 30
0.0
 11
119.7
 21
57.0
 31
0.0
  0
LINE
  5
360
  8
0
 10
0.5
 20
38.5
 30
0.0
 11
1.0
 21
38.299999999999997
 31
0.0
  0
LINE
  5
361
  8
0
 10
0.3
 20
39.0
 30
0.0
 11
0.5
 21
38.5
 31
0.0
  0
LINE
  5
362
  8
0
 10
0.3
 20
39.0
 30
0.0
 11
0.3
 21
57.0
 31
0.0
  0
ENDSEC
  0
EOF
