  0
SECTION
  2
HEADER
  9
$ACADVER
  1
AC1009
  9
$INSBASE
 10
0.0
 20
0.0
 30
0.0
  9
$EXTMIN
 10
0.0
 20
-0.0000000000000035
 30
0.0
  9
$EXTMAX
 10
120.0
 20
120.0
 30
0.0
  9
$LIMMIN
 10
0.0
 20
0.0
  9
$LIMMAX
 10
12.0
 20
9.0
  9
$ORTHOMODE
 70
     0
  9
$REGENMODE
 70
     1
  9
$FILLMODE
 70
     1
  9
$QTEXTMODE
 70
     0
  9
$MIRRTEXT
 70
     1
  9
$DRAGMODE
 70
     2
  9
$LTSCALE
 40
1.0
  9
$OSMODE
 70
    37
  9
$ATTMODE
 70
     1
  9
$TEXTSIZE
 40
0.2
  9
$TRACEWID
 40
0.05
  9
$TEXTSTYLE
  7
STANDARD
  9
$CLAYER
  8
0
  9
$CELTYPE
  6
CONTINUOUS
  9
$CECOLOR
 62
   256
  9
$DIMSCALE
 40
1.0
  9
$DIMASZ
 40
0.18
  9
$DIMEXO
 40
0.0625
  9
$DIMDLI
 40
0.38
  9
$DIMRND
 40
0.0
  9
$DIMDLE
 40
0.0
  9
$DIMEXE
 40
0.18
  9
$DIMTP
 40
0.0
  9
$DIMTM
 40
0.0
  9
$DIMTXT
 40
0.18
  9
$DIMCEN
 40
0.09
  9
$DIMTSZ
 40
0.0
  9
$DIMTOL
 70
     0
  9
$DIMLIM
 70
     0
  9
$DIMTIH
 70
     1
  9
$DIMTOH
 70
     1
  9
$DIMSE1
 70
     0
  9
$DIMSE2
 70
     0
  9
$DIMTAD
 70
     0
  9
$DIMZIN
 70
     0
  9
$DIMBLK
  1

  9
$DIMASO
 70
     1
  9
$DIMSHO
 70
     1
  9
$DIMPOST
  1

  9
$DIMAPOST
  1

  9
$DIMALT
 70
     0
  9
$DIMALTD
 70
     2
  9
$DIMALTF
 40
25.399999999999999
  9
$DIMLFAC
 40
1.0
  9
$DIMTOFL
 70
     0
  9
$DIMTVP
 40
0.0
  9
$DIMTIX
 70
     0
  9
$DIMSOXD
 70
     0
  9
$DIMSAH
 70
     0
  9
$DIMBLK1
  1

  9
$DIMBLK2
  1

  9
$DIMSTYLE
  2
STANDARD
  9
$DIMCLRD
 70
     0
  9
$DIMCLRE
 70
     0
  9
$DIMCLRT
 70
     0
  9
$DIMTFAC
 40
1.0
  9
$DIMGAP
 40
0.09
  9
$LUNITS
 70
     2
  9
$LUPREC
 70
     4
  9
$SKETCHINC
 40
0.1
  9
$FILLETRAD
 40
0.0
  9
$AUNITS
 70
     0
  9
$AUPREC
 70
     0
  9
$MENU
  1
.
  9
$ELEVATION
 40
0.0
  9
$PELEVATION
 40
0.0
  9
$THICKNESS
 40
0.0
  9
$LIMCHECK
 70
     0
  9
$BLIPMODE
 70
     0
  9
$CHAMFERA
 40
0.0
  9
$CHAMFERB
 40
0.0
  9
$SKPOLY
 70
     0
  9
$TDCREATE
 40
2454674.5972799072
  9
$TDUPDATE
 40
2454674.6025030669
  9
$TDINDWG
 40
0.0023911343
  9
$TDUSRTIMER
 40
0.0023911343
  9
$USRTIMER
 70
     1
  9
$ANGBASE
 50
0.0
  9
$ANGDIR
 70
     0
  9
$PDMODE
 70
     0
  9
$PDSIZE
 40
0.0
  9
$PLINEWID
 40
0.0
  9
$COORDS
 70
     1
  9
$SPLFRAME
 70
     0
  9
$SPLINETYPE
 70
     6
  9
$SPLINESEGS
 70
     8
  9
$ATTDIA
 70
     0
  9
$ATTREQ
 70
     1
  9
$HANDLING
 70
 22529
  9
$HANDSEED
  5
10D
  9
$SURFTAB1
 70
     6
  9
$SURFTAB2
 70
     6
  9
$SURFTYPE
 70
     6
  9
$SURFU
 70
     6
  9
$SURFV
 70
     6
  9
$UCSNAME
  2

  9
$UCSORG
 10
0.0
 20
0.0
 30
0.0
  9
$UCSXDIR
 10
1.0
 20
0.0
 30
0.0
  9
$UCSYDIR
 10
0.0
 20
1.0
 30
0.0
  9
$PUCSNAME
  2

  9
$PUCSORG
 10
0.0
 20
0.0
 30
0.0
  9
$PUCSXDIR
 10
1.0
 20
0.0
 30
0.0
  9
$PUCSYDIR
 10
0.0
 20
1.0
 30
0.0
  9
$USERI1
 70
     0
  9
$USERI2
 70
     0
  9
$USERI3
 70
     0
  9
$USERI4
 70
     0
  9
$USERI5
 70
     0
  9
$USERR1
 40
0.0
  9
$USERR2
 40
0.0
  9
$USERR3
 40
0.0
  9
$USERR4
 40
0.0
  9
$USERR5
 40
0.0
  9
$WORLDVIEW
 70
     1
  9
$SHADEDGE
 70
     3
  9
$SHADEDIF
 70
    70
  9
$TILEMODE
 70
     1
  9
$MAXACTVP
 70
    64
  9
$PLIMCHECK
 70
     0
  9
$PEXTMIN
 10
1.0000000000000000E+020
 20
1.0000000000000000E+020
 30
1.0000000000000000E+020
  9
$PEXTMAX
 10
-1.0000000000000000E+020
 20
-1.0000000000000000E+020
 30
-1.0000000000000000E+020
  9
$PLIMMIN
 10
0.0
 20
0.0
  9
$PLIMMAX
 10
12.0
 20
9.0
  9
$UNITMODE
 70
     0
  9
$VISRETAIN
 70
     1
  9
$PLINEGEN
 70
     0
  9
$PSLTSCALE
 70
     1
  0
ENDSEC
  0
SECTION
  2
TABLES
  0
TABLE
  2
VPORT
 70
     3
  0
VPORT
  2
*ACTIVE
 70
     0
 10
0.0
 20
0.0
 11
1.0
 21
1.0
 12
60.0
 22
60.0
 13
0.0
 23
0.0
 14
1.0
 24
1.0
 15
0.0
 25
0.0
 16
0.0
 26
0.0
 36
1.0
 17
0.0
 27
0.0
 37
0.0
 40
120.92071611253191
 41
2.0435339308578739
 42
50.0
 43
0.0
 44
0.0
 50
0.0
 51
0.0
 71
     0
 72
   100
 73
     1
 74
     3
 75
     0
 76
     0
 77
     0
 78
     0
  0
ENDTAB
  0
TABLE
  2
LTYPE
 70
     1
  0
LTYPE
  2
CONTINUOUS
 70
     0
  3
Solid line
 72
    65
 73
     0
 40
0.0
  0
ENDTAB
  0
TABLE
  2
LAYER
 70
     1
  0
LAYER
  2
0
 70
     0
 62
     7
  6
CONTINUOUS
  0
ENDTAB
  0
TABLE
  2
STYLE
 70
     1
  0
STYLE
  2
STANDARD
 70
     0
 40
0.0
 41
1.0
 50
0.0
 71
     0
 42
0.2
  3
txt
  4

  0
ENDTAB
  0
TABLE
  2
VIEW
 70
     0
  0
ENDTAB
  0
TABLE
  2
UCS
 70
     0
  0
ENDTAB
  0
TABLE
  2
APPID
 70
     1
  0
APPID
  2
ACAD
 70
     0
  0
ENDTAB
  0
TABLE
  2
DIMSTYLE
 70
     1
  0
DIMSTYLE
  2
STANDARD
 70
     0
  3

  4

  5

  6

  7

 40
1.0
 41
0.18
 42
0.0625
 43
0.38
 44
0.18
 45
0.0
 46
0.0
 47
0.0
 48
0.0
140
0.18
141
0.09
142
0.0
143
25.399999999999999
144
1.0
145
0.0
146
1.0
147
0.09
 71
     0
 72
     0
 73
     1
 74
     1
 75
     0
 76
     0
 77
     0
 78
     0
170
     0
171
     2
172
     0
173
     0
174
     0
175
     0
176
     0
177
     0
178
     0
  0
ENDTAB
  0
ENDSEC
  0
SECTION
  2
BLOCKS
  0
BLOCK
  8
0
  2
$MODEL_SPACE
 70
     0
 10
0.0
 20
0.0
 30
0.0
  3
$MODEL_SPACE
  1

  0
ENDBLK
  5
A3
  8
0
  0
BLOCK
 67
     1
  8
0
  2
$PAPER_SPACE
 70
     0
 10
0.0
 20
0.0
 30
0.0
  3
$PAPER_SPACE
  1

  0
ENDBLK
  5
9F
 67
     1
  8
0
  0
ENDSEC
  0
SECTION
  2
ENTITIES
  0
LINE
  5
AE
  8
0
 10
0.0
 20
0.9999999999999968
 30
0.0
 11
0.3
 21
0.2999999999999971
 31
0.0
  0
LINE
  5
AF
  8
0
 10
0.3
 20
0.2999999999999971
 30
0.0
 11
1.0
 21
-0.0000000000000035
 31
0.0
  0
LINE
  5
B0
  8
0
 10
0.0
 20
0.9999999999999978
 30
0.0
 11
0.0
 21
119.0
 31
0.0
  0
LINE
  5
B1
  8
0
 10
0.0
 20
119.0
 30
0.0
 11
0.3
 21
119.7
 31
0.0
  0
LINE
  5
B2
  8
0
 10
0.0
 20
119.0
 30
0.0
 11
0.0
 21
0.999999999999996
 31
0.0
  0
LINE
  5
B3
  8
0
 10
0.3
 20
0.2999999999999971
 30
0.0
 11
1.0
 21
-0.0000000000000035
 31
0.0
  0
LINE
  5
B4
  8
0
 10
0.3
 20
0.299999999999998
 30
0.0
 11
0.5
 21
0.299999999999998
 31
0.0
  0
LINE
  5
B5
  8
0
 10
0.5
 20
0.299999999999998
 30
0.0
 11
1.0
 21
0.299999999999998
 31
0.0
  0
LINE
  5
B6
  8
0
 10
0.3
 20
0.9999999999999978
 30
0.0
 11
0.3
 21
119.0
 31
0.0
  0
LINE
  5
B7
  8
0
 10
0.3
 20
0.9999999999999978
 30
0.0
 11
0.5
 21
0.299999999999998
 31
0.0
  0
LINE
  5
B8
  8
0
 10
0.3
 20
119.0
 30
0.0
 11
0.5
 21
119.7
 31
0.0
  0
LINE
  5
B9
  8
0
 10
0.3
 20
119.0
 30
0.0
 11
0.3
 21
0.999999999999996
 31
0.0
  0
LINE
  5
BA
  8
0
 10
1.0
 20
-0.0000000000000035
 30
0.0
 11
119.0
 21
-0.0000000000000035
 31
0.0
  0
LINE
  5
BB
  8
0
 10
0.999999999999996
 20
-0.0000000000000035
 30
0.0
 11
119.0
 21
-0.0000000000000035
 31
0.0
  0
LINE
  5
BC
  8
0
 10
0.999999999999996
 20
0.299999999999998
 30
0.0
 11
119.0
 21
0.299999999999998
 31
0.0
  0
LINE
  5
BD
  8
0
 10
60.0
 20
42.920000000000002
 30
0.0
 11
64.409999999999997
 21
43.54999999999999
 31
0.0
  0
LINE
  5
BE
  8
0
 10
43.54999999999999
 20
64.409999999999997
 30
0.0
 11
45.229999999999983
 21
68.469999999999999
 31
0.0
  0
LINE
  5
BF
  8
0
 10
43.130000000000003
 20
64.480000000000004
 30
0.0
 11
44.810000000000002
 21
68.680000000000007
 31
0.0
  0
LINE
  5
C0
  8
0
 10
44.810000000000002
 20
68.680000000000007
 30
0.0
 11
47.609999999999999
 21
72.390000000000001
 31
0.0
  0
LINE
  5
C1
  8
0
 10
42.920000000000002
 20
60.0
 30
0.0
 11
43.54999999999999
 21
55.590000000000011
 31
0.0
  0
LINE
  5
C2
  8
0
 10
42.920000000000002
 20
60.0
 30
0.0
 11
43.54999999999999
 21
64.409999999999997
 31
0.0
  0
LINE
  5
C3
  8
0
 10
43.54999999999999
 20
55.590000000000011
 30
0.0
 11
45.229999999999983
 21
51.530000000000001
 31
0.0
  0
LINE
  5
C4
  8
0
 10
42.5
 20
60.0
 30
0.0
 11
43.130000000000003
 21
55.520000000000003
 31
0.0
  0
LINE
  5
C5
  8
0
 10
42.5
 20
60.0
 30
0.0
 11
43.130000000000003
 21
64.480000000000004
 31
0.0
  0
LINE
  5
C6
  8
0
 10
43.130000000000003
 20
55.520000000000003
 30
0.0
 11
44.810000000000002
 21
51.32
 31
0.0
  0
LINE
  5
C7
  8
0
 10
45.229999999999983
 20
68.469999999999999
 30
0.0
 11
47.960000000000001
 21
72.04000000000002
 31
0.0
  0
LINE
  5
C8
  8
0
 10
47.960000000000001
 20
72.04000000000002
 30
0.0
 11
51.530000000000001
 21
74.769999999999982
 31
0.0
  0
LINE
  5
C9
  8
0
 10
47.609999999999999
 20
72.390000000000001
 30
0.0
 11
51.32
 21
75.189999999999998
 31
0.0
  0
LINE
  5
CA
  8
0
 10
51.32
 20
75.189999999999998
 30
0.0
 11
55.520000000000003
 21
76.870000000000005
 31
0.0
  0
LINE
  5
CB
  8
0
 10
45.229999999999983
 20
51.530000000000001
 30
0.0
 11
47.960000000000001
 21
47.960000000000001
 31
0.0
  0
LINE
  5
CC
  8
0
 10
47.960000000000001
 20
47.960000000000001
 30
0.0
 11
51.530000000000001
 21
45.229999999999983
 31
0.0
  0
LINE
  5
CD
  8
0
 10
44.810000000000002
 20
51.32
 30
0.0
 11
47.609999999999999
 21
47.609999999999999
 31
0.0
  0
LINE
  5
CE
  8
0
 10
47.609999999999999
 20
47.609999999999999
 30
0.0
 11
51.32
 21
44.810000000000002
 31
0.0
  0
LINE
  5
CF
  8
0
 10
55.590000000000011
 20
43.54999999999999
 30
0.0
 11
60.0
 21
42.920000000000002
 31
0.0
  0
LINE
  5
D0
  8
0
 10
51.530000000000001
 20
74.769999999999982
 30
0.0
 11
55.590000000000011
 21
76.450000000000003
 31
0.0
  0
LINE
  5
D1
  8
0
 10
55.590000000000011
 20
76.450000000000003
 30
0.0
 11
60.0
 21
77.079999999999998
 31
0.0
  0
LINE
  5
D2
  8
0
 10
55.520000000000003
 20
76.870000000000005
 30
0.0
 11
60.0
 21
77.5
 31
0.0
  0
LINE
  5
D3
  8
0
 10
60.0
 20
77.079999999999998
 30
0.0
 11
64.409999999999997
 21
76.450000000000003
 31
0.0
  0
LINE
  5
D4
  8
0
 10
60.0
 20
77.5
 30
0.0
 11
64.480000000000004
 21
76.870000000000005
 31
0.0
  0
LINE
  5
D5
  8
0
 10
51.530000000000001
 20
45.229999999999983
 30
0.0
 11
55.590000000000011
 21
43.54999999999999
 31
0.0
  0
LINE
  5
D6
  8
0
 10
51.32
 20
44.810000000000002
 30
0.0
 11
55.520000000000003
 21
43.130000000000003
 31
0.0
  0
LINE
  5
D7
  8
0
 10
55.520000000000003
 20
43.130000000000003
 30
0.0
 11
60.0
 21
42.5
 31
0.0
  0
LINE
  5
D8
  8
0
 10
64.480000000000004
 20
43.130000000000003
 30
0.0
 11
68.680000000000007
 21
44.810000000000002
 31
0.0
  0
LINE
  5
D9
  8
0
 10
64.409999999999997
 20
76.450000000000003
 30
0.0
 11
68.469999999999999
 21
74.769999999999982
 31
0.0
  0
LINE
  5
DA
  8
0
 10
68.469999999999999
 20
74.769999999999982
 30
0.0
 11
72.04000000000002
 21
72.04000000000002
 31
0.0
  0
LINE
  5
DB
  8
0
 10
68.680000000000007
 20
75.189999999999998
 30
0.0
 11
72.390000000000001
 21
72.390000000000001
 31
0.0
  0
LINE
  5
DC
  8
0
 10
64.480000000000004
 20
76.870000000000005
 30
0.0
 11
68.680000000000007
 21
75.189999999999998
 31
0.0
  0
LINE
  5
DD
  8
0
 10
68.469999999999999
 20
45.229999999999983
 30
0.0
 11
72.04000000000002
 21
47.960000000000001
 31
0.0
  0
LINE
  5
DE
  8
0
 10
74.769999999999982
 20
68.469999999999999
 30
0.0
 11
76.450000000000003
 21
64.409999999999997
 31
0.0
  0
LINE
  5
DF
  8
0
 10
72.04000000000002
 20
72.04000000000002
 30
0.0
 11
74.769999999999982
 21
68.469999999999999
 31
0.0
  0
LINE
  5
E0
  8
0
 10
72.390000000000001
 20
72.390000000000001
 30
0.0
 11
75.189999999999998
 21
68.680000000000007
 31
0.0
  0
LINE
  5
E1
  8
0
 10
75.189999999999998
 20
68.680000000000007
 30
0.0
 11
76.870000000000005
 21
64.480000000000004
 31
0.0
  0
LINE
  5
E2
  8
0
 10
74.769999999999982
 20
51.530000000000001
 30
0.0
 11
76.450000000000003
 21
55.590000000000011
 31
0.0
  0
LINE
  5
E3
  8
0
 10
72.04000000000002
 20
47.960000000000001
 30
0.0
 11
74.769999999999982
 21
51.530000000000001
 31
0.0
  0
LINE
  5
E4
  8
0
 10
76.450000000000003
 20
64.409999999999997
 30
0.0
 11
77.079999999999998
 21
60.0
 31
0.0
  0
LINE
  5
E5
  8
0
 10
76.870000000000005
 20
64.480000000000004
 30
0.0
 11
77.5
 21
60.0
 31
0.0
  0
LINE
  5
E6
  8
0
 10
76.450000000000003
 20
55.590000000000011
 30
0.0
 11
77.079999999999998
 21
60.0
 31
0.0
  0
LINE
  5
E7
  8
0
 10
76.870000000000005
 20
55.520000000000003
 30
0.0
 11
77.5
 21
60.0
 31
0.0
  0
LINE
  5
E8
  8
0
 10
75.189999999999998
 20
51.32
 30
0.0
 11
76.870000000000005
 21
55.520000000000003
 31
0.0
  0
LINE
  5
E9
  8
0
 10
72.390000000000001
 20
47.609999999999999
 30
0.0
 11
75.189999999999998
 21
51.32
 31
0.0
  0
LINE
  5
EA
  8
0
 10
68.680000000000007
 20
44.810000000000002
 30
0.0
 11
72.390000000000001
 21
47.609999999999999
 31
0.0
  0
LINE
  5
EB
  8
0
 10
64.409999999999997
 20
43.54999999999999
 30
0.0
 11
68.469999999999999
 21
45.229999999999983
 31
0.0
  0
LINE
  5
EC
  8
0
 10
60.0
 20
42.5
 30
0.0
 11
64.480000000000004
 21
43.130000000000003
 31
0.0
  0
LINE
  5
ED
  8
0
 10
119.0
 20
0.299999999999998
 30
0.0
 11
119.5
 21
0.299999999999998
 31
0.0
  0
LINE
  5
EE
  8
0
 10
1.0
 20
0.299999999999998
 30
0.0
 11
119.0
 21
0.299999999999998
 31
0.0
  0
LINE
  5
EF
  8
0
 10
0.999999999999996
 20
119.7
 30
0.0
 11
119.0
 21
119.7
 31
0.0
  0
LINE
  5
F0
  8
0
 10
119.7
 20
0.2999999999999971
 30
0.0
 11
120.0
 21
0.9999999999999968
 31
0.0
  0
LINE
  5
F1
  8
0
 10
119.5
 20
0.299999999999998
 30
0.0
 11
119.7
 21
0.9999999999999978
 31
0.0
  0
LINE
  5
F2
  8
0
 10
119.5
 20
0.299999999999998
 30
0.0
 11
119.7
 21
0.299999999999998
 31
0.0
  0
LINE
  5
F3
  8
0
 10
119.7
 20
119.0
 30
0.0
 11
119.7
 21
0.999999999999996
 31
0.0
  0
LINE
  5
F4
  8
0
 10
119.7
 20
0.9999999999999978
 30
0.0
 11
119.7
 21
119.0
 31
0.0
  0
LINE
  5
F5
  8
0
 10
120.0
 20
119.0
 30
0.0
 11
120.0
 21
0.999999999999996
 31
0.0
  0
LINE
  5
F6
  8
0
 10
120.0
 20
0.9999999999999978
 30
0.0
 11
120.0
 21
119.0
 31
0.0
  0
LINE
  5
F7
  8
0
 10
119.7
 20
119.7
 30
0.0
 11
120.0
 21
119.0
 31
0.0
  0
LINE
  5
F8
  8
0
 10
119.5
 20
119.7
 30
0.0
 11
119.7
 21
119.7
 31
0.0
  0
LINE
  5
F9
  8
0
 10
119.5
 20
119.7
 30
0.0
 11
119.7
 21
119.0
 31
0.0
  0
LINE
  5
FA
  8
0
 10
119.0
 20
119.7
 30
0.0
 11
119.5
 21
119.7
 31
0.0
  0
LINE
  5
FB
  8
0
 10
1.0
 20
119.7
 30
0.0
 11
119.0
 21
119.7
 31
0.0
  0
LINE
  5
FC
  8
0
 10
0.5
 20
119.7
 30
0.0
 11
1.0
 21
119.7
 31
0.0
  0
LINE
  5
FD
  8
0
 10
1.0
 20
120.0
 30
0.0
 11
119.0
 21
120.0
 31
0.0
  0
LINE
  5
FE
  8
0
 10
119.0
 20
120.0
 30
0.0
 11
119.7
 21
119.7
 31
0.0
  0
LINE
  5
FF
  8
0
 10
0.999999999999996
 20
120.0
 30
0.0
 11
119.0
 21
120.0
 31
0.0
  0
LINE
  5
100
  8
0
 10
0.3
 20
119.7
 30
0.0
 11
0.5
 21
119.7
 31
0.0
  0
LINE
  5
101
  8
0
 10
0.3
 20
119.7
 30
0.0
 11
1.0
 21
120.0
 31
0.0
  0
LINE
  5
102
  8
0
 10
0.3
 20
119.7
 30
0.0
 11
1.0
 21
120.0
 31
0.0
  0
LINE
  5
103
  8
0
 10
119.0
 20
-0.0000000000000035
 30
0.0
 11
119.7
 21
0.2999999999999971
 31
0.0
  0
ENDSEC
  0
EOF
