  0
SECTION
  2
HEADER
  9
$ACADVER
  1
AC1009
  9
$INSBASE
 10
0.0
 20
0.0
 30
0.0
  9
$EXTMIN
 10
0.0
 20
-0.0000000000000005
 30
0.0
  9
$EXTMAX
 10
120.0
 20
104.0
 30
0.0
  9
$LIMMIN
 10
0.0
 20
0.0
  9
$LIMMAX
 10
12.0
 20
9.0
  9
$ORTHOMODE
 70
     0
  9
$REGENMODE
 70
     1
  9
$FILLMODE
 70
     1
  9
$QTEXTMODE
 70
     0
  9
$MIRRTEXT
 70
     1
  9
$DRAGMODE
 70
     2
  9
$LTSCALE
 40
1.0
  9
$OSMODE
 70
    37
  9
$ATTMODE
 70
     1
  9
$TEXTSIZE
 40
0.2
  9
$TRACEWID
 40
0.05
  9
$TEXTSTYLE
  7
STANDARD
  9
$CLAYER
  8
0
  9
$CELTYPE
  6
CONTINUOUS
  9
$CECOLOR
 62
   256
  9
$DIMSCALE
 40
1.0
  9
$DIMASZ
 40
0.18
  9
$DIMEXO
 40
0.0625
  9
$DIMDLI
 40
0.38
  9
$DIMRND
 40
0.0
  9
$DIMDLE
 40
0.0
  9
$DIMEXE
 40
0.18
  9
$DIMTP
 40
0.0
  9
$DIMTM
 40
0.0
  9
$DIMTXT
 40
0.18
  9
$DIMCEN
 40
0.09
  9
$DIMTSZ
 40
0.0
  9
$DIMTOL
 70
     0
  9
$DIMLIM
 70
     0
  9
$DIMTIH
 70
     1
  9
$DIMTOH
 70
     1
  9
$DIMSE1
 70
     0
  9
$DIMSE2
 70
     0
  9
$DIMTAD
 70
     0
  9
$DIMZIN
 70
     0
  9
$DIMBLK
  1

  9
$DIMASO
 70
     1
  9
$DIMSHO
 70
     1
  9
$DIMPOST
  1

  9
$DIMAPOST
  1

  9
$DIMALT
 70
     0
  9
$DIMALTD
 70
     2
  9
$DIMALTF
 40
25.399999999999999
  9
$DIMLFAC
 40
1.0
  9
$DIMTOFL
 70
     0
  9
$DIMTVP
 40
0.0
  9
$DIMTIX
 70
     0
  9
$DIMSOXD
 70
     0
  9
$DIMSAH
 70
     0
  9
$DIMBLK1
  1

  9
$DIMBLK2
  1

  9
$DIMSTYLE
  2
STANDARD
  9
$DIMCLRD
 70
     0
  9
$DIMCLRE
 70
     0
  9
$DIMCLRT
 70
     0
  9
$DIMTFAC
 40
1.0
  9
$DIMGAP
 40
0.09
  9
$LUNITS
 70
     2
  9
$LUPREC
 70
     4
  9
$SKETCHINC
 40
0.1
  9
$FILLETRAD
 40
0.0
  9
$AUNITS
 70
     0
  9
$AUPREC
 70
     0
  9
$MENU
  1
.
  9
$ELEVATION
 40
0.0
  9
$PELEVATION
 40
0.0
  9
$THICKNESS
 40
0.0
  9
$LIMCHECK
 70
     0
  9
$BLIPMODE
 70
     0
  9
$CHAMFERA
 40
0.0
  9
$CHAMFERB
 40
0.0
  9
$SKPOLY
 70
     0
  9
$TDCREATE
 40
2454674.596932685
  9
$TDUPDATE
 40
2454674.6015597801
  9
$TDINDWG
 40
0.0046270949
  9
$TDUSRTIMER
 40
0.0046270949
  9
$USRTIMER
 70
     1
  9
$ANGBASE
 50
0.0
  9
$ANGDIR
 70
     0
  9
$PDMODE
 70
     0
  9
$PDSIZE
 40
0.0
  9
$PLINEWID
 40
0.0
  9
$COORDS
 70
     1
  9
$SPLFRAME
 70
     0
  9
$SPLINETYPE
 70
     6
  9
$SPLINESEGS
 70
     8
  9
$ATTDIA
 70
     0
  9
$ATTREQ
 70
     1
  9
$HANDLING
 70
 22529
  9
$HANDSEED
  5
1F0
  9
$SURFTAB1
 70
     6
  9
$SURFTAB2
 70
     6
  9
$SURFTYPE
 70
     6
  9
$SURFU
 70
     6
  9
$SURFV
 70
     6
  9
$UCSNAME
  2

  9
$UCSORG
 10
0.0
 20
0.0
 30
0.0
  9
$UCSXDIR
 10
1.0
 20
0.0
 30
0.0
  9
$UCSYDIR
 10
0.0
 20
1.0
 30
0.0
  9
$PUCSNAME
  2

  9
$PUCSORG
 10
0.0
 20
0.0
 30
0.0
  9
$PUCSXDIR
 10
1.0
 20
0.0
 30
0.0
  9
$PUCSYDIR
 10
0.0
 20
1.0
 30
0.0
  9
$USERI1
 70
     0
  9
$USERI2
 70
     0
  9
$USERI3
 70
     0
  9
$USERI4
 70
     0
  9
$USERI5
 70
     0
  9
$USERR1
 40
0.0
  9
$USERR2
 40
0.0
  9
$USERR3
 40
0.0
  9
$USERR4
 40
0.0
  9
$USERR5
 40
0.0
  9
$WORLDVIEW
 70
     1
  9
$SHADEDGE
 70
     3
  9
$SHADEDIF
 70
    70
  9
$TILEMODE
 70
     1
  9
$MAXACTVP
 70
    64
  9
$PLIMCHECK
 70
     0
  9
$PEXTMIN
 10
1.0000000000000000E+020
 20
1.0000000000000000E+020
 30
1.0000000000000000E+020
  9
$PEXTMAX
 10
-1.0000000000000000E+020
 20
-1.0000000000000000E+020
 30
-1.0000000000000000E+020
  9
$PLIMMIN
 10
0.0
 20
0.0
  9
$PLIMMAX
 10
12.0
 20
9.0
  9
$UNITMODE
 70
     0
  9
$VISRETAIN
 70
     1
  9
$PLINEGEN
 70
     0
  9
$PSLTSCALE
 70
     1
  0
ENDSEC
  0
SECTION
  2
TABLES
  0
TABLE
  2
VPORT
 70
     3
  0
VPORT
  2
*ACTIVE
 70
     0
 10
0.0
 20
0.0
 11
1.0
 21
1.0
 12
60.0
 22
52.0
 13
0.0
 23
0.0
 14
1.0
 24
1.0
 15
0.0
 25
0.0
 16
0.0
 26
0.0
 36
1.0
 17
0.0
 27
0.0
 37
0.0
 40
104.79795396419431
 41
2.0435339308578739
 42
50.0
 43
0.0
 44
0.0
 50
0.0
 51
0.0
 71
     0
 72
   100
 73
     1
 74
     3
 75
     0
 76
     0
 77
     0
 78
     0
  0
ENDTAB
  0
TABLE
  2
LTYPE
 70
     1
  0
LTYPE
  2
CONTINUOUS
 70
     0
  3
Solid line
 72
    65
 73
     0
 40
0.0
  0
ENDTAB
  0
TABLE
  2
LAYER
 70
     1
  0
LAYER
  2
0
 70
     0
 62
     7
  6
CONTINUOUS
  0
ENDTAB
  0
TABLE
  2
STYLE
 70
     1
  0
STYLE
  2
STANDARD
 70
     0
 40
0.0
 41
1.0
 50
0.0
 71
     0
 42
0.2
  3
txt
  4

  0
ENDTAB
  0
TABLE
  2
VIEW
 70
     0
  0
ENDTAB
  0
TABLE
  2
UCS
 70
     0
  0
ENDTAB
  0
TABLE
  2
APPID
 70
     1
  0
APPID
  2
ACAD
 70
     0
  0
ENDTAB
  0
TABLE
  2
DIMSTYLE
 70
     1
  0
DIMSTYLE
  2
STANDARD
 70
     0
  3

  4

  5

  6

  7

 40
1.0
 41
0.18
 42
0.0625
 43
0.38
 44
0.18
 45
0.0
 46
0.0
 47
0.0
 48
0.0
140
0.18
141
0.09
142
0.0
143
25.399999999999999
144
1.0
145
0.0
146
1.0
147
0.09
 71
     0
 72
     0
 73
     1
 74
     1
 75
     0
 76
     0
 77
     0
 78
     0
170
     0
171
     2
172
     0
173
     0
174
     0
175
     0
176
     0
177
     0
178
     0
  0
ENDTAB
  0
ENDSEC
  0
SECTION
  2
BLOCKS
  0
BLOCK
  8
0
  2
$MODEL_SPACE
 70
     0
 10
0.0
 20
0.0
 30
0.0
  3
$MODEL_SPACE
  1

  0
ENDBLK
  5
20
  8
0
  0
BLOCK
 67
     1
  8
0
  2
$PAPER_SPACE
 70
     0
 10
0.0
 20
0.0
 30
0.0
  3
$PAPER_SPACE
  1

  0
ENDBLK
  5
1C
 67
     1
  8
0
  0
ENDSEC
  0
SECTION
  2
ENTITIES
  0
LINE
  5
22
  8
0
 10
0.0
 20
39.0
 30
0.0
 11
0.0
 21
57.0
 31
0.0
  0
LINE
  5
23
  8
0
 10
0.3
 20
38.299999999999997
 30
0.0
 11
1.0
 21
38.0
 31
0.0
  0
LINE
  5
24
  8
0
 10
0.3
 20
38.299999999999997
 30
0.0
 11
1.0
 21
38.0
 31
0.0
  0
LINE
  5
25
  8
0
 10
0.0
 20
39.0
 30
0.0
 11
0.3
 21
38.299999999999997
 31
0.0
  0
LINE
  5
26
  8
0
 10
0.0
 20
57.0
 30
0.0
 11
0.3
 21
57.700000000000003
 31
0.0
  0
LINE
  5
27
  8
0
 10
0.0
 20
57.0
 30
0.0
 11
0.0
 21
39.0
 31
0.0
  0
LINE
  5
2A
  8
0
 10
0.3
 20
57.700000000000003
 30
0.0
 11
1.0
 21
58.0
 31
0.0
  0
LINE
  5
2B
  8
0
 10
0.3
 20
57.700000000000003
 30
0.0
 11
1.0
 21
58.0
 31
0.0
  0
LINE
  5
2C
  8
0
 10
0.3
 20
57.0
 30
0.0
 11
0.5
 21
57.5
 31
0.0
  0
LINE
  5
2D
  8
0
 10
0.3
 20
57.0
 30
0.0
 11
0.3
 21
39.0
 31
0.0
  0
LINE
  5
2E
  8
0
 10
0.999999999999996
 20
38.0
 30
0.0
 11
42.920000000000002
 21
38.0
 31
0.0
  0
LINE
  5
2F
  8
0
 10
1.0
 20
38.0
 30
0.0
 11
42.920000000000002
 21
38.0
 31
0.0
  0
LINE
  5
30
  8
0
 10
0.999999999999996
 20
38.299999999999997
 30
0.0
 11
119.0
 21
38.299999999999997
 31
0.0
  0
LINE
  5
31
  8
0
 10
43.54999999999999
 20
0.0000000000000008
 30
0.0
 11
45.22999999999999
 21
0.000000000000001
 31
0.0
  0
LINE
  5
32
  8
0
 10
42.920000000000002
 20
0.0000000000000005
 30
0.0
 11
43.54999999999999
 21
0.0000000000000003
 31
0.0
  0
LINE
  5
33
  8
0
 10
42.920000000000002
 20
0.0000000000000005
 30
0.0
 11
43.54999999999999
 21
0.0000000000000008
 31
0.0
  0
LINE
  5
34
  8
0
 10
45.22999999999999
 20
0.000000000000001
 30
0.0
 11
47.960000000000001
 21
0.0000000000000013
 31
0.0
  0
LINE
  5
35
  8
0
 10
47.960000000000001
 20
0.0000000000000013
 30
0.0
 11
51.530000000000001
 21
0.0000000000000014
 31
0.0
  0
LINE
  5
36
  8
0
 10
43.54999999999999
 20
0.0000000000000003
 30
0.0
 11
45.22999999999999
 21
0.0
 31
0.0
  0
LINE
  5
37
  8
0
 10
45.22999999999999
 20
0.0
 30
0.0
 11
47.960000000000001
 21
-0.0000000000000002
 31
0.0
  0
LINE
  5
38
  8
0
 10
51.530000000000001
 20
0.0000000000000014
 30
0.0
 11
55.590000000000011
 21
0.0000000000000015
 31
0.0
  0
LINE
  5
39
  8
0
 10
55.590000000000011
 20
0.0000000000000015
 30
0.0
 11
60.0
 21
0.0000000000000016
 31
0.0
  0
LINE
  5
3A
  8
0
 10
47.960000000000001
 20
-0.0000000000000002
 30
0.0
 11
51.530000000000001
 21
-0.0000000000000004
 31
0.0
  0
LINE
  5
3B
  8
0
 10
51.530000000000001
 20
-0.0000000000000004
 30
0.0
 11
55.590000000000011
 21
-0.0000000000000005
 31
0.0
  0
LINE
  5
3C
  8
0
 10
64.409999999999997
 20
0.0000000000000015
 30
0.0
 11
68.469999999999999
 21
0.0000000000000014
 31
0.0
  0
LINE
  5
3D
  8
0
 10
60.0
 20
0.0000000000000016
 30
0.0
 11
64.409999999999997
 21
0.0000000000000015
 31
0.0
  0
LINE
  5
3E
  8
0
 10
55.590000000000011
 20
-0.0000000000000005
 30
0.0
 11
60.0
 21
-0.0000000000000005
 31
0.0
  0
LINE
  5
3F
  8
0
 10
43.130000000000003
 20
0.384615000000001
 30
0.0
 11
44.810000000000002
 21
0.384615000000001
 31
0.0
  0
LINE
  5
40
  8
0
 10
43.130000000000003
 20
37.615400000000001
 30
0.0
 11
44.810000000000002
 21
37.615400000000001
 31
0.0
  0
LINE
  5
41
  8
0
 10
44.810000000000002
 20
37.615400000000001
 30
0.0
 11
47.609999999999999
 21
37.615400000000001
 31
0.0
  0
LINE
  5
42
  8
0
 10
44.810000000000002
 20
0.384615000000001
 30
0.0
 11
47.609999999999999
 21
0.384615000000001
 31
0.0
  0
LINE
  5
43
  8
0
 10
47.609999999999999
 20
0.384615000000001
 30
0.0
 11
51.32
 21
0.384615000000002
 31
0.0
  0
LINE
  5
44
  8
0
 10
47.609999999999999
 20
37.615400000000001
 30
0.0
 11
51.32
 21
37.615400000000001
 31
0.0
  0
LINE
  5
45
  8
0
 10
51.32
 20
0.384615000000002
 30
0.0
 11
55.520000000000003
 21
0.384615000000002
 31
0.0
  0
LINE
  5
46
  8
0
 10
51.32
 20
37.615400000000001
 30
0.0
 11
55.520000000000003
 21
37.615400000000001
 31
0.0
  0
LINE
  5
47
  8
0
 10
55.520000000000003
 20
0.384615000000002
 30
0.0
 11
60.0
 21
0.384615000000002
 31
0.0
  0
LINE
  5
48
  8
0
 10
55.520000000000003
 20
37.615400000000001
 30
0.0
 11
60.0
 21
37.615400000000001
 31
0.0
  0
LINE
  5
49
  8
0
 10
60.0
 20
0.384615000000002
 30
0.0
 11
64.480000000000004
 21
0.384615000000002
 31
0.0
  0
LINE
  5
4A
  8
0
 10
60.0
 20
37.615400000000001
 30
0.0
 11
64.480000000000004
 21
37.615400000000001
 31
0.0
  0
LINE
  5
4B
  8
0
 10
42.5
 20
0.384615000000001
 30
0.0
 11
42.5
 21
37.615400000000001
 31
0.0
  0
LINE
  5
4C
  8
0
 10
42.5
 20
0.384615000000001
 30
0.0
 11
42.920000000000002
 21
0.0000000000000005
 31
0.0
  0
LINE
  5
4D
  8
0
 10
42.5
 20
0.384615000000001
 30
0.0
 11
43.130000000000003
 21
0.384615000000001
 31
0.0
  0
LINE
  5
4E
  8
0
 10
42.5
 20
0.384615000000001
 30
0.0
 11
42.920000000000002
 21
0.0000000000000005
 31
0.0
  0
LINE
  5
4F
  8
0
 10
68.469999999999999
 20
0.0000000000000014
 30
0.0
 11
72.040000000000006
 21
0.0000000000000013
 31
0.0
  0
LINE
  5
50
  8
0
 10
72.040000000000006
 20
0.0000000000000013
 30
0.0
 11
74.769999999999996
 21
0.000000000000001
 31
0.0
  0
LINE
  5
51
  8
0
 10
68.680000000000007
 20
0.384615000000002
 30
0.0
 11
72.390000000000001
 21
0.384615000000001
 31
0.0
  0
LINE
  5
52
  8
0
 10
68.680000000000007
 20
37.615400000000001
 30
0.0
 11
72.390000000000001
 21
37.615400000000001
 31
0.0
  0
LINE
  5
53
  8
0
 10
64.480000000000004
 20
0.384615000000002
 30
0.0
 11
68.680000000000007
 21
0.384615000000002
 31
0.0
  0
LINE
  5
54
  8
0
 10
64.480000000000004
 20
37.615400000000001
 30
0.0
 11
68.680000000000007
 21
37.615400000000001
 31
0.0
  0
LINE
  5
55
  8
0
 10
72.390000000000001
 20
0.384615000000001
 30
0.0
 11
75.189999999999998
 21
0.384615000000001
 31
0.0
  0
LINE
  5
56
  8
0
 10
72.390000000000001
 20
37.615400000000001
 30
0.0
 11
75.189999999999998
 21
37.615400000000001
 31
0.0
  0
LINE
  5
57
  8
0
 10
72.040000000000006
 20
-0.0000000000000002
 30
0.0
 11
74.769999999999996
 21
0.0
 31
0.0
  0
LINE
  5
58
  8
0
 10
68.469999999999999
 20
-0.0000000000000004
 30
0.0
 11
72.040000000000006
 21
-0.0000000000000002
 31
0.0
  0
LINE
  5
59
  8
0
 10
64.409999999999997
 20
-0.0000000000000005
 30
0.0
 11
68.469999999999999
 21
-0.0000000000000004
 31
0.0
  0
LINE
  5
5A
  8
0
 10
60.0
 20
-0.0000000000000005
 30
0.0
 11
64.409999999999997
 21
-0.0000000000000005
 31
0.0
  0
LINE
  5
5B
  8
0
 10
74.769999999999996
 20
0.000000000000001
 30
0.0
 11
76.450000000000003
 21
0.0000000000000008
 31
0.0
  0
LINE
  5
5C
  8
0
 10
76.450000000000003
 20
0.0000000000000008
 30
0.0
 11
77.079999999999998
 21
0.0000000000000005
 31
0.0
  0
LINE
  5
5D
  8
0
 10
76.450000000000003
 20
0.0000000000000003
 30
0.0
 11
77.079999999999998
 21
0.0000000000000005
 31
0.0
  0
LINE
  5
5E
  8
0
 10
74.769999999999996
 20
0.0
 30
0.0
 11
76.450000000000003
 21
0.0000000000000003
 31
0.0
  0
LINE
  5
5F
  8
0
 10
76.870000000000005
 20
0.384615000000001
 30
0.0
 11
77.5
 21
0.384615000000001
 31
0.0
  0
LINE
  5
60
  8
0
 10
76.870000000000005
 20
37.615400000000001
 30
0.0
 11
77.5
 21
37.615400000000001
 31
0.0
  0
LINE
  5
61
  8
0
 10
75.189999999999998
 20
0.384615000000001
 30
0.0
 11
76.870000000000005
 21
0.384615000000001
 31
0.0
  0
LINE
  5
62
  8
0
 10
75.189999999999998
 20
37.615400000000001
 30
0.0
 11
76.870000000000005
 21
37.615400000000001
 31
0.0
  0
LINE
  5
63
  8
0
 10
42.920000000000002
 20
38.0
 30
0.0
 11
43.54999999999999
 21
38.0
 31
0.0
  0
LINE
  5
64
  8
0
 10
43.54999999999999
 20
38.0
 30
0.0
 11
45.22999999999999
 21
38.0
 31
0.0
  0
LINE
  5
65
  8
0
 10
45.22999999999999
 20
38.0
 30
0.0
 11
47.960000000000001
 21
38.0
 31
0.0
  0
LINE
  5
66
  8
0
 10
47.960000000000001
 20
38.0
 30
0.0
 11
51.530000000000001
 21
38.0
 31
0.0
  0
LINE
  5
67
  8
0
 10
51.530000000000001
 20
38.0
 30
0.0
 11
55.590000000000011
 21
38.0
 31
0.0
  0
LINE
  5
68
  8
0
 10
55.590000000000011
 20
38.0
 30
0.0
 11
60.0
 21
38.0
 31
0.0
  0
LINE
  5
69
  8
0
 10
76.450000000000003
 20
38.0
 30
0.0
 11
77.079999999999998
 21
38.0
 31
0.0
  0
LINE
  5
6A
  8
0
 10
74.769999999999996
 20
38.0
 30
0.0
 11
76.450000000000003
 21
38.0
 31
0.0
  0
LINE
  5
6B
  8
0
 10
72.040000000000006
 20
38.0
 30
0.0
 11
74.769999999999996
 21
38.0
 31
0.0
  0
LINE
  5
6C
  8
0
 10
68.469999999999999
 20
38.0
 30
0.0
 11
72.040000000000006
 21
38.0
 31
0.0
  0
LINE
  5
6D
  8
0
 10
64.409999999999997
 20
38.0
 30
0.0
 11
68.469999999999999
 21
38.0
 31
0.0
  0
LINE
  5
6E
  8
0
 10
60.0
 20
38.0
 30
0.0
 11
64.409999999999997
 21
38.0
 31
0.0
  0
LINE
  5
6F
  8
0
 10
42.5
 20
37.615400000000001
 30
0.0
 11
42.920000000000002
 21
38.0
 31
0.0
  0
LINE
  5
70
  8
0
 10
42.5
 20
37.615400000000001
 30
0.0
 11
42.5
 21
0.384615000000001
 31
0.0
  0
LINE
  5
71
  8
0
 10
42.5
 20
37.615400000000001
 30
0.0
 11
43.130000000000003
 21
37.615400000000001
 31
0.0
  0
LINE
  5
72
  8
0
 10
77.079999999999998
 20
0.0000000000000005
 30
0.0
 11
77.5
 21
0.384615000000001
 31
0.0
  0
LINE
  5
73
  8
0
 10
77.079999999999998
 20
0.0000000000000005
 30
0.0
 11
77.5
 21
0.384615000000001
 31
0.0
  0
LINE
  5
74
  8
0
 10
77.5
 20
0.384615000000001
 30
0.0
 11
77.5
 21
37.615400000000001
 31
0.0
  0
LINE
  5
75
  8
0
 10
77.5
 20
37.615400000000001
 30
0.0
 11
77.5
 21
0.384615000000001
 31
0.0
  0
LINE
  5
76
  8
0
 10
77.079999999999998
 20
38.0
 30
0.0
 11
119.0
 21
38.0
 31
0.0
  0
LINE
  5
77
  8
0
 10
77.079999999999998
 20
38.0
 30
0.0
 11
77.5
 21
37.615400000000001
 31
0.0
  0
LINE
  5
78
  8
0
 10
119.7
 20
38.299999999999997
 30
0.0
 11
120.0
 21
39.0
 31
0.0
  0
LINE
  5
79
  8
0
 10
119.0
 20
38.0
 30
0.0
 11
119.7
 21
38.299999999999997
 31
0.0
  0
LINE
  5
7A
  8
0
 10
77.079999999999998
 20
38.0
 30
0.0
 11
119.0
 21
38.0
 31
0.0
  0
LINE
  5
7B
  8
0
 10
119.5
 20
38.5
 30
0.0
 11
119.7
 21
39.0
 31
0.0
  0
LINE
  5
7D
  8
0
 10
119.0
 20
38.299999999999997
 30
0.0
 11
119.5
 21
38.5
 31
0.0
  0
LINE
  5
7E
  8
0
 10
1.0
 20
38.299999999999997
 30
0.0
 11
119.0
 21
38.299999999999997
 31
0.0
  0
LINE
  5
7F
  8
0
 10
119.7
 20
57.0
 30
0.0
 11
119.7
 21
39.0
 31
0.0
  0
LINE
  5
80
  8
0
 10
0.5
 20
57.5
 30
0.0
 11
1.0
 21
57.700000000000003
 31
0.0
  0
LINE
  5
81
  8
0
 10
1.0
 20
57.700000000000003
 30
0.0
 11
119.0
 21
57.700000000000003
 31
0.0
  0
LINE
  5
82
  8
0
 10
71.712000000000003
 20
58.0
 30
0.0
 11
72.0
 21
58.18
 31
0.0
  0
LINE
  5
83
  8
0
 10
1.0
 20
58.0
 30
0.0
 11
119.0
 21
58.0
 31
0.0
  0
LINE
  5
84
  8
0
 10
44.383999999999993
 20
63.0
 30
0.0
 11
44.960000000000001
 21
63.0
 31
0.0
  0
LINE
  5
85
  8
0
 10
44.0
 20
63.299999999999997
 30
0.0
 11
44.0
 21
68.0
 31
0.0
  0
LINE
  5
86
  8
0
 10
44.0
 20
63.299999999999997
 30
0.0
 11
44.576000000000001
 21
63.299999999999997
 31
0.0
  0
LINE
  5
87
  8
0
 10
44.0
 20
63.299999999999997
 30
0.0
 11
44.383999999999993
 21
63.0
 31
0.0
  0
LINE
  5
88
  8
0
 10
44.0
 20
68.0
 30
0.0
 11
44.576000000000001
 21
68.0
 31
0.0
  0
LINE
  5
89
  8
0
 10
44.0
 20
68.0
 30
0.0
 11
44.0
 21
63.299999999999997
 31
0.0
  0
LINE
  5
8A
  8
0
 10
44.576000000000001
 20
63.299999999999997
 30
0.0
 11
46.111999999999988
 21
63.299999999999997
 31
0.0
  0
LINE
  5
8B
  8
0
 10
44.576000000000001
 20
68.0
 30
0.0
 11
46.111999999999988
 21
68.0
 31
0.0
  0
LINE
  5
8C
  8
0
 10
46.0
 20
60.18
 30
0.0
 11
46.0
 21
63.0
 31
0.0
  0
LINE
  5
8D
  8
0
 10
46.0
 20
60.18
 30
0.0
 11
46.503999999999998
 21
60.18
 31
0.0
  0
LINE
  5
8E
  8
0
 10
46.0
 20
60.18
 30
0.0
 11
46.335999999999999
 21
60.0
 31
0.0
  0
LINE
  5
8F
  8
0
 10
46.0
 20
63.0
 30
0.0
 11
46.503999999999998
 21
63.0
 31
0.0
  0
LINE
  5
90
  8
0
 10
46.0
 20
63.0
 30
0.0
 11
46.0
 21
60.18
 31
0.0
  0
LINE
  5
91
  8
0
 10
44.960000000000001
 20
63.0
 30
0.0
 11
46.496000000000002
 21
63.0
 31
0.0
  0
LINE
  5
92
  8
0
 10
44.960000000000001
 20
63.0
 30
0.0
 11
46.0
 21
63.0
 31
0.0
  0
LINE
  5
93
  8
0
 10
46.335999999999999
 20
60.0
 30
0.0
 11
46.840000000000003
 21
60.0
 31
0.0
  0
LINE
  5
94
  8
0
 10
46.840000000000003
 20
60.0
 30
0.0
 11
48.183999999999997
 21
60.0
 31
0.0
  0
LINE
  5
95
  8
0
 10
46.840000000000003
 20
60.0
 30
0.0
 11
48.0
 21
60.0
 31
0.0
  0
LINE
  5
96
  8
0
 10
46.503999999999998
 20
60.18
 30
0.0
 11
47.847999999999992
 21
60.18
 31
0.0
  0
LINE
  5
97
  8
0
 10
46.503999999999998
 20
63.0
 30
0.0
 11
47.847999999999992
 21
63.0
 31
0.0
  0
LINE
  5
98
  8
0
 10
47.847999999999992
 20
60.18
 30
0.0
 11
50.088000000000001
 21
60.18
 31
0.0
  0
LINE
  5
99
  8
0
 10
48.0
 20
58.18
 30
0.0
 11
48.0
 21
60.0
 31
0.0
  0
LINE
  5
9A
  8
0
 10
48.0
 20
58.18
 30
0.0
 11
48.431999999999988
 21
58.18
 31
0.0
  0
LINE
  5
9B
  8
0
 10
48.0
 20
58.18
 30
0.0
 11
48.288000000000011
 21
58.0
 31
0.0
  0
LINE
  5
9C
  8
0
 10
48.0
 20
60.0
 30
0.0
 11
48.431999999999988
 21
60.0
 31
0.0
  0
LINE
  5
9D
  8
0
 10
48.0
 20
60.0
 30
0.0
 11
48.0
 21
58.18
 31
0.0
  0
LINE
  5
9E
  8
0
 10
48.431999999999988
 20
58.18
 30
0.0
 11
49.584000000000003
 21
58.18
 31
0.0
  0
LINE
  5
9F
  8
0
 10
48.431999999999988
 20
60.0
 30
0.0
 11
49.584000000000003
 21
60.0
 31
0.0
  0
LINE
  5
A0
  8
0
 10
48.183999999999997
 20
60.0
 30
0.0
 11
50.368000000000002
 21
60.0
 31
0.0
  0
LINE
  5
A1
  8
0
 10
47.847999999999992
 20
63.0
 30
0.0
 11
50.088000000000001
 21
63.0
 31
0.0
  0
LINE
  5
A2
  8
0
 10
46.496000000000002
 20
63.0
 30
0.0
 11
48.991999999999997
 21
63.0
 31
0.0
  0
LINE
  5
A3
  8
0
 10
46.111999999999988
 20
63.299999999999997
 30
0.0
 11
48.671999999999997
 21
63.299999999999997
 31
0.0
  0
LINE
  5
A4
  8
0
 10
46.111999999999988
 20
68.0
 30
0.0
 11
48.671999999999997
 21
68.0
 31
0.0
  0
LINE
  5
A5
  8
0
 10
49.584000000000003
 20
58.18
 30
0.0
 11
51.503999999999998
 21
58.18
 31
0.0
  0
LINE
  5
A6
  8
0
 10
49.584000000000003
 20
60.0
 30
0.0
 11
51.503999999999998
 21
60.0
 31
0.0
  0
LINE
  5
A7
  8
0
 10
50.088000000000001
 20
60.18
 30
0.0
 11
53.055999999999997
 21
60.18
 31
0.0
  0
LINE
  5
A8
  8
0
 10
50.368000000000002
 20
60.0
 30
0.0
 11
53.223999999999997
 21
60.0
 31
0.0
  0
LINE
  5
A9
  8
0
 10
50.088000000000001
 20
63.0
 30
0.0
 11
53.055999999999997
 21
63.0
 31
0.0
  0
LINE
  5
AA
  8
0
 10
48.991999999999997
 20
63.0
 30
0.0
 11
52.256
 21
63.0
 31
0.0
  0
LINE
  5
AB
  8
0
 10
48.671999999999997
 20
63.299999999999997
 30
0.0
 11
52.063999999999993
 21
63.299999999999997
 31
0.0
  0
LINE
  5
AC
  8
0
 10
48.671999999999997
 20
68.0
 30
0.0
 11
52.063999999999993
 21
68.0
 31
0.0
  0
LINE
  5
AD
  8
0
 10
51.503999999999998
 20
58.18
 30
0.0
 11
54.048000000000002
 21
58.18
 31
0.0
  0
LINE
  5
AE
  8
0
 10
51.503999999999998
 20
60.0
 30
0.0
 11
54.048000000000002
 21
60.0
 31
0.0
  0
LINE
  5
AF
  8
0
 10
52.256
 20
63.0
 30
0.0
 11
55.968000000000004
 21
63.0
 31
0.0
  0
LINE
  5
B0
  8
0
 10
52.063999999999993
 20
63.299999999999997
 30
0.0
 11
55.903999999999989
 21
63.299999999999997
 31
0.0
  0
LINE
  5
B1
  8
0
 10
52.063999999999993
 20
68.0
 30
0.0
 11
55.903999999999989
 21
68.0
 31
0.0
  0
LINE
  5
B2
  8
0
 10
51.287999999999997
 20
68.0
 30
0.0
 11
55.463999999999999
 21
68.0
 31
0.0
  0
LINE
  5
B3
  8
0
 10
47.616
 20
68.0
 30
0.0
 11
51.287999999999997
 21
68.0
 31
0.0
  0
LINE
  5
B4
  8
0
 10
44.808
 20
68.0
 30
0.0
 11
47.616
 21
68.0
 31
0.0
  0
LINE
  5
B5
  8
0
 10
51.071999999999989
 20
68.599999999999994
 30
0.0
 11
55.392000000000003
 21
68.599999999999994
 31
0.0
  0
LINE
  5
B6
  8
0
 10
47.256
 20
68.599999999999994
 30
0.0
 11
51.071999999999989
 21
68.599999999999994
 31
0.0
  0
LINE
  5
B7
  8
0
 10
44.375999999999998
 20
68.599999999999994
 30
0.0
 11
47.256
 21
68.599999999999994
 31
0.0
  0
LINE
  5
B8
  8
0
 10
42.648000000000003
 20
68.599999999999994
 30
0.0
 11
44.375999999999998
 21
68.599999999999994
 31
0.0
  0
LINE
  5
B9
  8
0
 10
43.079999999999991
 20
68.0
 30
0.0
 11
44.0
 21
68.0
 31
0.0
  0
LINE
  5
BA
  8
0
 10
43.079999999999991
 20
68.0
 30
0.0
 11
44.808
 21
68.0
 31
0.0
  0
LINE
  5
BB
  8
0
 10
42.431999999999988
 20
68.0
 30
0.0
 11
43.079999999999991
 21
68.0
 31
0.0
  0
LINE
  5
BC
  8
0
 10
42.0
 20
68.599999999999994
 30
0.0
 11
45.649859195218887
 21
88.1267466944212
 31
0.0
  0
LINE
  5
BD
  8
0
 10
42.0
 20
68.599999999999994
 30
0.0
 11
42.431999999999988
 21
68.0
 31
0.0
  0
LINE
  5
BE
  8
0
 10
42.0
 20
68.599999999999994
 30
0.0
 11
45.649859195218887
 21
88.1267466944212
 31
0.0
  0
LINE
  5
BF
  8
0
 10
42.0
 20
68.599999999999994
 30
0.0
 11
42.648000000000003
 21
68.599999999999994
 31
0.0
  0
LINE
  5
C0
  8
0
 10
54.048000000000002
 20
58.18
 30
0.0
 11
56.927999999999997
 21
58.18
 31
0.0
  0
LINE
  5
C1
  8
0
 10
54.048000000000002
 20
60.0
 30
0.0
 11
56.927999999999997
 21
60.0
 31
0.0
  0
LINE
  5
C2
  8
0
 10
53.223999999999997
 20
60.0
 30
0.0
 11
56.472000000000001
 21
60.0
 31
0.0
  0
LINE
  5
C3
  8
0
 10
53.055999999999997
 20
60.18
 30
0.0
 11
56.415999999999997
 21
60.18
 31
0.0
  0
LINE
  5
C4
  8
0
 10
53.055999999999997
 20
63.0
 30
0.0
 11
56.415999999999997
 21
63.0
 31
0.0
  0
LINE
  5
C5
  8
0
 10
56.415999999999997
 20
60.18
 30
0.0
 11
60.0
 21
60.18
 31
0.0
  0
LINE
  5
C6
  8
0
 10
56.472000000000001
 20
60.0
 30
0.0
 11
60.0
 21
60.0
 31
0.0
  0
LINE
  5
C7
  8
0
 10
56.415999999999997
 20
63.0
 30
0.0
 11
60.0
 21
63.0
 31
0.0
  0
LINE
  5
C8
  8
0
 10
55.968000000000004
 20
63.0
 30
0.0
 11
60.0
 21
63.0
 31
0.0
  0
LINE
  5
C9
  8
0
 10
55.903999999999989
 20
63.299999999999997
 30
0.0
 11
60.0
 21
63.299999999999997
 31
0.0
  0
LINE
  5
CA
  8
0
 10
55.903999999999989
 20
68.0
 30
0.0
 11
60.0
 21
68.0
 31
0.0
  0
LINE
  5
CB
  8
0
 10
55.463999999999999
 20
68.0
 30
0.0
 11
60.0
 21
68.0
 31
0.0
  0
LINE
  5
CC
  8
0
 10
53.628
 20
76.0
 30
0.0
 11
53.628
 21
68.599999999999994
 31
0.0
  0
LINE
  5
CF
  8
0
 10
55.392000000000003
 20
68.599999999999994
 30
0.0
 11
60.0
 21
68.599999999999994
 31
0.0
  0
LINE
  5
D0
  8
0
 10
52.481000000000002
 20
76.0
 30
0.0
 11
53.379899999999999
 21
76.0
 31
0.0
  0
LINE
  5
D1
  8
0
 10
48.493699999999997
 20
82.873599999999996
 30
0.0
 11
50.31819999999999
 21
79.536799999999999
 31
0.0
  0
LINE
  5
D2
  8
0
 10
50.31819999999999
 20
79.536799999999999
 30
0.0
 11
51.596000000000011
 21
77.1999
 31
0.0
  0
LINE
  5
D7
  8
0
 10
55.12489999999999
 20
80.150800000000004
 30
0.0
 11
57.587899999999998
 21
79.2791
 31
0.0
  0
LINE
  5
D8
  8
0
 10
52.603999999999999
 20
81.859499999999997
 30
0.0
 11
55.12489999999999
 21
80.150800000000004
 31
0.0
  0
LINE
  5
DA
  8
0
 10
52.055
 20
76.360299999999995
 30
0.0
 11
52.481000000000002
 21
76.0
 31
0.0
  0
LINE
  5
DB
  8
0
 10
51.596000000000011
 20
77.1999
 30
0.0
 11
52.055
 21
76.360299999999995
 31
0.0
  0
LINE
  5
DE
  8
0
 10
53.379899999999999
 20
76.0
 30
0.0
 11
56.563600000000001
 21
76.0
 31
0.0
  0
LINE
  5
DF
  8
0
 10
56.927999999999997
 20
58.18
 30
0.0
 11
60.0
 21
58.18
 31
0.0
  0
LINE
  5
E0
  8
0
 10
56.927999999999997
 20
60.0
 30
0.0
 11
60.0
 21
60.0
 31
0.0
  0
LINE
  5
E1
  8
0
 10
60.0
 20
58.18
 30
0.0
 11
63.071999999999989
 21
58.18
 31
0.0
  0
LINE
  5
E2
  8
0
 10
60.0
 20
60.0
 30
0.0
 11
63.527999999999999
 21
60.0
 31
0.0
  0
LINE
  5
E3
  8
0
 10
60.0
 20
60.0
 30
0.0
 11
63.071999999999989
 21
60.0
 31
0.0
  0
LINE
  5
E4
  8
0
 10
60.0
 20
60.18
 30
0.0
 11
63.583999999999989
 21
60.18
 31
0.0
  0
LINE
  5
E5
  8
0
 10
60.0
 20
63.0
 30
0.0
 11
64.031999999999996
 21
63.0
 31
0.0
  0
LINE
  5
E6
  8
0
 10
60.0
 20
63.0
 30
0.0
 11
63.583999999999989
 21
63.0
 31
0.0
  0
LINE
  5
E7
  8
0
 10
60.0
 20
63.299999999999997
 30
0.0
 11
64.096000000000004
 21
63.299999999999997
 31
0.0
  0
LINE
  5
E8
  8
0
 10
60.0
 20
68.0
 30
0.0
 11
64.536000000000001
 21
68.0
 31
0.0
  0
LINE
  5
E9
  8
0
 10
60.0
 20
68.0
 30
0.0
 11
64.096000000000004
 21
68.0
 31
0.0
  0
LINE
  5
EF
  8
0
 10
60.0
 20
68.599999999999994
 30
0.0
 11
64.608000000000004
 21
68.599999999999994
 31
0.0
  0
LINE
  5
F0
  8
0
 10
63.071999999999989
 20
58.18
 30
0.0
 11
65.951999999999998
 21
58.18
 31
0.0
  0
LINE
  5
F1
  8
0
 10
63.071999999999989
 20
60.0
 30
0.0
 11
65.951999999999998
 21
60.0
 31
0.0
  0
LINE
  5
F2
  8
0
 10
63.527999999999999
 20
60.0
 30
0.0
 11
66.77600000000001
 21
60.0
 31
0.0
  0
LINE
  5
F3
  8
0
 10
63.583999999999989
 20
60.18
 30
0.0
 11
66.944000000000003
 21
60.18
 31
0.0
  0
LINE
  5
F4
  8
0
 10
63.583999999999989
 20
63.0
 30
0.0
 11
66.944000000000003
 21
63.0
 31
0.0
  0
LINE
  5
F5
  8
0
 10
64.031999999999996
 20
63.0
 30
0.0
 11
67.743999999999986
 21
63.0
 31
0.0
  0
LINE
  5
F6
  8
0
 10
64.096000000000004
 20
63.299999999999997
 30
0.0
 11
67.936000000000007
 21
63.299999999999997
 31
0.0
  0
LINE
  5
F7
  8
0
 10
64.096000000000004
 20
68.0
 30
0.0
 11
67.936000000000007
 21
68.0
 31
0.0
  0
LINE
  5
F8
  8
0
 10
65.951999999999998
 20
58.18
 30
0.0
 11
68.496000000000009
 21
58.18
 31
0.0
  0
LINE
  5
F9
  8
0
 10
65.951999999999998
 20
60.0
 30
0.0
 11
68.496000000000009
 21
60.0
 31
0.0
  0
LINE
  5
FA
  8
0
 10
64.536000000000001
 20
68.0
 30
0.0
 11
68.712000000000003
 21
68.0
 31
0.0
  0
LINE
  5
FD
  8
0
 10
66.371999999999986
 20
76.0
 30
0.0
 11
66.371999999999986
 21
68.599999999999994
 31
0.0
  0
LINE
  5
100
  8
0
 10
64.608000000000004
 20
68.599999999999994
 30
0.0
 11
68.927999999999997
 21
68.599999999999994
 31
0.0
  0
LINE
  5
101
  8
0
 10
66.77600000000001
 20
60.0
 30
0.0
 11
69.632000000000005
 21
60.0
 31
0.0
  0
LINE
  5
102
  8
0
 10
66.944000000000003
 20
60.18
 30
0.0
 11
69.911999999999992
 21
60.18
 31
0.0
  0
LINE
  5
103
  8
0
 10
66.944000000000003
 20
63.0
 30
0.0
 11
69.911999999999992
 21
63.0
 31
0.0
  0
LINE
  5
104
  8
0
 10
67.743999999999986
 20
63.0
 30
0.0
 11
71.007999999999996
 21
63.0
 31
0.0
  0
LINE
  5
105
  8
0
 10
67.936000000000007
 20
63.299999999999997
 30
0.0
 11
71.328000000000003
 21
63.299999999999997
 31
0.0
  0
LINE
  5
106
  8
0
 10
68.496000000000009
 20
60.0
 30
0.0
 11
70.415999999999997
 21
60.0
 31
0.0
  0
LINE
  5
107
  8
0
 10
68.496000000000009
 20
58.18
 30
0.0
 11
70.415999999999997
 21
58.18
 31
0.0
  0
LINE
  5
108
  8
0
 10
67.936000000000007
 20
68.0
 30
0.0
 11
71.328000000000003
 21
68.0
 31
0.0
  0
LINE
  5
109
  8
0
 10
68.712000000000003
 20
68.0
 30
0.0
 11
72.384
 21
68.0
 31
0.0
  0
LINE
  5
10A
  8
0
 10
69.632000000000005
 20
60.0
 30
0.0
 11
71.816000000000003
 21
60.0
 31
0.0
  0
LINE
  5
10B
  8
0
 10
69.911999999999992
 20
63.0
 30
0.0
 11
72.152000000000001
 21
63.0
 31
0.0
  0
LINE
  5
10C
  8
0
 10
69.911999999999992
 20
60.18
 30
0.0
 11
72.152000000000001
 21
60.18
 31
0.0
  0
LINE
  5
10E
  8
0
 10
68.927999999999997
 20
68.599999999999994
 30
0.0
 11
72.743999999999986
 21
68.599999999999994
 31
0.0
  0
LINE
  5
10F
  8
0
 10
67.518999999999991
 20
76.0
 30
0.0
 11
67.944999999999993
 21
76.360299999999995
 31
0.0
  0
LINE
  5
110
  8
0
 10
66.620099999999994
 20
76.0
 30
0.0
 11
67.518999999999991
 21
76.0
 31
0.0
  0
LINE
  5
113
  8
0
 10
63.436399999999999
 20
76.0
 30
0.0
 11
66.620099999999994
 21
76.0
 31
0.0
  0
LINE
  5
116
  8
0
 10
60.0
 20
76.0
 30
0.0
 11
63.436399999999999
 21
76.0
 31
0.0
  0
LINE
  5
118
  8
0
 10
60.166800000000002
 20
78.989500000000007
 30
0.0
 11
62.687800000000003
 21
79.365899999999996
 31
0.0
  0
LINE
  5
11E
  8
0
 10
68.403999999999996
 20
77.1999
 30
0.0
 11
69.681799999999996
 21
79.536799999999999
 31
0.0
  0
LINE
  5
11F
  8
0
 10
67.944999999999993
 20
76.360299999999995
 30
0.0
 11
68.403999999999996
 21
77.1999
 31
0.0
  0
LINE
  5
120
  8
0
 10
57.587899999999998
 20
79.2791
 30
0.0
 11
60.166800000000002
 21
78.989500000000007
 31
0.0
  0
LINE
  5
122
  8
0
 10
67.671700000000001
 20
82.062200000000004
 30
0.0
 11
69.526200000000003
 21
84.494900000000001
 31
0.0
  0
LINE
  5
123
  8
0
 10
65.179699999999997
 20
80.321700000000007
 30
0.0
 11
67.671700000000001
 21
82.062200000000004
 31
0.0
  0
LINE
  5
125
  8
0
 10
62.687800000000003
 20
79.365899999999996
 30
0.0
 11
65.179699999999997
 21
80.321700000000007
 31
0.0
  0
LINE
  5
126
  8
0
 10
69.681799999999996
 20
79.536799999999999
 30
0.0
 11
71.506299999999996
 21
82.873599999999996
 31
0.0
  0
LINE
  5
128
  8
0
 10
56.563600000000001
 20
76.0
 30
0.0
 11
60.0
 21
76.0
 31
0.0
  0
LINE
  5
12A
  8
0
 10
70.415999999999997
 20
60.0
 30
0.0
 11
71.567999999999998
 21
60.0
 31
0.0
  0
LINE
  5
12B
  8
0
 10
70.415999999999997
 20
58.18
 30
0.0
 11
71.567999999999998
 21
58.18
 31
0.0
  0
LINE
  5
12C
  8
0
 10
71.007999999999996
 20
63.0
 30
0.0
 11
73.503999999999991
 21
63.0
 31
0.0
  0
LINE
  5
12D
  8
0
 10
71.328000000000003
 20
68.0
 30
0.0
 11
73.888000000000005
 21
68.0
 31
0.0
  0
LINE
  5
12E
  8
0
 10
71.567999999999998
 20
60.0
 30
0.0
 11
72.0
 21
60.0
 31
0.0
  0
LINE
  5
12F
  8
0
 10
71.567999999999998
 20
58.18
 30
0.0
 11
72.0
 21
58.18
 31
0.0
  0
LINE
  5
130
  8
0
 10
72.0
 20
58.18
 30
0.0
 11
72.0
 21
60.0
 31
0.0
  0
LINE
  5
131
  8
0
 10
71.816000000000003
 20
60.0
 30
0.0
 11
73.159999999999997
 21
60.0
 31
0.0
  0
LINE
  5
132
  8
0
 10
72.152000000000001
 20
63.0
 30
0.0
 11
73.496000000000009
 21
63.0
 31
0.0
  0
LINE
  5
133
  8
0
 10
72.152000000000001
 20
60.18
 30
0.0
 11
73.496000000000009
 21
60.18
 31
0.0
  0
LINE
  5
134
  8
0
 10
72.0
 20
60.0
 30
0.0
 11
73.159999999999997
 21
60.0
 31
0.0
  0
LINE
  5
135
  8
0
 10
72.0
 20
60.0
 30
0.0
 11
72.0
 21
58.18
 31
0.0
  0
LINE
  5
136
  8
0
 10
71.328000000000003
 20
63.299999999999997
 30
0.0
 11
73.888000000000005
 21
63.299999999999997
 31
0.0
  0
LINE
  5
137
  8
0
 10
72.384
 20
68.0
 30
0.0
 11
75.191999999999993
 21
68.0
 31
0.0
  0
LINE
  5
138
  8
0
 10
73.496000000000009
 20
63.0
 30
0.0
 11
74.0
 21
63.0
 31
0.0
  0
LINE
  5
139
  8
0
 10
73.496000000000009
 20
60.18
 30
0.0
 11
74.0
 21
60.18
 31
0.0
  0
LINE
  5
13A
  8
0
 10
73.159999999999997
 20
60.0
 30
0.0
 11
73.664000000000001
 21
60.0
 31
0.0
  0
LINE
  5
13B
  8
0
 10
72.743999999999986
 20
68.599999999999994
 30
0.0
 11
75.623999999999995
 21
68.599999999999994
 31
0.0
  0
LINE
  5
13C
  8
0
 10
71.506299999999996
 20
82.873599999999996
 30
0.0
 11
73.320800000000006
 21
86.192099999999996
 31
0.0
  0
LINE
  5
13F
  8
0
 10
45.1051
 20
90.809399999999997
 30
0.0
 11
45.573799999999999
 21
91.7303
 31
0.0
  0
LINE
  5
140
  8
0
 10
45.573799999999999
 20
91.7303
 30
0.0
 11
46.679200000000002
 21
93.807900000000004
 31
0.0
  0
LINE
  5
145
  8
0
 10
45.0
 20
90.0
 30
0.0
 11
45.1051
 21
89.190599999999989
 31
0.0
  0
LINE
  5
146
  8
0
 10
45.0
 20
90.0
 30
0.0
 11
45.1051
 21
90.809399999999997
 31
0.0
  0
LINE
  5
147
  8
0
 10
45.1051
 20
89.190599999999989
 30
0.0
 11
45.573799999999999
 21
88.269700000000014
 31
0.0
  0
LINE
  5
149
  8
0
 10
45.573799999999999
 20
88.269700000000014
 30
0.0
 11
46.679200000000002
 21
86.192099999999996
 31
0.0
  0
LINE
  5
14B
  8
0
 10
45.573799999999999
 20
88.269700000000014
 30
0.0
 11
45.649859195218887
 21
88.1267466944212
 31
0.0
  0
LINE
  5
151
  8
0
 10
50.604599999999991
 20
84.234300000000005
 30
0.0
 11
52.603999999999999
 21
81.859499999999997
 31
0.0
  0
LINE
  5
158
  8
0
 10
69.526200000000003
 20
84.494900000000001
 30
0.0
 11
70.598299999999995
 21
87.246199999999988
 31
0.0
  0
LINE
  5
159
  8
0
 10
73.320800000000006
 20
86.192099999999996
 30
0.0
 11
74.426199999999994
 21
88.269700000000014
 31
0.0
  0
LINE
  5
15C
  8
0
 10
46.679200000000002
 20
86.192099999999996
 30
0.0
 11
48.493699999999997
 21
82.873599999999996
 31
0.0
  0
LINE
  5
160
  8
0
 10
46.679200000000002
 20
93.807900000000004
 30
0.0
 11
48.493699999999997
 21
97.126400000000004
 31
0.0
  0
LINE
  5
163
  8
0
 10
48.981900000000003
 20
89.907799999999995
 30
0.0
 11
49.503500000000003
 21
86.808899999999994
 31
0.0
  0
LINE
  5
164
  8
0
 10
48.981900000000003
 20
89.907799999999995
 30
0.0
 11
49.416499999999999
 21
92.832800000000006
 31
0.0
  0
LINE
  5
166
  8
0
 10
49.416499999999999
 20
92.832800000000006
 30
0.0
 11
50.517600000000002
 21
95.584199999999996
 31
0.0
  0
LINE
  5
177
  8
0
 10
69.477742697201705
 20
95.587970300315803
 30
0.0
 11
69.7470059316733
 21
94.946170658080774
 31
0.0
  0
LINE
  5
178
  8
0
 10
50.517600000000002
 20
95.584199999999996
 30
0.0
 11
52.690899999999999
 21
98.141300000000001
 31
0.0
  0
LINE
  5
17A
  8
0
 10
69.497200000000007
 20
95.563800000000001
 30
0.0
 11
70.598299999999995
 21
92.841399999999979
 31
0.0
  0
LINE
  5
17C
  8
0
 10
70.967571130571002
 20
90.0
 30
0.0
 11
70.974999999999994
 21
90.055400000000006
 31
0.0
  0
LINE
  5
17D
  8
0
 10
70.598299999999995
 20
92.841399999999979
 30
0.0
 11
70.974999999999994
 21
90.055400000000006
 31
0.0
  0
LINE
  5
181
  8
0
 10
73.320800000000006
 20
93.807900000000004
 30
0.0
 11
74.426199999999994
 21
91.7303
 31
0.0
  0
LINE
  5
183
  8
0
 10
70.598299999999995
 20
87.246199999999988
 30
0.0
 11
70.974999999999994
 21
90.055400000000006
 31
0.0
  0
LINE
  5
185
  8
0
 10
49.503500000000003
 20
86.808899999999994
 30
0.0
 11
50.604599999999991
 21
84.234300000000005
 31
0.0
  0
LINE
  5
189
  8
0
 10
48.493699999999997
 20
97.126400000000004
 30
0.0
 11
50.31819999999999
 21
100.4631999999999
 31
0.0
  0
LINE
  5
18C
  8
0
 10
67.642700000000005
 20
97.996499999999983
 30
0.0
 11
69.497200000000007
 21
95.563800000000001
 31
0.0
  0
LINE
  5
18D
  8
0
 10
52.690899999999999
 20
98.141300000000001
 30
0.0
 11
55.1539
 21
99.849999999999994
 31
0.0
  0
LINE
  5
18E
  8
0
 10
62.716700000000003
 20
100.6609
 30
0.0
 11
65.150700000000001
 21
99.647300000000016
 31
0.0
  0
LINE
  5
192
  8
0
 10
57.587899999999998
 20
100.6609
 30
0.0
 11
60.108800000000002
 21
100.9794999999999
 31
0.0
  0
LINE
  5
193
  8
0
 10
60.108800000000002
 20
100.9794999999999
 30
0.0
 11
62.716700000000003
 21
100.6609
 31
0.0
  0
LINE
  5
194
  8
0
 10
55.1539
 20
99.849999999999994
 30
0.0
 11
57.587899999999998
 21
100.6609
 31
0.0
  0
LINE
  5
195
  8
0
 10
65.150700000000001
 20
99.647300000000016
 30
0.0
 11
67.642700000000005
 21
97.996499999999983
 31
0.0
  0
LINE
  5
19C
  8
0
 10
50.31819999999999
 20
100.4631999999999
 30
0.0
 11
51.596000000000011
 21
102.8000999999999
 31
0.0
  0
LINE
  5
19D
  8
0
 10
52.055
 20
103.6397
 30
0.0
 11
52.481000000000002
 21
104.0
 31
0.0
  0
LINE
  5
19E
  8
0
 10
51.596000000000011
 20
102.8000999999999
 30
0.0
 11
52.055
 21
103.6397
 31
0.0
  0
LINE
  5
1A1
  8
0
 10
69.681799999999996
 20
100.4631999999999
 30
0.0
 11
71.506299999999996
 21
97.126400000000004
 31
0.0
  0
LINE
  5
1A2
  8
0
 10
68.403999999999996
 20
102.8000999999999
 30
0.0
 11
69.681799999999996
 21
100.4631999999999
 31
0.0
  0
LINE
  5
1A6
  8
0
 10
52.481000000000002
 20
104.0
 30
0.0
 11
53.379899999999999
 21
104.0
 31
0.0
  0
LINE
  5
1A7
  8
0
 10
53.379899999999999
 20
104.0
 30
0.0
 11
56.563600000000001
 21
104.0
 31
0.0
  0
LINE
  5
1A8
  8
0
 10
56.563600000000001
 20
104.0
 30
0.0
 11
60.0
 21
104.0
 31
0.0
  0
LINE
  5
1A9
  8
0
 10
60.0
 20
104.0
 30
0.0
 11
63.436399999999999
 21
104.0
 31
0.0
  0
LINE
  5
1AB
  8
0
 10
67.518999999999991
 20
104.0
 30
0.0
 11
67.944999999999993
 21
103.6397
 31
0.0
  0
LINE
  5
1AD
  8
0
 10
66.620099999999994
 20
104.0
 30
0.0
 11
67.518999999999991
 21
104.0
 31
0.0
  0
LINE
  5
1AE
  8
0
 10
63.436399999999999
 20
104.0
 30
0.0
 11
66.620099999999994
 21
104.0
 31
0.0
  0
LINE
  5
1AF
  8
0
 10
67.944999999999993
 20
103.6397
 30
0.0
 11
68.403999999999996
 21
102.8000999999999
 31
0.0
  0
LINE
  5
1B0
  8
0
 10
71.506299999999996
 20
97.126400000000004
 30
0.0
 11
73.320800000000006
 21
93.807900000000004
 31
0.0
  0
LINE
  5
1B8
  8
0
 10
73.664000000000001
 20
60.0
 30
0.0
 11
74.0
 21
60.18
 31
0.0
  0
LINE
  5
1B9
  8
0
 10
74.0
 20
60.18
 30
0.0
 11
74.0
 21
63.0
 31
0.0
  0
LINE
  5
1BA
  8
0
 10
73.503999999999991
 20
63.0
 30
0.0
 11
75.040000000000006
 21
63.0
 31
0.0
  0
LINE
  5
1BB
  8
0
 10
73.888000000000005
 20
68.0
 30
0.0
 11
75.423999999999992
 21
68.0
 31
0.0
  0
LINE
  5
1BC
  8
0
 10
73.888000000000005
 20
63.299999999999997
 30
0.0
 11
75.423999999999992
 21
63.299999999999997
 31
0.0
  0
LINE
  5
1BD
  8
0
 10
74.0
 20
63.0
 30
0.0
 11
75.040000000000006
 21
63.0
 31
0.0
  0
LINE
  5
1BE
  8
0
 10
74.0
 20
63.0
 30
0.0
 11
74.0
 21
60.18
 31
0.0
  0
LINE
  5
1BF
  8
0
 10
75.040000000000006
 20
63.0
 30
0.0
 11
75.616
 21
63.0
 31
0.0
  0
LINE
  5
1C0
  8
0
 10
75.423999999999992
 20
63.299999999999997
 30
0.0
 11
76.0
 21
63.299999999999997
 31
0.0
  0
LINE
  5
1C1
  8
0
 10
75.616
 20
63.0
 30
0.0
 11
76.0
 21
63.299999999999997
 31
0.0
  0
LINE
  5
1C2
  8
0
 10
75.423999999999992
 20
68.0
 30
0.0
 11
76.0
 21
68.0
 31
0.0
  0
LINE
  5
1C3
  8
0
 10
76.0
 20
63.299999999999997
 30
0.0
 11
76.0
 21
68.0
 31
0.0
  0
LINE
  5
1C4
  8
0
 10
75.191999999999993
 20
68.0
 30
0.0
 11
76.920000000000002
 21
68.0
 31
0.0
  0
LINE
  5
1C5
  8
0
 10
76.0
 20
68.0
 30
0.0
 11
76.920000000000002
 21
68.0
 31
0.0
  0
LINE
  5
1C6
  8
0
 10
76.0
 20
68.0
 30
0.0
 11
76.0
 21
63.299999999999997
 31
0.0
  0
LINE
  5
1C7
  8
0
 10
76.920000000000002
 20
68.0
 30
0.0
 11
77.567999999999998
 21
68.0
 31
0.0
  0
LINE
  5
1C8
  8
0
 10
75.623999999999995
 20
68.599999999999994
 30
0.0
 11
77.352000000000004
 21
68.599999999999994
 31
0.0
  0
LINE
  5
1C9
  8
0
 10
77.352000000000004
 20
68.599999999999994
 30
0.0
 11
78.0
 21
68.599999999999994
 31
0.0
  0
LINE
  5
1CA
  8
0
 10
77.567999999999998
 20
68.0
 30
0.0
 11
78.0
 21
68.599999999999994
 31
0.0
  0
LINE
  5
1CB
  8
0
 10
74.350140804781091
 20
88.1267466944212
 30
0.0
 11
78.0
 21
68.599999999999994
 31
0.0
  0
LINE
  5
1CC
  8
0
 10
74.426199999999994
 20
88.269700000000014
 30
0.0
 11
74.894900000000007
 21
89.190599999999989
 31
0.0
  0
LINE
  5
1CD
  8
0
 10
74.894900000000007
 20
90.809399999999997
 30
0.0
 11
75.0
 21
90.0
 31
0.0
  0
LINE
  5
1CE
  8
0
 10
74.426199999999994
 20
91.7303
 30
0.0
 11
74.894900000000007
 21
90.809399999999997
 31
0.0
  0
LINE
  5
1D0
  8
0
 10
74.894900000000007
 20
89.190599999999989
 30
0.0
 11
75.0
 21
90.0
 31
0.0
  0
LINE
  5
1D4
  8
0
 10
74.426199999999994
 20
88.269700000000014
 30
0.0
 11
74.894900000000007
 21
89.190599999999989
 31
0.0
  0
LINE
  5
1D7
  8
0
 10
0.999999999999996
 20
58.0
 30
0.0
 11
119.0
 21
58.0
 31
0.0
  0
LINE
  5
1D8
  8
0
 10
119.0
 20
58.0
 30
0.0
 11
119.7
 21
57.700000000000003
 31
0.0
  0
LINE
  5
1D9
  8
0
 10
0.999999999999996
 20
57.700000000000003
 30
0.0
 11
119.0
 21
57.700000000000003
 31
0.0
  0
LINE
  5
1DA
  8
0
 10
119.7
 20
57.700000000000003
 30
0.0
 11
120.0
 21
57.0
 31
0.0
  0
LINE
  5
1DB
  8
0
 10
119.0
 20
57.700000000000003
 30
0.0
 11
119.5
 21
57.5
 31
0.0
  0
LINE
  5
1DC
  8
0
 10
119.5
 20
57.5
 30
0.0
 11
119.7
 21
57.0
 31
0.0
  0
LINE
  5
1DE
  8
0
 10
120.0
 20
57.0
 30
0.0
 11
120.0
 21
39.0
 31
0.0
  0
LINE
  5
1DF
  8
0
 10
120.0
 20
39.0
 30
0.0
 11
120.0
 21
57.0
 31
0.0
  0
LINE
  5
1E0
  8
0
 10
119.7
 20
39.0
 30
0.0
 11
119.7
 21
57.0
 31
0.0
  0
LINE
  5
1E1
  8
0
 10
0.5
 20
38.5
 30
0.0
 11
1.0
 21
38.299999999999997
 31
0.0
  0
LINE
  5
1E2
  8
0
 10
0.3
 20
39.0
 30
0.0
 11
0.5
 21
38.5
 31
0.0
  0
LINE
  5
1E3
  8
0
 10
0.3
 20
39.0
 30
0.0
 11
0.3
 21
57.0
 31
0.0
  0
ENDSEC
  0
EOF
