  0
SECTION
  2
HEADER
  9
$ACADVER
  1
AC1009
  9
$INSBASE
 10
0.0
 20
0.0
 30
0.0
  9
$EXTMIN
 10
-0.0000000000000005
 20
-0.0000000000000035
 30
0.0
  9
$EXTMAX
 10
104.0
 20
120.0
 30
0.0
  9
$LIMMIN
 10
0.0
 20
0.0
  9
$LIMMAX
 10
12.0
 20
9.0
  9
$ORTHOMODE
 70
     0
  9
$REGENMODE
 70
     1
  9
$FILLMODE
 70
     1
  9
$QTEXTMODE
 70
     0
  9
$MIRRTEXT
 70
     1
  9
$DRAGMODE
 70
     2
  9
$LTSCALE
 40
1.0
  9
$OSMODE
 70
    37
  9
$ATTMODE
 70
     1
  9
$TEXTSIZE
 40
0.2
  9
$TRACEWID
 40
0.05
  9
$TEXTSTYLE
  7
STANDARD
  9
$CLAYER
  8
0
  9
$CELTYPE
  6
CONTINUOUS
  9
$CECOLOR
 62
   256
  9
$DIMSCALE
 40
1.0
  9
$DIMASZ
 40
0.18
  9
$DIMEXO
 40
0.0625
  9
$DIMDLI
 40
0.38
  9
$DIMRND
 40
0.0
  9
$DIMDLE
 40
0.0
  9
$DIMEXE
 40
0.18
  9
$DIMTP
 40
0.0
  9
$DIMTM
 40
0.0
  9
$DIMTXT
 40
0.18
  9
$DIMCEN
 40
0.09
  9
$DIMTSZ
 40
0.0
  9
$DIMTOL
 70
     0
  9
$DIMLIM
 70
     0
  9
$DIMTIH
 70
     1
  9
$DIMTOH
 70
     1
  9
$DIMSE1
 70
     0
  9
$DIMSE2
 70
     0
  9
$DIMTAD
 70
     0
  9
$DIMZIN
 70
     0
  9
$DIMBLK
  1

  9
$DIMASO
 70
     1
  9
$DIMSHO
 70
     1
  9
$DIMPOST
  1

  9
$DIMAPOST
  1

  9
$DIMALT
 70
     0
  9
$DIMALTD
 70
     2
  9
$DIMALTF
 40
25.399999999999999
  9
$DIMLFAC
 40
1.0
  9
$DIMTOFL
 70
     0
  9
$DIMTVP
 40
0.0
  9
$DIMTIX
 70
     0
  9
$DIMSOXD
 70
     0
  9
$DIMSAH
 70
     0
  9
$DIMBLK1
  1

  9
$DIMBLK2
  1

  9
$DIMSTYLE
  2
STANDARD
  9
$DIMCLRD
 70
     0
  9
$DIMCLRE
 70
     0
  9
$DIMCLRT
 70
     0
  9
$DIMTFAC
 40
1.0
  9
$DIMGAP
 40
0.09
  9
$LUNITS
 70
     2
  9
$LUPREC
 70
     4
  9
$SKETCHINC
 40
0.1
  9
$FILLETRAD
 40
0.0
  9
$AUNITS
 70
     0
  9
$AUPREC
 70
     0
  9
$MENU
  1
.
  9
$ELEVATION
 40
0.0
  9
$PELEVATION
 40
0.0
  9
$THICKNESS
 40
0.0
  9
$LIMCHECK
 70
     0
  9
$BLIPMODE
 70
     0
  9
$CHAMFERA
 40
0.0
  9
$CHAMFERB
 40
0.0
  9
$SKPOLY
 70
     0
  9
$TDCREATE
 40
2454674.5972820711
  9
$TDUPDATE
 40
2454674.5989013659
  9
$TDINDWG
 40
0.0016194676
  9
$TDUSRTIMER
 40
0.0016194676
  9
$USRTIMER
 70
     1
  9
$ANGBASE
 50
0.0
  9
$ANGDIR
 70
     0
  9
$PDMODE
 70
     0
  9
$PDSIZE
 40
0.0
  9
$PLINEWID
 40
0.0
  9
$COORDS
 70
     1
  9
$SPLFRAME
 70
     0
  9
$SPLINETYPE
 70
     6
  9
$SPLINESEGS
 70
     8
  9
$ATTDIA
 70
     0
  9
$ATTREQ
 70
     1
  9
$HANDLING
 70
 22529
  9
$HANDSEED
  5
305
  9
$SURFTAB1
 70
     6
  9
$SURFTAB2
 70
     6
  9
$SURFTYPE
 70
     6
  9
$SURFU
 70
     6
  9
$SURFV
 70
     6
  9
$UCSNAME
  2

  9
$UCSORG
 10
0.0
 20
0.0
 30
0.0
  9
$UCSXDIR
 10
1.0
 20
0.0
 30
0.0
  9
$UCSYDIR
 10
0.0
 20
1.0
 30
0.0
  9
$PUCSNAME
  2

  9
$PUCSORG
 10
0.0
 20
0.0
 30
0.0
  9
$PUCSXDIR
 10
1.0
 20
0.0
 30
0.0
  9
$PUCSYDIR
 10
0.0
 20
1.0
 30
0.0
  9
$USERI1
 70
     0
  9
$USERI2
 70
     0
  9
$USERI3
 70
     0
  9
$USERI4
 70
     0
  9
$USERI5
 70
     0
  9
$USERR1
 40
0.0
  9
$USERR2
 40
0.0
  9
$USERR3
 40
0.0
  9
$USERR4
 40
0.0
  9
$USERR5
 40
0.0
  9
$WORLDVIEW
 70
     1
  9
$SHADEDGE
 70
     3
  9
$SHADEDIF
 70
    70
  9
$TILEMODE
 70
     1
  9
$MAXACTVP
 70
    64
  9
$PLIMCHECK
 70
     0
  9
$PEXTMIN
 10
1.0000000000000000E+020
 20
1.0000000000000000E+020
 30
1.0000000000000000E+020
  9
$PEXTMAX
 10
-1.0000000000000000E+020
 20
-1.0000000000000000E+020
 30
-1.0000000000000000E+020
  9
$PLIMMIN
 10
0.0
 20
0.0
  9
$PLIMMAX
 10
12.0
 20
9.0
  9
$UNITMODE
 70
     0
  9
$VISRETAIN
 70
     1
  9
$PLINEGEN
 70
     0
  9
$PSLTSCALE
 70
     1
  0
ENDSEC
  0
SECTION
  2
TABLES
  0
TABLE
  2
VPORT
 70
     3
  0
VPORT
  2
*ACTIVE
 70
     0
 10
0.0
 20
0.0
 11
1.0
 21
1.0
 12
52.0
 22
60.0
 13
0.0
 23
0.0
 14
1.0
 24
1.0
 15
0.0
 25
0.0
 16
0.0
 26
0.0
 36
1.0
 17
0.0
 27
0.0
 37
0.0
 40
120.92071611253191
 41
2.0435339308578739
 42
50.0
 43
0.0
 44
0.0
 50
0.0
 51
0.0
 71
     0
 72
   100
 73
     1
 74
     3
 75
     0
 76
     0
 77
     0
 78
     0
  0
ENDTAB
  0
TABLE
  2
LTYPE
 70
     1
  0
LTYPE
  2
CONTINUOUS
 70
     0
  3
Solid line
 72
    65
 73
     0
 40
0.0
  0
ENDTAB
  0
TABLE
  2
LAYER
 70
     1
  0
LAYER
  2
0
 70
     0
 62
     7
  6
CONTINUOUS
  0
ENDTAB
  0
TABLE
  2
STYLE
 70
     1
  0
STYLE
  2
STANDARD
 70
     0
 40
0.0
 41
1.0
 50
0.0
 71
     0
 42
0.2
  3
txt
  4

  0
ENDTAB
  0
TABLE
  2
VIEW
 70
     0
  0
ENDTAB
  0
TABLE
  2
UCS
 70
     0
  0
ENDTAB
  0
TABLE
  2
APPID
 70
     1
  0
APPID
  2
ACAD
 70
     0
  0
ENDTAB
  0
TABLE
  2
DIMSTYLE
 70
     1
  0
DIMSTYLE
  2
STANDARD
 70
     0
  3

  4

  5

  6

  7

 40
1.0
 41
0.18
 42
0.0625
 43
0.38
 44
0.18
 45
0.0
 46
0.0
 47
0.0
 48
0.0
140
0.18
141
0.09
142
0.0
143
25.399999999999999
144
1.0
145
0.0
146
1.0
147
0.09
 71
     0
 72
     0
 73
     1
 74
     1
 75
     0
 76
     0
 77
     0
 78
     0
170
     0
171
     2
172
     0
173
     0
174
     0
175
     0
176
     0
177
     0
178
     0
  0
ENDTAB
  0
ENDSEC
  0
SECTION
  2
BLOCKS
  0
BLOCK
  8
0
  2
$MODEL_SPACE
 70
     0
 10
0.0
 20
0.0
 30
0.0
  3
$MODEL_SPACE
  1

  0
ENDBLK
  5
20
  8
0
  0
BLOCK
 67
     1
  8
0
  2
$PAPER_SPACE
 70
     0
 10
0.0
 20
0.0
 30
0.0
  3
$PAPER_SPACE
  1

  0
ENDBLK
  5
1C
 67
     1
  8
0
  0
ENDSEC
  0
SECTION
  2
ENTITIES
  0
LINE
  5
22
  8
0
 10
38.299999999999997
 20
0.299999999999998
 30
0.0
 11
38.5
 21
0.299999999999998
 31
0.0
  0
LINE
  5
23
  8
0
 10
38.299999999999997
 20
0.299999999999998
 30
0.0
 11
39.0
 21
-0.0000000000000024
 31
0.0
  0
LINE
  5
24
  8
0
 10
38.299999999999997
 20
0.299999999999998
 30
0.0
 11
39.0
 21
-0.0000000000000024
 31
0.0
  0
LINE
  5
25
  8
0
 10
38.299999999999997
 20
0.999999999999996
 30
0.0
 11
38.299999999999997
 21
119.0
 31
0.0
  0
LINE
  5
26
  8
0
 10
38.299999999999997
 20
0.9999999999999978
 30
0.0
 11
38.299999999999997
 21
119.0
 31
0.0
  0
LINE
  5
27
  8
0
 10
38.299999999999997
 20
0.9999999999999978
 30
0.0
 11
38.5
 21
0.299999999999998
 31
0.0
  0
LINE
  5
28
  8
0
 10
38.0
 20
0.999999999999996
 30
0.0
 11
38.0
 21
119.0
 31
0.0
  0
LINE
  5
29
  8
0
 10
-0.0000000000000005
 20
42.920000000000002
 30
0.0
 11
0.384615
 21
42.5
 31
0.0
  0
LINE
  5
2A
  8
0
 10
-0.0000000000000005
 20
42.920000000000002
 30
0.0
 11
0.384615
 21
42.5
 31
0.0
  0
LINE
  5
2B
  8
0
 10
-0.0000000000000005
 20
42.920000000000002
 30
0.0
 11
-0.0000000000000005
 21
43.54999999999999
 31
0.0
  0
LINE
  5
2C
  8
0
 10
0.384615000000001
 20
42.5
 30
0.0
 11
37.615400000000001
 21
42.5
 31
0.0
  0
LINE
  5
2D
  8
0
 10
0.384615
 20
43.130000000000003
 30
0.0
 11
0.384615
 21
44.810000000000002
 31
0.0
  0
LINE
  5
2E
  8
0
 10
0.384615
 20
42.5
 30
0.0
 11
37.615400000000001
 21
42.5
 31
0.0
  0
LINE
  5
2F
  8
0
 10
0.384615
 20
42.5
 30
0.0
 11
0.384615
 21
43.130000000000003
 31
0.0
  0
LINE
  5
30
  8
0
 10
-0.0000000000000005
 20
43.54999999999999
 30
0.0
 11
-0.0000000000000004
 21
45.22999999999999
 31
0.0
  0
LINE
  5
31
  8
0
 10
0.0000000000000005
 20
60.0
 30
0.0
 11
0.0000000000000008
 21
64.409999999999997
 31
0.0
  0
LINE
  5
32
  8
0
 10
0.0000000000000008
 20
64.409999999999997
 30
0.0
 11
0.000000000000001
 21
68.469999999999999
 31
0.0
  0
LINE
  5
33
  8
0
 10
0.000000000000001
 20
68.469999999999999
 30
0.0
 11
0.0000000000000013
 21
72.040000000000006
 31
0.0
  0
LINE
  5
34
  8
0
 10
0.0000000000000013
 20
72.040000000000006
 30
0.0
 11
0.0000000000000014
 21
74.769999999999996
 31
0.0
  0
LINE
  5
35
  8
0
 10
0.0000000000000014
 20
74.769999999999996
 30
0.0
 11
0.0000000000000015
 21
76.450000000000003
 31
0.0
  0
LINE
  5
36
  8
0
 10
0.0000000000000016
 20
77.079999999999998
 30
0.0
 11
0.384615000000002
 21
77.5
 31
0.0
  0
LINE
  5
37
  8
0
 10
0.0000000000000015
 20
76.450000000000003
 30
0.0
 11
0.0000000000000016
 21
77.079999999999998
 31
0.0
  0
LINE
  5
38
  8
0
 10
0.0000000000000016
 20
77.079999999999998
 30
0.0
 11
0.384615000000002
 21
77.5
 31
0.0
  0
LINE
  5
39
  8
0
 10
0.0000000000000003
 20
55.590000000000011
 30
0.0
 11
0.0000000000000005
 21
60.0
 31
0.0
  0
LINE
  5
3A
  8
0
 10
0.0
 20
51.530000000000001
 30
0.0
 11
0.0000000000000003
 21
55.590000000000011
 31
0.0
  0
LINE
  5
3B
  8
0
 10
-0.0000000000000002
 20
47.960000000000001
 30
0.0
 11
0.0
 21
51.530000000000001
 31
0.0
  0
LINE
  5
3C
  8
0
 10
-0.0000000000000004
 20
45.22999999999999
 30
0.0
 11
-0.0000000000000002
 21
47.960000000000001
 31
0.0
  0
LINE
  5
3D
  8
0
 10
0.384615000000001
 20
60.0
 30
0.0
 11
0.384615000000001
 21
64.480000000000004
 31
0.0
  0
LINE
  5
3E
  8
0
 10
0.384615000000001
 20
64.480000000000004
 30
0.0
 11
0.384615000000001
 21
68.680000000000007
 31
0.0
  0
LINE
  5
3F
  8
0
 10
0.384615000000001
 20
68.680000000000007
 30
0.0
 11
0.384615000000001
 21
72.390000000000001
 31
0.0
  0
LINE
  5
40
  8
0
 10
0.384615000000001
 20
72.390000000000001
 30
0.0
 11
0.384615000000002
 21
75.189999999999998
 31
0.0
  0
LINE
  5
41
  8
0
 10
0.384615000000002
 20
75.189999999999998
 30
0.0
 11
0.384615000000002
 21
76.870000000000005
 31
0.0
  0
LINE
  5
42
  8
0
 10
0.384615000000002
 20
77.5
 30
0.0
 11
37.615400000000001
 21
77.5
 31
0.0
  0
LINE
  5
43
  8
0
 10
0.384615000000002
 20
76.870000000000005
 30
0.0
 11
0.384615000000002
 21
77.5
 31
0.0
  0
LINE
  5
44
  8
0
 10
0.384615000000001
 20
77.5
 30
0.0
 11
37.615400000000001
 21
77.5
 31
0.0
  0
LINE
  5
45
  8
0
 10
0.384615
 20
55.520000000000003
 30
0.0
 11
0.384615000000001
 21
60.0
 31
0.0
  0
LINE
  5
46
  8
0
 10
0.384615
 20
51.32
 30
0.0
 11
0.384615
 21
55.520000000000003
 31
0.0
  0
LINE
  5
47
  8
0
 10
0.384615
 20
47.609999999999999
 30
0.0
 11
0.384615
 21
51.32
 31
0.0
  0
LINE
  5
48
  8
0
 10
0.384615
 20
44.810000000000002
 30
0.0
 11
0.384615
 21
47.609999999999999
 31
0.0
  0
LINE
  5
49
  8
0
 10
37.615400000000001
 20
44.810000000000002
 30
0.0
 11
37.615400000000001
 21
43.130000000000003
 31
0.0
  0
LINE
  5
4A
  8
0
 10
37.615400000000001
 20
44.810000000000002
 30
0.0
 11
37.615400000000001
 21
47.609999999999999
 31
0.0
  0
LINE
  5
4B
  8
0
 10
37.615400000000001
 20
43.130000000000003
 30
0.0
 11
37.615400000000001
 21
42.5
 31
0.0
  0
LINE
  5
4C
  8
0
 10
37.615400000000001
 20
43.130000000000003
 30
0.0
 11
37.615400000000001
 21
44.810000000000002
 31
0.0
  0
LINE
  5
4D
  8
0
 10
37.615400000000001
 20
47.609999999999999
 30
0.0
 11
37.615400000000001
 21
51.32
 31
0.0
  0
LINE
  5
4E
  8
0
 10
37.615400000000001
 20
64.480000000000004
 30
0.0
 11
37.615400000000001
 21
68.680000000000007
 31
0.0
  0
LINE
  5
4F
  8
0
 10
37.615400000000001
 20
64.480000000000004
 30
0.0
 11
37.615400000000001
 21
60.0
 31
0.0
  0
LINE
  5
50
  8
0
 10
37.615400000000001
 20
68.680000000000007
 30
0.0
 11
37.615400000000001
 21
72.390000000000001
 31
0.0
  0
LINE
  5
51
  8
0
 10
37.615400000000001
 20
68.680000000000007
 30
0.0
 11
37.615400000000001
 21
64.480000000000004
 31
0.0
  0
LINE
  5
52
  8
0
 10
37.615400000000001
 20
72.390000000000001
 30
0.0
 11
37.615400000000001
 21
75.189999999999998
 31
0.0
  0
LINE
  5
53
  8
0
 10
37.615400000000001
 20
72.390000000000001
 30
0.0
 11
37.615400000000001
 21
68.680000000000007
 31
0.0
  0
LINE
  5
54
  8
0
 10
37.615400000000001
 20
75.189999999999998
 30
0.0
 11
37.615400000000001
 21
76.870000000000005
 31
0.0
  0
LINE
  5
55
  8
0
 10
37.615400000000001
 20
75.189999999999998
 30
0.0
 11
37.615400000000001
 21
72.390000000000001
 31
0.0
  0
LINE
  5
56
  8
0
 10
37.615400000000001
 20
77.5
 30
0.0
 11
38.0
 21
77.079999999999998
 31
0.0
  0
LINE
  5
57
  8
0
 10
37.615400000000001
 20
77.5
 30
0.0
 11
37.615400000000001
 21
76.870000000000005
 31
0.0
  0
LINE
  5
58
  8
0
 10
37.615400000000001
 20
76.870000000000005
 30
0.0
 11
37.615400000000001
 21
77.5
 31
0.0
  0
LINE
  5
59
  8
0
 10
37.615400000000001
 20
76.870000000000005
 30
0.0
 11
37.615400000000001
 21
75.189999999999998
 31
0.0
  0
LINE
  5
5A
  8
0
 10
37.615400000000001
 20
60.0
 30
0.0
 11
37.615400000000001
 21
55.520000000000003
 31
0.0
  0
LINE
  5
5B
  8
0
 10
37.615400000000001
 20
60.0
 30
0.0
 11
37.615400000000001
 21
64.480000000000004
 31
0.0
  0
LINE
  5
5C
  8
0
 10
37.615400000000001
 20
55.520000000000003
 30
0.0
 11
37.615400000000001
 21
51.32
 31
0.0
  0
LINE
  5
5D
  8
0
 10
37.615400000000001
 20
55.520000000000003
 30
0.0
 11
37.615400000000001
 21
60.0
 31
0.0
  0
LINE
  5
5E
  8
0
 10
37.615400000000001
 20
51.32
 30
0.0
 11
37.615400000000001
 21
47.609999999999999
 31
0.0
  0
LINE
  5
5F
  8
0
 10
37.615400000000001
 20
51.32
 30
0.0
 11
37.615400000000001
 21
55.520000000000003
 31
0.0
  0
LINE
  5
60
  8
0
 10
38.0
 20
45.22999999999999
 30
0.0
 11
38.0
 21
47.960000000000001
 31
0.0
  0
LINE
  5
61
  8
0
 10
38.0
 20
45.22999999999999
 30
0.0
 11
38.0
 21
43.54999999999999
 31
0.0
  0
LINE
  5
62
  8
0
 10
38.0
 20
60.0
 30
0.0
 11
38.0
 21
64.409999999999997
 31
0.0
  0
LINE
  5
63
  8
0
 10
38.0
 20
64.409999999999997
 30
0.0
 11
38.0
 21
68.469999999999999
 31
0.0
  0
LINE
  5
64
  8
0
 10
38.0
 20
64.409999999999997
 30
0.0
 11
38.0
 21
60.0
 31
0.0
  0
LINE
  5
65
  8
0
 10
38.0
 20
68.469999999999999
 30
0.0
 11
38.0
 21
72.040000000000006
 31
0.0
  0
LINE
  5
66
  8
0
 10
38.0
 20
68.469999999999999
 30
0.0
 11
38.0
 21
64.409999999999997
 31
0.0
  0
LINE
  5
67
  8
0
 10
38.0
 20
72.040000000000006
 30
0.0
 11
38.0
 21
74.769999999999996
 31
0.0
  0
LINE
  5
68
  8
0
 10
38.0
 20
72.040000000000006
 30
0.0
 11
38.0
 21
68.469999999999999
 31
0.0
  0
LINE
  5
69
  8
0
 10
38.0
 20
74.769999999999996
 30
0.0
 11
38.0
 21
76.450000000000003
 31
0.0
  0
LINE
  5
6A
  8
0
 10
38.0
 20
74.769999999999996
 30
0.0
 11
38.0
 21
72.040000000000006
 31
0.0
  0
LINE
  5
6B
  8
0
 10
38.0
 20
77.079999999999998
 30
0.0
 11
38.0
 21
76.450000000000003
 31
0.0
  0
LINE
  5
6C
  8
0
 10
38.0
 20
76.450000000000003
 30
0.0
 11
38.0
 21
77.079999999999998
 31
0.0
  0
LINE
  5
6D
  8
0
 10
38.0
 20
76.450000000000003
 30
0.0
 11
38.0
 21
74.769999999999996
 31
0.0
  0
LINE
  5
6E
  8
0
 10
38.0
 20
43.54999999999999
 30
0.0
 11
38.0
 21
45.22999999999999
 31
0.0
  0
LINE
  5
6F
  8
0
 10
38.0
 20
43.54999999999999
 30
0.0
 11
38.0
 21
42.920000000000002
 31
0.0
  0
LINE
  5
70
  8
0
 10
38.0
 20
42.920000000000002
 30
0.0
 11
38.0
 21
43.54999999999999
 31
0.0
  0
LINE
  5
71
  8
0
 10
37.615400000000001
 20
42.5
 30
0.0
 11
38.0
 21
42.920000000000002
 31
0.0
  0
LINE
  5
72
  8
0
 10
37.615400000000001
 20
42.5
 30
0.0
 11
37.615400000000001
 21
43.130000000000003
 31
0.0
  0
LINE
  5
73
  8
0
 10
38.0
 20
0.9999999999999978
 30
0.0
 11
38.0
 21
119.0
 31
0.0
  0
LINE
  5
74
  8
0
 10
38.0
 20
0.9999999999999978
 30
0.0
 11
38.299999999999997
 21
0.299999999999998
 31
0.0
  0
LINE
  5
75
  8
0
 10
38.299999999999997
 20
119.0
 30
0.0
 11
38.5
 21
119.7
 31
0.0
  0
LINE
  5
76
  8
0
 10
38.0
 20
119.0
 30
0.0
 11
38.299999999999997
 21
119.7
 31
0.0
  0
LINE
  5
77
  8
0
 10
39.0
 20
-0.0000000000000024
 30
0.0
 11
57.0
 21
-0.0000000000000035
 31
0.0
  0
LINE
  5
78
  8
0
 10
39.0
 20
0.299999999999998
 30
0.0
 11
57.0
 21
0.2999999999999971
 31
0.0
  0
LINE
  5
79
  8
0
 10
38.5
 20
0.299999999999998
 30
0.0
 11
39.0
 21
0.299999999999998
 31
0.0
  0
LINE
  5
7A
  8
0
 10
57.0
 20
-0.0000000000000035
 30
0.0
 11
57.700000000000003
 21
0.2999999999999971
 31
0.0
  0
LINE
  5
7B
  8
0
 10
57.0
 20
-0.0000000000000035
 30
0.0
 11
57.700000000000003
 21
0.2999999999999971
 31
0.0
  0
LINE
  5
7C
  8
0
 10
57.5
 20
0.299999999999996
 30
0.0
 11
57.700000000000003
 21
0.9999999999999969
 31
0.0
  0
LINE
  5
7D
  8
0
 10
57.0
 20
0.2999999999999971
 30
0.0
 11
57.5
 21
0.2999999999999971
 31
0.0
  0
LINE
  5
7E
  8
0
 10
57.5
 20
0.2999999999999971
 30
0.0
 11
57.700000000000003
 21
0.9999999999999969
 31
0.0
  0
LINE
  5
7F
  8
0
 10
57.5
 20
0.2999999999999971
 30
0.0
 11
57.700000000000003
 21
0.2999999999999971
 31
0.0
  0
LINE
  5
80
  8
0
 10
57.700000000000003
 20
0.299999999999996
 30
0.0
 11
58.0
 21
0.9999999999999969
 31
0.0
  0
LINE
  5
81
  8
0
 10
57.700000000000003
 20
0.2999999999999971
 30
0.0
 11
58.0
 21
0.9999999999999969
 31
0.0
  0
LINE
  5
82
  8
0
 10
57.700000000000003
 20
0.999999999999996
 30
0.0
 11
57.700000000000003
 21
119.0
 31
0.0
  0
LINE
  5
83
  8
0
 10
58.0
 20
0.999999999999996
 30
0.0
 11
58.0
 21
119.0
 31
0.0
  0
LINE
  5
84
  8
0
 10
76.0
 20
25.0571440000001
 30
0.0
 11
76.0
 21
25.137144000000099
 31
0.0
  0
LINE
  5
85
  8
0
 10
76.0
 20
25.0571440000001
 30
0.0
 11
76.368399999999994
 21
25.000000000000099
 31
0.0
  0
LINE
  5
86
  8
0
 10
76.0
 20
32.4285700000001
 30
0.0
 11
76.0
 21
31.857140000000101
 31
0.0
  0
LINE
  5
87
  8
0
 10
76.0
 20
32.4285700000001
 30
0.0
 11
76.0
 21
32.86286000000009
 31
0.0
  0
LINE
  5
89
  8
0
 10
76.0
 20
26.142860000000098
 30
0.0
 11
76.0
 21
25.571432000000101
 31
0.0
  0
LINE
  5
8A
  8
0
 10
76.0
 20
26.142860000000098
 30
0.0
 11
76.0
 21
31.857140000000101
 31
0.0
  0
LINE
  5
8B
  8
0
 10
76.0
 20
26.142860000000098
 30
0.0
 11
76.360299999999995
 21
26.142860000000098
 31
0.0
  0
LINE
  5
8E
  8
0
 10
76.0
 20
31.857140000000101
 30
0.0
 11
76.0
 21
26.142860000000098
 31
0.0
  0
LINE
  5
8F
  8
0
 10
76.0
 20
31.857140000000101
 30
0.0
 11
76.0
 21
32.4285700000001
 31
0.0
  0
LINE
  5
90
  8
0
 10
76.0
 20
31.857140000000101
 30
0.0
 11
76.360299999999995
 21
31.857140000000101
 31
0.0
  0
LINE
  5
91
  8
0
 10
76.0
 20
32.86286000000009
 30
0.0
 11
76.0
 21
32.4285700000001
 31
0.0
  0
LINE
  5
92
  8
0
 10
76.0
 20
32.86286000000009
 30
0.0
 11
76.0
 21
32.942860000000103
 31
0.0
  0
LINE
  5
94
  8
0
 10
76.0
 20
25.571432000000101
 30
0.0
 11
76.0
 21
25.137144000000099
 31
0.0
  0
LINE
  5
95
  8
0
 10
76.0
 20
25.571432000000101
 30
0.0
 11
76.0
 21
26.142860000000098
 31
0.0
  0
LINE
  5
97
  8
0
 10
76.0
 20
32.942860000000103
 30
0.0
 11
76.0
 21
32.86286000000009
 31
0.0
  0
LINE
  5
98
  8
0
 10
76.0
 20
32.942860000000103
 30
0.0
 11
76.368399999999994
 21
33.000000000000099
 31
0.0
  0
LINE
  5
9E
  8
0
 10
76.360299999999995
 20
31.857140000000101
 30
0.0
 11
77.1999
 21
32.4285700000001
 31
0.0
  0
LINE
  5
9F
  8
0
 10
76.360299999999995
 20
31.857140000000101
 30
0.0
 11
76.360299999999995
 21
26.142860000000098
 31
0.0
  0
LINE
  5
A0
  8
0
 10
76.368399999999994
 20
33.000000000000099
 30
0.0
 11
76.884200000000007
 21
33.000000000000099
 31
0.0
  0
LINE
  5
A1
  8
0
 10
76.360299999999995
 20
26.142860000000098
 30
0.0
 11
77.1999
 21
25.571432000000101
 31
0.0
  0
LINE
  5
A2
  8
0
 10
76.360299999999995
 20
26.142860000000098
 30
0.0
 11
76.360299999999995
 21
31.857140000000101
 31
0.0
  0
LINE
  5
A3
  8
0
 10
76.368399999999994
 20
25.000000000000099
 30
0.0
 11
76.884200000000007
 21
25.000000000000099
 31
0.0
  0
LINE
  5
A4
  8
0
 10
76.0
 20
25.137144000000099
 30
0.0
 11
76.0
 21
25.0571440000001
 31
0.0
  0
LINE
  5
A5
  8
0
 10
76.0
 20
25.137144000000099
 30
0.0
 11
76.0
 21
25.571432000000101
 31
0.0
  0
LINE
  5
AB
  8
0
 10
76.0
 20
33.000000000000099
 30
0.0
 11
76.503999999999991
 21
33.000000000000099
 31
0.0
  0
LINE
  5
AC
  8
0
 10
76.0
 20
33.000000000000099
 30
0.0
 11
76.368399999999994
 21
33.000000000000099
 31
0.0
  0
LINE
  5
AD
  8
0
 10
76.0
 20
33.000000000000099
 30
0.0
 11
76.0
 21
43.383177570093501
 31
0.0
  0
LINE
  5
AE
  8
0
 10
78.210499999999996
 20
25.000000000000099
 30
0.0
 11
80.347399999999993
 21
25.000000000000099
 31
0.0
  0
LINE
  5
B0
  8
0
 10
79.308000000000007
 20
25.000000000000099
 30
0.0
 11
80.234800000000007
 21
25.000000000000099
 31
0.0
  0
LINE
  5
B1
  8
0
 10
76.884200000000007
 20
25.000000000000099
 30
0.0
 11
78.210499999999996
 21
25.000000000000099
 31
0.0
  0
LINE
  5
B2
  8
0
 10
79.337000000000003
 20
25.000000000000099
 30
0.0
 11
80.179699999999997
 21
25.000000000000099
 31
0.0
  0
LINE
  5
B3
  8
0
 10
76.884200000000007
 20
33.000000000000099
 30
0.0
 11
78.210499999999996
 21
33.000000000000099
 31
0.0
  0
LINE
  5
B4
  8
0
 10
77.1999
 20
32.4285700000001
 30
0.0
 11
79.536799999999999
 21
32.79221000000009
 31
0.0
  0
LINE
  5
B8
  8
0
 10
78.210499999999996
 20
33.000000000000099
 30
0.0
 11
80.347399999999993
 21
33.000000000000099
 31
0.0
  0
LINE
  5
B9
  8
0
 10
79.536799999999999
 20
32.79221000000009
 30
0.0
 11
82.873599999999996
 21
32.884500000000102
 31
0.0
  0
LINE
  5
BA
  8
0
 10
79.536799999999999
 20
25.207768000000101
 30
0.0
 11
82.873599999999996
 21
25.115488000000099
 31
0.0
  0
LINE
  5
BC
  8
0
 10
77.1999
 20
25.571432000000101
 30
0.0
 11
79.536799999999999
 21
25.207768000000101
 31
0.0
  0
LINE
  5
BD
  8
0
 10
79.047399999999996
 20
25.000000000000099
 30
0.0
 11
79.337000000000003
 21
25.000000000000099
 31
0.0
  0
LINE
  5
BE
  8
0
 10
79.047399999999996
 20
25.000000000000099
 30
0.0
 11
79.308000000000007
 21
25.000000000000099
 31
0.0
  0
LINE
  5
BF
  8
0
 10
76.503999999999991
 20
33.000000000000099
 30
0.0
 11
77.847999999999999
 21
33.000000000000099
 31
0.0
  0
LINE
  5
C0
  8
0
 10
68.599999999999994
 20
42.648000000000103
 30
0.0
 11
68.599999999999994
 21
42.000000000000092
 31
0.0
  0
LINE
  5
C1
  8
0
 10
68.599999999999994
 20
42.648000000000103
 30
0.0
 11
68.599999999999994
 21
44.376000000000097
 31
0.0
  0
LINE
  5
C2
  8
0
 10
68.0
 20
42.432000000000102
 30
0.0
 11
68.599999999999994
 21
42.000000000000092
 31
0.0
  0
LINE
  5
C3
  8
0
 10
68.0
 20
42.432000000000102
 30
0.0
 11
68.0
 21
43.080000000000098
 31
0.0
  0
LINE
  5
C4
  8
0
 10
68.0
 20
43.080000000000098
 30
0.0
 11
68.0
 21
44.000000000000107
 31
0.0
  0
LINE
  5
C5
  8
0
 10
68.0
 20
43.080000000000098
 30
0.0
 11
68.0
 21
42.432000000000102
 31
0.0
  0
LINE
  5
C6
  8
0
 10
68.0
 20
43.080000000000098
 30
0.0
 11
68.0
 21
44.808000000000099
 31
0.0
  0
LINE
  5
C7
  8
0
 10
68.599999999999994
 20
42.000000000000092
 30
0.0
 11
76.0
 21
43.383177570093501
 31
0.0
  0
LINE
  5
C8
  8
0
 10
68.599999999999994
 20
42.000000000000092
 30
0.0
 11
68.599999999999994
 21
42.648000000000103
 31
0.0
  0
LINE
  5
C9
  8
0
 10
63.299999999999997
 20
44.000000000000107
 30
0.0
 11
68.0
 21
44.000000000000107
 31
0.0
  0
LINE
  5
CA
  8
0
 10
63.299999999999997
 20
44.000000000000107
 30
0.0
 11
63.299999999999997
 21
44.5760000000001
 31
0.0
  0
LINE
  5
CB
  8
0
 10
63.0
 20
44.384000000000107
 30
0.0
 11
63.0
 21
44.960000000000107
 31
0.0
  0
LINE
  5
CC
  8
0
 10
63.0
 20
44.384000000000107
 30
0.0
 11
63.299999999999997
 21
44.000000000000107
 31
0.0
  0
LINE
  5
CD
  8
0
 10
63.299999999999997
 20
44.5760000000001
 30
0.0
 11
63.299999999999997
 21
46.112000000000087
 31
0.0
  0
LINE
  5
CE
  8
0
 10
63.299999999999997
 20
44.5760000000001
 30
0.0
 11
63.299999999999997
 21
44.000000000000107
 31
0.0
  0
LINE
  5
CF
  8
0
 10
68.0
 20
44.5760000000001
 30
0.0
 11
68.0
 21
44.000000000000107
 31
0.0
  0
LINE
  5
D0
  8
0
 10
60.18
 20
46.000000000000107
 30
0.0
 11
63.0
 21
46.000000000000107
 31
0.0
  0
LINE
  5
D1
  8
0
 10
60.18
 20
46.000000000000107
 30
0.0
 11
60.18
 21
46.504000000000097
 31
0.0
  0
LINE
  5
D2
  8
0
 10
63.0
 20
46.000000000000107
 30
0.0
 11
63.0
 21
44.960000000000107
 31
0.0
  0
LINE
  5
D3
  8
0
 10
63.0
 20
44.960000000000107
 30
0.0
 11
63.0
 21
46.496000000000102
 31
0.0
  0
LINE
  5
D4
  8
0
 10
63.0
 20
44.960000000000107
 30
0.0
 11
63.0
 21
44.384000000000107
 31
0.0
  0
LINE
  5
D5
  8
0
 10
63.0
 20
44.960000000000107
 30
0.0
 11
63.0
 21
46.000000000000107
 31
0.0
  0
LINE
  5
D6
  8
0
 10
60.0
 20
46.336000000000112
 30
0.0
 11
60.0
 21
46.840000000000103
 31
0.0
  0
LINE
  5
D7
  8
0
 10
60.0
 20
46.336000000000112
 30
0.0
 11
60.18
 21
46.000000000000107
 31
0.0
  0
LINE
  5
D8
  8
0
 10
60.18
 20
46.504000000000097
 30
0.0
 11
60.18
 21
47.848000000000098
 31
0.0
  0
LINE
  5
D9
  8
0
 10
60.18
 20
46.504000000000097
 30
0.0
 11
60.18
 21
46.000000000000107
 31
0.0
  0
LINE
  5
DA
  8
0
 10
60.0
 20
46.840000000000103
 30
0.0
 11
60.0
 21
48.184000000000111
 31
0.0
  0
LINE
  5
DB
  8
0
 10
60.0
 20
46.840000000000103
 30
0.0
 11
60.0
 21
46.336000000000112
 31
0.0
  0
LINE
  5
DC
  8
0
 10
60.0
 20
46.840000000000103
 30
0.0
 11
60.0
 21
48.000000000000107
 31
0.0
  0
LINE
  5
DD
  8
0
 10
63.0
 20
46.504000000000097
 30
0.0
 11
63.0
 21
46.000000000000107
 31
0.0
  0
LINE
  5
DE
  8
0
 10
63.0
 20
46.496000000000102
 30
0.0
 11
63.0
 21
48.992000000000111
 31
0.0
  0
LINE
  5
DF
  8
0
 10
63.0
 20
46.496000000000102
 30
0.0
 11
63.0
 21
44.960000000000107
 31
0.0
  0
LINE
  5
E0
  8
0
 10
63.299999999999997
 20
46.112000000000087
 30
0.0
 11
63.299999999999997
 21
48.672000000000111
 31
0.0
  0
LINE
  5
E1
  8
0
 10
63.299999999999997
 20
46.112000000000087
 30
0.0
 11
63.299999999999997
 21
44.5760000000001
 31
0.0
  0
LINE
  5
E2
  8
0
 10
68.0
 20
46.112000000000087
 30
0.0
 11
68.0
 21
44.5760000000001
 31
0.0
  0
LINE
  5
E3
  8
0
 10
68.0
 20
44.808000000000099
 30
0.0
 11
68.0
 21
43.080000000000098
 31
0.0
  0
LINE
  5
E4
  8
0
 10
68.0
 20
44.808000000000099
 30
0.0
 11
68.0
 21
47.616000000000113
 31
0.0
  0
LINE
  5
E5
  8
0
 10
68.599999999999994
 20
44.376000000000097
 30
0.0
 11
68.599999999999994
 21
42.648000000000103
 31
0.0
  0
LINE
  5
E6
  8
0
 10
68.599999999999994
 20
44.376000000000097
 30
0.0
 11
68.599999999999994
 21
47.2560000000001
 31
0.0
  0
LINE
  5
E7
  8
0
 10
58.18
 20
48.000000000000107
 30
0.0
 11
60.0
 21
48.000000000000107
 31
0.0
  0
LINE
  5
E8
  8
0
 10
58.18
 20
48.000000000000107
 30
0.0
 11
58.18
 21
48.432000000000102
 31
0.0
  0
LINE
  5
E9
  8
0
 10
58.0
 20
48.288000000000011
 30
0.0
 11
58.18
 21
48.000000000000107
 31
0.0
  0
LINE
  5
EA
  8
0
 10
58.18
 20
48.432000000000102
 30
0.0
 11
58.18
 21
49.584000000000103
 31
0.0
  0
LINE
  5
EB
  8
0
 10
58.18
 20
48.432000000000102
 30
0.0
 11
58.18
 21
48.000000000000107
 31
0.0
  0
LINE
  5
EC
  8
0
 10
60.0
 20
48.432000000000102
 30
0.0
 11
60.0
 21
48.000000000000107
 31
0.0
  0
LINE
  5
ED
  8
0
 10
60.0
 20
48.000000000000107
 30
0.0
 11
60.0
 21
46.840000000000103
 31
0.0
  0
LINE
  5
EE
  8
0
 10
60.0
 20
48.184000000000111
 30
0.0
 11
60.0
 21
50.368000000000102
 31
0.0
  0
LINE
  5
EF
  8
0
 10
60.0
 20
48.184000000000111
 30
0.0
 11
60.0
 21
46.840000000000103
 31
0.0
  0
LINE
  5
F0
  8
0
 10
60.18
 20
47.848000000000098
 30
0.0
 11
60.18
 21
50.088000000000108
 31
0.0
  0
LINE
  5
F1
  8
0
 10
60.18
 20
47.848000000000098
 30
0.0
 11
60.18
 21
46.504000000000097
 31
0.0
  0
LINE
  5
F2
  8
0
 10
63.0
 20
47.848000000000098
 30
0.0
 11
63.0
 21
46.504000000000097
 31
0.0
  0
LINE
  5
F3
  8
0
 10
58.18
 20
49.584000000000103
 30
0.0
 11
58.18
 21
51.504000000000097
 31
0.0
  0
LINE
  5
F4
  8
0
 10
58.18
 20
49.584000000000103
 30
0.0
 11
58.18
 21
48.432000000000102
 31
0.0
  0
LINE
  5
F5
  8
0
 10
58.18
 20
51.504000000000097
 30
0.0
 11
58.18
 21
54.048000000000108
 31
0.0
  0
LINE
  5
F6
  8
0
 10
58.18
 20
51.504000000000097
 30
0.0
 11
58.18
 21
49.584000000000103
 31
0.0
  0
LINE
  5
F7
  8
0
 10
60.0
 20
51.504000000000097
 30
0.0
 11
60.0
 21
49.584000000000103
 31
0.0
  0
LINE
  5
F8
  8
0
 10
60.0
 20
50.368000000000102
 30
0.0
 11
60.0
 21
53.224000000000103
 31
0.0
  0
LINE
  5
F9
  8
0
 10
60.18
 20
50.088000000000108
 30
0.0
 11
60.18
 21
53.056000000000097
 31
0.0
  0
LINE
  5
FA
  8
0
 10
63.0
 20
50.088000000000108
 30
0.0
 11
63.0
 21
47.848000000000098
 31
0.0
  0
LINE
  5
FB
  8
0
 10
63.0
 20
48.992000000000111
 30
0.0
 11
63.0
 21
52.2560000000001
 31
0.0
  0
LINE
  5
FC
  8
0
 10
63.0
 20
48.992000000000111
 30
0.0
 11
63.0
 21
46.496000000000102
 31
0.0
  0
LINE
  5
FD
  8
0
 10
58.18
 20
54.048000000000108
 30
0.0
 11
58.18
 21
56.928000000000097
 31
0.0
  0
LINE
  5
FE
  8
0
 10
58.18
 20
54.048000000000108
 30
0.0
 11
58.18
 21
51.504000000000097
 31
0.0
  0
LINE
  5
FF
  8
0
 10
60.0
 20
54.048000000000108
 30
0.0
 11
60.0
 21
51.504000000000097
 31
0.0
  0
LINE
  5
100
  8
0
 10
60.0
 20
53.224000000000103
 30
0.0
 11
60.0
 21
56.472000000000108
 31
0.0
  0
LINE
  5
101
  8
0
 10
60.0
 20
53.224000000000103
 30
0.0
 11
60.0
 21
50.368000000000102
 31
0.0
  0
LINE
  5
102
  8
0
 10
60.18
 20
53.056000000000097
 30
0.0
 11
60.18
 21
56.416000000000111
 31
0.0
  0
LINE
  5
103
  8
0
 10
60.18
 20
53.056000000000097
 30
0.0
 11
60.18
 21
50.088000000000108
 31
0.0
  0
LINE
  5
104
  8
0
 10
63.0
 20
53.056000000000097
 30
0.0
 11
63.0
 21
50.088000000000108
 31
0.0
  0
LINE
  5
105
  8
0
 10
63.0
 20
52.2560000000001
 30
0.0
 11
63.0
 21
55.968000000000103
 31
0.0
  0
LINE
  5
106
  8
0
 10
63.0
 20
52.2560000000001
 30
0.0
 11
63.0
 21
48.992000000000111
 31
0.0
  0
LINE
  5
107
  8
0
 10
63.299999999999997
 20
52.064000000000107
 30
0.0
 11
63.299999999999997
 21
55.904000000000103
 31
0.0
  0
LINE
  5
108
  8
0
 10
63.299999999999997
 20
52.064000000000107
 30
0.0
 11
63.299999999999997
 21
48.672000000000111
 31
0.0
  0
LINE
  5
109
  8
0
 10
68.0
 20
52.064000000000107
 30
0.0
 11
68.0
 21
48.672000000000111
 31
0.0
  0
LINE
  5
10A
  8
0
 10
63.299999999999997
 20
48.672000000000111
 30
0.0
 11
63.299999999999997
 21
52.064000000000107
 31
0.0
  0
LINE
  5
10B
  8
0
 10
63.299999999999997
 20
48.672000000000111
 30
0.0
 11
63.299999999999997
 21
46.112000000000087
 31
0.0
  0
LINE
  5
10C
  8
0
 10
68.0
 20
48.672000000000111
 30
0.0
 11
68.0
 21
46.112000000000087
 31
0.0
  0
LINE
  5
10D
  8
0
 10
68.0
 20
47.616000000000113
 30
0.0
 11
68.0
 21
44.808000000000099
 31
0.0
  0
LINE
  5
10E
  8
0
 10
68.0
 20
47.616000000000113
 30
0.0
 11
68.0
 21
51.288000000000103
 31
0.0
  0
LINE
  5
10F
  8
0
 10
68.0
 20
51.288000000000103
 30
0.0
 11
68.0
 21
47.616000000000113
 31
0.0
  0
LINE
  5
110
  8
0
 10
68.0
 20
51.288000000000103
 30
0.0
 11
68.0
 21
55.464000000000098
 31
0.0
  0
LINE
  5
111
  8
0
 10
68.599999999999994
 20
47.2560000000001
 30
0.0
 11
68.599999999999994
 21
44.376000000000097
 31
0.0
  0
LINE
  5
112
  8
0
 10
68.599999999999994
 20
47.2560000000001
 30
0.0
 11
68.599999999999994
 21
51.072000000000102
 31
0.0
  0
LINE
  5
113
  8
0
 10
68.599999999999994
 20
51.072000000000102
 30
0.0
 11
68.599999999999994
 21
47.2560000000001
 31
0.0
  0
LINE
  5
114
  8
0
 10
68.599999999999994
 20
51.072000000000102
 30
0.0
 11
68.599999999999994
 21
55.392000000000102
 31
0.0
  0
LINE
  5
115
  8
0
 10
58.18
 20
60.000000000000099
 30
0.0
 11
58.18
 21
56.928000000000097
 31
0.0
  0
LINE
  5
116
  8
0
 10
58.18
 20
60.000000000000099
 30
0.0
 11
58.18
 21
63.072000000000102
 31
0.0
  0
LINE
  5
117
  8
0
 10
58.18
 20
56.928000000000097
 30
0.0
 11
58.18
 21
60.000000000000099
 31
0.0
  0
LINE
  5
118
  8
0
 10
58.18
 20
56.928000000000097
 30
0.0
 11
58.18
 21
54.048000000000108
 31
0.0
  0
LINE
  5
119
  8
0
 10
60.0
 20
56.928000000000097
 30
0.0
 11
60.0
 21
54.048000000000108
 31
0.0
  0
LINE
  5
11A
  8
0
 10
60.0
 20
60.000000000000099
 30
0.0
 11
60.0
 21
56.472000000000108
 31
0.0
  0
LINE
  5
11B
  8
0
 10
60.0
 20
60.000000000000099
 30
0.0
 11
60.0
 21
63.528000000000098
 31
0.0
  0
LINE
  5
11C
  8
0
 10
60.0
 20
60.000000000000099
 30
0.0
 11
60.0
 21
56.928000000000097
 31
0.0
  0
LINE
  5
11D
  8
0
 10
60.18
 20
60.000000000000099
 30
0.0
 11
60.18
 21
56.416000000000111
 31
0.0
  0
LINE
  5
11E
  8
0
 10
60.18
 20
60.000000000000099
 30
0.0
 11
60.18
 21
63.584000000000103
 31
0.0
  0
LINE
  5
11F
  8
0
 10
60.0
 20
56.472000000000108
 30
0.0
 11
60.0
 21
60.000000000000099
 31
0.0
  0
LINE
  5
120
  8
0
 10
60.0
 20
56.472000000000108
 30
0.0
 11
60.0
 21
53.224000000000103
 31
0.0
  0
LINE
  5
121
  8
0
 10
60.18
 20
56.416000000000111
 30
0.0
 11
60.18
 21
60.000000000000099
 31
0.0
  0
LINE
  5
122
  8
0
 10
60.18
 20
56.416000000000111
 30
0.0
 11
60.18
 21
53.056000000000097
 31
0.0
  0
LINE
  5
123
  8
0
 10
63.0
 20
56.416000000000111
 30
0.0
 11
63.0
 21
53.056000000000097
 31
0.0
  0
LINE
  5
124
  8
0
 10
60.0
 20
63.072000000000102
 30
0.0
 11
60.0
 21
60.000000000000099
 31
0.0
  0
LINE
  5
125
  8
0
 10
58.18
 20
63.072000000000102
 30
0.0
 11
58.18
 21
65.952000000000112
 31
0.0
  0
LINE
  5
126
  8
0
 10
58.18
 20
63.072000000000102
 30
0.0
 11
58.18
 21
60.000000000000099
 31
0.0
  0
LINE
  5
127
  8
0
 10
60.0
 20
63.528000000000098
 30
0.0
 11
60.0
 21
66.77600000000011
 31
0.0
  0
LINE
  5
128
  8
0
 10
60.0
 20
63.528000000000098
 30
0.0
 11
60.0
 21
60.000000000000099
 31
0.0
  0
LINE
  5
129
  8
0
 10
63.0
 20
63.584000000000103
 30
0.0
 11
63.0
 21
60.000000000000099
 31
0.0
  0
LINE
  5
12A
  8
0
 10
60.18
 20
63.584000000000103
 30
0.0
 11
60.18
 21
66.944000000000102
 31
0.0
  0
LINE
  5
12B
  8
0
 10
60.18
 20
63.584000000000103
 30
0.0
 11
60.18
 21
60.000000000000099
 31
0.0
  0
LINE
  5
12C
  8
0
 10
60.0
 20
65.952000000000112
 30
0.0
 11
60.0
 21
63.072000000000102
 31
0.0
  0
LINE
  5
12D
  8
0
 10
58.18
 20
65.952000000000112
 30
0.0
 11
58.18
 21
68.496000000000109
 31
0.0
  0
LINE
  5
12E
  8
0
 10
58.18
 20
65.952000000000112
 30
0.0
 11
58.18
 21
63.072000000000102
 31
0.0
  0
LINE
  5
12F
  8
0
 10
60.0
 20
68.496000000000109
 30
0.0
 11
60.0
 21
65.952000000000112
 31
0.0
  0
LINE
  5
130
  8
0
 10
58.18
 20
68.496000000000109
 30
0.0
 11
58.18
 21
70.416000000000096
 31
0.0
  0
LINE
  5
131
  8
0
 10
58.18
 20
68.496000000000109
 30
0.0
 11
58.18
 21
65.952000000000112
 31
0.0
  0
LINE
  5
132
  8
0
 10
60.0
 20
66.77600000000011
 30
0.0
 11
60.0
 21
69.632000000000104
 31
0.0
  0
LINE
  5
133
  8
0
 10
60.0
 20
66.77600000000011
 30
0.0
 11
60.0
 21
63.528000000000098
 31
0.0
  0
LINE
  5
134
  8
0
 10
63.0
 20
66.944000000000102
 30
0.0
 11
63.0
 21
63.584000000000103
 31
0.0
  0
LINE
  5
135
  8
0
 10
60.18
 20
66.944000000000102
 30
0.0
 11
60.18
 21
69.912000000000106
 31
0.0
  0
LINE
  5
136
  8
0
 10
60.18
 20
66.944000000000102
 30
0.0
 11
60.18
 21
63.584000000000103
 31
0.0
  0
LINE
  5
137
  8
0
 10
63.0
 20
64.03200000000011
 30
0.0
 11
63.0
 21
67.744000000000099
 31
0.0
  0
LINE
  5
138
  8
0
 10
63.0
 20
64.03200000000011
 30
0.0
 11
63.0
 21
60.000000000000099
 31
0.0
  0
LINE
  5
139
  8
0
 10
63.0
 20
67.744000000000099
 30
0.0
 11
63.0
 21
71.008000000000095
 31
0.0
  0
LINE
  5
13A
  8
0
 10
63.0
 20
67.744000000000099
 30
0.0
 11
63.0
 21
64.03200000000011
 31
0.0
  0
LINE
  5
13B
  8
0
 10
63.0
 20
60.000000000000099
 30
0.0
 11
63.0
 21
55.968000000000103
 31
0.0
  0
LINE
  5
13C
  8
0
 10
63.0
 20
60.000000000000099
 30
0.0
 11
63.0
 21
64.03200000000011
 31
0.0
  0
LINE
  5
13D
  8
0
 10
63.0
 20
60.000000000000099
 30
0.0
 11
63.0
 21
56.416000000000111
 31
0.0
  0
LINE
  5
13E
  8
0
 10
63.299999999999997
 20
64.096000000000103
 30
0.0
 11
63.299999999999997
 21
67.936000000000107
 31
0.0
  0
LINE
  5
13F
  8
0
 10
63.299999999999997
 20
64.096000000000103
 30
0.0
 11
63.299999999999997
 21
60.000000000000099
 31
0.0
  0
LINE
  5
140
  8
0
 10
68.0
 20
64.096000000000103
 30
0.0
 11
68.0
 21
60.000000000000099
 31
0.0
  0
LINE
  5
141
  8
0
 10
68.0
 20
67.936000000000107
 30
0.0
 11
68.0
 21
64.096000000000103
 31
0.0
  0
LINE
  5
142
  8
0
 10
63.299999999999997
 20
67.936000000000107
 30
0.0
 11
63.299999999999997
 21
71.328000000000102
 31
0.0
  0
LINE
  5
143
  8
0
 10
63.299999999999997
 20
67.936000000000107
 30
0.0
 11
63.299999999999997
 21
64.096000000000103
 31
0.0
  0
LINE
  5
144
  8
0
 10
63.299999999999997
 20
60.000000000000099
 30
0.0
 11
63.299999999999997
 21
55.904000000000103
 31
0.0
  0
LINE
  5
145
  8
0
 10
63.299999999999997
 20
60.000000000000099
 30
0.0
 11
63.299999999999997
 21
64.096000000000103
 31
0.0
  0
LINE
  5
146
  8
0
 10
63.0
 20
55.968000000000103
 30
0.0
 11
63.0
 21
60.000000000000099
 31
0.0
  0
LINE
  5
147
  8
0
 10
63.0
 20
55.968000000000103
 30
0.0
 11
63.0
 21
52.2560000000001
 31
0.0
  0
LINE
  5
148
  8
0
 10
63.299999999999997
 20
55.904000000000103
 30
0.0
 11
63.299999999999997
 21
60.000000000000099
 31
0.0
  0
LINE
  5
149
  8
0
 10
63.299999999999997
 20
55.904000000000103
 30
0.0
 11
63.299999999999997
 21
52.064000000000107
 31
0.0
  0
LINE
  5
14A
  8
0
 10
68.0
 20
55.904000000000103
 30
0.0
 11
68.0
 21
52.064000000000107
 31
0.0
  0
LINE
  5
14B
  8
0
 10
60.0
 20
69.632000000000104
 30
0.0
 11
60.0
 21
71.816000000000102
 31
0.0
  0
LINE
  5
14C
  8
0
 10
60.0
 20
69.632000000000104
 30
0.0
 11
60.0
 21
66.77600000000011
 31
0.0
  0
LINE
  5
14D
  8
0
 10
63.0
 20
69.912000000000106
 30
0.0
 11
63.0
 21
66.944000000000102
 31
0.0
  0
LINE
  5
14E
  8
0
 10
60.0
 20
70.416000000000096
 30
0.0
 11
60.0
 21
68.496000000000109
 31
0.0
  0
LINE
  5
14F
  8
0
 10
58.18
 20
70.416000000000096
 30
0.0
 11
58.18
 21
71.568000000000097
 31
0.0
  0
LINE
  5
150
  8
0
 10
58.18
 20
70.416000000000096
 30
0.0
 11
58.18
 21
68.496000000000109
 31
0.0
  0
LINE
  5
151
  8
0
 10
60.18
 20
69.912000000000106
 30
0.0
 11
60.18
 21
72.1520000000001
 31
0.0
  0
LINE
  5
152
  8
0
 10
60.18
 20
69.912000000000106
 30
0.0
 11
60.18
 21
66.944000000000102
 31
0.0
  0
LINE
  5
153
  8
0
 10
63.0
 20
71.008000000000095
 30
0.0
 11
63.0
 21
73.50400000000009
 31
0.0
  0
LINE
  5
154
  8
0
 10
63.0
 20
71.008000000000095
 30
0.0
 11
63.0
 21
67.744000000000099
 31
0.0
  0
LINE
  5
155
  8
0
 10
58.0
 20
71.712000000000089
 30
0.0
 11
58.18
 21
72.000000000000085
 31
0.0
  0
LINE
  5
156
  8
0
 10
58.18
 20
71.568000000000097
 30
0.0
 11
58.18
 21
72.000000000000085
 31
0.0
  0
LINE
  5
157
  8
0
 10
58.18
 20
71.568000000000097
 30
0.0
 11
58.18
 21
70.416000000000096
 31
0.0
  0
LINE
  5
158
  8
0
 10
60.0
 20
71.568000000000097
 30
0.0
 11
60.0
 21
70.416000000000096
 31
0.0
  0
LINE
  5
159
  8
0
 10
58.18
 20
72.000000000000085
 30
0.0
 11
60.0
 21
72.000000000000085
 31
0.0
  0
LINE
  5
15A
  8
0
 10
58.18
 20
72.000000000000085
 30
0.0
 11
58.18
 21
71.568000000000097
 31
0.0
  0
LINE
  5
15B
  8
0
 10
60.0
 20
72.000000000000085
 30
0.0
 11
60.0
 21
73.160000000000096
 31
0.0
  0
LINE
  5
15C
  8
0
 10
60.0
 20
72.000000000000085
 30
0.0
 11
60.0
 21
71.568000000000097
 31
0.0
  0
LINE
  5
15D
  8
0
 10
60.0
 20
71.816000000000102
 30
0.0
 11
60.0
 21
73.160000000000096
 31
0.0
  0
LINE
  5
15E
  8
0
 10
60.0
 20
71.816000000000102
 30
0.0
 11
60.0
 21
69.632000000000104
 31
0.0
  0
LINE
  5
15F
  8
0
 10
60.0
 20
73.160000000000096
 30
0.0
 11
60.0
 21
73.664000000000101
 31
0.0
  0
LINE
  5
160
  8
0
 10
60.0
 20
73.160000000000096
 30
0.0
 11
60.0
 21
71.816000000000102
 31
0.0
  0
LINE
  5
161
  8
0
 10
60.0
 20
73.160000000000096
 30
0.0
 11
60.0
 21
72.000000000000085
 31
0.0
  0
LINE
  5
162
  8
0
 10
60.18
 20
72.1520000000001
 30
0.0
 11
60.18
 21
73.496000000000095
 31
0.0
  0
LINE
  5
163
  8
0
 10
60.18
 20
72.1520000000001
 30
0.0
 11
60.18
 21
69.912000000000106
 31
0.0
  0
LINE
  5
164
  8
0
 10
63.0
 20
72.1520000000001
 30
0.0
 11
63.0
 21
69.912000000000106
 31
0.0
  0
LINE
  5
165
  8
0
 10
63.0
 20
73.496000000000095
 30
0.0
 11
63.0
 21
72.1520000000001
 31
0.0
  0
LINE
  5
166
  8
0
 10
60.18
 20
73.496000000000095
 30
0.0
 11
60.18
 21
74.000000000000099
 31
0.0
  0
LINE
  5
167
  8
0
 10
60.18
 20
73.496000000000095
 30
0.0
 11
60.18
 21
72.1520000000001
 31
0.0
  0
LINE
  5
168
  8
0
 10
60.0
 20
73.664000000000101
 30
0.0
 11
60.18
 21
74.000000000000099
 31
0.0
  0
LINE
  5
169
  8
0
 10
60.0
 20
73.664000000000101
 30
0.0
 11
60.0
 21
73.160000000000096
 31
0.0
  0
LINE
  5
16A
  8
0
 10
60.18
 20
74.000000000000099
 30
0.0
 11
63.0
 21
74.000000000000099
 31
0.0
  0
LINE
  5
16B
  8
0
 10
60.18
 20
74.000000000000099
 30
0.0
 11
60.18
 21
73.496000000000095
 31
0.0
  0
LINE
  5
16C
  8
0
 10
63.0
 20
74.000000000000099
 30
0.0
 11
63.0
 21
75.040000000000092
 31
0.0
  0
LINE
  5
16D
  8
0
 10
63.0
 20
74.000000000000099
 30
0.0
 11
63.0
 21
73.496000000000095
 31
0.0
  0
LINE
  5
16E
  8
0
 10
63.0
 20
73.50400000000009
 30
0.0
 11
63.0
 21
75.040000000000092
 31
0.0
  0
LINE
  5
16F
  8
0
 10
63.0
 20
73.50400000000009
 30
0.0
 11
63.0
 21
71.008000000000095
 31
0.0
  0
LINE
  5
170
  8
0
 10
63.0
 20
75.040000000000092
 30
0.0
 11
63.0
 21
75.616000000000099
 31
0.0
  0
LINE
  5
171
  8
0
 10
63.0
 20
75.040000000000092
 30
0.0
 11
63.0
 21
73.50400000000009
 31
0.0
  0
LINE
  5
172
  8
0
 10
63.0
 20
75.040000000000092
 30
0.0
 11
63.0
 21
74.000000000000099
 31
0.0
  0
LINE
  5
173
  8
0
 10
63.299999999999997
 20
71.328000000000102
 30
0.0
 11
63.299999999999997
 21
73.88800000000009
 31
0.0
  0
LINE
  5
174
  8
0
 10
63.299999999999997
 20
71.328000000000102
 30
0.0
 11
63.299999999999997
 21
67.936000000000107
 31
0.0
  0
LINE
  5
175
  8
0
 10
68.0
 20
71.328000000000102
 30
0.0
 11
68.0
 21
67.936000000000107
 31
0.0
  0
LINE
  5
176
  8
0
 10
68.0
 20
73.88800000000009
 30
0.0
 11
68.0
 21
71.328000000000102
 31
0.0
  0
LINE
  5
177
  8
0
 10
63.299999999999997
 20
73.88800000000009
 30
0.0
 11
63.299999999999997
 21
75.424000000000092
 31
0.0
  0
LINE
  5
178
  8
0
 10
63.0
 20
75.616000000000099
 30
0.0
 11
63.299999999999997
 21
76.000000000000099
 31
0.0
  0
LINE
  5
179
  8
0
 10
63.0
 20
75.616000000000099
 30
0.0
 11
63.0
 21
75.040000000000092
 31
0.0
  0
LINE
  5
17A
  8
0
 10
63.299999999999997
 20
75.424000000000092
 30
0.0
 11
63.299999999999997
 21
76.000000000000099
 31
0.0
  0
LINE
  5
17B
  8
0
 10
63.299999999999997
 20
75.424000000000092
 30
0.0
 11
63.299999999999997
 21
73.88800000000009
 31
0.0
  0
LINE
  5
17C
  8
0
 10
68.0
 20
75.424000000000092
 30
0.0
 11
68.0
 21
73.88800000000009
 31
0.0
  0
LINE
  5
17D
  8
0
 10
63.299999999999997
 20
76.000000000000099
 30
0.0
 11
68.0
 21
76.000000000000099
 31
0.0
  0
LINE
  5
17E
  8
0
 10
63.299999999999997
 20
76.000000000000099
 30
0.0
 11
63.299999999999997
 21
75.424000000000092
 31
0.0
  0
LINE
  5
17F
  8
0
 10
68.0
 20
75.192000000000093
 30
0.0
 11
68.0
 21
72.3840000000001
 31
0.0
  0
LINE
  5
180
  8
0
 10
68.0
 20
75.192000000000093
 30
0.0
 11
68.0
 21
76.920000000000101
 31
0.0
  0
LINE
  5
181
  8
0
 10
68.0
 20
72.3840000000001
 30
0.0
 11
68.0
 21
68.712000000000103
 31
0.0
  0
LINE
  5
182
  8
0
 10
68.0
 20
72.3840000000001
 30
0.0
 11
68.0
 21
75.192000000000093
 31
0.0
  0
LINE
  5
183
  8
0
 10
68.0
 20
68.712000000000103
 30
0.0
 11
68.0
 21
64.536000000000101
 31
0.0
  0
LINE
  5
184
  8
0
 10
68.0
 20
68.712000000000103
 30
0.0
 11
68.0
 21
72.3840000000001
 31
0.0
  0
LINE
  5
185
  8
0
 10
68.0
 20
64.536000000000101
 30
0.0
 11
68.0
 21
60.000000000000099
 31
0.0
  0
LINE
  5
186
  8
0
 10
68.0
 20
64.536000000000101
 30
0.0
 11
68.0
 21
68.712000000000103
 31
0.0
  0
LINE
  5
187
  8
0
 10
68.0
 20
55.464000000000098
 30
0.0
 11
68.0
 21
51.288000000000103
 31
0.0
  0
LINE
  5
188
  8
0
 10
68.0
 20
55.464000000000098
 30
0.0
 11
68.0
 21
60.000000000000099
 31
0.0
  0
LINE
  5
189
  8
0
 10
68.599999999999994
 20
75.624000000000095
 30
0.0
 11
68.599999999999994
 21
72.744000000000099
 31
0.0
  0
LINE
  5
18A
  8
0
 10
68.599999999999994
 20
75.624000000000095
 30
0.0
 11
68.599999999999994
 21
77.352000000000089
 31
0.0
  0
LINE
  5
18B
  8
0
 10
68.599999999999994
 20
72.744000000000099
 30
0.0
 11
68.599999999999994
 21
68.928000000000111
 31
0.0
  0
LINE
  5
18C
  8
0
 10
68.599999999999994
 20
72.744000000000099
 30
0.0
 11
68.599999999999994
 21
75.624000000000095
 31
0.0
  0
LINE
  5
18D
  8
0
 10
68.599999999999994
 20
68.928000000000111
 30
0.0
 11
68.599999999999994
 21
64.608000000000104
 31
0.0
  0
LINE
  5
18E
  8
0
 10
68.599999999999994
 20
68.928000000000111
 30
0.0
 11
68.599999999999994
 21
72.744000000000099
 31
0.0
  0
LINE
  5
18F
  8
0
 10
68.599999999999994
 20
64.608000000000104
 30
0.0
 11
68.599999999999994
 21
60.000000000000099
 31
0.0
  0
LINE
  5
190
  8
0
 10
68.599999999999994
 20
64.608000000000104
 30
0.0
 11
68.599999999999994
 21
68.928000000000111
 31
0.0
  0
LINE
  5
191
  8
0
 10
68.0
 20
60.000000000000099
 30
0.0
 11
68.0
 21
55.464000000000098
 31
0.0
  0
LINE
  5
192
  8
0
 10
68.0
 20
60.000000000000099
 30
0.0
 11
68.0
 21
64.536000000000101
 31
0.0
  0
LINE
  5
193
  8
0
 10
68.0
 20
60.000000000000099
 30
0.0
 11
68.0
 21
55.904000000000103
 31
0.0
  0
LINE
  5
194
  8
0
 10
68.599999999999994
 20
55.392000000000102
 30
0.0
 11
68.599999999999994
 21
51.072000000000102
 31
0.0
  0
LINE
  5
195
  8
0
 10
68.599999999999994
 20
55.392000000000102
 30
0.0
 11
68.599999999999994
 21
60.000000000000099
 31
0.0
  0
LINE
  5
196
  8
0
 10
68.599999999999994
 20
60.000000000000099
 30
0.0
 11
68.599999999999994
 21
55.392000000000102
 31
0.0
  0
LINE
  5
197
  8
0
 10
68.599999999999994
 20
60.000000000000099
 30
0.0
 11
68.599999999999994
 21
64.608000000000104
 31
0.0
  0
LINE
  5
198
  8
0
 10
68.0
 20
77.568000000000083
 30
0.0
 11
68.599999999999994
 21
78.000000000000099
 31
0.0
  0
LINE
  5
199
  8
0
 10
68.0
 20
77.568000000000083
 30
0.0
 11
68.0
 21
76.920000000000101
 31
0.0
  0
LINE
  5
19A
  8
0
 10
68.599999999999994
 20
77.352000000000089
 30
0.0
 11
68.599999999999994
 21
75.624000000000095
 31
0.0
  0
LINE
  5
19B
  8
0
 10
68.599999999999994
 20
77.352000000000089
 30
0.0
 11
68.599999999999994
 21
78.000000000000099
 31
0.0
  0
LINE
  5
19C
  8
0
 10
68.0
 20
76.920000000000101
 30
0.0
 11
68.0
 21
77.568000000000083
 31
0.0
  0
LINE
  5
19D
  8
0
 10
68.0
 20
76.920000000000101
 30
0.0
 11
68.0
 21
76.000000000000099
 31
0.0
  0
LINE
  5
19E
  8
0
 10
68.0
 20
76.920000000000101
 30
0.0
 11
68.0
 21
75.192000000000093
 31
0.0
  0
LINE
  5
19F
  8
0
 10
68.0
 20
76.000000000000099
 30
0.0
 11
68.0
 21
76.920000000000101
 31
0.0
  0
LINE
  5
1A0
  8
0
 10
68.0
 20
76.000000000000099
 30
0.0
 11
68.0
 21
75.424000000000092
 31
0.0
  0
LINE
  5
1A6
  8
0
 10
68.961789488321998
 20
77.923855146943907
 30
0.0
 11
76.002441356189394
 21
85.743270083260995
 31
0.0
  0
LINE
  5
1A7
  8
0
 10
68.961789488321998
 20
77.923855146943907
 30
0.0
 11
76.002441356189394
 21
85.743270083260995
 31
0.0
  0
LINE
  5
1A8
  8
0
 10
68.599999999999994
 20
78.000000000000099
 30
0.0
 11
68.979080644263604
 21
77.929143804810593
 31
0.0
  0
LINE
  5
1A9
  8
0
 10
68.599999999999994
 20
78.000000000000099
 30
0.0
 11
68.979080644263604
 21
77.929143804810593
 31
0.0
  0
LINE
  5
1AA
  8
0
 10
68.599999999999994
 20
78.000000000000099
 30
0.0
 11
68.599999999999994
 21
77.352000000000089
 31
0.0
  0
LINE
  5
1AB
  8
0
 10
68.0
 20
44.000000000000107
 30
0.0
 11
68.0
 21
43.080000000000098
 31
0.0
  0
LINE
  5
1AC
  8
0
 10
76.0
 20
85.740558689854495
 30
0.0
 11
76.0
 21
86.000000000000099
 31
0.0
  0
LINE
  5
1AD
  8
0
 10
76.0
 20
43.383177570093501
 30
0.0
 11
76.0
 21
33.000000000000099
 31
0.0
  0
LINE
  5
1AE
  8
0
 10
76.0
 20
86.000000000000099
 30
0.0
 11
76.0
 21
85.740558689854495
 31
0.0
  0
LINE
  5
1AF
  8
0
 10
76.0
 20
86.000000000000099
 30
0.0
 11
76.503999999999991
 21
86.000000000000099
 31
0.0
  0
LINE
  5
1B0
  8
0
 10
76.503999999999991
 20
86.000000000000099
 30
0.0
 11
77.847999999999999
 21
86.000000000000099
 31
0.0
  0
LINE
  5
1B3
  8
0
 10
77.847999999999999
 20
86.000000000000099
 30
0.0
 11
80.087999999999994
 21
86.000000000000099
 31
0.0
  0
LINE
  5
1B4
  8
0
 10
77.847999999999999
 20
33.000000000000099
 30
0.0
 11
80.087999999999994
 21
33.000000000000099
 31
0.0
  0
LINE
  5
1B5
  8
0
 10
80.234800000000007
 20
25.000000000000099
 30
0.0
 11
81.946299999999994
 21
25.000000000000099
 31
0.0
  0
LINE
  5
1B6
  8
0
 10
80.179699999999997
 20
25.000000000000099
 30
0.0
 11
81.975300000000004
 21
25.000000000000099
 31
0.0
  0
LINE
  5
1B7
  8
0
 10
80.347399999999993
 20
33.000000000000099
 30
0.0
 11
83.221100000000007
 21
33.000000000000099
 31
0.0
  0
LINE
  5
1B9
  8
0
 10
80.347399999999993
 20
25.000000000000099
 30
0.0
 11
83.221100000000007
 21
25.000000000000099
 31
0.0
  0
LINE
  5
1BB
  8
0
 10
81.946299999999994
 20
25.000000000000099
 30
0.0
 11
84.292199999999994
 21
25.000000000000099
 31
0.0
  0
LINE
  5
1BC
  8
0
 10
82.873599999999996
 20
32.884500000000102
 30
0.0
 11
86.192099999999996
 21
32.760790000000092
 31
0.0
  0
LINE
  5
1BF
  8
0
 10
82.873599999999996
 20
25.115488000000099
 30
0.0
 11
86.192099999999996
 21
25.2392000000001
 31
0.0
  0
LINE
  5
1C1
  8
0
 10
81.975300000000004
 20
25.000000000000099
 30
0.0
 11
84.407999999999987
 21
25.000000000000099
 31
0.0
  0
LINE
  5
1C3
  8
0
 10
80.087999999999994
 20
86.000000000000099
 30
0.0
 11
83.055999999999997
 21
86.000000000000099
 31
0.0
  0
LINE
  5
1C4
  8
0
 10
80.087999999999994
 20
33.000000000000099
 30
0.0
 11
83.055999999999997
 21
33.000000000000099
 31
0.0
  0
LINE
  5
1C5
  8
0
 10
83.055999999999997
 20
86.000000000000099
 30
0.0
 11
86.415999999999997
 21
86.000000000000099
 31
0.0
  0
LINE
  5
1C6
  8
0
 10
83.221100000000007
 20
33.000000000000099
 30
0.0
 11
86.463200000000015
 21
33.000000000000099
 31
0.0
  0
LINE
  5
1C7
  8
0
 10
84.292199999999994
 20
25.000000000000099
 30
0.0
 11
87.072500000000005
 21
25.000000000000099
 31
0.0
  0
LINE
  5
1C8
  8
0
 10
86.192099999999996
 20
32.760790000000092
 30
0.0
 11
88.269700000000014
 21
32.4285700000001
 31
0.0
  0
LINE
  5
1CB
  8
0
 10
86.192099999999996
 20
25.2392000000001
 30
0.0
 11
88.269700000000014
 21
25.571432000000101
 31
0.0
  0
LINE
  5
1D0
  8
0
 10
84.407999999999987
 20
25.000000000000099
 30
0.0
 11
86.953699999999998
 21
25.000000000000099
 31
0.0
  0
LINE
  5
1D1
  8
0
 10
83.221100000000007
 20
25.000000000000099
 30
0.0
 11
86.463200000000015
 21
25.000000000000099
 31
0.0
  0
LINE
  5
1D4
  8
0
 10
83.055999999999997
 20
33.000000000000099
 30
0.0
 11
86.415999999999997
 21
33.000000000000099
 31
0.0
  0
LINE
  5
1D5
  8
0
 10
76.0
 20
86.057100000000091
 30
0.0
 11
76.0
 21
86.137100000000089
 31
0.0
  0
LINE
  5
1D6
  8
0
 10
76.0
 20
86.057100000000091
 30
0.0
 11
76.368399999999994
 21
86.000000000000099
 31
0.0
  0
LINE
  5
1D7
  8
0
 10
76.0
 20
93.428600000000102
 30
0.0
 11
76.0
 21
92.857100000000102
 31
0.0
  0
LINE
  5
1D8
  8
0
 10
76.0
 20
93.428600000000102
 30
0.0
 11
76.0
 21
93.862900000000096
 31
0.0
  0
LINE
  5
1DA
  8
0
 10
76.0
 20
87.142900000000097
 30
0.0
 11
76.0
 21
86.571400000000096
 31
0.0
  0
LINE
  5
1DB
  8
0
 10
76.0
 20
87.142900000000097
 30
0.0
 11
76.0
 21
92.857100000000102
 31
0.0
  0
LINE
  5
1DC
  8
0
 10
76.0
 20
87.142900000000097
 30
0.0
 11
76.360299999999995
 21
87.142900000000097
 31
0.0
  0
LINE
  5
1DF
  8
0
 10
76.0
 20
92.857100000000102
 30
0.0
 11
76.0
 21
87.142900000000097
 31
0.0
  0
LINE
  5
1E0
  8
0
 10
76.0
 20
92.857100000000102
 30
0.0
 11
76.0
 21
93.428600000000102
 31
0.0
  0
LINE
  5
1E1
  8
0
 10
76.0
 20
92.857100000000102
 30
0.0
 11
76.360299999999995
 21
92.857100000000102
 31
0.0
  0
LINE
  5
1E2
  8
0
 10
76.0
 20
93.862900000000096
 30
0.0
 11
76.0
 21
93.428600000000102
 31
0.0
  0
LINE
  5
1E3
  8
0
 10
76.0
 20
93.862900000000096
 30
0.0
 11
76.0
 21
93.942900000000094
 31
0.0
  0
LINE
  5
1E5
  8
0
 10
76.0
 20
86.571400000000096
 30
0.0
 11
76.0
 21
86.137100000000089
 31
0.0
  0
LINE
  5
1E6
  8
0
 10
76.0
 20
86.571400000000096
 30
0.0
 11
76.0
 21
87.142900000000097
 31
0.0
  0
LINE
  5
1E8
  8
0
 10
76.0
 20
93.942900000000094
 30
0.0
 11
76.0
 21
93.862900000000096
 31
0.0
  0
LINE
  5
1E9
  8
0
 10
76.0
 20
93.942900000000094
 30
0.0
 11
76.368399999999994
 21
94.000000000000114
 31
0.0
  0
LINE
  5
1EF
  8
0
 10
82.873599999999996
 20
86.115500000000097
 30
0.0
 11
86.192099999999996
 21
86.239200000000096
 31
0.0
  0
LINE
  5
1F1
  8
0
 10
86.192099999999996
 20
86.239200000000096
 30
0.0
 11
88.269700000000014
 21
86.571400000000096
 31
0.0
  0
LINE
  5
1F6
  8
0
 10
79.536799999999999
 20
86.207800000000077
 30
0.0
 11
82.873599999999996
 21
86.115500000000097
 31
0.0
  0
LINE
  5
1F8
  8
0
 10
77.1999
 20
86.571400000000096
 30
0.0
 11
79.536799999999999
 21
86.207800000000077
 31
0.0
  0
LINE
  5
1FB
  8
0
 10
76.368399999999994
 20
94.000000000000114
 30
0.0
 11
76.884200000000007
 21
94.000000000000114
 31
0.0
  0
LINE
  5
1FC
  8
0
 10
78.210499999999996
 20
94.000000000000114
 30
0.0
 11
80.347399999999993
 21
94.000000000000114
 31
0.0
  0
LINE
  5
1FD
  8
0
 10
76.884200000000007
 20
94.000000000000114
 30
0.0
 11
78.210499999999996
 21
94.000000000000114
 31
0.0
  0
LINE
  5
1FE
  8
0
 10
86.192099999999996
 20
93.760800000000074
 30
0.0
 11
88.269700000000014
 21
93.428600000000102
 31
0.0
  0
LINE
  5
201
  8
0
 10
80.347399999999993
 20
94.000000000000114
 30
0.0
 11
83.221100000000007
 21
94.000000000000114
 31
0.0
  0
LINE
  5
203
  8
0
 10
83.221100000000007
 20
94.000000000000114
 30
0.0
 11
86.463200000000015
 21
94.000000000000114
 31
0.0
  0
LINE
  5
204
  8
0
 10
82.873599999999996
 20
93.884500000000116
 30
0.0
 11
86.192099999999996
 21
93.760800000000074
 31
0.0
  0
LINE
  5
207
  8
0
 10
79.536799999999999
 20
93.792200000000079
 30
0.0
 11
82.873599999999996
 21
93.884500000000116
 31
0.0
  0
LINE
  5
208
  8
0
 10
77.1999
 20
93.428600000000102
 30
0.0
 11
79.536799999999999
 21
93.792200000000079
 31
0.0
  0
LINE
  5
20A
  8
0
 10
76.360299999999995
 20
92.857100000000102
 30
0.0
 11
77.1999
 21
93.428600000000102
 31
0.0
  0
LINE
  5
20B
  8
0
 10
76.360299999999995
 20
92.857100000000102
 30
0.0
 11
76.360299999999995
 21
87.142900000000097
 31
0.0
  0
LINE
  5
20C
  8
0
 10
76.360299999999995
 20
87.142900000000097
 30
0.0
 11
77.1999
 21
86.571400000000096
 31
0.0
  0
LINE
  5
20D
  8
0
 10
76.360299999999995
 20
87.142900000000097
 30
0.0
 11
76.360299999999995
 21
92.857100000000102
 31
0.0
  0
LINE
  5
20E
  8
0
 10
76.0
 20
86.137100000000089
 30
0.0
 11
76.0
 21
86.057100000000091
 31
0.0
  0
LINE
  5
20F
  8
0
 10
76.0
 20
86.137100000000089
 30
0.0
 11
76.0
 21
86.571400000000096
 31
0.0
  0
LINE
  5
215
  8
0
 10
86.415999999999997
 20
86.000000000000099
 30
0.0
 11
90.0
 21
86.000000000000099
 31
0.0
  0
LINE
  5
216
  8
0
 10
86.463200000000015
 20
25.000000000000099
 30
0.0
 11
90.0
 21
25.000000000000099
 31
0.0
  0
LINE
  5
217
  8
0
 10
92.986199999999997
 20
25.000000000000099
 30
0.0
 11
95.679599999999994
 21
25.000000000000099
 31
0.0
  0
LINE
  5
218
  8
0
 10
92.977699999999984
 20
25.000000000000099
 30
0.0
 11
95.700000000000003
 21
25.000000000000099
 31
0.0
  0
LINE
  5
219
  8
0
 10
90.023600000000016
 20
25.000000000000099
 30
0.0
 11
92.977699999999984
 21
25.000000000000099
 31
0.0
  0
LINE
  5
21A
  8
0
 10
90.200299999999999
 20
25.000000000000099
 30
0.0
 11
92.986199999999997
 21
25.000000000000099
 31
0.0
  0
LINE
  5
21B
  8
0
 10
90.0
 20
25.000000000000099
 30
0.0
 11
93.536799999999999
 21
25.000000000000099
 31
0.0
  0
LINE
  5
21D
  8
0
 10
93.536799999999999
 20
25.000000000000099
 30
0.0
 11
96.778899999999993
 21
25.000000000000099
 31
0.0
  0
LINE
  5
21E
  8
0
 10
87.072500000000005
 20
25.000000000000099
 30
0.0
 11
90.200299999999999
 21
25.000000000000099
 31
0.0
  0
LINE
  5
222
  8
0
 10
91.7303
 20
25.571432000000101
 30
0.0
 11
93.807900000000004
 21
25.2392000000001
 31
0.0
  0
LINE
  5
226
  8
0
 10
89.190599999999989
 20
31.857140000000101
 30
0.0
 11
90.0
 21
31.857140000000101
 31
0.0
  0
LINE
  5
227
  8
0
 10
89.190599999999989
 20
31.857140000000101
 30
0.0
 11
89.190599999999989
 21
26.142860000000098
 31
0.0
  0
LINE
  5
228
  8
0
 10
88.269700000000014
 20
32.4285700000001
 30
0.0
 11
89.190599999999989
 21
31.857140000000101
 31
0.0
  0
LINE
  5
22B
  8
0
 10
90.0
 20
31.857140000000101
 30
0.0
 11
90.809399999999997
 21
31.857140000000101
 31
0.0
  0
LINE
  5
22C
  8
0
 10
90.809399999999997
 20
31.857140000000101
 30
0.0
 11
91.7303
 21
32.4285700000001
 31
0.0
  0
LINE
  5
22D
  8
0
 10
90.809399999999997
 20
31.857140000000101
 30
0.0
 11
90.809399999999997
 21
26.142860000000098
 31
0.0
  0
LINE
  5
22E
  8
0
 10
90.0
 20
26.142860000000098
 30
0.0
 11
90.809399999999997
 21
26.142860000000098
 31
0.0
  0
LINE
  5
22F
  8
0
 10
91.7303
 20
32.4285700000001
 30
0.0
 11
93.807900000000004
 21
32.760790000000092
 31
0.0
  0
LINE
  5
230
  8
0
 10
90.809399999999997
 20
26.142860000000098
 30
0.0
 11
91.7303
 21
25.571432000000101
 31
0.0
  0
LINE
  5
231
  8
0
 10
90.809399999999997
 20
26.142860000000098
 30
0.0
 11
90.809399999999997
 21
31.857140000000101
 31
0.0
  0
LINE
  5
233
  8
0
 10
93.536799999999999
 20
33.000000000000099
 30
0.0
 11
96.778899999999993
 21
33.000000000000099
 31
0.0
  0
LINE
  5
23C
  8
0
 10
89.190599999999989
 20
26.142860000000098
 30
0.0
 11
89.190599999999989
 21
31.857140000000101
 31
0.0
  0
LINE
  5
23D
  8
0
 10
89.190599999999989
 20
26.142860000000098
 30
0.0
 11
90.0
 21
26.142860000000098
 31
0.0
  0
LINE
  5
23E
  8
0
 10
88.269700000000014
 20
25.571432000000101
 30
0.0
 11
89.190599999999989
 21
26.142860000000098
 31
0.0
  0
LINE
  5
240
  8
0
 10
86.463200000000015
 20
33.000000000000099
 30
0.0
 11
90.0
 21
33.000000000000099
 31
0.0
  0
LINE
  5
242
  8
0
 10
86.953699999999998
 20
25.000000000000099
 30
0.0
 11
90.023600000000016
 21
25.000000000000099
 31
0.0
  0
LINE
  5
243
  8
0
 10
95.700000000000003
 20
25.000000000000099
 30
0.0
 11
98.054400000000001
 21
25.000000000000099
 31
0.0
  0
LINE
  5
244
  8
0
 10
99.734200000000001
 20
25.000000000000099
 30
0.0
 11
100.68989999999989
 21
25.000000000000099
 31
0.0
  0
LINE
  5
245
  8
0
 10
98.054400000000001
 20
25.000000000000099
 30
0.0
 11
99.792100000000005
 21
25.000000000000099
 31
0.0
  0
LINE
  5
246
  8
0
 10
99.792100000000005
 20
25.000000000000099
 30
0.0
 11
100.63200000000001
 21
25.000000000000099
 31
0.0
  0
LINE
  5
247
  8
0
 10
98.083400000000012
 20
25.000000000000099
 30
0.0
 11
99.734200000000001
 21
25.000000000000099
 31
0.0
  0
LINE
  5
248
  8
0
 10
96.778899999999993
 20
25.000000000000099
 30
0.0
 11
99.652600000000007
 21
25.000000000000099
 31
0.0
  0
LINE
  5
24A
  8
0
 10
99.652600000000007
 20
25.000000000000099
 30
0.0
 11
101.7894999999999
 21
25.000000000000099
 31
0.0
  0
LINE
  5
24C
  8
0
 10
95.679599999999994
 20
25.000000000000099
 30
0.0
 11
98.083400000000012
 21
25.000000000000099
 31
0.0
  0
LINE
  5
24D
  8
0
 10
96.778899999999993
 20
33.000000000000099
 30
0.0
 11
99.652600000000007
 21
33.000000000000099
 31
0.0
  0
LINE
  5
24E
  8
0
 10
93.807900000000004
 20
32.760790000000092
 30
0.0
 11
97.126400000000004
 21
32.884500000000102
 31
0.0
  0
LINE
  5
24F
  8
0
 10
93.807900000000004
 20
25.2392000000001
 30
0.0
 11
97.126400000000004
 21
25.115488000000099
 31
0.0
  0
LINE
  5
251
  8
0
 10
99.652600000000007
 20
33.000000000000099
 30
0.0
 11
101.7894999999999
 21
33.000000000000099
 31
0.0
  0
LINE
  5
252
  8
0
 10
97.126400000000004
 20
32.884500000000102
 30
0.0
 11
100.4631999999999
 21
32.79221000000009
 31
0.0
  0
LINE
  5
253
  8
0
 10
97.126400000000004
 20
25.115488000000099
 30
0.0
 11
100.4631999999999
 21
25.207768000000101
 31
0.0
  0
LINE
  5
255
  8
0
 10
100.63200000000001
 20
25.000000000000099
 30
0.0
 11
101.0084999999999
 21
25.000000000000099
 31
0.0
  0
LINE
  5
256
  8
0
 10
100.68989999999989
 20
25.000000000000099
 30
0.0
 11
101.0084999999999
 21
25.000000000000099
 31
0.0
  0
LINE
  5
258
  8
0
 10
103.11579999999999
 20
25.000000000000099
 30
0.0
 11
103.63160000000001
 21
25.000000000000099
 31
0.0
  0
LINE
  5
25A
  8
0
 10
101.7894999999999
 20
25.000000000000099
 30
0.0
 11
103.11579999999999
 21
25.000000000000099
 31
0.0
  0
LINE
  5
25C
  8
0
 10
100.4631999999999
 20
25.207768000000101
 30
0.0
 11
102.8000999999999
 21
25.571432000000101
 31
0.0
  0
LINE
  5
260
  8
0
 10
101.7894999999999
 20
33.000000000000099
 30
0.0
 11
103.11579999999999
 21
33.000000000000099
 31
0.0
  0
LINE
  5
263
  8
0
 10
100.4631999999999
 20
32.79221000000009
 30
0.0
 11
102.8000999999999
 21
32.4285700000001
 31
0.0
  0
LINE
  5
264
  8
0
 10
103.11579999999999
 20
33.000000000000099
 30
0.0
 11
103.63160000000001
 21
33.000000000000099
 31
0.0
  0
LINE
  5
265
  8
0
 10
102.8000999999999
 20
32.4285700000001
 30
0.0
 11
103.6397
 21
31.857140000000101
 31
0.0
  0
LINE
  5
267
  8
0
 10
102.8000999999999
 20
25.571432000000101
 30
0.0
 11
103.6397
 21
26.142860000000098
 31
0.0
  0
LINE
  5
26A
  8
0
 10
103.63160000000001
 20
25.000000000000099
 30
0.0
 11
104.0
 21
25.0571440000001
 31
0.0
  0
LINE
  5
26B
  8
0
 10
103.496
 20
33.000000000000099
 30
0.0
 11
104.0
 21
33.000000000000099
 31
0.0
  0
LINE
  5
26C
  8
0
 10
102.1519999999999
 20
33.000000000000099
 30
0.0
 11
103.496
 21
33.000000000000099
 31
0.0
  0
LINE
  5
26D
  8
0
 10
99.912000000000006
 20
33.000000000000099
 30
0.0
 11
102.1519999999999
 21
33.000000000000099
 31
0.0
  0
LINE
  5
26E
  8
0
 10
96.944000000000017
 20
33.000000000000099
 30
0.0
 11
99.912000000000006
 21
33.000000000000099
 31
0.0
  0
LINE
  5
26F
  8
0
 10
93.584000000000003
 20
33.000000000000099
 30
0.0
 11
96.944000000000017
 21
33.000000000000099
 31
0.0
  0
LINE
  5
274
  8
0
 10
103.63160000000001
 20
86.000000000000099
 30
0.0
 11
104.0
 21
86.057100000000091
 31
0.0
  0
LINE
  5
276
  8
0
 10
103.496
 20
86.000000000000099
 30
0.0
 11
104.0
 21
86.000000000000099
 31
0.0
  0
LINE
  5
277
  8
0
 10
102.1519999999999
 20
86.000000000000099
 30
0.0
 11
103.496
 21
86.000000000000099
 31
0.0
  0
LINE
  5
278
  8
0
 10
99.912000000000006
 20
86.000000000000099
 30
0.0
 11
102.1519999999999
 21
86.000000000000099
 31
0.0
  0
LINE
  5
279
  8
0
 10
96.944000000000017
 20
86.000000000000099
 30
0.0
 11
99.912000000000006
 21
86.000000000000099
 31
0.0
  0
LINE
  5
27A
  8
0
 10
93.584000000000003
 20
86.000000000000099
 30
0.0
 11
96.944000000000017
 21
86.000000000000099
 31
0.0
  0
LINE
  5
27B
  8
0
 10
90.0
 20
86.000000000000099
 30
0.0
 11
93.584000000000003
 21
86.000000000000099
 31
0.0
  0
LINE
  5
27C
  8
0
 10
90.0
 20
33.000000000000099
 30
0.0
 11
93.584000000000003
 21
33.000000000000099
 31
0.0
  0
LINE
  5
27D
  8
0
 10
90.0
 20
33.000000000000099
 30
0.0
 11
93.536799999999999
 21
33.000000000000099
 31
0.0
  0
LINE
  5
27F
  8
0
 10
103.6397
 20
31.857140000000101
 30
0.0
 11
104.0
 21
31.857140000000101
 31
0.0
  0
LINE
  5
280
  8
0
 10
103.6397
 20
31.857140000000101
 30
0.0
 11
103.6397
 21
26.142860000000098
 31
0.0
  0
LINE
  5
281
  8
0
 10
104.0
 20
25.0571440000001
 30
0.0
 11
104.0
 21
25.137144000000099
 31
0.0
  0
LINE
  5
282
  8
0
 10
104.0
 20
25.571432000000101
 30
0.0
 11
104.0
 21
25.137144000000099
 31
0.0
  0
LINE
  5
283
  8
0
 10
104.0
 20
25.571432000000101
 30
0.0
 11
104.0
 21
26.142860000000098
 31
0.0
  0
LINE
  5
284
  8
0
 10
104.0
 20
25.137144000000099
 30
0.0
 11
104.0
 21
25.571432000000101
 31
0.0
  0
LINE
  5
285
  8
0
 10
104.0
 20
25.137144000000099
 30
0.0
 11
104.0
 21
25.0571440000001
 31
0.0
  0
LINE
  5
286
  8
0
 10
104.0
 20
26.142860000000098
 30
0.0
 11
104.0
 21
25.571432000000101
 31
0.0
  0
LINE
  5
287
  8
0
 10
104.0
 20
26.142860000000098
 30
0.0
 11
104.0
 21
31.857140000000101
 31
0.0
  0
LINE
  5
288
  8
0
 10
104.0
 20
31.857140000000101
 30
0.0
 11
104.0
 21
26.142860000000098
 31
0.0
  0
LINE
  5
289
  8
0
 10
104.0
 20
31.857140000000101
 30
0.0
 11
104.0
 21
32.4285700000001
 31
0.0
  0
LINE
  5
28A
  8
0
 10
104.0
 20
32.86286000000009
 30
0.0
 11
104.0
 21
32.4285700000001
 31
0.0
  0
LINE
  5
28B
  8
0
 10
104.0
 20
32.86286000000009
 30
0.0
 11
104.0
 21
32.942860000000103
 31
0.0
  0
LINE
  5
28C
  8
0
 10
104.0
 20
32.942860000000103
 30
0.0
 11
104.0
 21
32.86286000000009
 31
0.0
  0
LINE
  5
28E
  8
0
 10
104.0
 20
32.4285700000001
 30
0.0
 11
104.0
 21
32.86286000000009
 31
0.0
  0
LINE
  5
28F
  8
0
 10
104.0
 20
32.4285700000001
 30
0.0
 11
104.0
 21
31.857140000000101
 31
0.0
  0
LINE
  5
293
  8
0
 10
103.6397
 20
26.142860000000098
 30
0.0
 11
103.6397
 21
31.857140000000101
 31
0.0
  0
LINE
  5
294
  8
0
 10
103.6397
 20
26.142860000000098
 30
0.0
 11
104.0
 21
26.142860000000098
 31
0.0
  0
LINE
  5
295
  8
0
 10
104.0
 20
33.000000000000099
 30
0.0
 11
104.0
 21
86.000000000000099
 31
0.0
  0
LINE
  5
296
  8
0
 10
103.63160000000001
 20
33.000000000000099
 30
0.0
 11
104.0
 21
33.000000000000099
 31
0.0
  0
LINE
  5
297
  8
0
 10
103.63160000000001
 20
33.000000000000099
 30
0.0
 11
104.0
 21
32.942860000000103
 31
0.0
  0
LINE
  5
29C
  8
0
 10
97.126400000000004
 20
86.115500000000097
 30
0.0
 11
100.4631999999999
 21
86.207800000000077
 31
0.0
  0
LINE
  5
29E
  8
0
 10
93.807900000000004
 20
86.239200000000096
 30
0.0
 11
97.126400000000004
 21
86.115500000000097
 31
0.0
  0
LINE
  5
2A0
  8
0
 10
100.4631999999999
 20
86.207800000000077
 30
0.0
 11
102.8000999999999
 21
86.571400000000096
 31
0.0
  0
LINE
  5
2A4
  8
0
 10
104.0
 20
86.057100000000091
 30
0.0
 11
104.0
 21
86.137100000000089
 31
0.0
  0
LINE
  5
2A5
  8
0
 10
104.0
 20
86.571400000000096
 30
0.0
 11
104.0
 21
86.137100000000089
 31
0.0
  0
LINE
  5
2A6
  8
0
 10
104.0
 20
86.571400000000096
 30
0.0
 11
104.0
 21
87.142900000000097
 31
0.0
  0
LINE
  5
2A7
  8
0
 10
104.0
 20
86.137100000000089
 30
0.0
 11
104.0
 21
86.571400000000096
 31
0.0
  0
LINE
  5
2A8
  8
0
 10
104.0
 20
86.137100000000089
 30
0.0
 11
104.0
 21
86.057100000000091
 31
0.0
  0
LINE
  5
2AC
  8
0
 10
102.8000999999999
 20
86.571400000000096
 30
0.0
 11
103.6397
 21
87.142900000000097
 31
0.0
  0
LINE
  5
2AF
  8
0
 10
91.7303
 20
86.571400000000096
 30
0.0
 11
93.807900000000004
 21
86.239200000000096
 31
0.0
  0
LINE
  5
2B3
  8
0
 10
89.190599999999989
 20
92.857100000000102
 30
0.0
 11
90.0
 21
92.857100000000102
 31
0.0
  0
LINE
  5
2B4
  8
0
 10
89.190599999999989
 20
92.857100000000102
 30
0.0
 11
89.190599999999989
 21
87.142900000000097
 31
0.0
  0
LINE
  5
2B5
  8
0
 10
88.269700000000014
 20
93.428600000000102
 30
0.0
 11
89.190599999999989
 21
92.857100000000102
 31
0.0
  0
LINE
  5
2B8
  8
0
 10
90.0
 20
92.857100000000102
 30
0.0
 11
90.809399999999997
 21
92.857100000000102
 31
0.0
  0
LINE
  5
2B9
  8
0
 10
90.809399999999997
 20
92.857100000000102
 30
0.0
 11
91.7303
 21
93.428600000000102
 31
0.0
  0
LINE
  5
2BA
  8
0
 10
90.809399999999997
 20
92.857100000000102
 30
0.0
 11
90.809399999999997
 21
87.142900000000097
 31
0.0
  0
LINE
  5
2BB
  8
0
 10
90.0
 20
87.142900000000097
 30
0.0
 11
90.809399999999997
 21
87.142900000000097
 31
0.0
  0
LINE
  5
2BC
  8
0
 10
103.6397
 20
92.857100000000102
 30
0.0
 11
104.0
 21
92.857100000000102
 31
0.0
  0
LINE
  5
2BD
  8
0
 10
103.6397
 20
92.857100000000102
 30
0.0
 11
103.6397
 21
87.142900000000097
 31
0.0
  0
LINE
  5
2BE
  8
0
 10
102.8000999999999
 20
93.428600000000102
 30
0.0
 11
103.6397
 21
92.857100000000102
 31
0.0
  0
LINE
  5
2C0
  8
0
 10
104.0
 20
87.142900000000097
 30
0.0
 11
104.0
 21
86.571400000000096
 31
0.0
  0
LINE
  5
2C1
  8
0
 10
104.0
 20
87.142900000000097
 30
0.0
 11
104.0
 21
92.857100000000102
 31
0.0
  0
LINE
  5
2C2
  8
0
 10
104.0
 20
92.857100000000102
 30
0.0
 11
104.0
 21
87.142900000000097
 31
0.0
  0
LINE
  5
2C3
  8
0
 10
104.0
 20
92.857100000000102
 30
0.0
 11
104.0
 21
93.428600000000102
 31
0.0
  0
LINE
  5
2C5
  8
0
 10
104.0
 20
93.428600000000102
 30
0.0
 11
104.0
 21
93.862900000000096
 31
0.0
  0
LINE
  5
2C6
  8
0
 10
104.0
 20
93.428600000000102
 30
0.0
 11
104.0
 21
92.857100000000102
 31
0.0
  0
LINE
  5
2C7
  8
0
 10
103.6397
 20
87.142900000000097
 30
0.0
 11
103.6397
 21
92.857100000000102
 31
0.0
  0
LINE
  5
2C8
  8
0
 10
103.6397
 20
87.142900000000097
 30
0.0
 11
104.0
 21
87.142900000000097
 31
0.0
  0
LINE
  5
2C9
  8
0
 10
91.7303
 20
93.428600000000102
 30
0.0
 11
93.807900000000004
 21
93.760800000000074
 31
0.0
  0
LINE
  5
2CA
  8
0
 10
90.809399999999997
 20
87.142900000000097
 30
0.0
 11
91.7303
 21
86.571400000000096
 31
0.0
  0
LINE
  5
2CB
  8
0
 10
90.809399999999997
 20
87.142900000000097
 30
0.0
 11
90.809399999999997
 21
92.857100000000102
 31
0.0
  0
LINE
  5
2CC
  8
0
 10
90.0
 20
94.000000000000114
 30
0.0
 11
93.536799999999999
 21
94.000000000000114
 31
0.0
  0
LINE
  5
2CE
  8
0
 10
93.807900000000004
 20
93.760800000000074
 30
0.0
 11
97.126400000000004
 21
93.884500000000116
 31
0.0
  0
LINE
  5
2CF
  8
0
 10
96.778899999999993
 20
94.000000000000114
 30
0.0
 11
99.652600000000007
 21
94.000000000000114
 31
0.0
  0
LINE
  5
2D0
  8
0
 10
99.652600000000007
 20
94.000000000000114
 30
0.0
 11
101.7894999999999
 21
94.000000000000114
 31
0.0
  0
LINE
  5
2D1
  8
0
 10
97.126400000000004
 20
93.884500000000116
 30
0.0
 11
100.4631999999999
 21
93.792200000000079
 31
0.0
  0
LINE
  5
2D2
  8
0
 10
101.7894999999999
 20
94.000000000000114
 30
0.0
 11
103.11579999999999
 21
94.000000000000114
 31
0.0
  0
LINE
  5
2D3
  8
0
 10
103.11579999999999
 20
94.000000000000114
 30
0.0
 11
103.63160000000001
 21
94.000000000000114
 31
0.0
  0
LINE
  5
2D4
  8
0
 10
103.63160000000001
 20
94.000000000000114
 30
0.0
 11
104.0
 21
93.942900000000094
 31
0.0
  0
LINE
  5
2D5
  8
0
 10
104.0
 20
93.862900000000096
 30
0.0
 11
104.0
 21
93.428600000000102
 31
0.0
  0
LINE
  5
2D6
  8
0
 10
104.0
 20
93.862900000000096
 30
0.0
 11
104.0
 21
93.942900000000094
 31
0.0
  0
LINE
  5
2D7
  8
0
 10
104.0
 20
93.942900000000094
 30
0.0
 11
104.0
 21
93.862900000000096
 31
0.0
  0
LINE
  5
2DA
  8
0
 10
100.4631999999999
 20
93.792200000000079
 30
0.0
 11
102.8000999999999
 21
93.428600000000102
 31
0.0
  0
LINE
  5
2DC
  8
0
 10
93.536799999999999
 20
94.000000000000114
 30
0.0
 11
96.778899999999993
 21
94.000000000000114
 31
0.0
  0
LINE
  5
2E5
  8
0
 10
89.190599999999989
 20
87.142900000000097
 30
0.0
 11
89.190599999999989
 21
92.857100000000102
 31
0.0
  0
LINE
  5
2E6
  8
0
 10
89.190599999999989
 20
87.142900000000097
 30
0.0
 11
90.0
 21
87.142900000000097
 31
0.0
  0
LINE
  5
2E7
  8
0
 10
88.269700000000014
 20
86.571400000000096
 30
0.0
 11
89.190599999999989
 21
87.142900000000097
 31
0.0
  0
LINE
  5
2E9
  8
0
 10
86.463200000000015
 20
94.000000000000114
 30
0.0
 11
90.0
 21
94.000000000000114
 31
0.0
  0
LINE
  5
2EB
  8
0
 10
104.0
 20
86.000000000000099
 30
0.0
 11
104.0
 21
33.000000000000099
 31
0.0
  0
LINE
  5
2EC
  8
0
 10
86.415999999999997
 20
33.000000000000099
 30
0.0
 11
90.0
 21
33.000000000000099
 31
0.0
  0
LINE
  5
2ED
  8
0
 10
58.0
 20
0.9999999999999969
 30
0.0
 11
58.0
 21
119.0
 31
0.0
  0
LINE
  5
2EE
  8
0
 10
57.700000000000003
 20
0.9999999999999969
 30
0.0
 11
57.700000000000003
 21
119.0
 31
0.0
  0
LINE
  5
2EF
  8
0
 10
57.700000000000003
 20
119.7
 30
0.0
 11
58.0
 21
119.0
 31
0.0
  0
LINE
  5
2F0
  8
0
 10
57.5
 20
119.7
 30
0.0
 11
57.700000000000003
 21
119.7
 31
0.0
  0
LINE
  5
2F1
  8
0
 10
57.5
 20
119.7
 30
0.0
 11
57.700000000000003
 21
119.0
 31
0.0
  0
LINE
  5
2F2
  8
0
 10
57.0
 20
119.7
 30
0.0
 11
57.5
 21
119.7
 31
0.0
  0
LINE
  5
2F3
  8
0
 10
39.0
 20
119.7
 30
0.0
 11
57.0
 21
119.7
 31
0.0
  0
LINE
  5
2F4
  8
0
 10
57.0
 20
120.0
 30
0.0
 11
57.700000000000003
 21
119.7
 31
0.0
  0
LINE
  5
2F5
  8
0
 10
39.0
 20
120.0
 30
0.0
 11
57.0
 21
120.0
 31
0.0
  0
LINE
  5
2F6
  8
0
 10
38.5
 20
119.7
 30
0.0
 11
39.0
 21
119.7
 31
0.0
  0
LINE
  5
2F7
  8
0
 10
38.299999999999997
 20
119.7
 30
0.0
 11
39.0
 21
120.0
 31
0.0
  0
LINE
  5
2F8
  8
0
 10
38.299999999999997
 20
119.7
 30
0.0
 11
38.5
 21
119.7
 31
0.0
  0
ENDSEC
  0
EOF
