  0
SECTION
  2
HEADER
  9
$ACADVER
  1
AC1009
  9
$INSBASE
 10
0.0
 20
0.0
 30
0.0
  9
$EXTMIN
 10
0.250000000000003
 20
-0.0000000000000033
 30
0.0
  9
$EXTMAX
 10
97.75
 20
106.0
 30
0.0
  9
$LIMMIN
 10
0.0
 20
0.0
  9
$LIMMAX
 10
12.0
 20
9.0
  9
$ORTHOMODE
 70
     0
  9
$REGENMODE
 70
     1
  9
$FILLMODE
 70
     1
  9
$QTEXTMODE
 70
     0
  9
$MIRRTEXT
 70
     1
  9
$DRAGMODE
 70
     2
  9
$LTSCALE
 40
1.0
  9
$OSMODE
 70
    37
  9
$ATTMODE
 70
     1
  9
$TEXTSIZE
 40
0.2
  9
$TRACEWID
 40
0.05
  9
$TEXTSTYLE
  7
STANDARD
  9
$CLAYER
  8
0
  9
$CELTYPE
  6
CONTINUOUS
  9
$CECOLOR
 62
   256
  9
$DIMSCALE
 40
1.0
  9
$DIMASZ
 40
0.18
  9
$DIMEXO
 40
0.0625
  9
$DIMDLI
 40
0.38
  9
$DIMRND
 40
0.0
  9
$DIMDLE
 40
0.0
  9
$DIMEXE
 40
0.18
  9
$DIMTP
 40
0.0
  9
$DIMTM
 40
0.0
  9
$DIMTXT
 40
0.18
  9
$DIMCEN
 40
0.09
  9
$DIMTSZ
 40
0.0
  9
$DIMTOL
 70
     0
  9
$DIMLIM
 70
     0
  9
$DIMTIH
 70
     1
  9
$DIMTOH
 70
     1
  9
$DIMSE1
 70
     0
  9
$DIMSE2
 70
     0
  9
$DIMTAD
 70
     0
  9
$DIMZIN
 70
     0
  9
$DIMBLK
  1

  9
$DIMASO
 70
     1
  9
$DIMSHO
 70
     1
  9
$DIMPOST
  1

  9
$DIMAPOST
  1

  9
$DIMALT
 70
     0
  9
$DIMALTD
 70
     2
  9
$DIMALTF
 40
25.399999999999999
  9
$DIMLFAC
 40
1.0
  9
$DIMTOFL
 70
     0
  9
$DIMTVP
 40
0.0
  9
$DIMTIX
 70
     0
  9
$DIMSOXD
 70
     0
  9
$DIMSAH
 70
     0
  9
$DIMBLK1
  1

  9
$DIMBLK2
  1

  9
$DIMSTYLE
  2
STANDARD
  9
$DIMCLRD
 70
     0
  9
$DIMCLRE
 70
     0
  9
$DIMCLRT
 70
     0
  9
$DIMTFAC
 40
1.0
  9
$DIMGAP
 40
0.09
  9
$LUNITS
 70
     2
  9
$LUPREC
 70
     4
  9
$SKETCHINC
 40
0.1
  9
$FILLETRAD
 40
0.0
  9
$AUNITS
 70
     0
  9
$AUPREC
 70
     0
  9
$MENU
  1
.
  9
$ELEVATION
 40
0.0
  9
$PELEVATION
 40
0.0
  9
$THICKNESS
 40
0.0
  9
$LIMCHECK
 70
     0
  9
$BLIPMODE
 70
     0
  9
$CHAMFERA
 40
0.0
  9
$CHAMFERB
 40
0.0
  9
$SKPOLY
 70
     0
  9
$TDCREATE
 40
2454675.4490375342
  9
$TDUPDATE
 40
2454675.4501708909
  9
$TDINDWG
 40
0.0011333565
  9
$TDUSRTIMER
 40
0.0011333565
  9
$USRTIMER
 70
     1
  9
$ANGBASE
 50
0.0
  9
$ANGDIR
 70
     0
  9
$PDMODE
 70
     0
  9
$PDSIZE
 40
0.0
  9
$PLINEWID
 40
0.0
  9
$COORDS
 70
     1
  9
$SPLFRAME
 70
     0
  9
$SPLINETYPE
 70
     6
  9
$SPLINESEGS
 70
     8
  9
$ATTDIA
 70
     0
  9
$ATTREQ
 70
     1
  9
$HANDLING
 70
 22529
  9
$HANDSEED
  5
583
  9
$SURFTAB1
 70
     6
  9
$SURFTAB2
 70
     6
  9
$SURFTYPE
 70
     6
  9
$SURFU
 70
     6
  9
$SURFV
 70
     6
  9
$UCSNAME
  2

  9
$UCSORG
 10
0.0
 20
0.0
 30
0.0
  9
$UCSXDIR
 10
1.0
 20
0.0
 30
0.0
  9
$UCSYDIR
 10
0.0
 20
1.0
 30
0.0
  9
$PUCSNAME
  2

  9
$PUCSORG
 10
0.0
 20
0.0
 30
0.0
  9
$PUCSXDIR
 10
1.0
 20
0.0
 30
0.0
  9
$PUCSYDIR
 10
0.0
 20
1.0
 30
0.0
  9
$USERI1
 70
     0
  9
$USERI2
 70
     0
  9
$USERI3
 70
     0
  9
$USERI4
 70
     0
  9
$USERI5
 70
     0
  9
$USERR1
 40
0.0
  9
$USERR2
 40
0.0
  9
$USERR3
 40
0.0
  9
$USERR4
 40
0.0
  9
$USERR5
 40
0.0
  9
$WORLDVIEW
 70
     1
  9
$SHADEDGE
 70
     3
  9
$SHADEDIF
 70
    70
  9
$TILEMODE
 70
     1
  9
$MAXACTVP
 70
    64
  9
$PLIMCHECK
 70
     0
  9
$PEXTMIN
 10
1.0000000000000000E+020
 20
1.0000000000000000E+020
 30
1.0000000000000000E+020
  9
$PEXTMAX
 10
-1.0000000000000000E+020
 20
-1.0000000000000000E+020
 30
-1.0000000000000000E+020
  9
$PLIMMIN
 10
0.0
 20
0.0
  9
$PLIMMAX
 10
12.0
 20
9.0
  9
$UNITMODE
 70
     0
  9
$VISRETAIN
 70
     1
  9
$PLINEGEN
 70
     0
  9
$PSLTSCALE
 70
     1
  0
ENDSEC
  0
SECTION
  2
TABLES
  0
TABLE
  2
VPORT
 70
     3
  0
VPORT
  2
*ACTIVE
 70
     0
 10
0.0
 20
0.0
 11
1.0
 21
1.0
 12
49.000000000000028
 22
48.727468321165269
 13
0.0
 23
0.0
 14
1.0
 24
1.0
 15
0.0
 25
0.0
 16
0.0
 26
0.0
 36
1.0
 17
0.0
 27
0.0
 37
0.0
 40
106.81329918299809
 41
2.0435339308578739
 42
50.0
 43
0.0
 44
0.0
 50
0.0
 51
0.0
 71
     0
 72
   100
 73
     1
 74
     3
 75
     0
 76
     0
 77
     0
 78
     0
  0
ENDTAB
  0
TABLE
  2
LTYPE
 70
     1
  0
LTYPE
  2
CONTINUOUS
 70
     0
  3
Solid line
 72
    65
 73
     0
 40
0.0
  0
ENDTAB
  0
TABLE
  2
LAYER
 70
     1
  0
LAYER
  2
0
 70
     0
 62
     7
  6
CONTINUOUS
  0
ENDTAB
  0
TABLE
  2
STYLE
 70
     1
  0
STYLE
  2
STANDARD
 70
     0
 40
0.0
 41
1.0
 50
0.0
 71
     0
 42
0.2
  3
txt
  4

  0
ENDTAB
  0
TABLE
  2
VIEW
 70
     0
  0
ENDTAB
  0
TABLE
  2
UCS
 70
     0
  0
ENDTAB
  0
TABLE
  2
APPID
 70
     1
  0
APPID
  2
ACAD
 70
     0
  0
ENDTAB
  0
TABLE
  2
DIMSTYLE
 70
     1
  0
DIMSTYLE
  2
STANDARD
 70
     0
  3

  4

  5

  6

  7

 40
1.0
 41
0.18
 42
0.0625
 43
0.38
 44
0.18
 45
0.0
 46
0.0
 47
0.0
 48
0.0
140
0.18
141
0.09
142
0.0
143
25.399999999999999
144
1.0
145
0.0
146
1.0
147
0.09
 71
     0
 72
     0
 73
     1
 74
     1
 75
     0
 76
     0
 77
     0
 78
     0
170
     0
171
     2
172
     0
173
     0
174
     0
175
     0
176
     0
177
     0
178
     0
  0
ENDTAB
  0
ENDSEC
  0
SECTION
  2
BLOCKS
  0
BLOCK
  8
0
  2
$MODEL_SPACE
 70
     0
 10
0.0
 20
0.0
 30
0.0
  3
$MODEL_SPACE
  1

  0
ENDBLK
  5
20
  8
0
  0
BLOCK
 67
     1
  8
0
  2
$PAPER_SPACE
 70
     0
 10
0.0
 20
0.0
 30
0.0
  3
$PAPER_SPACE
  1

  0
ENDBLK
  5
1C
 67
     1
  8
0
  0
ENDSEC
  0
SECTION
  2
ENTITIES
  0
LINE
  5
22
  8
0
 10
14.625999999999999
 20
29.0
 30
0.0
 11
15.405900000000001
 21
29.0
 31
0.0
  0
LINE
  5
23
  8
0
 10
13.957599999999999
 20
29.0
 30
0.0
 11
14.625999999999999
 21
29.0
 31
0.0
  0
LINE
  5
24
  8
0
 10
13.289099999999999
 20
29.0
 30
0.0
 11
13.6433
 21
29.0
 31
0.0
  0
LINE
  5
25
  8
0
 10
13.289099999999999
 20
29.0
 30
0.0
 11
13.957599999999999
 21
29.0
 31
0.0
  0
LINE
  5
26
  8
0
 10
13.289099999999999
 20
29.0
 30
0.0
 11
13.289099999999999
 21
54.0
 31
0.0
  0
LINE
  5
27
  8
0
 10
13.289099999999999
 20
54.0
 30
0.0
 11
13.289099999999999
 21
29.0
 31
0.0
  0
LINE
  5
28
  8
0
 10
13.289099999999999
 20
54.0
 30
0.0
 11
13.5472
 21
54.0
 31
0.0
  0
LINE
  5
29
  8
0
 10
13.5472
 20
54.0
 30
0.0
 11
14.9894
 21
54.0
 31
0.0
  0
LINE
  5
2A
  8
0
 10
13.6433
 20
29.0
 30
0.0
 11
14.893299999999989
 21
29.0
 31
0.0
  0
LINE
  5
2B
  8
0
 10
14.893299999999989
 20
29.0
 30
0.0
 11
16.816299999999998
 21
29.0
 31
0.0
  0
LINE
  5
2C
  8
0
 10
14.9894
 20
54.0
 30
0.0
 11
16.720099999999999
 21
54.0
 31
0.0
  0
LINE
  5
2D
  8
0
 10
2.7500000000000089
 20
70.0
 30
0.0
 11
22.25
 21
70.0
 31
0.0
  0
LINE
  5
2E
  8
0
 10
2.75
 20
70.611999999999995
 30
0.0
 11
2.75
 21
72.244
 31
0.0
  0
LINE
  5
2F
  8
0
 10
2.75
 20
70.611999999999995
 30
0.0
 11
2.75
 21
70.0
 31
0.0
  0
LINE
  5
30
  8
0
 10
2.75
 20
70.0
 30
0.0
 11
2.75
 21
70.611999999999995
 31
0.0
  0
LINE
  5
31
  8
0
 10
2.75
 20
70.0
 30
0.0
 11
22.25
 21
70.0
 31
0.0
  0
LINE
  5
32
  8
0
 10
15.25
 20
70.0
 30
0.0
 11
15.25
 21
70.611999999999995
 31
0.0
  0
LINE
  5
33
  8
0
 10
15.25
 20
70.0
 30
0.0
 11
32.25
 21
70.0
 31
0.0
  0
LINE
  5
34
  8
0
 10
15.25
 20
70.611999999999995
 30
0.0
 11
15.25
 21
72.0
 31
0.0
  0
LINE
  5
35
  8
0
 10
15.25
 20
70.611999999999995
 30
0.0
 11
15.25
 21
70.0
 31
0.0
  0
LINE
  5
36
  8
0
 10
15.25
 20
70.611999999999995
 30
0.0
 11
15.25
 21
72.0
 31
0.0
  0
LINE
  5
37
  8
0
 10
15.25
 20
70.0
 30
0.0
 11
15.25
 21
70.611999999999995
 31
0.0
  0
LINE
  5
38
  8
0
 10
15.25
 20
70.0
 30
0.0
 11
32.25
 21
70.0
 31
0.0
  0
LINE
  5
39
  8
0
 10
10.25
 20
72.0
 30
0.0
 11
10.25
 21
72.540000000000006
 31
0.0
  0
LINE
  5
3A
  8
0
 10
10.25
 20
72.0
 30
0.0
 11
15.25
 21
72.0
 31
0.0
  0
LINE
  5
3B
  8
0
 10
2.75
 20
72.428600000000003
 30
0.0
 11
2.75
 21
72.953100000000006
 31
0.0
  0
LINE
  5
3C
  8
0
 10
2.75
 20
72.244
 30
0.0
 11
2.75
 21
74.963999999999999
 31
0.0
  0
LINE
  5
3D
  8
0
 10
2.75
 20
72.244
 30
0.0
 11
2.75
 21
70.611999999999995
 31
0.0
  0
LINE
  5
3E
  8
0
 10
2.75
 20
72.953100000000006
 30
0.0
 11
2.75
 21
72.428600000000003
 31
0.0
  0
LINE
  5
3F
  8
0
 10
2.75
 20
72.953100000000006
 30
0.0
 11
2.75
 21
74.352000000000004
 31
0.0
  0
LINE
  5
40
  8
0
 10
10.25
 20
72.540000000000006
 30
0.0
 11
10.25
 21
73.980000000000004
 31
0.0
  0
LINE
  5
41
  8
0
 10
10.25
 20
72.540000000000006
 30
0.0
 11
10.25
 21
72.0
 31
0.0
  0
LINE
  5
42
  8
0
 10
10.25
 20
73.980000000000004
 30
0.0
 11
10.25
 21
76.379999999999995
 31
0.0
  0
LINE
  5
43
  8
0
 10
10.25
 20
73.980000000000004
 30
0.0
 11
10.25
 21
72.540000000000006
 31
0.0
  0
LINE
  5
44
  8
0
 10
10.25
 20
72.0
 30
0.0
 11
10.25
 21
72.540000000000006
 31
0.0
  0
LINE
  5
45
  8
0
 10
10.25
 20
72.0
 30
0.0
 11
15.25
 21
72.0
 31
0.0
  0
LINE
  5
46
  8
0
 10
15.25
 20
72.0
 30
0.0
 11
15.25
 21
70.611999999999995
 31
0.0
  0
LINE
  5
47
  8
0
 10
10.25
 20
72.540000000000006
 30
0.0
 11
10.25
 21
73.980000000000004
 31
0.0
  0
LINE
  5
48
  8
0
 10
10.25
 20
72.540000000000006
 30
0.0
 11
10.25
 21
72.0
 31
0.0
  0
LINE
  5
49
  8
0
 10
10.25
 20
73.980000000000004
 30
0.0
 11
10.25
 21
76.379999999999995
 31
0.0
  0
LINE
  5
4A
  8
0
 10
10.25
 20
73.980000000000004
 30
0.0
 11
10.25
 21
72.540000000000006
 31
0.0
  0
LINE
  5
4B
  8
0
 10
15.25
 20
72.540000000000006
 30
0.0
 11
15.25
 21
73.980000000000004
 31
0.0
  0
LINE
  5
4C
  8
0
 10
15.25
 20
72.540000000000006
 30
0.0
 11
15.25
 21
72.0
 31
0.0
  0
LINE
  5
4D
  8
0
 10
2.75
 20
74.352000000000004
 30
0.0
 11
2.75
 21
72.953100000000006
 31
0.0
  0
LINE
  5
4E
  8
0
 10
2.75
 20
74.352000000000004
 30
0.0
 11
2.75
 21
76.683400000000006
 31
0.0
  0
LINE
  5
4F
  8
0
 10
2.75
 20
74.963999999999999
 30
0.0
 11
2.75
 21
78.567999999999984
 31
0.0
  0
LINE
  5
50
  8
0
 10
2.75
 20
74.963999999999999
 30
0.0
 11
2.75
 21
72.244
 31
0.0
  0
LINE
  5
51
  8
0
 10
15.25
 20
73.980000000000004
 30
0.0
 11
15.25
 21
76.379999999999995
 31
0.0
  0
LINE
  5
52
  8
0
 10
15.25
 20
73.980000000000004
 30
0.0
 11
15.25
 21
72.540000000000006
 31
0.0
  0
LINE
  5
53
  8
0
 10
15.25
 20
72.0
 30
0.0
 11
15.25
 21
70.611999999999995
 31
0.0
  0
LINE
  5
54
  8
0
 10
15.25
 20
72.0
 30
0.0
 11
15.25
 21
72.540000000000006
 31
0.0
  0
LINE
  5
55
  8
0
 10
15.25
 20
72.0
 30
0.0
 11
15.25
 21
70.611999999999995
 31
0.0
  0
LINE
  5
56
  8
0
 10
15.25
 20
70.611999999999995
 30
0.0
 11
15.25
 21
72.244
 31
0.0
  0
LINE
  5
57
  8
0
 10
15.25
 20
70.611999999999995
 30
0.0
 11
15.25
 21
70.0
 31
0.0
  0
LINE
  5
58
  8
0
 10
15.25
 20
70.611999999999995
 30
0.0
 11
15.25
 21
72.0
 31
0.0
  0
LINE
  5
59
  8
0
 10
15.25
 20
72.244
 30
0.0
 11
15.25
 21
74.963999999999999
 31
0.0
  0
LINE
  5
5A
  8
0
 10
15.25
 20
72.244
 30
0.0
 11
15.25
 21
70.611999999999995
 31
0.0
  0
LINE
  5
5B
  8
0
 10
10.25
 20
76.379999999999995
 30
0.0
 11
10.25
 21
79.560000000000002
 31
0.0
  0
LINE
  5
5C
  8
0
 10
10.25
 20
76.379999999999995
 30
0.0
 11
10.25
 21
73.980000000000004
 31
0.0
  0
LINE
  5
5D
  8
0
 10
10.25
 20
76.379999999999995
 30
0.0
 11
10.25
 21
79.560000000000002
 31
0.0
  0
LINE
  5
5E
  8
0
 10
10.25
 20
76.379999999999995
 30
0.0
 11
10.25
 21
73.980000000000004
 31
0.0
  0
LINE
  5
5F
  8
0
 10
0.250000000000003
 20
81.0
 30
0.0
 11
10.25
 21
81.0
 31
0.0
  0
LINE
  5
60
  8
0
 10
0.250000000000003
 20
81.0
 30
0.0
 11
0.250000000000003
 21
93.0
 31
0.0
  0
LINE
  5
61
  8
0
 10
2.75
 20
76.683400000000006
 30
0.0
 11
2.75
 21
74.352000000000004
 31
0.0
  0
LINE
  5
62
  8
0
 10
2.75
 20
76.683400000000006
 30
0.0
 11
2.75
 21
79.772599999999997
 31
0.0
  0
LINE
  5
63
  8
0
 10
2.75
 20
81.0
 30
0.0
 11
2.75
 21
79.772599999999997
 31
0.0
  0
LINE
  5
64
  8
0
 10
2.75
 20
81.0
 30
0.0
 11
2.75
 21
78.567999999999984
 31
0.0
  0
LINE
  5
65
  8
0
 10
2.75
 20
79.772599999999997
 30
0.0
 11
2.75
 21
76.683400000000006
 31
0.0
  0
LINE
  5
66
  8
0
 10
2.75
 20
79.772599999999997
 30
0.0
 11
2.75
 21
81.0
 31
0.0
  0
LINE
  5
67
  8
0
 10
2.75
 20
78.567999999999984
 30
0.0
 11
2.75
 21
81.0
 31
0.0
  0
LINE
  5
68
  8
0
 10
2.75
 20
78.567999999999984
 30
0.0
 11
2.75
 21
74.963999999999999
 31
0.0
  0
LINE
  5
69
  8
0
 10
10.25
 20
79.560000000000002
 30
0.0
 11
10.25
 21
81.0
 31
0.0
  0
LINE
  5
6A
  8
0
 10
10.25
 20
79.560000000000002
 30
0.0
 11
10.25
 21
76.379999999999995
 31
0.0
  0
LINE
  5
6B
  8
0
 10
10.25
 20
79.560000000000002
 30
0.0
 11
10.25
 21
81.0
 31
0.0
  0
LINE
  5
6C
  8
0
 10
10.25
 20
81.0
 30
0.0
 11
10.25
 21
79.560000000000002
 31
0.0
  0
LINE
  5
6D
  8
0
 10
0.250000000000003
 20
81.0
 30
0.0
 11
10.25
 21
81.0
 31
0.0
  0
LINE
  5
6E
  8
0
 10
0.250000000000003
 20
81.0
 30
0.0
 11
0.250000000000003
 21
93.0
 31
0.0
  0
LINE
  5
6F
  8
0
 10
10.25
 20
81.0
 30
0.0
 11
10.25
 21
79.560000000000002
 31
0.0
  0
LINE
  5
70
  8
0
 10
10.25
 20
81.0
 30
0.0
 11
10.25
 21
93.0
 31
0.0
  0
LINE
  5
71
  8
0
 10
10.25
 20
81.0
 30
0.0
 11
10.25
 21
79.560000000000002
 31
0.0
  0
LINE
  5
72
  8
0
 10
10.25
 20
79.560000000000002
 30
0.0
 11
10.25
 21
83.159999999999997
 31
0.0
  0
LINE
  5
73
  8
0
 10
10.25
 20
79.560000000000002
 30
0.0
 11
10.25
 21
76.379999999999995
 31
0.0
  0
LINE
  5
74
  8
0
 10
10.25
 20
79.560000000000002
 30
0.0
 11
10.25
 21
81.0
 31
0.0
  0
LINE
  5
75
  8
0
 10
15.25
 20
76.379999999999995
 30
0.0
 11
15.25
 21
79.560000000000002
 31
0.0
  0
LINE
  5
76
  8
0
 10
15.25
 20
76.379999999999995
 30
0.0
 11
15.25
 21
73.980000000000004
 31
0.0
  0
LINE
  5
77
  8
0
 10
15.25
 20
79.560000000000002
 30
0.0
 11
15.25
 21
83.159999999999997
 31
0.0
  0
LINE
  5
78
  8
0
 10
15.25
 20
79.560000000000002
 30
0.0
 11
15.25
 21
76.379999999999995
 31
0.0
  0
LINE
  5
79
  8
0
 10
15.25
 20
74.963999999999999
 30
0.0
 11
15.25
 21
78.567999999999984
 31
0.0
  0
LINE
  5
7A
  8
0
 10
15.25
 20
74.963999999999999
 30
0.0
 11
15.25
 21
72.244
 31
0.0
  0
LINE
  5
7B
  8
0
 10
15.25
 20
78.567999999999984
 30
0.0
 11
15.25
 21
82.647999999999996
 31
0.0
  0
LINE
  5
7C
  8
0
 10
15.25
 20
78.567999999999984
 30
0.0
 11
15.25
 21
74.963999999999999
 31
0.0
  0
LINE
  5
7D
  8
0
 10
0.250000000000003
 20
93.0
 30
0.0
 11
0.250000000000003
 21
81.0
 31
0.0
  0
LINE
  5
7E
  8
0
 10
2.75
 20
93.0
 30
0.0
 11
2.75
 21
94.227400000000003
 31
0.0
  0
LINE
  5
7F
  8
0
 10
2.75
 20
93.0
 30
0.0
 11
2.75
 21
95.432000000000002
 31
0.0
  0
LINE
  5
80
  8
0
 10
2.75
 20
94.227400000000003
 30
0.0
 11
2.75
 21
97.316599999999994
 31
0.0
  0
LINE
  5
81
  8
0
 10
2.75
 20
94.227400000000003
 30
0.0
 11
2.75
 21
93.0
 31
0.0
  0
LINE
  5
82
  8
0
 10
10.25
 20
94.439999999999998
 30
0.0
 11
10.25
 21
93.0
 31
0.0
  0
LINE
  5
83
  8
0
 10
10.25
 20
94.439999999999998
 30
0.0
 11
10.25
 21
97.620000000000005
 31
0.0
  0
LINE
  5
84
  8
0
 10
0.250000000000003
 20
93.0
 30
0.0
 11
10.25
 21
93.0
 31
0.0
  0
LINE
  5
85
  8
0
 10
0.250000000000003
 20
93.0
 30
0.0
 11
0.250000000000003
 21
81.0
 31
0.0
  0
LINE
  5
86
  8
0
 10
10.25
 20
90.840000000000003
 30
0.0
 11
10.25
 21
94.439999999999998
 31
0.0
  0
LINE
  5
87
  8
0
 10
10.25
 20
90.840000000000003
 30
0.0
 11
10.25
 21
87.0
 31
0.0
  0
LINE
  5
88
  8
0
 10
10.25
 20
93.0
 30
0.0
 11
10.25
 21
94.439999999999998
 31
0.0
  0
LINE
  5
89
  8
0
 10
10.25
 20
93.0
 30
0.0
 11
10.25
 21
81.0
 31
0.0
  0
LINE
  5
8A
  8
0
 10
10.25
 20
93.0
 30
0.0
 11
10.25
 21
94.439999999999998
 31
0.0
  0
LINE
  5
8B
  8
0
 10
2.75
 20
95.432000000000002
 30
0.0
 11
2.75
 21
93.0
 31
0.0
  0
LINE
  5
8C
  8
0
 10
2.75
 20
95.432000000000002
 30
0.0
 11
2.75
 21
99.036000000000001
 31
0.0
  0
LINE
  5
8D
  8
0
 10
10.25
 20
94.439999999999998
 30
0.0
 11
10.25
 21
93.0
 31
0.0
  0
LINE
  5
8E
  8
0
 10
10.25
 20
94.439999999999998
 30
0.0
 11
10.25
 21
97.620000000000005
 31
0.0
  0
LINE
  5
8F
  8
0
 10
10.25
 20
94.439999999999998
 30
0.0
 11
10.25
 21
90.840000000000003
 31
0.0
  0
LINE
  5
90
  8
0
 10
15.25
 20
94.439999999999998
 30
0.0
 11
15.25
 21
97.0
 31
0.0
  0
LINE
  5
91
  8
0
 10
15.25
 20
94.439999999999998
 30
0.0
 11
15.25
 21
90.840000000000003
 31
0.0
  0
LINE
  5
92
  8
0
 10
15.25
 20
90.840000000000003
 30
0.0
 11
15.25
 21
94.439999999999998
 31
0.0
  0
LINE
  5
93
  8
0
 10
15.25
 20
90.840000000000003
 30
0.0
 11
15.25
 21
87.0
 31
0.0
  0
LINE
  5
94
  8
0
 10
10.25
 20
87.0
 30
0.0
 11
10.25
 21
83.159999999999997
 31
0.0
  0
LINE
  5
95
  8
0
 10
10.25
 20
87.0
 30
0.0
 11
10.25
 21
90.840000000000003
 31
0.0
  0
LINE
  5
96
  8
0
 10
10.25
 20
83.159999999999997
 30
0.0
 11
10.25
 21
87.0
 31
0.0
  0
LINE
  5
97
  8
0
 10
10.25
 20
83.159999999999997
 30
0.0
 11
10.25
 21
79.560000000000002
 31
0.0
  0
LINE
  5
98
  8
0
 10
15.25
 20
83.159999999999997
 30
0.0
 11
15.25
 21
87.0
 31
0.0
  0
LINE
  5
99
  8
0
 10
15.25
 20
83.159999999999997
 30
0.0
 11
15.25
 21
79.560000000000002
 31
0.0
  0
LINE
  5
9A
  8
0
 10
8.25
 20
99.0
 30
0.0
 11
8.6099999999999994
 21
99.0
 31
0.0
  0
LINE
  5
9B
  8
0
 10
8.25
 20
99.0
 30
0.0
 11
8.25
 21
104.0
 31
0.0
  0
LINE
  5
9C
  8
0
 10
8.6099999999999994
 20
99.0
 30
0.0
 11
10.25
 21
99.0
 31
0.0
  0
LINE
  5
9D
  8
0
 10
8.6099999999999994
 20
99.0
 30
0.0
 11
9.5700000000000003
 21
99.0
 31
0.0
  0
LINE
  5
9E
  8
0
 10
8.6099999999999994
 20
99.0
 30
0.0
 11
9.5700000000000003
 21
99.0
 31
0.0
  0
LINE
  5
9F
  8
0
 10
8.6099999999999994
 20
99.0
 30
0.0
 11
10.25
 21
99.0
 31
0.0
  0
LINE
  5
A0
  8
0
 10
8.25
 20
99.0
 30
0.0
 11
8.6099999999999994
 21
99.0
 31
0.0
  0
LINE
  5
A1
  8
0
 10
8.25
 20
99.0
 30
0.0
 11
8.25
 21
104.0
 31
0.0
  0
LINE
  5
A2
  8
0
 10
2.75
 20
97.316599999999994
 30
0.0
 11
2.75
 21
99.647999999999996
 31
0.0
  0
LINE
  5
A3
  8
0
 10
2.75
 20
97.316599999999994
 30
0.0
 11
2.75
 21
94.227400000000003
 31
0.0
  0
LINE
  5
A4
  8
0
 10
8.6099999999999994
 20
99.0
 30
0.0
 11
9.5700000000000003
 21
99.0
 31
0.0
  0
LINE
  5
A5
  8
0
 10
8.6099999999999994
 20
99.0
 30
0.0
 11
11.25
 21
99.0
 31
0.0
  0
LINE
  5
A6
  8
0
 10
2.75
 20
99.036000000000001
 30
0.0
 11
2.75
 21
95.432000000000002
 31
0.0
  0
LINE
  5
A7
  8
0
 10
2.75
 20
99.036000000000001
 30
0.0
 11
2.75
 21
101.756
 31
0.0
  0
LINE
  5
A8
  8
0
 10
2.75
 20
99.647999999999996
 30
0.0
 11
2.75
 21
101.047
 31
0.0
  0
LINE
  5
A9
  8
0
 10
2.75
 20
99.647999999999996
 30
0.0
 11
2.75
 21
97.316599999999994
 31
0.0
  0
LINE
  5
AA
  8
0
 10
2.75
 20
101.5709999999999
 30
0.0
 11
2.75
 21
101.047
 31
0.0
  0
LINE
  5
AB
  8
0
 10
2.75
 20
101.756
 30
0.0
 11
2.75
 21
99.036000000000001
 31
0.0
  0
LINE
  5
AC
  8
0
 10
2.75
 20
101.756
 30
0.0
 11
2.75
 21
103.38799999999991
 31
0.0
  0
LINE
  5
AD
  8
0
 10
2.75
 20
103.38799999999991
 30
0.0
 11
2.75
 21
101.756
 31
0.0
  0
LINE
  5
AE
  8
0
 10
2.75
 20
103.38799999999991
 30
0.0
 11
2.75
 21
104.0
 31
0.0
  0
LINE
  5
AF
  8
0
 10
2.75
 20
101.047
 30
0.0
 11
2.75
 21
101.5709999999999
 31
0.0
  0
LINE
  5
B0
  8
0
 10
2.75
 20
101.047
 30
0.0
 11
2.75
 21
99.647999999999996
 31
0.0
  0
LINE
  5
B1
  8
0
 10
8.25
 20
104.0
 30
0.0
 11
8.25
 21
99.0
 31
0.0
  0
LINE
  5
B2
  8
0
 10
8.25
 20
104.0
 30
0.0
 11
8.25
 21
99.0
 31
0.0
  0
LINE
  5
B3
  8
0
 10
2.7500000000000089
 20
104.0
 30
0.0
 11
8.2500000000000089
 21
104.0
 31
0.0
  0
LINE
  5
B4
  8
0
 10
2.75
 20
104.0
 30
0.0
 11
2.75
 21
103.38799999999991
 31
0.0
  0
LINE
  5
B5
  8
0
 10
2.75
 20
104.0
 30
0.0
 11
8.25
 21
104.0
 31
0.0
  0
LINE
  5
B6
  8
0
 10
8.25
 20
99.0
 30
0.0
 11
8.6099999999999994
 21
99.0
 31
0.0
  0
LINE
  5
B7
  8
0
 10
8.25
 20
99.0
 30
0.0
 11
8.25
 21
104.0
 31
0.0
  0
LINE
  5
B8
  8
0
 10
10.25
 20
97.620000000000005
 30
0.0
 11
10.25
 21
94.439999999999998
 31
0.0
  0
LINE
  5
B9
  8
0
 10
10.25
 20
97.620000000000005
 30
0.0
 11
10.25
 21
99.0
 31
0.0
  0
LINE
  5
BA
  8
0
 10
9.5700000000000003
 20
99.0
 30
0.0
 11
10.25
 21
99.0
 31
0.0
  0
LINE
  5
BB
  8
0
 10
9.5700000000000003
 20
99.0
 30
0.0
 11
10.25
 21
99.0
 31
0.0
  0
LINE
  5
BC
  8
0
 10
10.25
 20
99.0
 30
0.0
 11
10.25
 21
97.620000000000005
 31
0.0
  0
LINE
  5
BD
  8
0
 10
10.25
 20
99.0
 30
0.0
 11
10.25
 21
97.620000000000005
 31
0.0
  0
LINE
  5
BE
  8
0
 10
10.25
 20
97.620000000000005
 30
0.0
 11
10.25
 21
94.439999999999998
 31
0.0
  0
LINE
  5
BF
  8
0
 10
10.25
 20
97.620000000000005
 30
0.0
 11
10.25
 21
99.0
 31
0.0
  0
LINE
  5
C0
  8
0
 10
11.169999999999989
 20
99.0
 30
0.0
 11
13.28999999999999
 21
99.0
 31
0.0
  0
LINE
  5
C1
  8
0
 10
9.5700000000000003
 20
99.0
 30
0.0
 11
11.169999999999989
 21
99.0
 31
0.0
  0
LINE
  5
C2
  8
0
 10
11.5588
 20
97.0
 30
0.0
 11
11.805899999999999
 21
97.0
 31
0.0
  0
LINE
  5
C3
  8
0
 10
11.805899999999999
 20
97.0
 30
0.0
 11
12.464700000000001
 21
97.0
 31
0.0
  0
LINE
  5
C4
  8
0
 10
11.599999999999991
 20
97.09620000000001
 30
0.0
 11
12.279400000000001
 21
97.09620000000001
 31
0.0
  0
LINE
  5
C5
  8
0
 10
11.3529
 20
97.09620000000001
 30
0.0
 11
11.599999999999991
 21
97.09620000000001
 31
0.0
  0
LINE
  5
C6
  8
0
 10
11.3529
 20
97.09620000000001
 30
0.0
 11
11.5588
 21
97.0
 31
0.0
  0
LINE
  5
C7
  8
0
 10
12.464700000000001
 20
97.0
 30
0.0
 11
13.514699999999991
 21
97.0
 31
0.0
  0
LINE
  5
C8
  8
0
 10
12.279400000000001
 20
97.09620000000001
 30
0.0
 11
13.3706
 21
97.09620000000001
 31
0.0
  0
LINE
  5
C9
  8
0
 10
12.197100000000001
 20
99.0
 30
0.0
 11
13.3088
 21
99.0
 31
0.0
  0
LINE
  5
CA
  8
0
 10
11.4971
 20
99.0
 30
0.0
 11
12.197100000000001
 21
99.0
 31
0.0
  0
LINE
  5
CB
  8
0
 10
11.25
 20
97.288500000000013
 30
0.0
 11
11.25
 21
99.0
 31
0.0
  0
LINE
  5
CC
  8
0
 10
11.25
 20
97.288500000000013
 30
0.0
 11
11.3529
 21
97.09620000000001
 31
0.0
  0
LINE
  5
CD
  8
0
 10
11.25
 20
104.0
 30
0.0
 11
11.25
 21
105.712
 31
0.0
  0
LINE
  5
CE
  8
0
 10
11.25
 20
104.0
 30
0.0
 11
11.25
 21
105.712
 31
0.0
  0
LINE
  5
CF
  8
0
 10
11.25
 20
104.0
 30
0.0
 11
11.25
 21
105.712
 31
0.0
  0
LINE
  5
D0
  8
0
 10
11.25
 20
99.0
 30
0.0
 11
11.4971
 21
99.0
 31
0.0
  0
LINE
  5
D1
  8
0
 10
11.25
 20
99.0
 30
0.0
 11
11.25
 21
97.288500000000013
 31
0.0
  0
LINE
  5
D2
  8
0
 10
13.514699999999991
 20
97.0
 30
0.0
 11
14.9147
 21
97.0
 31
0.0
  0
LINE
  5
D3
  8
0
 10
14.9147
 20
97.0
 30
0.0
 11
16.520600000000002
 21
97.0
 31
0.0
  0
LINE
  5
D4
  8
0
 10
13.3706
 20
97.09620000000001
 30
0.0
 11
14.8118
 21
97.09620000000001
 31
0.0
  0
LINE
  5
D5
  8
0
 10
14.8118
 20
97.09620000000001
 30
0.0
 11
16.479399999999998
 21
97.09620000000001
 31
0.0
  0
LINE
  5
D6
  8
0
 10
13.3088
 20
99.0
 30
0.0
 11
14.770599999999989
 21
99.0
 31
0.0
  0
LINE
  5
D7
  8
0
 10
14.770599999999989
 20
99.0
 30
0.0
 11
16.4588
 21
99.0
 31
0.0
  0
LINE
  5
D8
  8
0
 10
13.28999999999999
 20
99.0
 30
0.0
 11
15.689999999999991
 21
99.0
 31
0.0
  0
LINE
  5
D9
  8
0
 10
13.28999999999999
 20
104.0
 30
0.0
 11
15.689999999999991
 21
104.0
 31
0.0
  0
LINE
  5
DA
  8
0
 10
11.169999999999989
 20
104.0
 30
0.0
 11
13.28999999999999
 21
104.0
 31
0.0
  0
LINE
  5
DB
  8
0
 10
9.5700000000000003
 20
104.0
 30
0.0
 11
11.169999999999989
 21
104.0
 31
0.0
  0
LINE
  5
DC
  8
0
 10
8.6099999999999994
 20
104.0
 30
0.0
 11
9.5700000000000003
 21
104.0
 31
0.0
  0
LINE
  5
DD
  8
0
 10
11.25
 20
105.712
 30
0.0
 11
11.25
 21
104.0
 31
0.0
  0
LINE
  5
DE
  8
0
 10
11.25
 20
105.712
 30
0.0
 11
11.25
 21
104.0
 31
0.0
  0
LINE
  5
DF
  8
0
 10
13.3706
 20
105.9039999999999
 30
0.0
 11
14.8118
 21
105.9039999999999
 31
0.0
  0
LINE
  5
E0
  8
0
 10
14.8118
 20
105.9039999999999
 30
0.0
 11
16.479399999999998
 21
105.9039999999999
 31
0.0
  0
LINE
  5
E1
  8
0
 10
12.279400000000001
 20
105.9039999999999
 30
0.0
 11
13.3706
 21
105.9039999999999
 31
0.0
  0
LINE
  5
E2
  8
0
 10
11.599999999999991
 20
105.9039999999999
 30
0.0
 11
12.279400000000001
 21
105.9039999999999
 31
0.0
  0
LINE
  5
E3
  8
0
 10
13.514699999999991
 20
106.0
 30
0.0
 11
14.9147
 21
106.0
 31
0.0
  0
LINE
  5
E4
  8
0
 10
14.9147
 20
106.0
 30
0.0
 11
16.520600000000002
 21
106.0
 31
0.0
  0
LINE
  5
E5
  8
0
 10
12.464700000000001
 20
106.0
 30
0.0
 11
13.514699999999991
 21
106.0
 31
0.0
  0
LINE
  5
E6
  8
0
 10
11.805899999999999
 20
106.0
 30
0.0
 11
12.464700000000001
 21
106.0
 31
0.0
  0
LINE
  5
E7
  8
0
 10
11.5588
 20
106.0
 30
0.0
 11
11.805899999999999
 21
106.0
 31
0.0
  0
LINE
  5
E8
  8
0
 10
11.3529
 20
105.9039999999999
 30
0.0
 11
11.599999999999991
 21
105.9039999999999
 31
0.0
  0
LINE
  5
E9
  8
0
 10
11.3529
 20
105.9039999999999
 30
0.0
 11
11.5588
 21
106.0
 31
0.0
  0
LINE
  5
EA
  8
0
 10
11.25
 20
105.712
 30
0.0
 11
11.25
 21
104.0
 31
0.0
  0
LINE
  5
EB
  8
0
 10
11.25
 20
105.712
 30
0.0
 11
11.3529
 21
105.9039999999999
 31
0.0
  0
LINE
  5
EC
  8
0
 10
8.25
 20
104.0
 30
0.0
 11
8.6099999999999994
 21
104.0
 31
0.0
  0
LINE
  5
ED
  8
0
 10
8.25
 20
104.0
 30
0.0
 11
8.25
 21
99.0
 31
0.0
  0
LINE
  5
EE
  8
0
 10
15.25
 20
97.0
 30
0.0
 11
15.25
 21
95.432000000000002
 31
0.0
  0
LINE
  5
EF
  8
0
 10
15.25
 20
97.0
 30
0.0
 11
15.25
 21
87.0
 31
0.0
  0
LINE
  5
F0
  8
0
 10
15.25
 20
97.0
 30
0.0
 11
15.25
 21
94.439999999999998
 31
0.0
  0
LINE
  5
F1
  8
0
 10
15.25
 20
95.432000000000002
 30
0.0
 11
15.25
 21
91.352000000000004
 31
0.0
  0
LINE
  5
F2
  8
0
 10
15.25
 20
95.432000000000002
 30
0.0
 11
15.25
 21
97.0
 31
0.0
  0
LINE
  5
F3
  8
0
 10
15.25
 20
91.352000000000004
 30
0.0
 11
15.25
 21
87.0
 31
0.0
  0
LINE
  5
F4
  8
0
 10
15.25
 20
91.352000000000004
 30
0.0
 11
15.25
 21
95.432000000000002
 31
0.0
  0
LINE
  5
F5
  8
0
 10
15.25
 20
82.647999999999996
 30
0.0
 11
15.25
 21
87.0
 31
0.0
  0
LINE
  5
F6
  8
0
 10
15.25
 20
82.647999999999996
 30
0.0
 11
15.25
 21
78.567999999999984
 31
0.0
  0
LINE
  5
F7
  8
0
 10
15.25
 20
70.0
 30
0.0
 11
32.25
 21
70.0
 31
0.0
  0
LINE
  5
F8
  8
0
 10
15.25
 20
87.0
 30
0.0
 11
34.390625
 21
87.0
 31
0.0
  0
LINE
  5
F9
  8
0
 10
15.405900000000001
 20
29.0
 30
0.0
 11
16.854199999999992
 21
29.0
 31
0.0
  0
LINE
  5
FA
  8
0
 10
18.8596
 20
29.0
 30
0.0
 11
21.42209999999999
 21
29.0
 31
0.0
  0
LINE
  5
FB
  8
0
 10
16.854199999999992
 20
29.0
 30
0.0
 11
18.8596
 21
29.0
 31
0.0
  0
LINE
  5
FC
  8
0
 10
16.816299999999998
 20
29.0
 30
0.0
 11
18.7393
 21
29.0
 31
0.0
  0
LINE
  5
FD
  8
0
 10
18.7393
 20
29.0
 30
0.0
 11
20.566099999999999
 21
29.0
 31
0.0
  0
LINE
  5
FE
  8
0
 10
24.318699999999989
 20
29.0
 30
0.0
 11
28.25
 21
29.0
 31
0.0
  0
LINE
  5
FF
  8
0
 10
21.42209999999999
 20
29.0
 30
0.0
 11
24.318699999999989
 21
29.0
 31
0.0
  0
LINE
  5
100
  8
0
 10
20.566099999999999
 20
29.0
 30
0.0
 11
22.969899999999999
 21
29.0
 31
0.0
  0
LINE
  5
101
  8
0
 10
22.969899999999999
 20
29.0
 30
0.0
 11
25.950500000000002
 21
29.0
 31
0.0
  0
LINE
  5
102
  8
0
 10
28.25
 20
29.0
 30
0.0
 11
38.173099999999991
 21
29.0
 31
0.0
  0
LINE
  5
103
  8
0
 10
25.950500000000002
 20
29.0
 30
0.0
 11
30.661899999999999
 21
29.0
 31
0.0
  0
LINE
  5
104
  8
0
 10
30.661899999999999
 20
29.0
 30
0.0
 11
38.173099999999991
 21
29.0
 31
0.0
  0
LINE
  5
105
  8
0
 10
32.25
 20
52.0
 30
0.0
 11
32.861999999999988
 21
52.0
 31
0.0
  0
LINE
  5
106
  8
0
 10
32.25
 20
52.0
 30
0.0
 11
32.861999999999988
 21
52.0
 31
0.0
  0
LINE
  5
107
  8
0
 10
32.25
 20
52.0
 30
0.0
 11
32.25
 21
70.0
 31
0.0
  0
LINE
  5
108
  8
0
 10
32.25
 20
52.0
 30
0.0
 11
32.861999999999988
 21
52.0
 31
0.0
  0
LINE
  5
109
  8
0
 10
32.25
 20
52.0
 30
0.0
 11
32.25
 21
70.0
 31
0.0
  0
LINE
  5
10A
  8
0
 10
33.25
 20
52.0
 30
0.0
 11
33.826000000000001
 21
52.0
 31
0.0
  0
LINE
  5
10B
  8
0
 10
33.25
 20
52.0
 30
0.0
 11
33.826000000000001
 21
52.0
 31
0.0
  0
LINE
  5
10C
  8
0
 10
32.861999999999988
 20
52.0
 30
0.0
 11
34.494
 21
52.0
 31
0.0
  0
LINE
  5
10D
  8
0
 10
33.826000000000001
 20
52.0
 30
0.0
 11
35.25
 21
52.0
 31
0.0
  0
LINE
  5
10E
  8
0
 10
33.826000000000001
 20
52.0
 30
0.0
 11
35.25
 21
52.0
 31
0.0
  0
LINE
  5
10F
  8
0
 10
33.25
 20
52.0
 30
0.0
 11
33.826000000000001
 21
52.0
 31
0.0
  0
LINE
  5
110
  8
0
 10
32.861999999999988
 20
52.0
 30
0.0
 11
34.494
 21
52.0
 31
0.0
  0
LINE
  5
111
  8
0
 10
34.494
 20
52.0
 30
0.0
 11
35.25
 21
52.0
 31
0.0
  0
LINE
  5
112
  8
0
 10
34.494
 20
52.0
 30
0.0
 11
35.25
 21
52.0
 31
0.0
  0
LINE
  5
113
  8
0
 10
33.826000000000001
 20
52.0
 30
0.0
 11
35.361999999999988
 21
52.0
 31
0.0
  0
LINE
  5
114
  8
0
 10
33.826000000000001
 20
52.0
 30
0.0
 11
35.25
 21
52.0
 31
0.0
  0
LINE
  5
115
  8
0
 10
33.25
 20
52.0
 30
0.0
 11
33.826000000000001
 21
52.0
 31
0.0
  0
LINE
  5
116
  8
0
 10
32.25
 20
52.0
 30
0.0
 11
32.861999999999988
 21
52.0
 31
0.0
  0
LINE
  5
117
  8
0
 10
32.25
 20
52.0
 30
0.0
 11
32.25
 21
70.0
 31
0.0
  0
LINE
  5
118
  8
0
 10
32.861999999999988
 20
52.0
 30
0.0
 11
34.494
 21
52.0
 31
0.0
  0
LINE
  5
119
  8
0
 10
34.678600000000003
 20
52.0
 30
0.0
 11
35.203099999999999
 21
52.0
 31
0.0
  0
LINE
  5
11A
  8
0
 10
34.678600000000003
 20
52.0
 30
0.0
 11
35.203099999999999
 21
52.0
 31
0.0
  0
LINE
  5
11B
  8
0
 10
34.678600000000003
 20
52.0
 30
0.0
 11
35.203099999999999
 21
52.0
 31
0.0
  0
LINE
  5
11C
  8
0
 10
35.753999999999998
 20
29.0
 30
0.0
 11
37.097999999999992
 21
29.0
 31
0.0
  0
LINE
  5
11D
  8
0
 10
35.25
 20
29.0
 30
0.0
 11
35.753999999999998
 21
29.0
 31
0.0
  0
LINE
  5
11E
  8
0
 10
35.25
 20
29.0
 30
0.0
 11
35.25
 21
52.0
 31
0.0
  0
LINE
  5
11F
  8
0
 10
35.753999999999998
 20
29.0
 30
0.0
 11
37.097999999999992
 21
29.0
 31
0.0
  0
LINE
  5
120
  8
0
 10
35.25
 20
29.0
 30
0.0
 11
35.753999999999998
 21
29.0
 31
0.0
  0
LINE
  5
121
  8
0
 10
35.25
 20
29.0
 30
0.0
 11
35.25
 21
52.0
 31
0.0
  0
LINE
  5
122
  8
0
 10
35.25
 20
52.0
 30
0.0
 11
35.25
 21
29.0
 31
0.0
  0
LINE
  5
123
  8
0
 10
35.25
 20
52.0
 30
0.0
 11
35.25
 21
29.0
 31
0.0
  0
LINE
  5
124
  8
0
 10
35.25
 20
52.0
 30
0.0
 11
35.25
 21
29.0
 31
0.0
  0
LINE
  5
125
  8
0
 10
35.753999999999998
 20
29.0
 30
0.0
 11
37.097999999999992
 21
29.0
 31
0.0
  0
LINE
  5
126
  8
0
 10
35.25
 20
29.0
 30
0.0
 11
35.753999999999998
 21
29.0
 31
0.0
  0
LINE
  5
127
  8
0
 10
35.25
 20
29.0
 30
0.0
 11
35.25
 21
52.0
 31
0.0
  0
LINE
  5
128
  8
0
 10
35.25
 20
29.0
 30
0.0
 11
35.753999999999998
 21
29.0
 31
0.0
  0
LINE
  5
129
  8
0
 10
35.361999999999988
 20
52.0
 30
0.0
 11
37.92199999999999
 21
52.0
 31
0.0
  0
LINE
  5
12A
  8
0
 10
34.678600000000003
 20
52.0
 30
0.0
 11
35.203099999999999
 21
52.0
 31
0.0
  0
LINE
  5
12B
  8
0
 10
35.203099999999999
 20
52.0
 30
0.0
 11
36.60199999999999
 21
52.0
 31
0.0
  0
LINE
  5
12C
  8
0
 10
37.097999999999992
 20
29.0
 30
0.0
 11
38.173099999999991
 21
29.0
 31
0.0
  0
LINE
  5
12D
  8
0
 10
37.097999999999992
 20
29.0
 30
0.0
 11
39.338000000000001
 21
29.0
 31
0.0
  0
LINE
  5
12E
  8
0
 10
37.097999999999992
 20
29.0
 30
0.0
 11
38.173099999999991
 21
29.0
 31
0.0
  0
LINE
  5
12F
  8
0
 10
40.486800000000002
 20
16.0
 30
0.0
 11
40.81839999999999
 21
16.0
 31
0.0
  0
LINE
  5
130
  8
0
 10
40.486800000000002
 20
16.0
 30
0.0
 11
40.81839999999999
 21
16.0
 31
0.0
  0
LINE
  5
131
  8
0
 10
40.486800000000002
 20
16.0
 30
0.0
 11
40.81839999999999
 21
16.0
 31
0.0
  0
LINE
  5
132
  8
0
 10
40.25
 20
16.057099999999998
 30
0.0
 11
40.25
 21
16.1371
 31
0.0
  0
LINE
  5
133
  8
0
 10
40.25
 20
16.057099999999998
 30
0.0
 11
40.486800000000002
 21
16.0
 31
0.0
  0
LINE
  5
134
  8
0
 10
40.25
 20
16.057099999999998
 30
0.0
 11
40.25
 21
16.1371
 31
0.0
  0
LINE
  5
135
  8
0
 10
40.25
 20
16.057099999999998
 30
0.0
 11
40.486800000000002
 21
16.0
 31
0.0
  0
LINE
  5
136
  8
0
 10
40.25
 20
16.1371
 30
0.0
 11
40.25
 21
16.571400000000001
 31
0.0
  0
LINE
  5
137
  8
0
 10
40.25
 20
16.1371
 30
0.0
 11
40.25
 21
16.057099999999998
 31
0.0
  0
LINE
  5
138
  8
0
 10
40.25
 20
16.1371
 30
0.0
 11
40.25
 21
16.571400000000001
 31
0.0
  0
LINE
  5
139
  8
0
 10
40.25
 20
16.1371
 30
0.0
 11
40.25
 21
16.057099999999998
 31
0.0
  0
LINE
  5
13A
  8
0
 10
40.25
 20
16.571400000000001
 30
0.0
 11
40.25
 21
16.1371
 31
0.0
  0
LINE
  5
13B
  8
0
 10
40.25
 20
17.142900000000001
 30
0.0
 11
41.0214
 21
16.571400000000001
 31
0.0
  0
LINE
  5
13C
  8
0
 10
40.25
 20
17.142900000000001
 30
0.0
 11
40.25
 21
22.857099999999988
 31
0.0
  0
LINE
  5
13D
  8
0
 10
40.25
 20
16.571400000000001
 30
0.0
 11
40.25
 21
16.1371
 31
0.0
  0
LINE
  5
13E
  8
0
 10
40.25
 20
17.142900000000001
 30
0.0
 11
40.25
 21
22.857099999999988
 31
0.0
  0
LINE
  5
13F
  8
0
 10
40.25
 20
16.571400000000001
 30
0.0
 11
40.25
 21
16.1371
 31
0.0
  0
LINE
  5
140
  8
0
 10
40.25
 20
17.142900000000001
 30
0.0
 11
40.25
 21
22.857099999999988
 31
0.0
  0
LINE
  5
141
  8
0
 10
37.25
 20
25.336600000000001
 30
0.0
 11
38.173099999999991
 21
25.633700000000001
 31
0.0
  0
LINE
  5
142
  8
0
 10
37.25
 20
25.336600000000001
 30
0.0
 11
37.711599999999997
 21
25.2376
 31
0.0
  0
LINE
  5
143
  8
0
 10
37.25
 20
25.336600000000001
 30
0.0
 11
38.173099999999991
 21
25.0396
 31
0.0
  0
LINE
  5
144
  8
0
 10
37.25
 20
25.336600000000001
 30
0.0
 11
38.173099999999991
 21
25.0396
 31
0.0
  0
LINE
  5
145
  8
0
 10
39.128
 20
24.0
 30
0.0
 11
40.135999999999989
 21
24.0
 31
0.0
  0
LINE
  5
146
  8
0
 10
38.75
 20
24.0
 30
0.0
 11
39.128
 21
24.0
 31
0.0
  0
LINE
  5
147
  8
0
 10
38.54229999999999
 20
24.0
 30
0.0
 11
39.649999999999991
 21
24.0
 31
0.0
  0
LINE
  5
148
  8
0
 10
38.173099999999991
 20
24.0
 30
0.0
 11
38.54229999999999
 21
24.0
 31
0.0
  0
LINE
  5
149
  8
0
 10
38.173099999999991
 20
24.0
 30
0.0
 11
38.173099999999991
 21
25.0396
 31
0.0
  0
LINE
  5
14A
  8
0
 10
40.25
 20
22.857099999999988
 30
0.0
 11
40.25
 21
23.428599999999989
 31
0.0
  0
LINE
  5
14B
  8
0
 10
40.25
 20
22.857099999999988
 30
0.0
 11
40.25
 21
17.142900000000001
 31
0.0
  0
LINE
  5
14E
  8
0
 10
40.25
 20
22.857099999999988
 30
0.0
 11
41.0214
 21
23.428599999999989
 31
0.0
  0
LINE
  5
14F
  8
0
 10
40.25
 20
22.857099999999988
 30
0.0
 11
40.25
 21
23.428599999999989
 31
0.0
  0
LINE
  5
150
  8
0
 10
40.25
 20
22.857099999999988
 30
0.0
 11
40.25
 21
17.142900000000001
 31
0.0
  0
LINE
  5
151
  8
0
 10
40.25
 20
23.428599999999989
 30
0.0
 11
40.25
 21
23.8629
 31
0.0
  0
LINE
  5
153
  8
0
 10
40.25
 20
23.428599999999989
 30
0.0
 11
40.25
 21
22.857099999999988
 31
0.0
  0
LINE
  5
154
  8
0
 10
40.25
 20
23.942900000000002
 30
0.0
 11
40.25
 21
23.8629
 31
0.0
  0
LINE
  5
155
  8
0
 10
40.25
 20
23.942900000000002
 30
0.0
 11
40.486800000000002
 21
24.0
 31
0.0
  0
LINE
  5
156
  8
0
 10
40.25
 20
23.8629
 30
0.0
 11
40.25
 21
23.942900000000002
 31
0.0
  0
LINE
  5
15B
  8
0
 10
40.25
 20
23.8629
 30
0.0
 11
40.25
 21
23.428599999999989
 31
0.0
  0
LINE
  5
15C
  8
0
 10
40.25
 20
23.942900000000002
 30
0.0
 11
40.25
 21
23.8629
 31
0.0
  0
LINE
  5
15D
  8
0
 10
40.25
 20
23.428599999999989
 30
0.0
 11
40.25
 21
23.8629
 31
0.0
  0
LINE
  5
15E
  8
0
 10
40.25
 20
23.428599999999989
 30
0.0
 11
40.25
 21
22.857099999999988
 31
0.0
  0
LINE
  5
15F
  8
0
 10
40.25
 20
23.8629
 30
0.0
 11
40.25
 21
23.942900000000002
 31
0.0
  0
LINE
  5
160
  8
0
 10
40.25
 20
23.8629
 30
0.0
 11
40.25
 21
23.428599999999989
 31
0.0
  0
LINE
  5
161
  8
0
 10
40.135999999999989
 20
24.0
 30
0.0
 11
40.486800000000002
 21
24.0
 31
0.0
  0
LINE
  5
162
  8
0
 10
39.649999999999991
 20
24.0
 30
0.0
 11
40.480699999999999
 21
24.0
 31
0.0
  0
LINE
  5
163
  8
0
 10
39.649999999999991
 20
24.0
 30
0.0
 11
40.486800000000002
 21
24.0
 31
0.0
  0
LINE
  5
164
  8
0
 10
38.173099999999991
 20
24.0
 30
0.0
 11
38.54229999999999
 21
24.0
 31
0.0
  0
LINE
  5
165
  8
0
 10
38.173099999999991
 20
24.0
 30
0.0
 11
38.173099999999991
 21
25.0396
 31
0.0
  0
LINE
  5
166
  8
0
 10
38.173099999999991
 20
24.0
 30
0.0
 11
38.54229999999999
 21
24.0
 31
0.0
  0
LINE
  5
167
  8
0
 10
38.173099999999991
 20
24.0
 30
0.0
 11
38.173099999999991
 21
25.0396
 31
0.0
  0
LINE
  5
168
  8
0
 10
38.173099999999991
 20
25.0396
 30
0.0
 11
38.54229999999999
 21
24.9406
 31
0.0
  0
LINE
  5
169
  8
0
 10
38.173099999999991
 20
25.0396
 30
0.0
 11
38.173099999999991
 21
24.0
 31
0.0
  0
LINE
  5
16A
  8
0
 10
37.711599999999997
 20
25.2376
 30
0.0
 11
38.9116
 21
25.128699999999991
 31
0.0
  0
LINE
  5
16B
  8
0
 10
38.173099999999991
 20
25.0396
 30
0.0
 11
38.173099999999991
 21
24.0
 31
0.0
  0
LINE
  5
16C
  8
0
 10
38.173099999999991
 20
26.425699999999999
 30
0.0
 11
38.54229999999999
 21
26.326699999999999
 31
0.0
  0
LINE
  5
16D
  8
0
 10
38.173099999999991
 20
26.425699999999999
 30
0.0
 11
38.173099999999991
 21
25.633700000000001
 31
0.0
  0
LINE
  5
16E
  8
0
 10
37.711599999999997
 20
26.623799999999999
 30
0.0
 11
38.9116
 21
26.514900000000001
 31
0.0
  0
LINE
  5
16F
  8
0
 10
38.173099999999991
 20
26.425699999999999
 30
0.0
 11
38.173099999999991
 21
25.633700000000001
 31
0.0
  0
LINE
  5
170
  8
0
 10
38.173099999999991
 20
25.633700000000001
 30
0.0
 11
38.173099999999991
 21
26.425699999999999
 31
0.0
  0
LINE
  5
171
  8
0
 10
38.173099999999991
 20
25.633700000000001
 30
0.0
 11
38.173099999999991
 21
26.425699999999999
 31
0.0
  0
LINE
  5
172
  8
0
 10
38.173099999999991
 20
25.633700000000001
 30
0.0
 11
38.54229999999999
 21
25.534700000000001
 31
0.0
  0
LINE
  5
173
  8
0
 10
38.173099999999991
 20
25.633700000000001
 30
0.0
 11
38.173099999999991
 21
26.425699999999999
 31
0.0
  0
LINE
  5
174
  8
0
 10
38.173099999999991
 20
25.0396
 30
0.0
 11
38.173099999999991
 21
24.0
 31
0.0
  0
LINE
  5
175
  8
0
 10
39.128
 20
24.0
 30
0.0
 11
40.135999999999989
 21
24.0
 31
0.0
  0
LINE
  5
176
  8
0
 10
38.75
 20
24.0
 30
0.0
 11
39.128
 21
24.0
 31
0.0
  0
LINE
  5
177
  8
0
 10
38.54229999999999
 20
24.0
 30
0.0
 11
39.649999999999991
 21
24.0
 31
0.0
  0
LINE
  5
178
  8
0
 10
40.135999999999989
 20
24.0
 30
0.0
 11
40.486800000000002
 21
24.0
 31
0.0
  0
LINE
  5
179
  8
0
 10
40.135999999999989
 20
24.0
 30
0.0
 11
40.486800000000002
 21
24.0
 31
0.0
  0
LINE
  5
17A
  8
0
 10
39.649999999999991
 20
24.0
 30
0.0
 11
40.480699999999999
 21
24.0
 31
0.0
  0
LINE
  5
17B
  8
0
 10
39.649999999999991
 20
24.0
 30
0.0
 11
40.486800000000002
 21
24.0
 31
0.0
  0
LINE
  5
17C
  8
0
 10
39.649999999999991
 20
24.0
 30
0.0
 11
40.486800000000002
 21
24.0
 31
0.0
  0
LINE
  5
17D
  8
0
 10
38.54229999999999
 20
24.0
 30
0.0
 11
39.649999999999991
 21
24.0
 31
0.0
  0
LINE
  5
17E
  8
0
 10
38.54229999999999
 20
24.9406
 30
0.0
 11
39.649999999999991
 21
24.8416
 31
0.0
  0
LINE
  5
17F
  8
0
 10
38.75
 20
24.0
 30
0.0
 11
39.128
 21
24.0
 31
0.0
  0
LINE
  5
180
  8
0
 10
38.9116
 20
25.128699999999991
 30
0.0
 11
40.7577
 21
25.069299999999998
 31
0.0
  0
LINE
  5
181
  8
0
 10
38.54229999999999
 20
25.534700000000001
 30
0.0
 11
39.649999999999991
 21
25.435600000000001
 31
0.0
  0
LINE
  5
182
  8
0
 10
38.54229999999999
 20
26.326699999999999
 30
0.0
 11
39.649999999999991
 21
26.227699999999999
 31
0.0
  0
LINE
  5
183
  8
0
 10
39.128
 20
24.0
 30
0.0
 11
40.135999999999989
 21
24.0
 31
0.0
  0
LINE
  5
184
  8
0
 10
39.649999999999991
 20
24.0
 30
0.0
 11
40.480699999999999
 21
24.0
 31
0.0
  0
LINE
  5
185
  8
0
 10
39.649999999999991
 20
24.0
 30
0.0
 11
41.4039
 21
24.0
 31
0.0
  0
LINE
  5
186
  8
0
 10
39.649999999999991
 20
24.0
 30
0.0
 11
40.486800000000002
 21
24.0
 31
0.0
  0
LINE
  5
187
  8
0
 10
39.0961
 20
24.0
 30
0.0
 11
39.649999999999991
 21
24.0
 31
0.0
  0
LINE
  5
188
  8
0
 10
39.649999999999991
 20
24.8416
 30
0.0
 11
41.4039
 21
24.792100000000001
 31
0.0
  0
LINE
  5
189
  8
0
 10
40.135999999999989
 20
24.0
 30
0.0
 11
40.486800000000002
 21
24.0
 31
0.0
  0
LINE
  5
18A
  8
0
 10
40.135999999999989
 20
24.0
 30
0.0
 11
41.816000000000003
 21
24.0
 31
0.0
  0
LINE
  5
18B
  8
0
 10
39.649999999999991
 20
25.435600000000001
 30
0.0
 11
41.4039
 21
25.386099999999999
 31
0.0
  0
LINE
  5
18C
  8
0
 10
39.649999999999991
 20
26.227699999999999
 30
0.0
 11
41.4039
 21
26.1782
 31
0.0
  0
LINE
  5
18D
  8
0
 10
38.9116
 20
26.514900000000001
 30
0.0
 11
40.7577
 21
26.455400000000001
 31
0.0
  0
LINE
  5
18E
  8
0
 10
39.0961
 20
24.0
 30
0.0
 11
39.649999999999991
 21
24.0
 31
0.0
  0
LINE
  5
18F
  8
0
 10
38.173099999999991
 20
26.425699999999999
 30
0.0
 11
38.173099999999991
 21
25.633700000000001
 31
0.0
  0
LINE
  5
190
  8
0
 10
39.0961
 20
24.0
 30
0.0
 11
39.649999999999991
 21
24.0
 31
0.0
  0
LINE
  5
191
  8
0
 10
37.25
 20
25.336600000000001
 30
0.0
 11
38.173099999999991
 21
25.0396
 31
0.0
  0
LINE
  5
192
  8
0
 10
37.25
 20
28.108899999999998
 30
0.0
 11
38.173099999999991
 21
28.405899999999999
 31
0.0
  0
LINE
  5
193
  8
0
 10
37.25
 20
28.108899999999998
 30
0.0
 11
37.711599999999997
 21
28.009899999999998
 31
0.0
  0
LINE
  5
194
  8
0
 10
37.25
 20
28.108899999999998
 30
0.0
 11
38.173099999999991
 21
27.811900000000001
 31
0.0
  0
LINE
  5
195
  8
0
 10
37.25
 20
26.722799999999999
 30
0.0
 11
38.173099999999991
 21
27.0198
 31
0.0
  0
LINE
  5
196
  8
0
 10
37.25
 20
26.722799999999999
 30
0.0
 11
37.711599999999997
 21
26.623799999999999
 31
0.0
  0
LINE
  5
197
  8
0
 10
37.25
 20
26.722799999999999
 30
0.0
 11
38.173099999999991
 21
26.425699999999999
 31
0.0
  0
LINE
  5
198
  8
0
 10
37.25
 20
28.108899999999998
 30
0.0
 11
38.173099999999991
 21
27.811900000000001
 31
0.0
  0
LINE
  5
199
  8
0
 10
37.25
 20
26.722799999999999
 30
0.0
 11
38.173099999999991
 21
26.425699999999999
 31
0.0
  0
LINE
  5
19A
  8
0
 10
38.173099999999991
 20
27.811900000000001
 30
0.0
 11
38.54229999999999
 21
27.712900000000001
 31
0.0
  0
LINE
  5
19B
  8
0
 10
38.173099999999991
 20
27.811900000000001
 30
0.0
 11
38.173099999999991
 21
27.0198
 31
0.0
  0
LINE
  5
19C
  8
0
 10
37.711599999999997
 20
28.009899999999998
 30
0.0
 11
38.9116
 21
27.901
 31
0.0
  0
LINE
  5
19D
  8
0
 10
38.173099999999991
 20
27.811900000000001
 30
0.0
 11
38.173099999999991
 21
27.0198
 31
0.0
  0
LINE
  5
19E
  8
0
 10
38.173099999999991
 20
28.405899999999999
 30
0.0
 11
38.173099999999991
 21
29.0
 31
0.0
  0
LINE
  5
19F
  8
0
 10
38.173099999999991
 20
28.405899999999999
 30
0.0
 11
38.173099999999991
 21
29.0
 31
0.0
  0
LINE
  5
1A0
  8
0
 10
38.173099999999991
 20
28.405899999999999
 30
0.0
 11
38.54229999999999
 21
28.306899999999999
 31
0.0
  0
LINE
  5
1A1
  8
0
 10
38.173099999999991
 20
28.405899999999999
 30
0.0
 11
38.173099999999991
 21
29.0
 31
0.0
  0
LINE
  5
1A2
  8
0
 10
38.173099999999991
 20
27.0198
 30
0.0
 11
38.173099999999991
 21
27.811900000000001
 31
0.0
  0
LINE
  5
1A3
  8
0
 10
38.173099999999991
 20
27.0198
 30
0.0
 11
38.173099999999991
 21
27.811900000000001
 31
0.0
  0
LINE
  5
1A4
  8
0
 10
38.173099999999991
 20
27.0198
 30
0.0
 11
38.54229999999999
 21
26.9208
 31
0.0
  0
LINE
  5
1A5
  8
0
 10
38.173099999999991
 20
27.0198
 30
0.0
 11
38.173099999999991
 21
27.811900000000001
 31
0.0
  0
LINE
  5
1A6
  8
0
 10
39.649999999999991
 20
26.8218
 30
0.0
 11
41.4039
 21
26.772300000000001
 31
0.0
  0
LINE
  5
1A7
  8
0
 10
38.54229999999999
 20
27.712900000000001
 30
0.0
 11
39.649999999999991
 21
27.613900000000001
 31
0.0
  0
LINE
  5
1A8
  8
0
 10
39.649999999999991
 20
27.613900000000001
 30
0.0
 11
41.4039
 21
27.564399999999999
 31
0.0
  0
LINE
  5
1A9
  8
0
 10
39.649999999999991
 20
28.207899999999999
 30
0.0
 11
41.4039
 21
28.1584
 31
0.0
  0
LINE
  5
1AA
  8
0
 10
38.9116
 20
27.901
 30
0.0
 11
40.7577
 21
27.841599999999989
 31
0.0
  0
LINE
  5
1AB
  8
0
 10
38.54229999999999
 20
28.306899999999999
 30
0.0
 11
39.649999999999991
 21
28.207899999999999
 31
0.0
  0
LINE
  5
1AC
  8
0
 10
38.54229999999999
 20
26.9208
 30
0.0
 11
39.649999999999991
 21
26.8218
 31
0.0
  0
LINE
  5
1AD
  8
0
 10
38.173099999999991
 20
27.811900000000001
 30
0.0
 11
38.173099999999991
 21
27.0198
 31
0.0
  0
LINE
  5
1AE
  8
0
 10
38.173099999999991
 20
29.0
 30
0.0
 11
38.173099999999991
 21
28.405899999999999
 31
0.0
  0
LINE
  5
1AF
  8
0
 10
38.173099999999991
 20
29.0
 30
0.0
 11
38.54229999999999
 21
29.0
 31
0.0
  0
LINE
  5
1B0
  8
0
 10
38.54229999999999
 20
29.0
 30
0.0
 11
39.649999999999991
 21
29.0
 31
0.0
  0
LINE
  5
1B1
  8
0
 10
39.649999999999991
 20
29.0
 30
0.0
 11
41.4039
 21
28.950500000000002
 31
0.0
  0
LINE
  5
1B2
  8
0
 10
39.649999999999991
 20
29.0
 30
0.0
 11
41.288499999999992
 21
29.0
 31
0.0
  0
LINE
  5
1B3
  8
0
 10
39.338000000000001
 20
29.0
 30
0.0
 11
42.305999999999997
 21
29.0
 31
0.0
  0
LINE
  5
1B4
  8
0
 10
38.173099999999991
 20
29.0
 30
0.0
 11
38.173099999999991
 21
28.405899999999999
 31
0.0
  0
LINE
  5
1B5
  8
0
 10
38.173099999999991
 20
29.0
 30
0.0
 11
38.173099999999991
 21
28.405899999999999
 31
0.0
  0
LINE
  5
1B6
  8
0
 10
37.25
 20
28.108899999999998
 30
0.0
 11
38.173099999999991
 21
27.811900000000001
 31
0.0
  0
LINE
  5
1B7
  8
0
 10
37.25
 20
26.722799999999999
 30
0.0
 11
38.173099999999991
 21
26.425699999999999
 31
0.0
  0
LINE
  5
1B8
  8
0
 10
40.25
 20
23.942900000000002
 30
0.0
 11
40.25
 21
23.8629
 31
0.0
  0
LINE
  5
1B9
  8
0
 10
40.25
 20
22.857099999999988
 30
0.0
 11
40.25
 21
23.428599999999989
 31
0.0
  0
LINE
  5
1BA
  8
0
 10
40.25
 20
22.857099999999988
 30
0.0
 11
40.25
 21
17.142900000000001
 31
0.0
  0
LINE
  5
1BB
  8
0
 10
40.25
 20
23.428599999999989
 30
0.0
 11
40.25
 21
23.8629
 31
0.0
  0
LINE
  5
1BC
  8
0
 10
40.25
 20
23.428599999999989
 30
0.0
 11
40.25
 21
22.857099999999988
 31
0.0
  0
LINE
  5
1BD
  8
0
 10
40.25
 20
16.1371
 30
0.0
 11
40.25
 21
17.142900000000001
 31
0.0
  0
LINE
  5
1BE
  8
0
 10
40.25
 20
16.1371
 30
0.0
 11
40.25
 21
16.057099999999998
 31
0.0
  0
LINE
  5
1C0
  8
0
 10
41.0214
 20
16.571400000000001
 30
0.0
 11
41.0214
 21
16.571400000000001
 31
0.0
  0
LINE
  5
1C1
  8
0
 10
40.480699999999999
 20
24.0
 30
0.0
 11
42.049999999999997
 21
24.0
 31
0.0
  0
LINE
  5
1C6
  8
0
 10
40.7577
 20
25.069299999999998
 30
0.0
 11
43.25
 21
25.0198
 31
0.0
  0
LINE
  5
1C7
  8
0
 10
40.7577
 20
27.841599999999989
 30
0.0
 11
43.25
 21
27.792100000000001
 31
0.0
  0
LINE
  5
1C8
  8
0
 10
40.7577
 20
26.455400000000001
 30
0.0
 11
43.25
 21
26.405899999999988
 31
0.0
  0
LINE
  5
1C9
  8
0
 10
40.486800000000002
 20
24.0
 30
0.0
 11
40.81839999999999
 21
24.0
 31
0.0
  0
LINE
  5
1CB
  8
0
 10
40.25
 20
23.8629
 30
0.0
 11
40.25
 21
23.942900000000002
 31
0.0
  0
LINE
  5
1CC
  8
0
 10
40.25
 20
23.8629
 30
0.0
 11
40.25
 21
23.428599999999989
 31
0.0
  0
LINE
  5
1CD
  8
0
 10
40.25
 20
16.057099999999998
 30
0.0
 11
40.25
 21
16.1371
 31
0.0
  0
LINE
  5
1CE
  8
0
 10
40.25
 20
16.057099999999998
 30
0.0
 11
40.486800000000002
 21
16.0
 31
0.0
  0
LINE
  5
1CF
  8
0
 10
37.097999999999992
 20
29.0
 30
0.0
 11
38.173099999999991
 21
29.0
 31
0.0
  0
LINE
  5
1D0
  8
0
 10
37.92199999999999
 20
52.0
 30
0.0
 11
41.313999999999993
 21
52.0
 31
0.0
  0
LINE
  5
1D1
  8
0
 10
36.60199999999999
 20
52.0
 30
0.0
 11
38.933399999999999
 21
52.0
 31
0.0
  0
LINE
  5
1D2
  8
0
 10
38.933399999999999
 20
52.0
 30
0.0
 11
42.02259999999999
 21
52.0
 31
0.0
  0
LINE
  5
1D3
  8
0
 10
34.494
 20
52.0
 30
0.0
 11
37.213999999999999
 21
52.0
 31
0.0
  0
LINE
  5
1D4
  8
0
 10
34.494
 20
52.0
 30
0.0
 11
35.25
 21
52.0
 31
0.0
  0
LINE
  5
1D5
  8
0
 10
37.213999999999999
 20
52.0
 30
0.0
 11
40.817999999999998
 21
52.0
 31
0.0
  0
LINE
  5
1D6
  8
0
 10
40.81839999999999
 20
16.0
 30
0.0
 11
41.671100000000003
 21
16.0
 31
0.0
  0
LINE
  5
1D7
  8
0
 10
40.81839999999999
 20
16.0
 30
0.0
 11
41.671100000000003
 21
16.0
 31
0.0
  0
LINE
  5
1D8
  8
0
 10
41.0214
 20
16.571400000000001
 30
0.0
 11
42.523699999999991
 21
16.207799999999992
 31
0.0
  0
LINE
  5
1DA
  8
0
 10
40.81839999999999
 20
24.0
 30
0.0
 11
41.671100000000003
 21
24.0
 31
0.0
  0
LINE
  5
1DB
  8
0
 10
41.0214
 20
23.428599999999989
 30
0.0
 11
42.523699999999991
 21
23.792200000000001
 31
0.0
  0
LINE
  5
1DC
  8
0
 10
40.81839999999999
 20
16.0
 30
0.0
 11
41.671100000000003
 21
16.0
 31
0.0
  0
LINE
  5
1DD
  8
0
 10
41.4039
 20
24.0
 30
0.0
 11
43.71159999999999
 21
24.0
 31
0.0
  0
LINE
  5
1DE
  8
0
 10
41.671100000000003
 20
16.0
 30
0.0
 11
42.25
 21
16.0
 31
0.0
  0
LINE
  5
1E1
  8
0
 10
41.4039
 20
24.792100000000001
 30
0.0
 11
43.71159999999999
 21
24.742599999999999
 31
0.0
  0
LINE
  5
1E2
  8
0
 10
41.4039
 20
25.386099999999999
 30
0.0
 11
43.71159999999999
 21
25.336600000000001
 31
0.0
  0
LINE
  5
1E3
  8
0
 10
41.4039
 20
28.950500000000002
 30
0.0
 11
43.71159999999999
 21
28.901
 31
0.0
  0
LINE
  5
1E4
  8
0
 10
41.288499999999992
 20
29.0
 30
0.0
 11
43.546700000000001
 21
29.0
 31
0.0
  0
LINE
  5
1E5
  8
0
 10
41.4039
 20
27.564399999999999
 30
0.0
 11
43.71159999999999
 21
27.514900000000001
 31
0.0
  0
LINE
  5
1E6
  8
0
 10
41.4039
 20
28.1584
 30
0.0
 11
43.71159999999999
 21
28.108899999999998
 31
0.0
  0
LINE
  5
1E7
  8
0
 10
41.4039
 20
26.1782
 30
0.0
 11
43.71159999999999
 21
26.128699999999998
 31
0.0
  0
LINE
  5
1E8
  8
0
 10
41.4039
 20
26.772300000000001
 30
0.0
 11
43.71159999999999
 21
26.722799999999999
 31
0.0
  0
LINE
  5
1EA
  8
0
 10
41.671100000000003
 20
24.0
 30
0.0
 11
43.044699999999999
 21
24.0
 31
0.0
  0
LINE
  5
1EB
  8
0
 10
41.816000000000003
 20
24.0
 30
0.0
 11
44.042000000000002
 21
24.0
 31
0.0
  0
LINE
  5
1EC
  8
0
 10
41.671100000000003
 20
16.0
 30
0.0
 11
42.25
 21
16.0
 31
0.0
  0
LINE
  5
1ED
  8
0
 10
41.671100000000003
 20
16.0
 30
0.0
 11
42.25
 21
16.0
 31
0.0
  0
LINE
  5
1EE
  8
0
 10
41.313999999999993
 20
52.0
 30
0.0
 11
45.153999999999989
 21
52.0
 31
0.0
  0
LINE
  5
1EF
  8
0
 10
42.049999999999997
 20
24.0
 30
0.0
 11
44.173099999999991
 21
24.0
 31
0.0
  0
LINE
  5
1F0
  8
0
 10
42.17179999999999
 20
16.0
 30
0.0
 11
42.357999999999997
 21
16.0
 31
0.0
  0
LINE
  5
1F1
  8
0
 10
42.17179999999999
 20
16.0
 30
0.0
 11
42.25
 21
16.0
 31
0.0
  0
LINE
  5
1F2
  8
0
 10
42.17179999999999
 20
16.0
 30
0.0
 11
42.25
 21
16.0
 31
0.0
  0
LINE
  5
1F3
  8
0
 10
49.25
 20
-0.0000000000000033
 30
0.0
 11
50.274000000000001
 21
-0.0000000000000032
 31
0.0
  0
LINE
  5
1F4
  8
0
 10
48.226000000000013
 20
-0.0000000000000032
 30
0.0
 11
49.25
 21
-0.0000000000000033
 31
0.0
  0
LINE
  5
1F5
  8
0
 10
47.265999999999998
 20
-0.0000000000000032
 30
0.0
 11
48.226000000000013
 21
-0.0000000000000032
 31
0.0
  0
LINE
  5
1F6
  8
0
 10
46.417999999999992
 20
-0.0000000000000032
 30
0.0
 11
47.265999999999998
 21
-0.0000000000000032
 31
0.0
  0
LINE
  5
1F7
  8
0
 10
45.777999999999992
 20
-0.0000000000000031
 30
0.0
 11
46.417999999999992
 21
-0.0000000000000032
 31
0.0
  0
LINE
  5
1F8
  8
0
 10
45.393999999999991
 20
-0.0000000000000031
 30
0.0
 11
45.777999999999992
 21
-0.0000000000000031
 31
0.0
  0
LINE
  5
1F9
  8
0
 10
45.393999999999991
 20
0.0000000000000018
 30
0.0
 11
45.777999999999992
 21
0.0000000000000018
 31
0.0
  0
LINE
  5
1FA
  8
0
 10
45.393999999999991
 20
0.0000000000000067
 30
0.0
 11
45.777999999999992
 21
0.0000000000000067
 31
0.0
  0
LINE
  5
1FB
  8
0
 10
45.393999999999991
 20
0.0000000000000068
 30
0.0
 11
45.777999999999992
 21
0.0000000000000069
 31
0.0
  0
LINE
  5
1FC
  8
0
 10
45.25
 20
0.0000000000000068
 30
0.0
 11
45.393999999999991
 21
0.0000000000000067
 31
0.0
  0
LINE
  5
1FD
  8
0
 10
45.25
 20
0.0000000000000068
 30
0.0
 11
45.25
 21
8.0000000000000089
 31
0.0
  0
LINE
  5
1FE
  8
0
 10
45.25
 20
0.0000000000000068
 30
0.0
 11
45.393999999999991
 21
0.0000000000000068
 31
0.0
  0
LINE
  5
1FF
  8
0
 10
45.393999999999991
 20
0.0000000000000019
 30
0.0
 11
45.777999999999992
 21
0.000000000000002
 31
0.0
  0
LINE
  5
200
  8
0
 10
45.25
 20
0.0000000000000019
 30
0.0
 11
45.393999999999991
 21
0.0000000000000018
 31
0.0
  0
LINE
  5
201
  8
0
 10
45.25
 20
0.0000000000000019
 30
0.0
 11
45.25
 21
8.0
 31
0.0
  0
LINE
  5
202
  8
0
 10
45.25
 20
0.0000000000000019
 30
0.0
 11
45.393999999999991
 21
0.0000000000000019
 31
0.0
  0
LINE
  5
203
  8
0
 10
46.417999999999992
 20
0.0000000000000017
 30
0.0
 11
47.265999999999998
 21
0.0000000000000017
 31
0.0
  0
LINE
  5
204
  8
0
 10
45.777999999999992
 20
0.0000000000000069
 30
0.0
 11
46.417999999999992
 21
0.000000000000007
 31
0.0
  0
LINE
  5
205
  8
0
 10
45.777999999999992
 20
0.0000000000000067
 30
0.0
 11
46.417999999999992
 21
0.0000000000000066
 31
0.0
  0
LINE
  5
206
  8
0
 10
46.417999999999992
 20
0.000000000000007
 30
0.0
 11
47.265999999999998
 21
0.000000000000007
 31
0.0
  0
LINE
  5
207
  8
0
 10
46.417999999999992
 20
0.0000000000000066
 30
0.0
 11
47.265999999999998
 21
0.0000000000000066
 31
0.0
  0
LINE
  5
208
  8
0
 10
46.417999999999992
 20
0.0000000000000021
 30
0.0
 11
47.265999999999998
 21
0.0000000000000021
 31
0.0
  0
LINE
  5
209
  8
0
 10
45.777999999999992
 20
0.000000000000002
 30
0.0
 11
46.417999999999992
 21
0.0000000000000021
 31
0.0
  0
LINE
  5
20A
  8
0
 10
45.777999999999992
 20
0.0000000000000018
 30
0.0
 11
46.417999999999992
 21
0.0000000000000017
 31
0.0
  0
LINE
  5
20B
  8
0
 10
48.226000000000013
 20
0.0000000000000016
 30
0.0
 11
49.25
 21
0.0000000000000016
 31
0.0
  0
LINE
  5
20C
  8
0
 10
47.265999999999998
 20
0.000000000000007
 30
0.0
 11
48.226000000000013
 21
0.000000000000007
 31
0.0
  0
LINE
  5
20D
  8
0
 10
47.265999999999998
 20
0.0000000000000066
 30
0.0
 11
48.226000000000013
 21
0.0000000000000065
 31
0.0
  0
LINE
  5
20E
  8
0
 10
48.226000000000013
 20
0.000000000000007
 30
0.0
 11
49.25
 21
0.000000000000007
 31
0.0
  0
LINE
  5
20F
  8
0
 10
48.226000000000013
 20
0.0000000000000065
 30
0.0
 11
49.25
 21
0.0000000000000065
 31
0.0
  0
LINE
  5
210
  8
0
 10
48.226000000000013
 20
0.0000000000000021
 30
0.0
 11
49.25
 21
0.0000000000000021
 31
0.0
  0
LINE
  5
211
  8
0
 10
47.265999999999998
 20
0.0000000000000021
 30
0.0
 11
48.226000000000013
 21
0.0000000000000021
 31
0.0
  0
LINE
  5
212
  8
0
 10
47.265999999999998
 20
0.0000000000000017
 30
0.0
 11
48.226000000000013
 21
0.0000000000000016
 31
0.0
  0
LINE
  5
213
  8
0
 10
49.25
 20
0.000000000000007
 30
0.0
 11
50.274000000000001
 21
0.000000000000007
 31
0.0
  0
LINE
  5
214
  8
0
 10
49.25
 20
0.0000000000000065
 30
0.0
 11
50.274000000000001
 21
0.0000000000000065
 31
0.0
  0
LINE
  5
215
  8
0
 10
49.25
 20
0.0000000000000021
 30
0.0
 11
50.274000000000001
 21
0.0000000000000021
 31
0.0
  0
LINE
  5
216
  8
0
 10
49.25
 20
0.0000000000000016
 30
0.0
 11
50.274000000000001
 21
0.0000000000000016
 31
0.0
  0
LINE
  5
217
  8
0
 10
48.226000000000013
 20
-0.0000000000000028
 30
0.0
 11
49.25
 21
-0.0000000000000028
 31
0.0
  0
LINE
  5
218
  8
0
 10
47.265999999999998
 20
-0.0000000000000028
 30
0.0
 11
48.226000000000013
 21
-0.0000000000000028
 31
0.0
  0
LINE
  5
219
  8
0
 10
46.417999999999992
 20
-0.0000000000000028
 30
0.0
 11
47.265999999999998
 21
-0.0000000000000028
 31
0.0
  0
LINE
  5
21A
  8
0
 10
45.777999999999992
 20
-0.0000000000000029
 30
0.0
 11
46.417999999999992
 21
-0.0000000000000028
 31
0.0
  0
LINE
  5
21B
  8
0
 10
45.393999999999991
 20
-0.0000000000000029
 30
0.0
 11
45.777999999999992
 21
-0.0000000000000029
 31
0.0
  0
LINE
  5
21C
  8
0
 10
45.25
 20
8.0000000000000089
 30
0.0
 11
45.393999999999991
 21
8.0000000000000089
 31
0.0
  0
LINE
  5
21D
  8
0
 10
45.25
 20
8.0000000000000089
 30
0.0
 11
45.25
 21
0.0000000000000074
 31
0.0
  0
LINE
  5
21E
  8
0
 10
45.777999999999992
 20
8.0000000000000089
 30
0.0
 11
46.417999999999992
 21
8.0000000000000089
 31
0.0
  0
LINE
  5
21F
  8
0
 10
45.393999999999991
 20
8.0000000000000089
 30
0.0
 11
45.777999999999992
 21
8.0000000000000089
 31
0.0
  0
LINE
  5
220
  8
0
 10
45.25
 20
8.0
 30
0.0
 11
45.25
 21
0.0000000000000015
 31
0.0
  0
LINE
  5
221
  8
0
 10
45.001999999999988
 20
12.0
 30
0.0
 11
46.25
 21
12.0
 31
0.0
  0
LINE
  5
222
  8
0
 10
44.042000000000002
 20
12.0
 30
0.0
 11
45.001999999999988
 21
12.0
 31
0.0
  0
LINE
  5
223
  8
0
 10
43.466000000000001
 20
12.0
 30
0.0
 11
44.042000000000002
 21
12.0
 31
0.0
  0
LINE
  5
224
  8
0
 10
43.25
 20
12.0
 30
0.0
 11
43.466000000000001
 21
12.0
 31
0.0
  0
LINE
  5
225
  8
0
 10
43.25
 20
12.0
 30
0.0
 11
43.25
 21
15.0
 31
0.0
  0
LINE
  5
226
  8
0
 10
43.25
 20
12.0
 30
0.0
 11
43.466000000000001
 21
12.0
 31
0.0
  0
LINE
  5
227
  8
0
 10
43.25
 20
12.0
 30
0.0
 11
43.25
 21
15.0
 31
0.0
  0
LINE
  5
228
  8
0
 10
43.25
 20
12.0
 30
0.0
 11
43.466000000000001
 21
12.0
 31
0.0
  0
LINE
  5
229
  8
0
 10
43.25
 20
12.0
 30
0.0
 11
43.25
 21
15.0
 31
0.0
  0
LINE
  5
22A
  8
0
 10
43.173999999999999
 20
15.0
 30
0.0
 11
43.25
 21
15.0
 31
0.0
  0
LINE
  5
22B
  8
0
 10
42.501999999999988
 20
15.0
 30
0.0
 11
43.173999999999999
 21
15.0
 31
0.0
  0
LINE
  5
22C
  8
0
 10
42.25
 20
16.0
 30
0.0
 11
42.501999999999988
 21
16.0
 31
0.0
  0
LINE
  5
22D
  8
0
 10
42.25
 20
16.0
 30
0.0
 11
42.25
 21
15.0
 31
0.0
  0
LINE
  5
22E
  8
0
 10
42.25
 20
15.0
 30
0.0
 11
42.501999999999988
 21
15.0
 31
0.0
  0
LINE
  5
22F
  8
0
 10
42.25
 20
15.0
 30
0.0
 11
42.25
 21
16.0
 31
0.0
  0
LINE
  5
230
  8
0
 10
42.25
 20
16.0
 30
0.0
 11
42.25
 21
15.0
 31
0.0
  0
LINE
  5
231
  8
0
 10
42.25
 20
15.0
 30
0.0
 11
42.501999999999988
 21
15.0
 31
0.0
  0
LINE
  5
232
  8
0
 10
42.25
 20
15.0
 30
0.0
 11
42.25
 21
16.0
 31
0.0
  0
LINE
  5
233
  8
0
 10
43.173999999999999
 20
15.0
 30
0.0
 11
43.25
 21
15.0
 31
0.0
  0
LINE
  5
234
  8
0
 10
42.501999999999988
 20
15.0
 30
0.0
 11
43.173999999999999
 21
15.0
 31
0.0
  0
LINE
  5
235
  8
0
 10
42.501999999999988
 20
16.0
 30
0.0
 11
43.173999999999999
 21
16.0
 31
0.0
  0
LINE
  5
236
  8
0
 10
42.501999999999988
 20
15.0
 30
0.0
 11
43.173999999999999
 21
15.0
 31
0.0
  0
LINE
  5
237
  8
0
 10
42.357999999999997
 20
16.0
 30
0.0
 11
42.918300000000002
 21
16.0
 31
0.0
  0
LINE
  5
238
  8
0
 10
43.173999999999999
 20
16.0
 30
0.0
 11
44.293999999999997
 21
16.0
 31
0.0
  0
LINE
  5
239
  8
0
 10
43.173999999999999
 20
15.0
 30
0.0
 11
43.25
 21
15.0
 31
0.0
  0
LINE
  5
23A
  8
0
 10
43.173999999999999
 20
15.0
 30
0.0
 11
44.293999999999997
 21
15.0
 31
0.0
  0
LINE
  5
23B
  8
0
 10
43.25
 20
15.0
 30
0.0
 11
43.466000000000001
 21
15.0
 31
0.0
  0
LINE
  5
23C
  8
0
 10
43.25
 20
15.0
 30
0.0
 11
43.25
 21
12.0
 31
0.0
  0
LINE
  5
23D
  8
0
 10
42.918300000000002
 20
16.0
 30
0.0
 11
44.016800000000003
 21
16.0
 31
0.0
  0
LINE
  5
23E
  8
0
 10
42.523699999999991
 20
16.207799999999992
 30
0.0
 11
44.668700000000001
 21
16.115500000000001
 31
0.0
  0
LINE
  5
23F
  8
0
 10
43.25
 20
25.0198
 30
0.0
 11
46.111600000000003
 21
25.0
 31
0.0
  0
LINE
  5
240
  8
0
 10
43.25
 20
27.792100000000001
 30
0.0
 11
46.111600000000003
 21
27.772300000000001
 31
0.0
  0
LINE
  5
241
  8
0
 10
43.25
 20
26.405899999999988
 30
0.0
 11
46.111600000000003
 21
26.386099999999988
 31
0.0
  0
LINE
  5
242
  8
0
 10
43.044699999999999
 20
24.0
 30
0.0
 11
44.892099999999992
 21
24.0
 31
0.0
  0
LINE
  5
244
  8
0
 10
42.523699999999991
 20
23.792200000000001
 30
0.0
 11
44.668700000000001
 21
23.884499999999999
 31
0.0
  0
LINE
  5
246
  8
0
 10
42.305999999999997
 20
29.0
 30
0.0
 11
45.665999999999997
 21
29.0
 31
0.0
  0
LINE
  5
247
  8
0
 10
43.25
 20
15.0
 30
0.0
 11
43.25
 21
12.0
 31
0.0
  0
LINE
  5
248
  8
0
 10
42.25
 20
16.0
 30
0.0
 11
42.25
 21
15.0
 31
0.0
  0
LINE
  5
249
  8
0
 10
42.25
 20
15.0
 30
0.0
 11
42.501999999999988
 21
15.0
 31
0.0
  0
LINE
  5
24A
  8
0
 10
42.25
 20
15.0
 30
0.0
 11
42.25
 21
16.0
 31
0.0
  0
LINE
  5
24B
  8
0
 10
45.001999999999988
 20
12.0
 30
0.0
 11
46.25
 21
12.0
 31
0.0
  0
LINE
  5
24C
  8
0
 10
44.042000000000002
 20
12.0
 30
0.0
 11
45.001999999999988
 21
12.0
 31
0.0
  0
LINE
  5
24D
  8
0
 10
43.466000000000001
 20
12.0
 30
0.0
 11
44.042000000000002
 21
12.0
 31
0.0
  0
LINE
  5
24E
  8
0
 10
43.466000000000001
 20
15.0
 30
0.0
 11
44.042000000000002
 21
15.0
 31
0.0
  0
LINE
  5
24F
  8
0
 10
43.466000000000001
 20
12.0
 30
0.0
 11
44.042000000000002
 21
12.0
 31
0.0
  0
LINE
  5
250
  8
0
 10
43.466000000000001
 20
12.0
 30
0.0
 11
44.042000000000002
 21
12.0
 31
0.0
  0
LINE
  5
251
  8
0
 10
44.042000000000002
 20
12.0
 30
0.0
 11
45.001999999999988
 21
12.0
 31
0.0
  0
LINE
  5
252
  8
0
 10
44.293999999999997
 20
15.0
 30
0.0
 11
45.777999999999992
 21
15.0
 31
0.0
  0
LINE
  5
253
  8
0
 10
44.293999999999997
 20
16.0
 30
0.0
 11
45.777999999999992
 21
16.0
 31
0.0
  0
LINE
  5
254
  8
0
 10
44.042000000000002
 20
15.0
 30
0.0
 11
45.001999999999988
 21
15.0
 31
0.0
  0
LINE
  5
255
  8
0
 10
44.042000000000002
 20
12.0
 30
0.0
 11
45.001999999999988
 21
12.0
 31
0.0
  0
LINE
  5
256
  8
0
 10
44.016800000000003
 20
16.0
 30
0.0
 11
45.543500000000002
 21
16.0
 31
0.0
  0
LINE
  5
257
  8
0
 10
44.042000000000002
 20
24.0
 30
0.0
 11
46.561999999999998
 21
24.0
 31
0.0
  0
LINE
  5
258
  8
0
 10
44.173099999999991
 20
24.0
 30
0.0
 11
46.665399999999998
 21
24.0
 31
0.0
  0
LINE
  5
259
  8
0
 10
44.668700000000001
 20
16.115500000000001
 30
0.0
 11
46.802100000000003
 21
16.2392
 31
0.0
  0
LINE
  5
25B
  8
0
 10
45.001999999999988
 20
12.0
 30
0.0
 11
46.273999999999987
 21
12.0
 31
0.0
  0
LINE
  5
25C
  8
0
 10
45.001999999999988
 20
15.0
 30
0.0
 11
46.273999999999987
 21
15.0
 31
0.0
  0
LINE
  5
25D
  8
0
 10
45.001999999999988
 20
12.0
 30
0.0
 11
46.25
 21
12.0
 31
0.0
  0
LINE
  5
25E
  8
0
 10
45.543500000000002
 20
16.0
 30
0.0
 11
47.198599999999992
 21
16.0
 31
0.0
  0
LINE
  5
260
  8
0
 10
44.668700000000001
 20
23.884499999999999
 30
0.0
 11
46.802100000000003
 21
23.760799999999989
 31
0.0
  0
LINE
  5
261
  8
0
 10
43.71159999999999
 20
24.0
 30
0.0
 11
46.388399999999997
 21
24.0
 31
0.0
  0
LINE
  5
262
  8
0
 10
43.71159999999999
 20
24.742599999999999
 30
0.0
 11
46.388399999999997
 21
24.712900000000001
 31
0.0
  0
LINE
  5
263
  8
0
 10
43.71159999999999
 20
25.336600000000001
 30
0.0
 11
46.388399999999997
 21
25.306899999999992
 31
0.0
  0
LINE
  5
264
  8
0
 10
43.71159999999999
 20
28.901
 30
0.0
 11
46.388399999999997
 21
28.871300000000002
 31
0.0
  0
LINE
  5
265
  8
0
 10
43.546700000000001
 20
29.0
 30
0.0
 11
46.264299999999999
 21
29.0
 31
0.0
  0
LINE
  5
266
  8
0
 10
43.71159999999999
 20
27.514900000000001
 30
0.0
 11
46.388399999999997
 21
27.485099999999999
 31
0.0
  0
LINE
  5
267
  8
0
 10
43.71159999999999
 20
28.108899999999998
 30
0.0
 11
46.388399999999997
 21
28.0792
 31
0.0
  0
LINE
  5
268
  8
0
 10
43.71159999999999
 20
26.128699999999998
 30
0.0
 11
46.388399999999997
 21
26.099
 31
0.0
  0
LINE
  5
269
  8
0
 10
43.71159999999999
 20
26.722799999999999
 30
0.0
 11
46.388399999999997
 21
26.693100000000001
 31
0.0
  0
LINE
  5
26A
  8
0
 10
44.892099999999992
 20
24.0
 30
0.0
 11
46.976300000000002
 21
24.0
 31
0.0
  0
LINE
  5
26C
  8
0
 10
45.777999999999992
 20
15.0
 30
0.0
 11
47.457999999999998
 21
15.0
 31
0.0
  0
LINE
  5
26D
  8
0
 10
45.777999999999992
 20
16.0
 30
0.0
 11
47.457999999999998
 21
16.0
 31
0.0
  0
LINE
  5
26E
  8
0
 10
46.25
 20
12.0
 30
0.0
 11
46.357999999999997
 21
12.0
 31
0.0
  0
LINE
  5
26F
  8
0
 10
46.25
 20
12.0
 30
0.0
 11
46.25
 21
8.0000000000000089
 31
0.0
  0
LINE
  5
270
  8
0
 10
46.111600000000003
 20
25.0
 30
0.0
 11
49.25
 21
24.990100000000002
 31
0.0
  0
LINE
  5
271
  8
0
 10
46.111600000000003
 20
27.772300000000001
 30
0.0
 11
49.25
 21
27.7624
 31
0.0
  0
LINE
  5
272
  8
0
 10
46.111600000000003
 20
26.386099999999988
 30
0.0
 11
49.25
 21
26.376200000000001
 31
0.0
  0
LINE
  5
273
  8
0
 10
45.665999999999997
 20
29.0
 30
0.0
 11
49.25
 21
29.0
 31
0.0
  0
LINE
  5
274
  8
0
 10
46.25
 20
12.0
 30
0.0
 11
46.25
 21
8.0000000000000089
 31
0.0
  0
LINE
  5
275
  8
0
 10
43.25
 20
15.0
 30
0.0
 11
43.25
 21
12.0
 31
0.0
  0
LINE
  5
276
  8
0
 10
46.25
 20
12.0
 30
0.0
 11
46.25
 21
8.0000000000000089
 31
0.0
  0
LINE
  5
277
  8
0
 10
46.273999999999987
 20
12.0
 30
0.0
 11
47.713999999999992
 21
12.0
 31
0.0
  0
LINE
  5
278
  8
0
 10
46.273999999999987
 20
15.0
 30
0.0
 11
47.713999999999992
 21
15.0
 31
0.0
  0
LINE
  5
279
  8
0
 10
46.357999999999997
 20
12.0
 30
0.0
 11
46.646000000000001
 21
12.0
 31
0.0
  0
LINE
  5
27A
  8
0
 10
46.646000000000001
 20
12.0
 30
0.0
 11
47.126000000000012
 21
12.0
 31
0.0
  0
LINE
  5
27B
  8
0
 10
46.417999999999992
 20
8.0000000000000089
 30
0.0
 11
47.265999999999998
 21
8.0000000000000089
 31
0.0
  0
LINE
  5
27C
  8
0
 10
46.388399999999997
 20
24.0
 30
0.0
 11
49.25
 21
24.0
 31
0.0
  0
LINE
  5
27D
  8
0
 10
46.388399999999997
 20
24.712900000000001
 30
0.0
 11
49.25
 21
24.693100000000001
 31
0.0
  0
LINE
  5
27E
  8
0
 10
46.388399999999997
 20
25.306899999999992
 30
0.0
 11
49.25
 21
25.287099999999999
 31
0.0
  0
LINE
  5
27F
  8
0
 10
46.388399999999997
 20
28.871300000000002
 30
0.0
 11
49.25
 21
28.851500000000001
 31
0.0
  0
LINE
  5
280
  8
0
 10
46.264299999999999
 20
29.0
 30
0.0
 11
49.25
 21
29.0
 31
0.0
  0
LINE
  5
281
  8
0
 10
46.388399999999997
 20
27.485099999999999
 30
0.0
 11
49.25
 21
27.465299999999989
 31
0.0
  0
LINE
  5
282
  8
0
 10
46.388399999999997
 20
28.0792
 30
0.0
 11
49.25
 21
28.0594
 31
0.0
  0
LINE
  5
283
  8
0
 10
46.388399999999997
 20
26.099
 30
0.0
 11
49.25
 21
26.0792
 31
0.0
  0
LINE
  5
284
  8
0
 10
46.561999999999998
 20
24.0
 30
0.0
 11
49.25
 21
24.0
 31
0.0
  0
LINE
  5
285
  8
0
 10
46.665399999999998
 20
24.0
 30
0.0
 11
49.25
 21
24.0
 31
0.0
  0
LINE
  5
286
  8
0
 10
46.388399999999997
 20
26.693100000000001
 30
0.0
 11
49.25
 21
26.673300000000001
 31
0.0
  0
LINE
  5
288
  8
0
 10
46.802100000000003
 20
16.2392
 30
0.0
 11
48.137700000000002
 21
16.571400000000001
 31
0.0
  0
LINE
  5
289
  8
0
 10
48.226000000000013
 20
8.0000000000000089
 30
0.0
 11
49.25
 21
8.0000000000000089
 31
0.0
  0
LINE
  5
28A
  8
0
 10
47.713999999999992
 20
12.0
 30
0.0
 11
49.25
 21
12.0
 31
0.0
  0
LINE
  5
28B
  8
0
 10
48.481999999999999
 20
12.0
 30
0.0
 11
49.25
 21
12.0
 31
0.0
  0
LINE
  5
28C
  8
0
 10
47.457999999999998
 20
15.0
 30
0.0
 11
49.25
 21
15.0
 31
0.0
  0
LINE
  5
28D
  8
0
 10
47.457999999999998
 20
16.0
 30
0.0
 11
49.25
 21
16.0
 31
0.0
  0
LINE
  5
28E
  8
0
 10
47.713999999999992
 20
15.0
 30
0.0
 11
49.25
 21
15.0
 31
0.0
  0
LINE
  5
28F
  8
0
 10
47.762
 20
12.0
 30
0.0
 11
48.481999999999999
 21
12.0
 31
0.0
  0
LINE
  5
290
  8
0
 10
47.126000000000012
 20
12.0
 30
0.0
 11
47.762
 21
12.0
 31
0.0
  0
LINE
  5
291
  8
0
 10
47.265999999999998
 20
8.0000000000000089
 30
0.0
 11
48.226000000000013
 21
8.0000000000000089
 31
0.0
  0
LINE
  5
292
  8
0
 10
49.25
 20
15.0
 30
0.0
 11
50.786000000000001
 21
15.0
 31
0.0
  0
LINE
  5
293
  8
0
 10
49.25
 20
15.0
 30
0.0
 11
51.042000000000002
 21
15.0
 31
0.0
  0
LINE
  5
294
  8
0
 10
49.25
 20
12.0
 30
0.0
 11
50.018000000000001
 21
12.0
 31
0.0
  0
LINE
  5
295
  8
0
 10
49.25
 20
12.0
 30
0.0
 11
50.786000000000001
 21
12.0
 31
0.0
  0
LINE
  5
296
  8
0
 10
49.25
 20
8.0000000000000089
 30
0.0
 11
50.274000000000001
 21
8.0000000000000089
 31
0.0
  0
LINE
  5
297
  8
0
 10
49.25
 20
16.0
 30
0.0
 11
51.523699999999998
 21
16.0
 31
0.0
  0
LINE
  5
298
  8
0
 10
49.25
 20
16.0
 30
0.0
 11
51.042000000000002
 21
16.0
 31
0.0
  0
LINE
  5
299
  8
0
 10
49.1907
 20
16.0
 30
0.0
 11
51.071100000000001
 21
16.0
 31
0.0
  0
LINE
  5
29A
  8
0
 10
49.25
 20
16.571400000000001
 30
0.0
 11
50.362299999999991
 21
16.571400000000001
 31
0.0
  0
LINE
  5
29C
  8
0
 10
48.137700000000002
 20
23.428599999999989
 30
0.0
 11
49.25
 21
23.428599999999989
 31
0.0
  0
LINE
  5
29D
  8
0
 10
49.25
 20
24.0
 30
0.0
 11
51.834600000000002
 21
24.0
 31
0.0
  0
LINE
  5
29E
  8
0
 10
49.25
 20
24.0
 30
0.0
 11
52.111600000000003
 21
24.0
 31
0.0
  0
LINE
  5
29F
  8
0
 10
49.25
 20
24.0
 30
0.0
 11
51.938000000000002
 21
24.0
 31
0.0
  0
LINE
  5
2A0
  8
0
 10
49.25
 20
25.287099999999999
 30
0.0
 11
52.111600000000003
 21
25.267299999999999
 31
0.0
  0
LINE
  5
2A1
  8
0
 10
49.25
 20
24.693100000000001
 30
0.0
 11
52.111600000000003
 21
24.673300000000001
 31
0.0
  0
LINE
  5
2A2
  8
0
 10
49.25
 20
24.990100000000002
 30
0.0
 11
52.38839999999999
 21
24.9802
 31
0.0
  0
LINE
  5
2A3
  8
0
 10
49.25
 20
27.465299999999989
 30
0.0
 11
52.111600000000003
 21
27.445499999999999
 31
0.0
  0
LINE
  5
2A4
  8
0
 10
49.25
 20
28.851500000000001
 30
0.0
 11
52.111600000000003
 21
28.831700000000001
 31
0.0
  0
LINE
  5
2A5
  8
0
 10
49.25
 20
28.0594
 30
0.0
 11
52.111600000000003
 21
28.0396
 31
0.0
  0
LINE
  5
2A6
  8
0
 10
49.25
 20
27.7624
 30
0.0
 11
52.38839999999999
 21
27.752500000000001
 31
0.0
  0
LINE
  5
2A7
  8
0
 10
49.25
 20
26.673300000000001
 30
0.0
 11
52.111600000000003
 21
26.653500000000001
 31
0.0
  0
LINE
  5
2A8
  8
0
 10
49.25
 20
26.0792
 30
0.0
 11
52.111600000000003
 21
26.0594
 31
0.0
  0
LINE
  5
2A9
  8
0
 10
49.25
 20
26.376200000000001
 30
0.0
 11
52.38839999999999
 21
26.366299999999999
 31
0.0
  0
LINE
  5
2AA
  8
0
 10
49.25
 20
24.0
 30
0.0
 11
51.523699999999998
 21
24.0
 31
0.0
  0
LINE
  5
2B2
  8
0
 10
49.25
 20
23.428599999999989
 30
0.0
 11
50.362299999999991
 21
23.428599999999989
 31
0.0
  0
LINE
  5
2B3
  8
0
 10
46.976300000000002
 20
24.0
 30
0.0
 11
49.25
 21
24.0
 31
0.0
  0
LINE
  5
2B5
  8
0
 10
48.137700000000002
 20
16.571400000000001
 30
0.0
 11
49.25
 21
16.571400000000001
 31
0.0
  0
LINE
  5
2BA
  8
0
 10
47.198599999999992
 20
16.0
 30
0.0
 11
49.1907
 21
16.0
 31
0.0
  0
LINE
  5
2BC
  8
0
 10
46.802100000000003
 20
23.760799999999989
 30
0.0
 11
48.137700000000002
 21
23.428599999999989
 31
0.0
  0
LINE
  5
2BF
  8
0
 10
49.25
 20
29.0
 30
0.0
 11
52.834000000000003
 21
29.0
 31
0.0
  0
LINE
  5
2C0
  8
0
 10
49.25
 20
29.0
 30
0.0
 11
52.263399999999997
 21
29.0
 31
0.0
  0
LINE
  5
2C1
  8
0
 10
46.25
 20
8.0000000000000089
 30
0.0
 11
46.25
 21
12.0
 31
0.0
  0
LINE
  5
2C2
  8
0
 10
46.25
 20
8.0000000000000089
 30
0.0
 11
46.25
 21
12.0
 31
0.0
  0
LINE
  5
2C3
  8
0
 10
46.25
 20
8.0000000000000089
 30
0.0
 11
46.25
 21
12.0
 31
0.0
  0
LINE
  5
2C4
  8
0
 10
45.25
 20
8.0
 30
0.0
 11
45.25
 21
-0.0000000000000029
 31
0.0
  0
LINE
  5
2C5
  8
0
 10
49.25
 20
-0.0000000000000028
 30
0.0
 11
50.274000000000001
 21
-0.0000000000000028
 31
0.0
  0
LINE
  5
2C6
  8
0
 10
45.25
 20
-0.000000000000003
 30
0.0
 11
45.393999999999991
 21
-0.0000000000000031
 31
0.0
  0
LINE
  5
2C7
  8
0
 10
45.25
 20
-0.000000000000003
 30
0.0
 11
45.25
 21
8.0
 31
0.0
  0
LINE
  5
2C8
  8
0
 10
45.25
 20
-0.000000000000003
 30
0.0
 11
45.393999999999991
 21
-0.0000000000000029
 31
0.0
  0
LINE
  5
2C9
  8
0
 10
42.17179999999999
 20
16.0
 30
0.0
 11
42.25
 21
16.0
 31
0.0
  0
LINE
  5
2CA
  8
0
 10
45.153999999999989
 20
52.0
 30
0.0
 11
49.25
 21
52.0
 31
0.0
  0
LINE
  5
2CB
  8
0
 10
50.274000000000001
 20
-0.0000000000000032
 30
0.0
 11
51.234000000000002
 21
-0.0000000000000032
 31
0.0
  0
LINE
  5
2CC
  8
0
 10
51.234000000000002
 20
-0.0000000000000032
 30
0.0
 11
52.082000000000001
 21
-0.0000000000000032
 31
0.0
  0
LINE
  5
2CD
  8
0
 10
52.082000000000001
 20
-0.0000000000000032
 30
0.0
 11
52.722000000000001
 21
-0.0000000000000031
 31
0.0
  0
LINE
  5
2CE
  8
0
 10
52.722000000000001
 20
-0.0000000000000031
 30
0.0
 11
53.106000000000002
 21
-0.0000000000000031
 31
0.0
  0
LINE
  5
2CF
  8
0
 10
50.274000000000001
 20
0.000000000000007
 30
0.0
 11
51.234000000000002
 21
0.000000000000007
 31
0.0
  0
LINE
  5
2D0
  8
0
 10
50.018000000000001
 20
12.0
 30
0.0
 11
50.738
 21
12.0
 31
0.0
  0
LINE
  5
2D1
  8
0
 10
50.274000000000001
 20
8.0000000000000089
 30
0.0
 11
51.234000000000002
 21
8.0000000000000089
 31
0.0
  0
LINE
  5
2D2
  8
0
 10
50.274000000000001
 20
0.0000000000000065
 30
0.0
 11
51.234000000000002
 21
0.0000000000000066
 31
0.0
  0
LINE
  5
2D3
  8
0
 10
50.362299999999991
 20
16.571400000000001
 30
0.0
 11
51.69789999999999
 21
16.2392
 31
0.0
  0
LINE
  5
2D4
  8
0
 10
51.234000000000002
 20
0.000000000000007
 30
0.0
 11
52.082000000000001
 21
0.000000000000007
 31
0.0
  0
LINE
  5
2D5
  8
0
 10
51.042000000000002
 20
15.0
 30
0.0
 11
52.722000000000001
 21
15.0
 31
0.0
  0
LINE
  5
2D6
  8
0
 10
50.786000000000001
 20
12.0
 30
0.0
 11
52.225999999999999
 21
12.0
 31
0.0
  0
LINE
  5
2D7
  8
0
 10
51.042000000000002
 20
16.0
 30
0.0
 11
52.722000000000001
 21
16.0
 31
0.0
  0
LINE
  5
2D8
  8
0
 10
50.786000000000001
 20
15.0
 30
0.0
 11
52.225999999999999
 21
15.0
 31
0.0
  0
LINE
  5
2D9
  8
0
 10
50.738
 20
12.0
 30
0.0
 11
51.373999999999988
 21
12.0
 31
0.0
  0
LINE
  5
2DA
  8
0
 10
51.234000000000002
 20
8.0000000000000089
 30
0.0
 11
52.082000000000001
 21
8.0000000000000089
 31
0.0
  0
LINE
  5
2DB
  8
0
 10
51.234000000000002
 20
0.0000000000000066
 30
0.0
 11
52.082000000000001
 21
0.0000000000000066
 31
0.0
  0
LINE
  5
2DC
  8
0
 10
51.071100000000001
 20
16.0
 30
0.0
 11
52.83979999999999
 21
16.0
 31
0.0
  0
LINE
  5
2DD
  8
0
 10
50.362299999999991
 20
23.428599999999989
 30
0.0
 11
51.69789999999999
 21
23.760799999999989
 31
0.0
  0
LINE
  5
2DE
  8
0
 10
50.274000000000001
 20
0.0000000000000021
 30
0.0
 11
51.234000000000002
 21
0.0000000000000021
 31
0.0
  0
LINE
  5
2DF
  8
0
 10
51.234000000000002
 20
0.0000000000000021
 30
0.0
 11
52.082000000000001
 21
0.0000000000000021
 31
0.0
  0
LINE
  5
2E0
  8
0
 10
50.274000000000001
 20
0.0000000000000016
 30
0.0
 11
51.234000000000002
 21
0.0000000000000017
 31
0.0
  0
LINE
  5
2E1
  8
0
 10
51.234000000000002
 20
0.0000000000000017
 30
0.0
 11
52.082000000000001
 21
0.0000000000000017
 31
0.0
  0
LINE
  5
2E2
  8
0
 10
50.274000000000001
 20
-0.0000000000000028
 30
0.0
 11
51.234000000000002
 21
-0.0000000000000028
 31
0.0
  0
LINE
  5
2E3
  8
0
 10
52.25
 20
8.0000000000000089
 30
0.0
 11
52.25
 21
12.0
 31
0.0
  0
LINE
  5
2E4
  8
0
 10
52.082000000000001
 20
0.000000000000007
 30
0.0
 11
52.722000000000001
 21
0.0000000000000069
 31
0.0
  0
LINE
  5
2E5
  8
0
 10
52.722000000000001
 20
0.0000000000000069
 30
0.0
 11
53.106000000000002
 21
0.0000000000000068
 31
0.0
  0
LINE
  5
2E6
  8
0
 10
52.082000000000001
 20
8.0000000000000089
 30
0.0
 11
52.722000000000001
 21
8.0000000000000089
 31
0.0
  0
LINE
  5
2E7
  8
0
 10
52.722000000000001
 20
8.0000000000000089
 30
0.0
 11
53.106000000000002
 21
8.0000000000000089
 31
0.0
  0
LINE
  5
2E8
  8
0
 10
52.082000000000001
 20
0.0000000000000066
 30
0.0
 11
52.722000000000001
 21
0.0000000000000067
 31
0.0
  0
LINE
  5
2E9
  8
0
 10
52.722000000000001
 20
0.0000000000000067
 30
0.0
 11
53.106000000000002
 21
0.0000000000000067
 31
0.0
  0
LINE
  5
2EA
  8
0
 10
52.082000000000001
 20
0.0000000000000021
 30
0.0
 11
52.722000000000001
 21
0.000000000000002
 31
0.0
  0
LINE
  5
2EB
  8
0
 10
52.722000000000001
 20
0.000000000000002
 30
0.0
 11
53.106000000000002
 21
0.0000000000000019
 31
0.0
  0
LINE
  5
2EC
  8
0
 10
52.082000000000001
 20
0.0000000000000017
 30
0.0
 11
52.722000000000001
 21
0.0000000000000018
 31
0.0
  0
LINE
  5
2ED
  8
0
 10
52.722000000000001
 20
0.0000000000000018
 30
0.0
 11
53.106000000000002
 21
0.0000000000000018
 31
0.0
  0
LINE
  5
2EE
  8
0
 10
51.373999999999988
 20
12.0
 30
0.0
 11
51.853999999999999
 21
12.0
 31
0.0
  0
LINE
  5
2F0
  8
0
 10
51.523699999999998
 20
16.0
 30
0.0
 11
53.607900000000001
 21
16.0
 31
0.0
  0
LINE
  5
2F2
  8
0
 10
51.853999999999999
 20
12.0
 30
0.0
 11
52.141999999999989
 21
12.0
 31
0.0
  0
LINE
  5
2F3
  8
0
 10
52.225999999999999
 20
12.0
 30
0.0
 11
53.497999999999998
 21
12.0
 31
0.0
  0
LINE
  5
2F4
  8
0
 10
52.25
 20
12.0
 30
0.0
 11
53.497999999999998
 21
12.0
 31
0.0
  0
LINE
  5
2F5
  8
0
 10
52.141999999999989
 20
12.0
 30
0.0
 11
52.25
 21
12.0
 31
0.0
  0
LINE
  5
2F6
  8
0
 10
52.225999999999999
 20
15.0
 30
0.0
 11
53.497999999999998
 21
15.0
 31
0.0
  0
LINE
  5
2F7
  8
0
 10
52.25
 20
12.0
 30
0.0
 11
52.25
 21
8.0000000000000089
 31
0.0
  0
LINE
  5
2F8
  8
0
 10
51.69789999999999
 20
16.2392
 30
0.0
 11
53.831299999999999
 21
16.115500000000001
 31
0.0
  0
LINE
  5
2F9
  8
0
 10
51.938000000000002
 20
24.0
 30
0.0
 11
54.457999999999998
 21
24.0
 31
0.0
  0
LINE
  5
2FA
  8
0
 10
52.111600000000003
 20
24.0
 30
0.0
 11
54.788499999999999
 21
24.0
 31
0.0
  0
LINE
  5
2FB
  8
0
 10
51.834600000000002
 20
24.0
 30
0.0
 11
54.326900000000002
 21
24.0
 31
0.0
  0
LINE
  5
2FC
  8
0
 10
52.111600000000003
 20
25.267299999999999
 30
0.0
 11
54.788499999999999
 21
25.2376
 31
0.0
  0
LINE
  5
2FD
  8
0
 10
52.111600000000003
 20
24.673300000000001
 30
0.0
 11
54.788499999999999
 21
24.643599999999999
 31
0.0
  0
LINE
  5
2FE
  8
0
 10
52.111600000000003
 20
28.831700000000001
 30
0.0
 11
54.788499999999999
 21
28.802
 31
0.0
  0
LINE
  5
2FF
  8
0
 10
52.111600000000003
 20
28.0396
 30
0.0
 11
54.788499999999999
 21
28.009899999999998
 31
0.0
  0
LINE
  5
300
  8
0
 10
52.111600000000003
 20
27.445499999999999
 30
0.0
 11
54.788499999999999
 21
27.415800000000001
 31
0.0
  0
LINE
  5
301
  8
0
 10
52.111600000000003
 20
26.653500000000001
 30
0.0
 11
54.788499999999999
 21
26.623799999999999
 31
0.0
  0
LINE
  5
302
  8
0
 10
52.111600000000003
 20
26.0594
 30
0.0
 11
54.788499999999999
 21
26.029699999999998
 31
0.0
  0
LINE
  5
304
  8
0
 10
51.523699999999998
 20
24.0
 30
0.0
 11
53.607900000000001
 21
24.0
 31
0.0
  0
LINE
  5
305
  8
0
 10
51.69789999999999
 20
23.760799999999989
 30
0.0
 11
53.831299999999999
 21
23.884499999999999
 31
0.0
  0
LINE
  5
307
  8
0
 10
52.722000000000001
 20
15.0
 30
0.0
 11
54.206000000000003
 21
15.0
 31
0.0
  0
LINE
  5
308
  8
0
 10
52.722000000000001
 20
16.0
 30
0.0
 11
54.206000000000003
 21
16.0
 31
0.0
  0
LINE
  5
309
  8
0
 10
52.38839999999999
 20
24.9802
 30
0.0
 11
55.25
 21
24.9604
 31
0.0
  0
LINE
  5
30A
  8
0
 10
52.263399999999997
 20
29.0
 30
0.0
 11
55.076900000000002
 21
29.0
 31
0.0
  0
LINE
  5
30B
  8
0
 10
52.38839999999999
 20
27.752500000000001
 30
0.0
 11
55.25
 21
27.732700000000001
 31
0.0
  0
LINE
  5
30C
  8
0
 10
52.38839999999999
 20
26.366299999999999
 30
0.0
 11
55.25
 21
26.346499999999999
 31
0.0
  0
LINE
  5
30D
  8
0
 10
52.25
 20
12.0
 30
0.0
 11
53.497999999999998
 21
12.0
 31
0.0
  0
LINE
  5
30E
  8
0
 10
52.25
 20
12.0
 30
0.0
 11
53.497999999999998
 21
12.0
 31
0.0
  0
LINE
  5
30F
  8
0
 10
51.234000000000002
 20
-0.0000000000000028
 30
0.0
 11
52.082000000000001
 21
-0.0000000000000028
 31
0.0
  0
LINE
  5
310
  8
0
 10
52.082000000000001
 20
-0.0000000000000028
 30
0.0
 11
52.722000000000001
 21
-0.0000000000000029
 31
0.0
  0
LINE
  5
311
  8
0
 10
53.106000000000002
 20
0.0000000000000068
 30
0.0
 11
53.25
 21
0.0000000000000068
 31
0.0
  0
LINE
  5
312
  8
0
 10
53.106000000000002
 20
0.0000000000000067
 30
0.0
 11
53.25
 21
0.0000000000000068
 31
0.0
  0
LINE
  5
313
  8
0
 10
53.106000000000002
 20
0.0000000000000019
 30
0.0
 11
53.25
 21
0.0000000000000019
 31
0.0
  0
LINE
  5
314
  8
0
 10
53.25
 20
0.0000000000000068
 30
0.0
 11
53.25
 21
8.0000000000000089
 31
0.0
  0
LINE
  5
315
  8
0
 10
53.106000000000002
 20
0.0000000000000018
 30
0.0
 11
53.25
 21
0.0000000000000019
 31
0.0
  0
LINE
  5
316
  8
0
 10
53.106000000000002
 20
8.0000000000000089
 30
0.0
 11
53.25
 21
8.0000000000000089
 31
0.0
  0
LINE
  5
317
  8
0
 10
53.25
 20
8.0000000000000089
 30
0.0
 11
53.25
 21
0.0000000000000074
 31
0.0
  0
LINE
  5
318
  8
0
 10
52.83979999999999
 20
16.0
 30
0.0
 11
54.483699999999999
 21
16.0
 31
0.0
  0
LINE
  5
319
  8
0
 10
52.834000000000003
 20
29.0
 30
0.0
 11
56.193999999999988
 21
29.0
 31
0.0
  0
LINE
  5
31A
  8
0
 10
52.722000000000001
 20
-0.0000000000000029
 30
0.0
 11
53.106000000000002
 21
-0.0000000000000029
 31
0.0
  0
LINE
  5
31B
  8
0
 10
53.106000000000002
 20
-0.0000000000000029
 30
0.0
 11
53.25
 21
-0.000000000000003
 31
0.0
  0
LINE
  5
31C
  8
0
 10
53.106000000000002
 20
-0.0000000000000031
 30
0.0
 11
53.25
 21
-0.000000000000003
 31
0.0
  0
LINE
  5
31D
  8
0
 10
53.497999999999998
 20
12.0
 30
0.0
 11
54.457999999999998
 21
12.0
 31
0.0
  0
LINE
  5
31E
  8
0
 10
53.497999999999998
 20
15.0
 30
0.0
 11
54.457999999999998
 21
15.0
 31
0.0
  0
LINE
  5
31F
  8
0
 10
53.497999999999998
 20
12.0
 30
0.0
 11
54.457999999999998
 21
12.0
 31
0.0
  0
LINE
  5
320
  8
0
 10
53.497999999999998
 20
12.0
 30
0.0
 11
54.457999999999998
 21
12.0
 31
0.0
  0
LINE
  5
321
  8
0
 10
53.497999999999998
 20
12.0
 30
0.0
 11
54.457999999999998
 21
12.0
 31
0.0
  0
LINE
  5
322
  8
0
 10
53.345999999999997
 20
52.0
 30
0.0
 11
57.186000000000007
 21
52.0
 31
0.0
  0
LINE
  5
323
  8
0
 10
54.457999999999998
 20
12.0
 30
0.0
 11
55.033999999999999
 21
12.0
 31
0.0
  0
LINE
  5
324
  8
0
 10
55.033999999999999
 20
12.0
 30
0.0
 11
55.25
 21
12.0
 31
0.0
  0
LINE
  5
325
  8
0
 10
54.457999999999998
 20
12.0
 30
0.0
 11
55.033999999999999
 21
12.0
 31
0.0
  0
LINE
  5
326
  8
0
 10
55.033999999999999
 20
12.0
 30
0.0
 11
55.25
 21
12.0
 31
0.0
  0
LINE
  5
327
  8
0
 10
54.457999999999998
 20
12.0
 30
0.0
 11
55.033999999999999
 21
12.0
 31
0.0
  0
LINE
  5
328
  8
0
 10
54.457999999999998
 20
12.0
 30
0.0
 11
55.033999999999999
 21
12.0
 31
0.0
  0
LINE
  5
329
  8
0
 10
55.033999999999999
 20
12.0
 30
0.0
 11
55.25
 21
12.0
 31
0.0
  0
LINE
  5
32A
  8
0
 10
55.25
 20
12.0
 30
0.0
 11
55.25
 21
15.0
 31
0.0
  0
LINE
  5
32B
  8
0
 10
55.25
 20
15.0
 30
0.0
 11
55.326000000000001
 21
15.0
 31
0.0
  0
LINE
  5
32C
  8
0
 10
55.326000000000001
 20
15.0
 30
0.0
 11
55.997999999999998
 21
15.0
 31
0.0
  0
LINE
  5
32D
  8
0
 10
55.25
 20
15.0
 30
0.0
 11
55.326000000000001
 21
15.0
 31
0.0
  0
LINE
  5
32E
  8
0
 10
54.206000000000003
 20
15.0
 30
0.0
 11
55.326000000000001
 21
15.0
 31
0.0
  0
LINE
  5
32F
  8
0
 10
54.457999999999998
 20
15.0
 30
0.0
 11
55.033999999999999
 21
15.0
 31
0.0
  0
LINE
  5
330
  8
0
 10
55.033999999999999
 20
15.0
 30
0.0
 11
55.25
 21
15.0
 31
0.0
  0
LINE
  5
331
  8
0
 10
55.326000000000001
 20
15.0
 30
0.0
 11
55.997999999999998
 21
15.0
 31
0.0
  0
LINE
  5
332
  8
0
 10
55.997999999999998
 20
15.0
 30
0.0
 11
56.25
 21
15.0
 31
0.0
  0
LINE
  5
333
  8
0
 10
55.25
 20
15.0
 30
0.0
 11
55.25
 21
12.0
 31
0.0
  0
LINE
  5
334
  8
0
 10
55.25
 20
15.0
 30
0.0
 11
55.326000000000001
 21
15.0
 31
0.0
  0
LINE
  5
335
  8
0
 10
55.326000000000001
 20
15.0
 30
0.0
 11
55.997999999999998
 21
15.0
 31
0.0
  0
LINE
  5
336
  8
0
 10
55.997999999999998
 20
15.0
 30
0.0
 11
56.25
 21
15.0
 31
0.0
  0
LINE
  5
337
  8
0
 10
54.206000000000003
 20
16.0
 30
0.0
 11
55.326000000000001
 21
16.0
 31
0.0
  0
LINE
  5
338
  8
0
 10
55.326000000000001
 20
16.0
 30
0.0
 11
55.997999999999998
 21
16.0
 31
0.0
  0
LINE
  5
33A
  8
0
 10
54.483699999999999
 20
16.0
 30
0.0
 11
55.5822
 21
16.0
 31
0.0
  0
LINE
  5
33B
  8
0
 10
55.5822
 20
16.0
 30
0.0
 11
56.103499999999997
 21
16.0
 31
0.0
  0
LINE
  5
33C
  8
0
 10
53.831299999999999
 20
16.115500000000001
 30
0.0
 11
55.976300000000002
 21
16.207799999999992
 31
0.0
  0
LINE
  5
33E
  8
0
 10
55.997999999999998
 20
16.0
 30
0.0
 11
56.25
 21
16.0
 31
0.0
  0
LINE
  5
33F
  8
0
 10
56.103499999999997
 20
16.0
 30
0.0
 11
56.308199999999992
 21
16.0
 31
0.0
  0
LINE
  5
340
  8
0
 10
55.976300000000002
 20
16.207799999999992
 30
0.0
 11
57.4786
 21
16.571400000000001
 31
0.0
  0
LINE
  5
341
  8
0
 10
53.607900000000001
 20
24.0
 30
0.0
 11
55.455199999999991
 21
24.0
 31
0.0
  0
LINE
  5
343
  8
0
 10
54.457999999999998
 20
24.0
 30
0.0
 11
56.683999999999997
 21
24.0
 31
0.0
  0
LINE
  5
344
  8
0
 10
54.326900000000002
 20
24.0
 30
0.0
 11
56.450000000000003
 21
24.0
 31
0.0
  0
LINE
  5
345
  8
0
 10
54.788499999999999
 20
24.0
 30
0.0
 11
57.09620000000001
 21
24.0
 31
0.0
  0
LINE
  5
346
  8
0
 10
54.788499999999999
 20
25.2376
 30
0.0
 11
57.09620000000001
 21
25.188099999999999
 31
0.0
  0
LINE
  5
347
  8
0
 10
54.788499999999999
 20
24.643599999999999
 30
0.0
 11
57.09620000000001
 21
24.594100000000001
 31
0.0
  0
LINE
  5
348
  8
0
 10
54.788499999999999
 20
28.802
 30
0.0
 11
57.09620000000001
 21
28.752500000000001
 31
0.0
  0
LINE
  5
349
  8
0
 10
54.788499999999999
 20
28.009899999999998
 30
0.0
 11
57.09620000000001
 21
27.9604
 31
0.0
  0
LINE
  5
34A
  8
0
 10
54.788499999999999
 20
27.415800000000001
 30
0.0
 11
57.09620000000001
 21
27.366299999999988
 31
0.0
  0
LINE
  5
34B
  8
0
 10
54.788499999999999
 20
26.623799999999999
 30
0.0
 11
57.09620000000001
 21
26.574300000000001
 31
0.0
  0
LINE
  5
34C
  8
0
 10
55.25
 20
24.9604
 30
0.0
 11
57.7423
 21
24.910900000000002
 31
0.0
  0
LINE
  5
34D
  8
0
 10
55.076900000000002
 20
29.0
 30
0.0
 11
57.601000000000013
 21
29.0
 31
0.0
  0
LINE
  5
34E
  8
0
 10
55.25
 20
27.732700000000001
 30
0.0
 11
57.7423
 21
27.683199999999999
 31
0.0
  0
LINE
  5
34F
  8
0
 10
55.25
 20
26.346499999999999
 30
0.0
 11
57.7423
 21
26.29699999999999
 31
0.0
  0
LINE
  5
350
  8
0
 10
54.788499999999999
 20
26.029699999999998
 30
0.0
 11
57.09620000000001
 21
25.980199999999989
 31
0.0
  0
LINE
  5
351
  8
0
 10
55.455199999999991
 20
24.0
 30
0.0
 11
56.829000000000001
 21
24.0
 31
0.0
  0
LINE
  5
353
  8
0
 10
53.831299999999999
 20
23.884499999999999
 30
0.0
 11
55.976300000000002
 21
23.792200000000001
 31
0.0
  0
LINE
  5
355
  8
0
 10
55.976300000000002
 20
23.792200000000001
 30
0.0
 11
57.4786
 21
23.428599999999989
 31
0.0
  0
LINE
  5
359
  8
0
 10
56.25
 20
16.0
 30
0.0
 11
56.829000000000001
 21
16.0
 31
0.0
  0
LINE
  5
35A
  8
0
 10
56.25
 20
16.0
 30
0.0
 11
56.308199999999992
 21
16.0
 31
0.0
  0
LINE
  5
35B
  8
0
 10
56.25
 20
16.0
 30
0.0
 11
56.25
 21
15.0
 31
0.0
  0
LINE
  5
35C
  8
0
 10
56.193999999999988
 20
29.0
 30
0.0
 11
59.161999999999992
 21
29.0
 31
0.0
  0
LINE
  5
35D
  8
0
 10
56.25
 20
15.0
 30
0.0
 11
56.25
 21
16.0
 31
0.0
  0
LINE
  5
35E
  8
0
 10
56.25
 20
16.0
 30
0.0
 11
56.829000000000001
 21
16.0
 31
0.0
  0
LINE
  5
35F
  8
0
 10
56.25
 20
16.0
 30
0.0
 11
56.308199999999992
 21
16.0
 31
0.0
  0
LINE
  5
360
  8
0
 10
55.997999999999998
 20
15.0
 30
0.0
 11
56.25
 21
15.0
 31
0.0
  0
LINE
  5
361
  8
0
 10
56.829000000000001
 20
16.0
 30
0.0
 11
57.681600000000003
 21
16.0
 31
0.0
  0
LINE
  5
362
  8
0
 10
57.681600000000003
 20
16.0
 30
0.0
 11
58.013199999999998
 21
16.0
 31
0.0
  0
LINE
  5
363
  8
0
 10
57.4786
 20
16.571400000000001
 30
0.0
 11
58.25
 21
17.142900000000001
 31
0.0
  0
LINE
  5
366
  8
0
 10
56.829000000000001
 20
16.0
 30
0.0
 11
57.681600000000003
 21
16.0
 31
0.0
  0
LINE
  5
367
  8
0
 10
57.681600000000003
 20
16.0
 30
0.0
 11
58.013199999999998
 21
16.0
 31
0.0
  0
LINE
  5
368
  8
0
 10
56.829000000000001
 20
16.0
 30
0.0
 11
57.681600000000003
 21
16.0
 31
0.0
  0
LINE
  5
369
  8
0
 10
57.681600000000003
 20
16.0
 30
0.0
 11
58.013199999999998
 21
16.0
 31
0.0
  0
LINE
  5
36A
  8
0
 10
56.683999999999997
 20
24.0
 30
0.0
 11
58.363999999999997
 21
24.0
 31
0.0
  0
LINE
  5
36B
  8
0
 10
56.450000000000003
 20
24.0
 30
0.0
 11
58.019199999999991
 21
24.0
 31
0.0
  0
LINE
  5
36C
  8
0
 10
57.09620000000001
 20
24.0
 30
0.0
 11
58.850000000000001
 21
24.0
 31
0.0
  0
LINE
  5
36D
  8
0
 10
57.09620000000001
 20
25.188099999999999
 30
0.0
 11
58.850000000000001
 21
25.1386
 31
0.0
  0
LINE
  5
36E
  8
0
 10
57.09620000000001
 20
24.594100000000001
 30
0.0
 11
58.850000000000001
 21
24.544599999999999
 31
0.0
  0
LINE
  5
36F
  8
0
 10
57.09620000000001
 20
28.752500000000001
 30
0.0
 11
58.850000000000001
 21
28.702999999999999
 31
0.0
  0
LINE
  5
370
  8
0
 10
57.09620000000001
 20
27.9604
 30
0.0
 11
58.850000000000001
 21
27.910900000000002
 31
0.0
  0
LINE
  5
371
  8
0
 10
57.09620000000001
 20
27.366299999999988
 30
0.0
 11
58.850000000000001
 21
27.316800000000001
 31
0.0
  0
LINE
  5
372
  8
0
 10
57.09620000000001
 20
26.574300000000001
 30
0.0
 11
58.850000000000001
 21
26.524799999999999
 31
0.0
  0
LINE
  5
373
  8
0
 10
57.09620000000001
 20
25.980199999999989
 30
0.0
 11
58.850000000000001
 21
25.930700000000002
 31
0.0
  0
LINE
  5
376
  8
0
 10
56.829000000000001
 20
24.0
 30
0.0
 11
57.681600000000003
 21
24.0
 31
0.0
  0
LINE
  5
37B
  8
0
 10
57.4786
 20
23.428599999999989
 30
0.0
 11
58.25
 21
22.857099999999988
 31
0.0
  0
LINE
  5
37C
  8
0
 10
57.601000000000013
 20
29.0
 30
0.0
 11
59.564599999999992
 21
29.0
 31
0.0
  0
LINE
  5
37E
  8
0
 10
57.681600000000003
 20
24.0
 30
0.0
 11
58.013199999999998
 21
24.0
 31
0.0
  0
LINE
  5
37F
  8
0
 10
56.25
 20
16.0
 30
0.0
 11
56.829000000000001
 21
16.0
 31
0.0
  0
LINE
  5
380
  8
0
 10
56.25
 20
16.0
 30
0.0
 11
56.308199999999992
 21
16.0
 31
0.0
  0
LINE
  5
381
  8
0
 10
57.186000000000007
 20
52.0
 30
0.0
 11
60.578000000000003
 21
52.0
 31
0.0
  0
LINE
  5
382
  8
0
 10
58.013199999999998
 20
16.0
 30
0.0
 11
58.25
 21
16.057099999999998
 31
0.0
  0
LINE
  5
383
  8
0
 10
58.013199999999998
 20
16.0
 30
0.0
 11
58.25
 21
16.057099999999998
 31
0.0
  0
LINE
  5
384
  8
0
 10
58.25
 20
16.057099999999998
 30
0.0
 11
58.25
 21
16.1371
 31
0.0
  0
LINE
  5
389
  8
0
 10
58.25
 20
17.142900000000001
 30
0.0
 11
58.25
 21
17.142900000000001
 31
0.0
  0
LINE
  5
38A
  8
0
 10
58.25
 20
17.142900000000001
 30
0.0
 11
58.25
 21
16.571400000000001
 31
0.0
  0
LINE
  5
38B
  8
0
 10
58.25
 20
17.142900000000001
 30
0.0
 11
58.25
 21
22.857099999999988
 31
0.0
  0
LINE
  5
38C
  8
0
 10
58.25
 20
16.571400000000001
 30
0.0
 11
58.25
 21
16.1371
 31
0.0
  0
LINE
  5
38D
  8
0
 10
58.25
 20
16.571400000000001
 30
0.0
 11
58.25
 21
17.142900000000001
 31
0.0
  0
LINE
  5
38E
  8
0
 10
58.25
 20
23.428599999999989
 30
0.0
 11
58.25
 21
22.857099999999988
 31
0.0
  0
LINE
  5
38F
  8
0
 10
58.25
 20
23.428599999999989
 30
0.0
 11
58.25
 21
23.8629
 31
0.0
  0
LINE
  5
390
  8
0
 10
58.25
 20
23.942900000000002
 30
0.0
 11
58.25
 21
23.8629
 31
0.0
  0
LINE
  5
391
  8
0
 10
58.25
 20
23.8629
 30
0.0
 11
58.25
 21
23.428599999999989
 31
0.0
  0
LINE
  5
392
  8
0
 10
58.25
 20
22.857099999999988
 30
0.0
 11
58.25
 21
17.142900000000001
 31
0.0
  0
LINE
  5
393
  8
0
 10
58.25
 20
22.857099999999988
 30
0.0
 11
58.25
 21
23.428599999999989
 31
0.0
  0
LINE
  5
394
  8
0
 10
58.25
 20
16.1371
 30
0.0
 11
58.25
 21
16.057099999999998
 31
0.0
  0
LINE
  5
395
  8
0
 10
58.25
 20
16.1371
 30
0.0
 11
58.25
 21
16.571400000000001
 31
0.0
  0
LINE
  5
396
  8
0
 10
58.013199999999998
 20
24.0
 30
0.0
 11
58.850000000000001
 21
24.0
 31
0.0
  0
LINE
  5
397
  8
0
 10
58.013199999999998
 20
24.0
 30
0.0
 11
58.363999999999997
 21
24.0
 31
0.0
  0
LINE
  5
398
  8
0
 10
58.013199999999998
 20
24.0
 30
0.0
 11
58.850000000000001
 21
24.0
 31
0.0
  0
LINE
  5
399
  8
0
 10
57.7423
 20
24.910900000000002
 30
0.0
 11
59.588500000000003
 21
24.851500000000001
 31
0.0
  0
LINE
  5
39A
  8
0
 10
57.7423
 20
27.683199999999999
 30
0.0
 11
59.588500000000003
 21
27.623799999999999
 31
0.0
  0
LINE
  5
39B
  8
0
 10
57.7423
 20
26.29699999999999
 30
0.0
 11
59.588500000000003
 21
26.2376
 31
0.0
  0
LINE
  5
39C
  8
0
 10
58.019199999999991
 20
24.0
 30
0.0
 11
58.850000000000001
 21
24.0
 31
0.0
  0
LINE
  5
39D
  8
0
 10
58.013199999999998
 20
24.0
 30
0.0
 11
58.25
 21
23.942900000000002
 31
0.0
  0
LINE
  5
39F
  8
0
 10
58.013199999999998
 20
24.0
 30
0.0
 11
58.850000000000001
 21
24.0
 31
0.0
  0
LINE
  5
3A0
  8
0
 10
58.013199999999998
 20
24.0
 30
0.0
 11
58.363999999999997
 21
24.0
 31
0.0
  0
LINE
  5
3A1
  8
0
 10
58.013199999999998
 20
24.0
 30
0.0
 11
58.850000000000001
 21
24.0
 31
0.0
  0
LINE
  5
3A2
  8
0
 10
58.013199999999998
 20
24.0
 30
0.0
 11
58.363999999999997
 21
24.0
 31
0.0
  0
LINE
  5
3A3
  8
0
 10
58.019199999999991
 20
24.0
 30
0.0
 11
58.850000000000001
 21
24.0
 31
0.0
  0
LINE
  5
3A4
  8
0
 10
58.019199999999991
 20
24.0
 30
0.0
 11
58.850000000000001
 21
24.0
 31
0.0
  0
LINE
  5
3A5
  8
0
 10
58.013199999999998
 20
16.0
 30
0.0
 11
58.25
 21
16.057099999999998
 31
0.0
  0
LINE
  5
3A6
  8
0
 10
58.363999999999997
 20
24.0
 30
0.0
 11
59.372
 21
24.0
 31
0.0
  0
LINE
  5
3A7
  8
0
 10
59.372
 20
24.0
 30
0.0
 11
59.75
 21
24.0
 31
0.0
  0
LINE
  5
3A8
  8
0
 10
59.957700000000003
 20
24.0
 30
0.0
 11
60.326900000000002
 21
24.0
 31
0.0
  0
LINE
  5
3A9
  8
0
 10
58.363999999999997
 20
24.0
 30
0.0
 11
59.372
 21
24.0
 31
0.0
  0
LINE
  5
3AA
  8
0
 10
58.850000000000001
 20
24.0
 30
0.0
 11
59.403799999999997
 21
24.0
 31
0.0
  0
LINE
  5
3AB
  8
0
 10
58.850000000000001
 20
24.0
 30
0.0
 11
59.957700000000003
 21
24.0
 31
0.0
  0
LINE
  5
3AC
  8
0
 10
58.363999999999997
 20
24.0
 30
0.0
 11
59.372
 21
24.0
 31
0.0
  0
LINE
  5
3AD
  8
0
 10
59.372
 20
24.0
 30
0.0
 11
59.75
 21
24.0
 31
0.0
  0
LINE
  5
3AE
  8
0
 10
59.372
 20
24.0
 30
0.0
 11
59.75
 21
24.0
 31
0.0
  0
LINE
  5
3AF
  8
0
 10
59.957700000000003
 20
24.0
 30
0.0
 11
60.326900000000002
 21
24.0
 31
0.0
  0
LINE
  5
3B0
  8
0
 10
60.326900000000002
 20
24.0
 30
0.0
 11
60.326900000000002
 21
24.346499999999988
 31
0.0
  0
LINE
  5
3B1
  8
0
 10
59.957700000000003
 20
24.0
 30
0.0
 11
60.326900000000002
 21
24.0
 31
0.0
  0
LINE
  5
3B2
  8
0
 10
58.850000000000001
 20
24.0
 30
0.0
 11
59.403799999999997
 21
24.0
 31
0.0
  0
LINE
  5
3B3
  8
0
 10
58.850000000000001
 20
24.0
 30
0.0
 11
59.957700000000003
 21
24.0
 31
0.0
  0
LINE
  5
3B4
  8
0
 10
58.850000000000001
 20
25.1386
 30
0.0
 11
59.957700000000003
 21
25.0396
 31
0.0
  0
LINE
  5
3B5
  8
0
 10
59.957700000000003
 20
25.0396
 30
0.0
 11
60.326900000000002
 21
24.9406
 31
0.0
  0
LINE
  5
3B6
  8
0
 10
59.588500000000003
 20
24.851500000000001
 30
0.0
 11
60.788499999999999
 21
24.742599999999999
 31
0.0
  0
LINE
  5
3B7
  8
0
 10
58.850000000000001
 20
24.544599999999999
 30
0.0
 11
59.957700000000003
 21
24.445499999999999
 31
0.0
  0
LINE
  5
3B8
  8
0
 10
60.326900000000002
 20
24.9406
 30
0.0
 11
61.25
 21
24.643599999999999
 31
0.0
  0
LINE
  5
3B9
  8
0
 10
60.326900000000002
 20
24.9406
 30
0.0
 11
60.326900000000002
 21
25.732700000000001
 31
0.0
  0
LINE
  5
3BA
  8
0
 10
60.326900000000002
 20
24.346499999999988
 30
0.0
 11
61.25
 21
24.643599999999999
 31
0.0
  0
LINE
  5
3BB
  8
0
 10
60.326900000000002
 20
24.346499999999988
 30
0.0
 11
60.326900000000002
 21
24.0
 31
0.0
  0
LINE
  5
3BC
  8
0
 10
59.957700000000003
 20
24.445499999999999
 30
0.0
 11
60.326900000000002
 21
24.346499999999988
 31
0.0
  0
LINE
  5
3BD
  8
0
 10
60.326900000000002
 20
24.346499999999988
 30
0.0
 11
61.25
 21
24.643599999999999
 31
0.0
  0
LINE
  5
3BE
  8
0
 10
58.850000000000001
 20
24.0
 30
0.0
 11
59.403799999999997
 21
24.0
 31
0.0
  0
LINE
  5
3BF
  8
0
 10
58.850000000000001
 20
24.0
 30
0.0
 11
59.957700000000003
 21
24.0
 31
0.0
  0
LINE
  5
3C0
  8
0
 10
60.326900000000002
 20
24.346499999999988
 30
0.0
 11
61.25
 21
24.643599999999999
 31
0.0
  0
LINE
  5
3C1
  8
0
 10
58.850000000000001
 20
26.524799999999999
 30
0.0
 11
59.957700000000003
 21
26.425699999999999
 31
0.0
  0
LINE
  5
3C2
  8
0
 10
59.957700000000003
 20
26.425699999999999
 30
0.0
 11
60.326900000000002
 21
26.326699999999999
 31
0.0
  0
LINE
  5
3C3
  8
0
 10
59.588500000000003
 20
26.2376
 30
0.0
 11
60.788499999999999
 21
26.128699999999998
 31
0.0
  0
LINE
  5
3C4
  8
0
 10
58.850000000000001
 20
25.930700000000002
 30
0.0
 11
59.957700000000003
 21
25.831700000000001
 31
0.0
  0
LINE
  5
3C5
  8
0
 10
60.326900000000002
 20
26.326699999999999
 30
0.0
 11
61.25
 21
26.029699999999998
 31
0.0
  0
LINE
  5
3C6
  8
0
 10
60.326900000000002
 20
26.326699999999999
 30
0.0
 11
60.326900000000002
 21
27.1188
 31
0.0
  0
LINE
  5
3C7
  8
0
 10
60.326900000000002
 20
25.732700000000001
 30
0.0
 11
61.25
 21
26.029699999999998
 31
0.0
  0
LINE
  5
3C8
  8
0
 10
60.326900000000002
 20
25.732700000000001
 30
0.0
 11
60.326900000000002
 21
24.9406
 31
0.0
  0
LINE
  5
3C9
  8
0
 10
59.957700000000003
 20
25.831700000000001
 30
0.0
 11
60.326900000000002
 21
25.732700000000001
 31
0.0
  0
LINE
  5
3CA
  8
0
 10
58.850000000000001
 20
27.910900000000002
 30
0.0
 11
59.957700000000003
 21
27.811900000000001
 31
0.0
  0
LINE
  5
3CB
  8
0
 10
59.957700000000003
 20
27.811900000000001
 30
0.0
 11
60.326900000000002
 21
27.712900000000001
 31
0.0
  0
LINE
  5
3CC
  8
0
 10
59.588500000000003
 20
27.623799999999999
 30
0.0
 11
60.788499999999999
 21
27.514900000000001
 31
0.0
  0
LINE
  5
3CD
  8
0
 10
58.850000000000001
 20
27.316800000000001
 30
0.0
 11
59.957700000000003
 21
27.2178
 31
0.0
  0
LINE
  5
3CE
  8
0
 10
60.326900000000002
 20
27.712900000000001
 30
0.0
 11
61.25
 21
27.415800000000001
 31
0.0
  0
LINE
  5
3CF
  8
0
 10
60.326900000000002
 20
27.712900000000001
 30
0.0
 11
60.326900000000002
 21
28.504899999999999
 31
0.0
  0
LINE
  5
3D0
  8
0
 10
60.326900000000002
 20
27.1188
 30
0.0
 11
61.25
 21
27.415800000000001
 31
0.0
  0
LINE
  5
3D1
  8
0
 10
60.326900000000002
 20
27.1188
 30
0.0
 11
60.326900000000002
 21
26.326699999999999
 31
0.0
  0
LINE
  5
3D2
  8
0
 10
59.957700000000003
 20
27.2178
 30
0.0
 11
60.326900000000002
 21
27.1188
 31
0.0
  0
LINE
  5
3D3
  8
0
 10
60.326900000000002
 20
27.1188
 30
0.0
 11
61.25
 21
27.415800000000001
 31
0.0
  0
LINE
  5
3D4
  8
0
 10
60.326900000000002
 20
25.732700000000001
 30
0.0
 11
61.25
 21
26.029699999999998
 31
0.0
  0
LINE
  5
3D5
  8
0
 10
58.850000000000001
 20
28.702999999999999
 30
0.0
 11
59.957700000000003
 21
28.603999999999999
 31
0.0
  0
LINE
  5
3D6
  8
0
 10
59.957700000000003
 20
28.603999999999999
 30
0.0
 11
60.326900000000002
 21
28.504899999999999
 31
0.0
  0
LINE
  5
3D7
  8
0
 10
59.957700000000003
 20
28.603999999999999
 30
0.0
 11
60.788499999999999
 21
28.901
 31
0.0
  0
LINE
  5
3D8
  8
0
 10
60.326900000000002
 20
28.504899999999999
 30
0.0
 11
60.788499999999999
 21
28.901
 31
0.0
  0
LINE
  5
3D9
  8
0
 10
60.326900000000002
 20
28.504899999999999
 30
0.0
 11
61.25
 21
28.802
 31
0.0
  0
LINE
  5
3DA
  8
0
 10
60.326900000000002
 20
28.504899999999999
 30
0.0
 11
60.326900000000002
 21
27.712900000000001
 31
0.0
  0
LINE
  5
3DB
  8
0
 10
60.326900000000002
 20
28.504899999999999
 30
0.0
 11
61.25
 21
28.802
 31
0.0
  0
LINE
  5
3DC
  8
0
 10
60.326900000000002
 20
28.504899999999999
 30
0.0
 11
61.25
 21
28.802
 31
0.0
  0
LINE
  5
3DD
  8
0
 10
60.326900000000002
 20
27.1188
 30
0.0
 11
61.25
 21
27.415800000000001
 31
0.0
  0
LINE
  5
3DE
  8
0
 10
60.326900000000002
 20
25.732700000000001
 30
0.0
 11
61.25
 21
26.029699999999998
 31
0.0
  0
LINE
  5
3DF
  8
0
 10
59.564599999999992
 20
29.0
 30
0.0
 11
59.697600000000001
 21
29.0
 31
0.0
  0
LINE
  5
3E0
  8
0
 10
60.511499999999991
 20
29.0
 30
0.0
 11
60.634599999999999
 21
29.0
 31
0.0
  0
LINE
  5
3E1
  8
0
 10
59.697600000000001
 20
29.0
 30
0.0
 11
59.957700000000003
 21
28.603999999999999
 31
0.0
  0
LINE
  5
3E2
  8
0
 10
59.697600000000001
 20
29.0
 30
0.0
 11
60.788499999999999
 21
28.901
 31
0.0
  0
LINE
  5
3E3
  8
0
 10
59.697600000000001
 20
29.0
 30
0.0
 11
60.511499999999991
 21
29.0
 31
0.0
  0
LINE
  5
3E4
  8
0
 10
59.161999999999992
 20
29.0
 30
0.0
 11
61.402000000000001
 21
29.0
 31
0.0
  0
LINE
  5
3E5
  8
0
 10
60.634599999999999
 20
29.0
 30
0.0
 11
61.402000000000001
 21
29.0
 31
0.0
  0
LINE
  5
3E6
  8
0
 10
60.634599999999999
 20
29.0
 30
0.0
 11
61.25
 21
28.802
 31
0.0
  0
LINE
  5
3E7
  8
0
 10
60.634599999999999
 20
29.0
 30
0.0
 11
61.402000000000001
 21
29.0
 31
0.0
  0
LINE
  5
3E8
  8
0
 10
60.788499999999999
 20
24.742599999999999
 30
0.0
 11
61.25
 21
24.643599999999999
 31
0.0
  0
LINE
  5
3E9
  8
0
 10
60.788499999999999
 20
26.128699999999998
 30
0.0
 11
61.25
 21
26.029699999999998
 31
0.0
  0
LINE
  5
3EA
  8
0
 10
60.788499999999999
 20
27.514900000000001
 30
0.0
 11
61.25
 21
27.415800000000001
 31
0.0
  0
LINE
  5
3EB
  8
0
 10
60.634599999999999
 20
29.0
 30
0.0
 11
72.25
 21
29.0
 31
0.0
  0
LINE
  5
3EC
  8
0
 10
60.788499999999999
 20
28.901
 30
0.0
 11
61.25
 21
28.802
 31
0.0
  0
LINE
  5
3ED
  8
0
 10
60.634599999999999
 20
29.0
 30
0.0
 11
61.402000000000001
 21
29.0
 31
0.0
  0
LINE
  5
3EE
  8
0
 10
60.634599999999999
 20
29.0
 30
0.0
 11
62.246299999999998
 21
29.0
 31
0.0
  0
LINE
  5
3EF
  8
0
 10
60.578000000000003
 20
52.0
 30
0.0
 11
63.137999999999998
 21
52.0
 31
0.0
  0
LINE
  5
3F0
  8
0
 10
62.246299999999998
 20
29.0
 30
0.0
 11
69.838099999999997
 21
29.0
 31
0.0
  0
LINE
  5
3F1
  8
0
 10
61.402000000000001
 20
29.0
 30
0.0
 11
62.746000000000002
 21
29.0
 31
0.0
  0
LINE
  5
3F2
  8
0
 10
61.402000000000001
 20
29.0
 30
0.0
 11
62.746000000000002
 21
29.0
 31
0.0
  0
LINE
  5
3F3
  8
0
 10
62.746000000000002
 20
29.0
 30
0.0
 11
63.25
 21
29.0
 31
0.0
  0
LINE
  5
3F4
  8
0
 10
61.402000000000001
 20
29.0
 30
0.0
 11
62.746000000000002
 21
29.0
 31
0.0
  0
LINE
  5
3F5
  8
0
 10
62.746000000000002
 20
29.0
 30
0.0
 11
63.25
 21
29.0
 31
0.0
  0
LINE
  5
3F6
  8
0
 10
62.746000000000002
 20
29.0
 30
0.0
 11
63.25
 21
29.0
 31
0.0
  0
LINE
  5
3F7
  8
0
 10
62.746000000000002
 20
29.0
 30
0.0
 11
63.25
 21
29.0
 31
0.0
  0
LINE
  5
3F8
  8
0
 10
63.25
 20
29.0
 30
0.0
 11
63.25
 21
52.0
 31
0.0
  0
LINE
  5
3F9
  8
0
 10
63.296900000000001
 20
52.0
 30
0.0
 11
63.82139999999999
 21
52.0
 31
0.0
  0
LINE
  5
3FA
  8
0
 10
64.006
 20
52.0
 30
0.0
 11
65.638000000000005
 21
52.0
 31
0.0
  0
LINE
  5
3FB
  8
0
 10
63.25
 20
52.0
 30
0.0
 11
64.006
 21
52.0
 31
0.0
  0
LINE
  5
3FC
  8
0
 10
63.25
 20
52.0
 30
0.0
 11
64.673999999999992
 21
52.0
 31
0.0
  0
LINE
  5
3FD
  8
0
 10
63.296900000000001
 20
52.0
 30
0.0
 11
63.82139999999999
 21
52.0
 31
0.0
  0
LINE
  5
3FE
  8
0
 10
63.296900000000001
 20
52.0
 30
0.0
 11
63.82139999999999
 21
52.0
 31
0.0
  0
LINE
  5
3FF
  8
0
 10
64.006
 20
52.0
 30
0.0
 11
65.638000000000005
 21
52.0
 31
0.0
  0
LINE
  5
400
  8
0
 10
63.25
 20
52.0
 30
0.0
 11
64.006
 21
52.0
 31
0.0
  0
LINE
  5
401
  8
0
 10
63.25
 20
52.0
 30
0.0
 11
64.673999999999992
 21
52.0
 31
0.0
  0
LINE
  5
402
  8
0
 10
63.137999999999998
 20
52.0
 30
0.0
 11
64.673999999999992
 21
52.0
 31
0.0
  0
LINE
  5
403
  8
0
 10
61.898000000000003
 20
52.0
 30
0.0
 11
63.296900000000001
 21
52.0
 31
0.0
  0
LINE
  5
404
  8
0
 10
61.286000000000001
 20
52.0
 30
0.0
 11
64.006
 21
52.0
 31
0.0
  0
LINE
  5
405
  8
0
 10
59.566600000000001
 20
52.0
 30
0.0
 11
61.898000000000003
 21
52.0
 31
0.0
  0
LINE
  5
406
  8
0
 10
57.682000000000002
 20
52.0
 30
0.0
 11
61.286000000000001
 21
52.0
 31
0.0
  0
LINE
  5
407
  8
0
 10
56.477400000000003
 20
52.0
 30
0.0
 11
59.566600000000001
 21
52.0
 31
0.0
  0
LINE
  5
408
  8
0
 10
53.60199999999999
 20
52.0
 30
0.0
 11
57.682000000000002
 21
52.0
 31
0.0
  0
LINE
  5
409
  8
0
 10
52.9803
 20
52.0
 30
0.0
 11
56.477400000000003
 21
52.0
 31
0.0
  0
LINE
  5
40A
  8
0
 10
49.25
 20
52.0
 30
0.0
 11
52.9803
 21
52.0
 31
0.0
  0
LINE
  5
40B
  8
0
 10
49.25
 20
52.0
 30
0.0
 11
53.60199999999999
 21
52.0
 31
0.0
  0
LINE
  5
40C
  8
0
 10
49.25
 20
52.0
 30
0.0
 11
53.345999999999997
 21
52.0
 31
0.0
  0
LINE
  5
40D
  8
0
 10
63.296900000000001
 20
52.0
 30
0.0
 11
63.82139999999999
 21
52.0
 31
0.0
  0
LINE
  5
40E
  8
0
 10
64.673999999999992
 20
52.0
 30
0.0
 11
65.25
 21
52.0
 31
0.0
  0
LINE
  5
40F
  8
0
 10
65.638000000000005
 20
52.0
 30
0.0
 11
66.25
 21
52.0
 31
0.0
  0
LINE
  5
410
  8
0
 10
64.673999999999992
 20
52.0
 30
0.0
 11
65.25
 21
52.0
 31
0.0
  0
LINE
  5
411
  8
0
 10
64.673999999999992
 20
52.0
 30
0.0
 11
65.25
 21
52.0
 31
0.0
  0
LINE
  5
412
  8
0
 10
65.638000000000005
 20
52.0
 30
0.0
 11
66.25
 21
52.0
 31
0.0
  0
LINE
  5
413
  8
0
 10
65.638000000000005
 20
52.0
 30
0.0
 11
66.25
 21
52.0
 31
0.0
  0
LINE
  5
414
  8
0
 10
64.673999999999992
 20
52.0
 30
0.0
 11
65.25
 21
52.0
 31
0.0
  0
LINE
  5
415
  8
0
 10
72.25
 20
29.0
 30
0.0
 11
76.181299999999993
 21
29.0
 31
0.0
  0
LINE
  5
416
  8
0
 10
76.181299999999993
 20
29.0
 30
0.0
 11
79.0779
 21
29.0
 31
0.0
  0
LINE
  5
417
  8
0
 10
79.0779
 20
29.0
 30
0.0
 11
81.640399999999985
 21
29.0
 31
0.0
  0
LINE
  5
418
  8
0
 10
81.640399999999985
 20
29.0
 30
0.0
 11
83.645799999999994
 21
29.0
 31
0.0
  0
LINE
  5
419
  8
0
 10
83.645799999999994
 20
29.0
 30
0.0
 11
85.094099999999997
 21
29.0
 31
0.0
  0
LINE
  5
41A
  8
0
 10
85.094099999999997
 20
29.0
 30
0.0
 11
85.873999999999995
 21
29.0
 31
0.0
  0
LINE
  5
41B
  8
0
 10
85.873999999999995
 20
29.0
 30
0.0
 11
86.542399999999986
 21
29.0
 31
0.0
  0
LINE
  5
41C
  8
0
 10
86.542399999999986
 20
29.0
 30
0.0
 11
87.210899999999995
 21
29.0
 31
0.0
  0
LINE
  5
41D
  8
0
 10
86.856700000000004
 20
29.0
 30
0.0
 11
87.210899999999995
 21
29.0
 31
0.0
  0
LINE
  5
41E
  8
0
 10
87.210899999999995
 20
29.0
 30
0.0
 11
87.210899999999995
 21
54.0
 31
0.0
  0
LINE
  5
41F
  8
0
 10
85.606700000000004
 20
29.0
 30
0.0
 11
86.856700000000004
 21
29.0
 31
0.0
  0
LINE
  5
420
  8
0
 10
83.683700000000002
 20
29.0
 30
0.0
 11
85.606700000000004
 21
29.0
 31
0.0
  0
LINE
  5
421
  8
0
 10
81.760700000000014
 20
29.0
 30
0.0
 11
83.683700000000002
 21
29.0
 31
0.0
  0
LINE
  5
422
  8
0
 10
79.933899999999994
 20
29.0
 30
0.0
 11
81.760700000000014
 21
29.0
 31
0.0
  0
LINE
  5
423
  8
0
 10
77.530100000000004
 20
29.0
 30
0.0
 11
79.933899999999994
 21
29.0
 31
0.0
  0
LINE
  5
424
  8
0
 10
74.549499999999995
 20
29.0
 30
0.0
 11
77.530100000000004
 21
29.0
 31
0.0
  0
LINE
  5
425
  8
0
 10
69.838099999999997
 20
29.0
 30
0.0
 11
74.549499999999995
 21
29.0
 31
0.0
  0
LINE
  5
426
  8
0
 10
66.25
 20
52.0
 30
0.0
 11
66.25
 21
70.0
 31
0.0
  0
LINE
  5
427
  8
0
 10
65.638000000000005
 20
52.0
 30
0.0
 11
66.25
 21
52.0
 31
0.0
  0
LINE
  5
428
  8
0
 10
64.006
 20
52.0
 30
0.0
 11
65.638000000000005
 21
52.0
 31
0.0
  0
LINE
  5
429
  8
0
 10
63.25
 20
52.0
 30
0.0
 11
64.006
 21
52.0
 31
0.0
  0
LINE
  5
42A
  8
0
 10
63.25
 20
52.0
 30
0.0
 11
64.673999999999992
 21
52.0
 31
0.0
  0
LINE
  5
42B
  8
0
 10
63.25
 20
52.0
 30
0.0
 11
63.25
 21
29.0
 31
0.0
  0
LINE
  5
42C
  8
0
 10
42.02259999999999
 20
52.0
 30
0.0
 11
45.519699999999993
 21
52.0
 31
0.0
  0
LINE
  5
42D
  8
0
 10
45.519699999999993
 20
52.0
 30
0.0
 11
49.25
 21
52.0
 31
0.0
  0
LINE
  5
42E
  8
0
 10
40.817999999999998
 20
52.0
 30
0.0
 11
44.898000000000003
 21
52.0
 31
0.0
  0
LINE
  5
42F
  8
0
 10
16.720099999999999
 20
54.0
 30
0.0
 11
18.354700000000001
 21
54.0
 31
0.0
  0
LINE
  5
430
  8
0
 10
18.354700000000001
 20
54.0
 30
0.0
 11
20.277699999999989
 21
54.0
 31
0.0
  0
LINE
  5
431
  8
0
 10
20.277699999999989
 20
54.0
 30
0.0
 11
22.393000000000001
 21
54.0
 31
0.0
  0
LINE
  5
432
  8
0
 10
22.25
 20
70.0
 30
0.0
 11
22.25
 21
54.0
 31
0.0
  0
LINE
  5
433
  8
0
 10
22.393000000000001
 20
54.0
 30
0.0
 11
25.2775
 21
54.0
 31
0.0
  0
LINE
  5
434
  8
0
 10
25.2775
 20
54.0
 30
0.0
 11
29.796500000000002
 21
54.0
 31
0.0
  0
LINE
  5
435
  8
0
 10
29.796500000000002
 20
54.0
 30
0.0
 11
32.25
 21
54.0
 31
0.0
  0
LINE
  5
436
  8
0
 10
22.25
 20
54.0
 30
0.0
 11
22.25
 21
70.0
 31
0.0
  0
LINE
  5
437
  8
0
 10
32.25
 20
70.0
 30
0.0
 11
32.25
 21
52.0
 31
0.0
  0
LINE
  5
438
  8
0
 10
32.25
 20
70.0
 30
0.0
 11
32.25
 21
52.0
 31
0.0
  0
LINE
  5
439
  8
0
 10
75.222499999999997
 20
54.0
 30
0.0
 11
78.106999999999999
 21
54.0
 31
0.0
  0
LINE
  5
43A
  8
0
 10
70.703500000000005
 20
54.0
 30
0.0
 11
75.222499999999997
 21
54.0
 31
0.0
  0
LINE
  5
43B
  8
0
 10
66.25
 20
54.0
 30
0.0
 11
70.703500000000005
 21
54.0
 31
0.0
  0
LINE
  5
43C
  8
0
 10
83.779899999999998
 20
54.0
 30
0.0
 11
85.510599999999997
 21
54.0
 31
0.0
  0
LINE
  5
43D
  8
0
 10
82.145300000000006
 20
54.0
 30
0.0
 11
83.779899999999998
 21
54.0
 31
0.0
  0
LINE
  5
43E
  8
0
 10
80.222300000000004
 20
54.0
 30
0.0
 11
82.145300000000006
 21
54.0
 31
0.0
  0
LINE
  5
43F
  8
0
 10
78.25
 20
54.0
 30
0.0
 11
78.25
 21
70.0
 31
0.0
  0
LINE
  5
440
  8
0
 10
78.106999999999999
 20
54.0
 30
0.0
 11
80.222300000000004
 21
54.0
 31
0.0
  0
LINE
  5
441
  8
0
 10
50.25
 20
60.0
 30
0.0
 11
60.25
 21
60.0
 31
0.0
  0
LINE
  5
442
  8
0
 10
50.25
 20
60.0
 30
0.0
 11
50.25
 21
72.0
 31
0.0
  0
LINE
  5
443
  8
0
 10
78.25
 20
70.0
 30
0.0
 11
97.75
 21
70.0
 31
0.0
  0
LINE
  5
444
  8
0
 10
78.25
 20
70.0
 30
0.0
 11
78.25
 21
54.0
 31
0.0
  0
LINE
  5
445
  8
0
 10
66.25
 20
70.0
 30
0.0
 11
85.25
 21
70.0
 31
0.0
  0
LINE
  5
446
  8
0
 10
60.25
 20
60.0
 30
0.0
 11
60.25
 21
72.0
 31
0.0
  0
LINE
  5
447
  8
0
 10
87.210899999999995
 20
54.0
 30
0.0
 11
87.210899999999995
 21
29.0
 31
0.0
  0
LINE
  5
448
  8
0
 10
86.952799999999996
 20
54.0
 30
0.0
 11
87.210899999999995
 21
54.0
 31
0.0
  0
LINE
  5
449
  8
0
 10
85.510599999999997
 20
54.0
 30
0.0
 11
86.952799999999996
 21
54.0
 31
0.0
  0
LINE
  5
44A
  8
0
 10
97.75
 20
70.0
 30
0.0
 11
97.75
 21
70.611999999999995
 31
0.0
  0
LINE
  5
44B
  8
0
 10
85.25
 20
70.0
 30
0.0
 11
85.25
 21
70.611999999999995
 31
0.0
  0
LINE
  5
44C
  8
0
 10
50.25
 20
72.0
 30
0.0
 11
60.25
 21
72.0
 31
0.0
  0
LINE
  5
44D
  8
0
 10
50.25
 20
72.0
 30
0.0
 11
50.25
 21
60.0
 31
0.0
  0
LINE
  5
44E
  8
0
 10
50.25
 20
72.0
 30
0.0
 11
54.345999999999997
 21
72.575999999999993
 31
0.0
  0
LINE
  5
44F
  8
0
 10
60.25
 20
72.0
 30
0.0
 11
60.25
 21
75.669735849056593
 31
0.0
  0
LINE
  5
450
  8
0
 10
60.25
 20
72.0
 30
0.0
 11
60.25
 21
60.0
 31
0.0
  0
LINE
  5
451
  8
0
 10
85.25
 20
70.611999999999995
 30
0.0
 11
85.25
 21
70.0
 31
0.0
  0
LINE
  5
452
  8
0
 10
85.25
 20
70.611999999999995
 30
0.0
 11
85.25
 21
72.244
 31
0.0
  0
LINE
  5
453
  8
0
 10
54.345999999999997
 20
72.575999999999993
 30
0.0
 11
58.186
 21
74.111999999999995
 31
0.0
  0
LINE
  5
454
  8
0
 10
58.186
 20
74.111999999999995
 30
0.0
 11
61.578000000000003
 21
76.671999999999997
 31
0.0
  0
LINE
  5
455
  8
0
 10
46.154000000000003
 20
72.575999999999993
 30
0.0
 11
50.25
 21
72.0
 31
0.0
  0
LINE
  5
456
  8
0
 10
42.313999999999993
 20
74.111999999999995
 30
0.0
 11
46.154000000000003
 21
72.575999999999993
 31
0.0
  0
LINE
  5
457
  8
0
 10
38.92199999999999
 20
76.671999999999997
 30
0.0
 11
42.313999999999993
 21
74.111999999999995
 31
0.0
  0
LINE
  5
458
  8
0
 10
61.578000000000003
 20
76.671999999999997
 30
0.0
 11
64.138000000000005
 21
80.063999999999993
 31
0.0
  0
LINE
  5
459
  8
0
 10
60.25
 20
75.669735849056593
 30
0.0
 11
60.25
 21
72.0
 31
0.0
  0
LINE
  5
45A
  8
0
 10
85.25
 20
72.244
 30
0.0
 11
85.25
 21
70.611999999999995
 31
0.0
  0
LINE
  5
45B
  8
0
 10
85.25
 20
72.244
 30
0.0
 11
85.25
 21
74.963999999999999
 31
0.0
  0
LINE
  5
45C
  8
0
 10
85.25
 20
74.963999999999999
 30
0.0
 11
85.25
 21
72.244
 31
0.0
  0
LINE
  5
45D
  8
0
 10
85.25
 20
74.963999999999999
 30
0.0
 11
85.25
 21
78.567999999999984
 31
0.0
  0
LINE
  5
45E
  8
0
 10
64.138000000000005
 20
80.063999999999993
 30
0.0
 11
65.673999999999992
 21
83.903999999999996
 31
0.0
  0
LINE
  5
45F
  8
0
 10
65.673999999999992
 20
83.903999999999996
 30
0.0
 11
66.25
 21
88.0
 31
0.0
  0
LINE
  5
460
  8
0
 10
36.361999999999988
 20
80.063999999999993
 30
0.0
 11
38.92199999999999
 21
76.671999999999997
 31
0.0
  0
LINE
  5
461
  8
0
 10
34.826000000000001
 20
83.903999999999996
 30
0.0
 11
36.361999999999988
 21
80.063999999999993
 31
0.0
  0
LINE
  5
462
  8
0
 10
85.25
 20
78.567999999999984
 30
0.0
 11
85.25
 21
74.963999999999999
 31
0.0
  0
LINE
  5
463
  8
0
 10
85.25
 20
78.567999999999984
 30
0.0
 11
85.25
 21
82.647999999999996
 31
0.0
  0
LINE
  5
464
  8
0
 10
85.25
 20
82.647999999999996
 30
0.0
 11
85.25
 21
78.567999999999984
 31
0.0
  0
LINE
  5
465
  8
0
 10
85.25
 20
82.647999999999996
 30
0.0
 11
85.25
 21
87.0
 31
0.0
  0
LINE
  5
466
  8
0
 10
66.109375
 20
87.0
 30
0.0
 11
85.25
 21
87.0
 31
0.0
  0
LINE
  5
467
  8
0
 10
97.75
 20
82.647999999999996
 30
0.0
 11
97.75
 21
78.567999999999984
 31
0.0
  0
LINE
  5
468
  8
0
 10
97.75
 20
82.647999999999996
 30
0.0
 11
97.75
 21
87.0
 31
0.0
  0
LINE
  5
469
  8
0
 10
97.75
 20
78.567999999999984
 30
0.0
 11
97.75
 21
74.963999999999999
 31
0.0
  0
LINE
  5
46A
  8
0
 10
97.75
 20
78.567999999999984
 30
0.0
 11
97.75
 21
82.647999999999996
 31
0.0
  0
LINE
  5
46B
  8
0
 10
97.75
 20
74.963999999999999
 30
0.0
 11
97.75
 21
72.244
 31
0.0
  0
LINE
  5
46C
  8
0
 10
97.75
 20
74.963999999999999
 30
0.0
 11
97.75
 21
78.567999999999984
 31
0.0
  0
LINE
  5
46D
  8
0
 10
97.75
 20
72.244
 30
0.0
 11
97.75
 21
70.611999999999995
 31
0.0
  0
LINE
  5
46E
  8
0
 10
97.75
 20
72.244
 30
0.0
 11
97.75
 21
74.963999999999999
 31
0.0
  0
LINE
  5
46F
  8
0
 10
97.75
 20
70.611999999999995
 30
0.0
 11
97.75
 21
70.0
 31
0.0
  0
LINE
  5
470
  8
0
 10
97.75
 20
70.611999999999995
 30
0.0
 11
97.75
 21
72.244
 31
0.0
  0
LINE
  5
471
  8
0
 10
97.75
 20
87.0
 30
0.0
 11
97.75
 21
91.352000000000004
 31
0.0
  0
LINE
  5
472
  8
0
 10
97.75
 20
87.0
 30
0.0
 11
97.75
 21
82.647999999999996
 31
0.0
  0
LINE
  5
473
  8
0
 10
85.25
 20
87.0
 30
0.0
 11
85.25
 21
82.647999999999996
 31
0.0
  0
LINE
  5
474
  8
0
 10
85.25
 20
87.0
 30
0.0
 11
85.25
 21
97.0
 31
0.0
  0
LINE
  5
475
  8
0
 10
66.25
 20
70.0
 30
0.0
 11
66.25
 21
52.0
 31
0.0
  0
LINE
  5
476
  8
0
 10
66.25
 20
70.0
 30
0.0
 11
85.25
 21
70.0
 31
0.0
  0
LINE
  5
477
  8
0
 10
32.25
 20
70.0
 30
0.0
 11
32.25
 21
52.0
 31
0.0
  0
LINE
  5
478
  8
0
 10
44.898000000000003
 20
52.0
 30
0.0
 11
49.25
 21
52.0
 31
0.0
  0
LINE
  5
479
  8
0
 10
15.25
 20
70.0
 30
0.0
 11
32.25
 21
70.0
 31
0.0
  0
LINE
  5
47A
  8
0
 10
15.689999999999991
 20
99.0
 30
0.0
 11
18.25
 21
99.0
 31
0.0
  0
LINE
  5
47B
  8
0
 10
16.520600000000002
 20
97.0
 30
0.0
 11
18.25
 21
97.0
 31
0.0
  0
LINE
  5
47C
  8
0
 10
18.25
 20
97.0
 30
0.0
 11
19.979399999999991
 21
97.0
 31
0.0
  0
LINE
  5
47D
  8
0
 10
18.25
 20
97.09620000000001
 30
0.0
 11
20.020600000000002
 21
97.09620000000001
 31
0.0
  0
LINE
  5
47E
  8
0
 10
16.479399999999998
 20
97.09620000000001
 30
0.0
 11
18.25
 21
97.09620000000001
 31
0.0
  0
LINE
  5
47F
  8
0
 10
16.4588
 20
99.0
 30
0.0
 11
18.25
 21
99.0
 31
0.0
  0
LINE
  5
480
  8
0
 10
21.5853
 20
97.0
 30
0.0
 11
22.25
 21
97.0
 31
0.0
  0
LINE
  5
481
  8
0
 10
19.979399999999991
 20
97.0
 30
0.0
 11
21.5853
 21
97.0
 31
0.0
  0
LINE
  5
482
  8
0
 10
21.688199999999991
 20
97.09620000000001
 30
0.0
 11
22.25
 21
97.09620000000001
 31
0.0
  0
LINE
  5
483
  8
0
 10
20.020600000000002
 20
97.09620000000001
 30
0.0
 11
21.688199999999991
 21
97.09620000000001
 31
0.0
  0
LINE
  5
484
  8
0
 10
21.729399999999998
 20
99.0
 30
0.0
 11
22.25
 21
99.0
 31
0.0
  0
LINE
  5
485
  8
0
 10
20.041199999999989
 20
99.0
 30
0.0
 11
21.729399999999998
 21
99.0
 31
0.0
  0
LINE
  5
486
  8
0
 10
18.25
 20
99.0
 30
0.0
 11
22.25
 21
99.0
 31
0.0
  0
LINE
  5
487
  8
0
 10
18.25
 20
99.0
 30
0.0
 11
20.041199999999989
 21
99.0
 31
0.0
  0
LINE
  5
488
  8
0
 10
18.25
 20
105.9039999999999
 30
0.0
 11
20.020600000000002
 21
105.9039999999999
 31
0.0
  0
LINE
  5
489
  8
0
 10
18.25
 20
106.0
 30
0.0
 11
19.979399999999991
 21
106.0
 31
0.0
  0
LINE
  5
48A
  8
0
 10
16.520600000000002
 20
106.0
 30
0.0
 11
18.25
 21
106.0
 31
0.0
  0
LINE
  5
48B
  8
0
 10
16.479399999999998
 20
105.9039999999999
 30
0.0
 11
18.25
 21
105.9039999999999
 31
0.0
  0
LINE
  5
48C
  8
0
 10
19.979399999999991
 20
106.0
 30
0.0
 11
21.5853
 21
106.0
 31
0.0
  0
LINE
  5
48D
  8
0
 10
21.5853
 20
106.0
 30
0.0
 11
22.985299999999992
 21
106.0
 31
0.0
  0
LINE
  5
48E
  8
0
 10
21.688199999999991
 20
105.9039999999999
 30
0.0
 11
23.1294
 21
105.9039999999999
 31
0.0
  0
LINE
  5
48F
  8
0
 10
20.020600000000002
 20
105.9039999999999
 30
0.0
 11
21.688199999999991
 21
105.9039999999999
 31
0.0
  0
LINE
  5
490
  8
0
 10
18.25
 20
104.0
 30
0.0
 11
22.25
 21
104.0
 31
0.0
  0
LINE
  5
491
  8
0
 10
18.25
 20
104.0
 30
0.0
 11
22.25
 21
104.0
 31
0.0
  0
LINE
  5
492
  8
0
 10
18.25
 20
99.0
 30
0.0
 11
22.25
 21
99.0
 31
0.0
  0
LINE
  5
493
  8
0
 10
15.689999999999991
 20
104.0
 30
0.0
 11
18.25
 21
104.0
 31
0.0
  0
LINE
  5
494
  8
0
 10
22.25
 20
94.0
 30
0.0
 11
22.46599999999999
 21
94.0
 31
0.0
  0
LINE
  5
495
  8
0
 10
22.25
 20
94.0
 30
0.0
 11
22.25
 21
104.0
 31
0.0
  0
LINE
  5
496
  8
0
 10
23.041999999999991
 20
94.0
 30
0.0
 11
24.001999999999988
 21
94.0
 31
0.0
  0
LINE
  5
497
  8
0
 10
22.46599999999999
 20
94.0
 30
0.0
 11
23.041999999999991
 21
94.0
 31
0.0
  0
LINE
  5
498
  8
0
 10
22.46599999999999
 20
94.0
 30
0.0
 11
26.25
 21
94.0
 31
0.0
  0
LINE
  5
499
  8
0
 10
25.274000000000001
 20
94.0
 30
0.0
 11
26.713999999999999
 21
94.0
 31
0.0
  0
LINE
  5
49A
  8
0
 10
25.25
 20
104.0
 30
0.0
 11
25.25
 21
105.712
 31
0.0
  0
LINE
  5
49B
  8
0
 10
24.001999999999988
 20
94.0
 30
0.0
 11
25.274000000000001
 21
94.0
 31
0.0
  0
LINE
  5
49C
  8
0
 10
26.25
 20
94.0
 30
0.0
 11
27.25
 21
94.0
 31
0.0
  0
LINE
  5
49D
  8
0
 10
28.25
 20
94.0
 30
0.0
 11
29.786000000000001
 21
94.0
 31
0.0
  0
LINE
  5
49E
  8
0
 10
29.786000000000001
 20
94.0
 30
0.0
 11
31.225999999999999
 21
94.0
 31
0.0
  0
LINE
  5
49F
  8
0
 10
31.225999999999999
 20
94.0
 30
0.0
 11
32.497999999999998
 21
94.0
 31
0.0
  0
LINE
  5
4A0
  8
0
 10
32.497999999999998
 20
94.0
 30
0.0
 11
33.457999999999998
 21
94.0
 31
0.0
  0
LINE
  5
4A1
  8
0
 10
33.503
 20
94.0
 30
0.0
 11
34.25
 21
94.0
 31
0.0
  0
LINE
  5
4A2
  8
0
 10
33.457999999999998
 20
94.0
 30
0.0
 11
34.033999999999992
 21
94.0
 31
0.0
  0
LINE
  5
4A3
  8
0
 10
66.25
 20
88.0
 30
0.0
 11
66.25
 21
101.88800000000001
 31
0.0
  0
LINE
  5
4A4
  8
0
 10
65.673999999999992
 20
92.096000000000004
 30
0.0
 11
66.25
 21
88.0
 31
0.0
  0
LINE
  5
4A5
  8
0
 10
34.826000000000001
 20
92.096000000000004
 30
0.0
 11
36.361999999999988
 21
95.936000000000007
 31
0.0
  0
LINE
  5
4A6
  8
0
 10
34.25
 20
88.0
 30
0.0
 11
34.826000000000001
 21
92.096000000000004
 31
0.0
  0
LINE
  5
4A7
  8
0
 10
34.25
 20
88.0
 30
0.0
 11
34.25
 21
94.0
 31
0.0
  0
LINE
  5
4A8
  8
0
 10
34.25
 20
88.0
 30
0.0
 11
34.826000000000001
 21
83.903999999999996
 31
0.0
  0
LINE
  5
4A9
  8
0
 10
72.25
 20
94.0
 30
0.0
 11
73.786000000000001
 21
94.0
 31
0.0
  0
LINE
  5
4AA
  8
0
 10
73.786000000000001
 20
94.0
 30
0.0
 11
75.225999999999999
 21
94.0
 31
0.0
  0
LINE
  5
4AB
  8
0
 10
75.225999999999999
 20
94.0
 30
0.0
 11
76.498000000000005
 21
94.0
 31
0.0
  0
LINE
  5
4AC
  8
0
 10
76.498000000000005
 20
94.0
 30
0.0
 11
77.457999999999998
 21
94.0
 31
0.0
  0
LINE
  5
4AD
  8
0
 10
77.457999999999998
 20
94.0
 30
0.0
 11
78.033999999999992
 21
94.0
 31
0.0
  0
LINE
  5
4AE
  8
0
 10
73.25
 20
94.0
 30
0.0
 11
74.25
 21
94.0
 31
0.0
  0
LINE
  5
4AF
  8
0
 10
74.25
 20
94.0
 30
0.0
 11
78.033999999999992
 21
94.0
 31
0.0
  0
LINE
  5
4B0
  8
0
 10
97.75
 20
91.352000000000004
 30
0.0
 11
97.75
 21
95.432000000000002
 31
0.0
  0
LINE
  5
4B1
  8
0
 10
97.75
 20
91.352000000000004
 30
0.0
 11
97.75
 21
87.0
 31
0.0
  0
LINE
  5
4B2
  8
0
 10
78.25
 20
94.0
 30
0.0
 11
78.25
 21
104.0
 31
0.0
  0
LINE
  5
4B3
  8
0
 10
78.033999999999992
 20
94.0
 30
0.0
 11
78.25
 21
94.0
 31
0.0
  0
LINE
  5
4B4
  8
0
 10
70.713999999999999
 20
94.0
 30
0.0
 11
72.25
 21
94.0
 31
0.0
  0
LINE
  5
4B5
  8
0
 10
69.274000000000001
 20
94.0
 30
0.0
 11
70.713999999999999
 21
94.0
 31
0.0
  0
LINE
  5
4B6
  8
0
 10
68.001999999999995
 20
94.0
 30
0.0
 11
69.274000000000001
 21
94.0
 31
0.0
  0
LINE
  5
4B7
  8
0
 10
67.042000000000002
 20
94.0
 30
0.0
 11
68.001999999999995
 21
94.0
 31
0.0
  0
LINE
  5
4B8
  8
0
 10
66.466000000000008
 20
94.0
 30
0.0
 11
67.042000000000002
 21
94.0
 31
0.0
  0
LINE
  5
4B9
  8
0
 10
66.25
 20
94.0
 30
0.0
 11
66.466000000000008
 21
94.0
 31
0.0
  0
LINE
  5
4BA
  8
0
 10
66.25
 20
94.0
 30
0.0
 11
66.25
 21
104.0
 31
0.0
  0
LINE
  5
4BB
  8
0
 10
66.25
 20
94.0
 30
0.0
 11
66.996999999999986
 21
94.0
 31
0.0
  0
LINE
  5
4BC
  8
0
 10
66.25
 20
94.0
 30
0.0
 11
73.25
 21
94.0
 31
0.0
  0
LINE
  5
4BD
  8
0
 10
34.25
 20
94.0
 30
0.0
 11
34.25
 21
104.0
 31
0.0
  0
LINE
  5
4BE
  8
0
 10
34.25
 20
94.0
 30
0.0
 11
34.25
 21
88.0
 31
0.0
  0
LINE
  5
4BF
  8
0
 10
34.033999999999992
 20
94.0
 30
0.0
 11
34.25
 21
94.0
 31
0.0
  0
LINE
  5
4C0
  8
0
 10
28.25
 20
104.0
 30
0.0
 11
29.786000000000001
 21
104.0
 31
0.0
  0
LINE
  5
4C1
  8
0
 10
29.786000000000001
 20
104.0
 30
0.0
 11
31.225999999999999
 21
104.0
 31
0.0
  0
LINE
  5
4C2
  8
0
 10
31.225999999999999
 20
104.0
 30
0.0
 11
32.497999999999998
 21
104.0
 31
0.0
  0
LINE
  5
4C3
  8
0
 10
32.497999999999998
 20
104.0
 30
0.0
 11
33.457999999999998
 21
104.0
 31
0.0
  0
LINE
  5
4C4
  8
0
 10
35.25
 20
104.0
 30
0.0
 11
65.25
 21
104.0
 31
0.0
  0
LINE
  5
4C5
  8
0
 10
34.25
 20
101.88800000000001
 30
0.0
 11
42.313999999999993
 21
101.88800000000001
 31
0.0
  0
LINE
  5
4C6
  8
0
 10
33.457999999999998
 20
104.0
 30
0.0
 11
34.033999999999992
 21
104.0
 31
0.0
  0
LINE
  5
4C7
  8
0
 10
34.033999999999992
 20
104.0
 30
0.0
 11
34.25
 21
104.0
 31
0.0
  0
LINE
  5
4C8
  8
0
 10
35.25
 20
101.88800000000001
 30
0.0
 11
35.25
 21
104.0
 31
0.0
  0
LINE
  5
4C9
  8
0
 10
34.25
 20
104.0
 30
0.0
 11
35.25
 21
104.0
 31
0.0
  0
LINE
  5
4CA
  8
0
 10
34.25
 20
104.0
 30
0.0
 11
34.25
 21
94.0
 31
0.0
  0
LINE
  5
4CB
  8
0
 10
64.138000000000005
 20
95.936000000000007
 30
0.0
 11
65.673999999999992
 21
92.096000000000004
 31
0.0
  0
LINE
  5
4CC
  8
0
 10
78.25
 20
97.0
 30
0.0
 11
78.914699999999996
 21
97.0
 31
0.0
  0
LINE
  5
4CD
  8
0
 10
78.25
 20
97.09620000000001
 30
0.0
 11
78.811800000000005
 21
97.09620000000001
 31
0.0
  0
LINE
  5
4CE
  8
0
 10
78.914699999999996
 20
97.0
 30
0.0
 11
80.520600000000002
 21
97.0
 31
0.0
  0
LINE
  5
4CF
  8
0
 10
78.811800000000005
 20
97.09620000000001
 30
0.0
 11
80.479399999999998
 21
97.09620000000001
 31
0.0
  0
LINE
  5
4D0
  8
0
 10
82.249999999999986
 20
97.0
 30
0.0
 11
83.979399999999998
 21
97.0
 31
0.0
  0
LINE
  5
4D1
  8
0
 10
80.520600000000002
 20
97.0
 30
0.0
 11
82.249999999999986
 21
97.0
 31
0.0
  0
LINE
  5
4D2
  8
0
 10
80.479399999999998
 20
97.09620000000001
 30
0.0
 11
82.249999999999986
 21
97.09620000000001
 31
0.0
  0
LINE
  5
4D3
  8
0
 10
78.770600000000002
 20
99.0
 30
0.0
 11
80.458799999999997
 21
99.0
 31
0.0
  0
LINE
  5
4D4
  8
0
 10
80.458799999999997
 20
99.0
 30
0.0
 11
82.249999999999986
 21
99.0
 31
0.0
  0
LINE
  5
4D5
  8
0
 10
82.249999999999986
 20
97.09620000000001
 30
0.0
 11
84.020600000000002
 21
97.09620000000001
 31
0.0
  0
LINE
  5
4D6
  8
0
 10
78.25
 20
99.0
 30
0.0
 11
82.249999999999986
 21
99.0
 31
0.0
  0
LINE
  5
4D7
  8
0
 10
78.25
 20
99.0
 30
0.0
 11
78.770600000000002
 21
99.0
 31
0.0
  0
LINE
  5
4D8
  8
0
 10
36.361999999999988
 20
95.936000000000007
 30
0.0
 11
38.92199999999999
 21
99.328000000000003
 31
0.0
  0
LINE
  5
4D9
  8
0
 10
85.585300000000004
 20
97.0
 30
0.0
 11
86.985299999999995
 21
97.0
 31
0.0
  0
LINE
  5
4DA
  8
0
 10
85.25
 20
97.0
 30
0.0
 11
85.585300000000004
 21
97.0
 31
0.0
  0
LINE
  5
4DB
  8
0
 10
86.985299999999995
 20
97.0
 30
0.0
 11
88.035300000000007
 21
97.0
 31
0.0
  0
LINE
  5
4DC
  8
0
 10
86.985299999999995
 20
97.0
 30
0.0
 11
88.035300000000007
 21
97.0
 31
0.0
  0
LINE
  5
4DD
  8
0
 10
85.585300000000004
 20
97.0
 30
0.0
 11
86.985299999999995
 21
97.0
 31
0.0
  0
LINE
  5
4DE
  8
0
 10
85.25
 20
97.0
 30
0.0
 11
85.585300000000004
 21
97.0
 31
0.0
  0
LINE
  5
4DF
  8
0
 10
86.985299999999995
 20
97.0
 30
0.0
 11
88.035300000000007
 21
97.0
 31
0.0
  0
LINE
  5
4E0
  8
0
 10
85.585300000000004
 20
97.0
 30
0.0
 11
86.985299999999995
 21
97.0
 31
0.0
  0
LINE
  5
4E1
  8
0
 10
83.979399999999998
 20
97.0
 30
0.0
 11
85.585300000000004
 21
97.0
 31
0.0
  0
LINE
  5
4E2
  8
0
 10
85.688199999999995
 20
97.09620000000001
 30
0.0
 11
87.129400000000004
 21
97.09620000000001
 31
0.0
  0
LINE
  5
4E3
  8
0
 10
84.020600000000002
 20
97.09620000000001
 30
0.0
 11
85.688199999999995
 21
97.09620000000001
 31
0.0
  0
LINE
  5
4E4
  8
0
 10
85.729399999999998
 20
99.0
 30
0.0
 11
87.191199999999995
 21
99.0
 31
0.0
  0
LINE
  5
4E5
  8
0
 10
84.041200000000003
 20
99.0
 30
0.0
 11
85.729399999999998
 21
99.0
 31
0.0
  0
LINE
  5
4E6
  8
0
 10
87.129400000000004
 20
97.09620000000001
 30
0.0
 11
88.220600000000005
 21
97.09620000000001
 31
0.0
  0
LINE
  5
4E7
  8
0
 10
87.191199999999995
 20
99.0
 30
0.0
 11
88.302899999999994
 21
99.0
 31
0.0
  0
LINE
  5
4E8
  8
0
 10
85.25
 20
97.0
 30
0.0
 11
85.25
 21
87.0
 31
0.0
  0
LINE
  5
4E9
  8
0
 10
82.249999999999986
 20
99.0
 30
0.0
 11
84.809999999999988
 21
99.0
 31
0.0
  0
LINE
  5
4EA
  8
0
 10
82.249999999999986
 20
99.0
 30
0.0
 11
84.041200000000003
 21
99.0
 31
0.0
  0
LINE
  5
4EB
  8
0
 10
84.809999999999988
 20
99.0
 30
0.0
 11
87.209999999999994
 21
99.0
 31
0.0
  0
LINE
  5
4EC
  8
0
 10
88.035300000000007
 20
97.0
 30
0.0
 11
88.694100000000006
 21
97.0
 31
0.0
  0
LINE
  5
4ED
  8
0
 10
88.035300000000007
 20
97.0
 30
0.0
 11
88.694100000000006
 21
97.0
 31
0.0
  0
LINE
  5
4EE
  8
0
 10
88.035300000000007
 20
97.0
 30
0.0
 11
88.694100000000006
 21
97.0
 31
0.0
  0
LINE
  5
4EF
  8
0
 10
88.694100000000006
 20
97.0
 30
0.0
 11
88.941199999999995
 21
97.0
 31
0.0
  0
LINE
  5
4F0
  8
0
 10
88.694100000000006
 20
97.0
 30
0.0
 11
88.941199999999995
 21
97.0
 31
0.0
  0
LINE
  5
4F1
  8
0
 10
88.941199999999995
 20
97.0
 30
0.0
 11
89.147099999999995
 21
97.09620000000001
 31
0.0
  0
LINE
  5
4F2
  8
0
 10
88.941199999999995
 20
97.0
 30
0.0
 11
89.147099999999995
 21
97.09620000000001
 31
0.0
  0
LINE
  5
4F3
  8
0
 10
88.694100000000006
 20
97.0
 30
0.0
 11
88.941199999999995
 21
97.0
 31
0.0
  0
LINE
  5
4F4
  8
0
 10
89.147099999999995
 20
97.09620000000001
 30
0.0
 11
89.25
 21
97.288500000000013
 31
0.0
  0
LINE
  5
4F5
  8
0
 10
88.941199999999995
 20
97.0
 30
0.0
 11
89.147099999999995
 21
97.09620000000001
 31
0.0
  0
LINE
  5
4F6
  8
0
 10
88.220600000000005
 20
97.09620000000001
 30
0.0
 11
88.900000000000006
 21
97.09620000000001
 31
0.0
  0
LINE
  5
4F7
  8
0
 10
88.900000000000006
 20
97.09620000000001
 30
0.0
 11
89.147099999999995
 21
97.09620000000001
 31
0.0
  0
LINE
  5
4F8
  8
0
 10
89.147099999999995
 20
97.09620000000001
 30
0.0
 11
89.25
 21
97.288500000000013
 31
0.0
  0
LINE
  5
4F9
  8
0
 10
89.25
 20
97.288500000000013
 30
0.0
 11
89.25
 21
99.0
 31
0.0
  0
LINE
  5
4FA
  8
0
 10
89.25
 20
99.0
 30
0.0
 11
91.890000000000001
 21
99.0
 31
0.0
  0
LINE
  5
4FB
  8
0
 10
89.25
 20
99.0
 30
0.0
 11
89.329999999999984
 21
99.0
 31
0.0
  0
LINE
  5
4FC
  8
0
 10
89.25
 20
99.0
 30
0.0
 11
91.890000000000001
 21
99.0
 31
0.0
  0
LINE
  5
4FD
  8
0
 10
90.930000000000007
 20
99.0
 30
0.0
 11
91.890000000000001
 21
99.0
 31
0.0
  0
LINE
  5
4FE
  8
0
 10
89.329999999999984
 20
99.0
 30
0.0
 11
90.930000000000007
 21
99.0
 31
0.0
  0
LINE
  5
4FF
  8
0
 10
89.329999999999984
 20
99.0
 30
0.0
 11
90.930000000000007
 21
99.0
 31
0.0
  0
LINE
  5
500
  8
0
 10
88.302899999999994
 20
99.0
 30
0.0
 11
89.002899999999997
 21
99.0
 31
0.0
  0
LINE
  5
501
  8
0
 10
89.002899999999997
 20
99.0
 30
0.0
 11
89.25
 21
99.0
 31
0.0
  0
LINE
  5
502
  8
0
 10
90.930000000000007
 20
99.0
 30
0.0
 11
91.890000000000001
 21
99.0
 31
0.0
  0
LINE
  5
503
  8
0
 10
87.209999999999994
 20
99.0
 30
0.0
 11
89.329999999999984
 21
99.0
 31
0.0
  0
LINE
  5
504
  8
0
 10
89.329999999999984
 20
99.0
 30
0.0
 11
90.930000000000007
 21
99.0
 31
0.0
  0
LINE
  5
505
  8
0
 10
91.890000000000001
 20
99.0
 30
0.0
 11
92.249999999999986
 21
99.0
 31
0.0
  0
LINE
  5
506
  8
0
 10
91.890000000000001
 20
99.0
 30
0.0
 11
92.249999999999986
 21
99.0
 31
0.0
  0
LINE
  5
507
  8
0
 10
90.930000000000007
 20
99.0
 30
0.0
 11
91.890000000000001
 21
99.0
 31
0.0
  0
LINE
  5
508
  8
0
 10
61.578000000000003
 20
99.328000000000003
 30
0.0
 11
64.138000000000005
 21
95.936000000000007
 31
0.0
  0
LINE
  5
509
  8
0
 10
46.154000000000003
 20
103.42400000000001
 30
0.0
 11
50.25
 21
104.0
 31
0.0
  0
LINE
  5
50A
  8
0
 10
42.313999999999993
 20
101.88800000000001
 30
0.0
 11
46.154000000000003
 21
103.42400000000001
 31
0.0
  0
LINE
  5
50B
  8
0
 10
50.25
 20
104.0
 30
0.0
 11
54.345999999999997
 21
103.42400000000001
 31
0.0
  0
LINE
  5
50C
  8
0
 10
54.345999999999997
 20
103.42400000000001
 30
0.0
 11
58.186
 21
101.88800000000001
 31
0.0
  0
LINE
  5
50D
  8
0
 10
58.186
 20
101.88800000000001
 30
0.0
 11
66.25
 21
101.88800000000001
 31
0.0
  0
LINE
  5
50E
  8
0
 10
58.186
 20
101.88800000000001
 30
0.0
 11
61.578000000000003
 21
99.328000000000003
 31
0.0
  0
LINE
  5
50F
  8
0
 10
38.92199999999999
 20
99.328000000000003
 30
0.0
 11
42.313999999999993
 21
101.88800000000001
 31
0.0
  0
LINE
  5
510
  8
0
 10
66.25
 20
101.88800000000001
 30
0.0
 11
66.25
 21
88.0
 31
0.0
  0
LINE
  5
511
  8
0
 10
65.25
 20
101.88800000000001
 30
0.0
 11
65.25
 21
104.0
 31
0.0
  0
LINE
  5
512
  8
0
 10
65.25
 20
104.0
 30
0.0
 11
66.25
 21
104.0
 31
0.0
  0
LINE
  5
513
  8
0
 10
65.25
 20
104.0
 30
0.0
 11
65.25
 21
101.88800000000001
 31
0.0
  0
LINE
  5
514
  8
0
 10
72.25
 20
104.0
 30
0.0
 11
73.786000000000001
 21
104.0
 31
0.0
  0
LINE
  5
515
  8
0
 10
73.786000000000001
 20
104.0
 30
0.0
 11
75.225999999999999
 21
104.0
 31
0.0
  0
LINE
  5
516
  8
0
 10
75.25
 20
104.0
 30
0.0
 11
75.25
 21
105.712
 31
0.0
  0
LINE
  5
517
  8
0
 10
75.25
 20
104.0
 30
0.0
 11
75.25
 21
105.712
 31
0.0
  0
LINE
  5
518
  8
0
 10
75.25
 20
104.0
 30
0.0
 11
75.25
 21
105.712
 31
0.0
  0
LINE
  5
519
  8
0
 10
75.225999999999999
 20
104.0
 30
0.0
 11
76.498000000000005
 21
104.0
 31
0.0
  0
LINE
  5
51A
  8
0
 10
76.498000000000005
 20
104.0
 30
0.0
 11
77.457999999999998
 21
104.0
 31
0.0
  0
LINE
  5
51B
  8
0
 10
77.457999999999998
 20
104.0
 30
0.0
 11
78.033999999999992
 21
104.0
 31
0.0
  0
LINE
  5
51C
  8
0
 10
78.033999999999992
 20
104.0
 30
0.0
 11
78.25
 21
104.0
 31
0.0
  0
LINE
  5
51D
  8
0
 10
82.249999999999986
 20
104.0
 30
0.0
 11
84.809999999999988
 21
104.0
 31
0.0
  0
LINE
  5
51E
  8
0
 10
84.809999999999988
 20
104.0
 30
0.0
 11
87.209999999999994
 21
104.0
 31
0.0
  0
LINE
  5
51F
  8
0
 10
89.25
 20
104.0
 30
0.0
 11
89.25
 21
105.712
 31
0.0
  0
LINE
  5
520
  8
0
 10
87.209999999999994
 20
104.0
 30
0.0
 11
89.329999999999984
 21
104.0
 31
0.0
  0
LINE
  5
521
  8
0
 10
89.329999999999984
 20
104.0
 30
0.0
 11
90.930000000000007
 21
104.0
 31
0.0
  0
LINE
  5
522
  8
0
 10
90.930000000000007
 20
104.0
 30
0.0
 11
91.890000000000001
 21
104.0
 31
0.0
  0
LINE
  5
523
  8
0
 10
91.890000000000001
 20
104.0
 30
0.0
 11
92.249999999999986
 21
104.0
 31
0.0
  0
LINE
  5
524
  8
0
 10
78.25
 20
104.0
 30
0.0
 11
78.25
 21
94.0
 31
0.0
  0
LINE
  5
525
  8
0
 10
78.25
 20
104.0
 30
0.0
 11
82.249999999999986
 21
104.0
 31
0.0
  0
LINE
  5
526
  8
0
 10
70.713999999999999
 20
104.0
 30
0.0
 11
72.25
 21
104.0
 31
0.0
  0
LINE
  5
527
  8
0
 10
69.274000000000001
 20
104.0
 30
0.0
 11
70.713999999999999
 21
104.0
 31
0.0
  0
LINE
  5
528
  8
0
 10
68.001999999999995
 20
104.0
 30
0.0
 11
69.274000000000001
 21
104.0
 31
0.0
  0
LINE
  5
529
  8
0
 10
67.042000000000002
 20
104.0
 30
0.0
 11
68.001999999999995
 21
104.0
 31
0.0
  0
LINE
  5
52A
  8
0
 10
66.466000000000008
 20
104.0
 30
0.0
 11
67.042000000000002
 21
104.0
 31
0.0
  0
LINE
  5
52B
  8
0
 10
66.25
 20
104.0
 30
0.0
 11
66.466000000000008
 21
104.0
 31
0.0
  0
LINE
  5
52C
  8
0
 10
66.25
 20
104.0
 30
0.0
 11
66.25
 21
94.0
 31
0.0
  0
LINE
  5
52D
  8
0
 10
89.25
 20
99.0
 30
0.0
 11
91.890000000000001
 21
99.0
 31
0.0
  0
LINE
  5
52E
  8
0
 10
89.25
 20
99.0
 30
0.0
 11
89.25
 21
97.288500000000013
 31
0.0
  0
LINE
  5
52F
  8
0
 10
97.75
 20
95.432000000000002
 30
0.0
 11
97.75
 21
99.036000000000001
 31
0.0
  0
LINE
  5
530
  8
0
 10
97.75
 20
95.432000000000002
 30
0.0
 11
97.75
 21
91.352000000000004
 31
0.0
  0
LINE
  5
531
  8
0
 10
97.75
 20
99.036000000000001
 30
0.0
 11
97.75
 21
101.756
 31
0.0
  0
LINE
  5
532
  8
0
 10
97.75
 20
99.036000000000001
 30
0.0
 11
97.75
 21
95.432000000000002
 31
0.0
  0
LINE
  5
533
  8
0
 10
97.75
 20
101.756
 30
0.0
 11
97.75
 21
103.38799999999991
 31
0.0
  0
LINE
  5
534
  8
0
 10
97.75
 20
101.756
 30
0.0
 11
97.75
 21
99.036000000000001
 31
0.0
  0
LINE
  5
535
  8
0
 10
97.75
 20
104.0
 30
0.0
 11
97.75
 21
103.38799999999991
 31
0.0
  0
LINE
  5
536
  8
0
 10
97.75
 20
103.38799999999991
 30
0.0
 11
97.75
 21
104.0
 31
0.0
  0
LINE
  5
537
  8
0
 10
97.75
 20
103.38799999999991
 30
0.0
 11
97.75
 21
101.756
 31
0.0
  0
LINE
  5
538
  8
0
 10
92.249999999999986
 20
104.0
 30
0.0
 11
97.75
 21
104.0
 31
0.0
  0
LINE
  5
539
  8
0
 10
92.249999999999986
 20
99.0
 30
0.0
 11
92.249999999999986
 21
104.0
 31
0.0
  0
LINE
  5
53A
  8
0
 10
91.890000000000001
 20
99.0
 30
0.0
 11
92.249999999999986
 21
99.0
 31
0.0
  0
LINE
  5
53B
  8
0
 10
92.249999999999986
 20
104.0
 30
0.0
 11
92.249999999999986
 21
99.0
 31
0.0
  0
LINE
  5
53C
  8
0
 10
35.25
 20
104.0
 30
0.0
 11
35.25
 21
101.88800000000001
 31
0.0
  0
LINE
  5
53D
  8
0
 10
35.25
 20
104.0
 30
0.0
 11
65.25
 21
104.0
 31
0.0
  0
LINE
  5
53E
  8
0
 10
27.25
 20
94.0
 30
0.0
 11
34.25
 21
94.0
 31
0.0
  0
LINE
  5
53F
  8
0
 10
26.713999999999999
 20
94.0
 30
0.0
 11
28.25
 21
94.0
 31
0.0
  0
LINE
  5
540
  8
0
 10
26.713999999999999
 20
104.0
 30
0.0
 11
28.25
 21
104.0
 31
0.0
  0
LINE
  5
541
  8
0
 10
25.274000000000001
 20
104.0
 30
0.0
 11
26.713999999999999
 21
104.0
 31
0.0
  0
LINE
  5
542
  8
0
 10
24.001999999999988
 20
104.0
 30
0.0
 11
25.274000000000001
 21
104.0
 31
0.0
  0
LINE
  5
543
  8
0
 10
23.041999999999991
 20
104.0
 30
0.0
 11
24.001999999999988
 21
104.0
 31
0.0
  0
LINE
  5
544
  8
0
 10
23.1294
 20
105.9039999999999
 30
0.0
 11
24.220600000000001
 21
105.9039999999999
 31
0.0
  0
LINE
  5
545
  8
0
 10
22.985299999999992
 20
106.0
 30
0.0
 11
24.035299999999989
 21
106.0
 31
0.0
  0
LINE
  5
546
  8
0
 10
24.035299999999989
 20
106.0
 30
0.0
 11
24.694099999999992
 21
106.0
 31
0.0
  0
LINE
  5
547
  8
0
 10
24.694099999999992
 20
106.0
 30
0.0
 11
24.941199999999998
 21
106.0
 31
0.0
  0
LINE
  5
548
  8
0
 10
24.220600000000001
 20
105.9039999999999
 30
0.0
 11
24.899999999999999
 21
105.9039999999999
 31
0.0
  0
LINE
  5
549
  8
0
 10
75.25
 20
105.712
 30
0.0
 11
75.25
 21
104.0
 31
0.0
  0
LINE
  5
54A
  8
0
 10
75.25
 20
105.712
 30
0.0
 11
75.352900000000005
 21
105.9039999999999
 31
0.0
  0
LINE
  5
54B
  8
0
 10
75.25
 20
105.712
 30
0.0
 11
75.25
 21
104.0
 31
0.0
  0
LINE
  5
54C
  8
0
 10
75.25
 20
105.712
 30
0.0
 11
75.352900000000005
 21
105.9039999999999
 31
0.0
  0
LINE
  5
54D
  8
0
 10
75.25
 20
105.712
 30
0.0
 11
75.25
 21
104.0
 31
0.0
  0
LINE
  5
54E
  8
0
 10
76.279399999999995
 20
105.9039999999999
 30
0.0
 11
77.370599999999996
 21
105.9039999999999
 31
0.0
  0
LINE
  5
54F
  8
0
 10
75.599999999999994
 20
105.9039999999999
 30
0.0
 11
76.279399999999995
 21
105.9039999999999
 31
0.0
  0
LINE
  5
550
  8
0
 10
75.352900000000005
 20
105.9039999999999
 30
0.0
 11
75.599999999999994
 21
105.9039999999999
 31
0.0
  0
LINE
  5
551
  8
0
 10
75.352900000000005
 20
105.9039999999999
 30
0.0
 11
75.558800000000005
 21
106.0
 31
0.0
  0
LINE
  5
552
  8
0
 10
77.370599999999996
 20
105.9039999999999
 30
0.0
 11
78.811800000000005
 21
105.9039999999999
 31
0.0
  0
LINE
  5
553
  8
0
 10
78.811800000000005
 20
105.9039999999999
 30
0.0
 11
80.479399999999998
 21
105.9039999999999
 31
0.0
  0
LINE
  5
554
  8
0
 10
80.479399999999998
 20
105.9039999999999
 30
0.0
 11
82.249999999999986
 21
105.9039999999999
 31
0.0
  0
LINE
  5
555
  8
0
 10
85.688199999999995
 20
105.9039999999999
 30
0.0
 11
87.129400000000004
 21
105.9039999999999
 31
0.0
  0
LINE
  5
556
  8
0
 10
84.020600000000002
 20
105.9039999999999
 30
0.0
 11
85.688199999999995
 21
105.9039999999999
 31
0.0
  0
LINE
  5
557
  8
0
 10
82.249999999999986
 20
105.9039999999999
 30
0.0
 11
84.020600000000002
 21
105.9039999999999
 31
0.0
  0
LINE
  5
558
  8
0
 10
87.129400000000004
 20
105.9039999999999
 30
0.0
 11
88.220600000000005
 21
105.9039999999999
 31
0.0
  0
LINE
  5
559
  8
0
 10
88.220600000000005
 20
105.9039999999999
 30
0.0
 11
88.900000000000006
 21
105.9039999999999
 31
0.0
  0
LINE
  5
55A
  8
0
 10
88.900000000000006
 20
105.9039999999999
 30
0.0
 11
89.147099999999995
 21
105.9039999999999
 31
0.0
  0
LINE
  5
55B
  8
0
 10
89.147099999999995
 20
105.9039999999999
 30
0.0
 11
89.25
 21
105.712
 31
0.0
  0
LINE
  5
55C
  8
0
 10
89.25
 20
105.712
 30
0.0
 11
89.25
 21
104.0
 31
0.0
  0
LINE
  5
55D
  8
0
 10
25.25
 20
105.712
 30
0.0
 11
25.25
 21
104.0
 31
0.0
  0
LINE
  5
55E
  8
0
 10
76.464699999999993
 20
106.0
 30
0.0
 11
77.514700000000005
 21
106.0
 31
0.0
  0
LINE
  5
55F
  8
0
 10
75.805899999999994
 20
106.0
 30
0.0
 11
76.464699999999993
 21
106.0
 31
0.0
  0
LINE
  5
560
  8
0
 10
75.558800000000005
 20
106.0
 30
0.0
 11
75.805899999999994
 21
106.0
 31
0.0
  0
LINE
  5
561
  8
0
 10
77.514700000000005
 20
106.0
 30
0.0
 11
78.914699999999996
 21
106.0
 31
0.0
  0
LINE
  5
562
  8
0
 10
78.914699999999996
 20
106.0
 30
0.0
 11
80.520600000000002
 21
106.0
 31
0.0
  0
LINE
  5
563
  8
0
 10
80.520600000000002
 20
106.0
 30
0.0
 11
82.249999999999986
 21
106.0
 31
0.0
  0
LINE
  5
564
  8
0
 10
85.585300000000004
 20
106.0
 30
0.0
 11
86.985299999999995
 21
106.0
 31
0.0
  0
LINE
  5
565
  8
0
 10
83.979399999999998
 20
106.0
 30
0.0
 11
85.585300000000004
 21
106.0
 31
0.0
  0
LINE
  5
566
  8
0
 10
82.249999999999986
 20
106.0
 30
0.0
 11
83.979399999999998
 21
106.0
 31
0.0
  0
LINE
  5
567
  8
0
 10
86.985299999999995
 20
106.0
 30
0.0
 11
88.035300000000007
 21
106.0
 31
0.0
  0
LINE
  5
568
  8
0
 10
88.035300000000007
 20
106.0
 30
0.0
 11
88.694100000000006
 21
106.0
 31
0.0
  0
LINE
  5
569
  8
0
 10
88.941199999999995
 20
106.0
 30
0.0
 11
89.147099999999995
 21
105.9039999999999
 31
0.0
  0
LINE
  5
56A
  8
0
 10
88.694100000000006
 20
106.0
 30
0.0
 11
88.941199999999995
 21
106.0
 31
0.0
  0
LINE
  5
56B
  8
0
 10
24.941199999999998
 20
106.0
 30
0.0
 11
25.147099999999998
 21
105.9039999999999
 31
0.0
  0
LINE
  5
56C
  8
0
 10
25.147099999999998
 20
105.9039999999999
 30
0.0
 11
25.25
 21
105.712
 31
0.0
  0
LINE
  5
56D
  8
0
 10
24.899999999999999
 20
105.9039999999999
 30
0.0
 11
25.147099999999998
 21
105.9039999999999
 31
0.0
  0
LINE
  5
56E
  8
0
 10
22.46599999999999
 20
104.0
 30
0.0
 11
23.041999999999991
 21
104.0
 31
0.0
  0
LINE
  5
56F
  8
0
 10
22.25
 20
104.0
 30
0.0
 11
22.46599999999999
 21
104.0
 31
0.0
  0
LINE
  5
570
  8
0
 10
22.25
 20
104.0
 30
0.0
 11
22.25
 21
94.0
 31
0.0
  0
LINE
  5
571
  8
0
 10
15.25
 20
87.0
 30
0.0
 11
34.390625
 21
87.0
 31
0.0
  0
LINE
  5
572
  8
0
 10
15.25
 20
87.0
 30
0.0
 11
15.25
 21
82.647999999999996
 31
0.0
  0
LINE
  5
573
  8
0
 10
15.25
 20
87.0
 30
0.0
 11
15.25
 21
91.352000000000004
 31
0.0
  0
LINE
  5
574
  8
0
 10
15.25
 20
87.0
 30
0.0
 11
15.25
 21
97.0
 31
0.0
  0
LINE
  5
575
  8
0
 10
15.25
 20
87.0
 30
0.0
 11
15.25
 21
83.159999999999997
 31
0.0
  0
LINE
  5
576
  8
0
 10
15.25
 20
87.0
 30
0.0
 11
15.25
 21
90.840000000000003
 31
0.0
  0
ENDSEC
  0
EOF
