  0
SECTION
  2
HEADER
  9
$ACADVER
  1
AC1009
  9
$INSBASE
 10
0.0
 20
0.0
 30
0.0
  9
$EXTMIN
 10
0.250000000000003
 20
-0.0000000000000032
 30
0.0
  9
$EXTMAX
 10
97.75
 20
356.0
 30
0.0
  9
$LIMMIN
 10
0.0
 20
0.0
  9
$LIMMAX
 10
12.0
 20
9.0
  9
$ORTHOMODE
 70
     0
  9
$REGENMODE
 70
     1
  9
$FILLMODE
 70
     1
  9
$QTEXTMODE
 70
     0
  9
$MIRRTEXT
 70
     1
  9
$DRAGMODE
 70
     2
  9
$LTSCALE
 40
1.0
  9
$OSMODE
 70
    37
  9
$ATTMODE
 70
     1
  9
$TEXTSIZE
 40
0.2
  9
$TRACEWID
 40
0.05
  9
$TEXTSTYLE
  7
STANDARD
  9
$CLAYER
  8
0
  9
$CELTYPE
  6
CONTINUOUS
  9
$CECOLOR
 62
   256
  9
$DIMSCALE
 40
1.0
  9
$DIMASZ
 40
0.18
  9
$DIMEXO
 40
0.0625
  9
$DIMDLI
 40
0.38
  9
$DIMRND
 40
0.0
  9
$DIMDLE
 40
0.0
  9
$DIMEXE
 40
0.18
  9
$DIMTP
 40
0.0
  9
$DIMTM
 40
0.0
  9
$DIMTXT
 40
0.18
  9
$DIMCEN
 40
0.09
  9
$DIMTSZ
 40
0.0
  9
$DIMTOL
 70
     0
  9
$DIMLIM
 70
     0
  9
$DIMTIH
 70
     1
  9
$DIMTOH
 70
     1
  9
$DIMSE1
 70
     0
  9
$DIMSE2
 70
     0
  9
$DIMTAD
 70
     0
  9
$DIMZIN
 70
     0
  9
$DIMBLK
  1

  9
$DIMASO
 70
     1
  9
$DIMSHO
 70
     1
  9
$DIMPOST
  1

  9
$DIMAPOST
  1

  9
$DIMALT
 70
     0
  9
$DIMALTD
 70
     2
  9
$DIMALTF
 40
25.399999999999999
  9
$DIMLFAC
 40
1.0
  9
$DIMTOFL
 70
     0
  9
$DIMTVP
 40
0.0
  9
$DIMTIX
 70
     0
  9
$DIMSOXD
 70
     0
  9
$DIMSAH
 70
     0
  9
$DIMBLK1
  1

  9
$DIMBLK2
  1

  9
$DIMSTYLE
  2
STANDARD
  9
$DIMCLRD
 70
     0
  9
$DIMCLRE
 70
     0
  9
$DIMCLRT
 70
     0
  9
$DIMTFAC
 40
1.0
  9
$DIMGAP
 40
0.09
  9
$LUNITS
 70
     2
  9
$LUPREC
 70
     4
  9
$SKETCHINC
 40
0.1
  9
$FILLETRAD
 40
0.0
  9
$AUNITS
 70
     0
  9
$AUPREC
 70
     0
  9
$MENU
  1
.
  9
$ELEVATION
 40
0.0
  9
$PELEVATION
 40
0.0
  9
$THICKNESS
 40
0.0
  9
$LIMCHECK
 70
     0
  9
$BLIPMODE
 70
     0
  9
$CHAMFERA
 40
0.0
  9
$CHAMFERB
 40
0.0
  9
$SKPOLY
 70
     0
  9
$TDCREATE
 40
2454675.4490310298
  9
$TDUPDATE
 40
2454675.4604673032
  9
$TDINDWG
 40
0.0114364468
  9
$TDUSRTIMER
 40
0.0114364468
  9
$USRTIMER
 70
     1
  9
$ANGBASE
 50
0.0
  9
$ANGDIR
 70
     0
  9
$PDMODE
 70
     0
  9
$PDSIZE
 40
0.0
  9
$PLINEWID
 40
0.0
  9
$COORDS
 70
     1
  9
$SPLFRAME
 70
     0
  9
$SPLINETYPE
 70
     6
  9
$SPLINESEGS
 70
     8
  9
$ATTDIA
 70
     0
  9
$ATTREQ
 70
     1
  9
$HANDLING
 70
 22529
  9
$HANDSEED
  5
E13
  9
$SURFTAB1
 70
     6
  9
$SURFTAB2
 70
     6
  9
$SURFTYPE
 70
     6
  9
$SURFU
 70
     6
  9
$SURFV
 70
     6
  9
$UCSNAME
  2

  9
$UCSORG
 10
0.0
 20
0.0
 30
0.0
  9
$UCSXDIR
 10
1.0
 20
0.0
 30
0.0
  9
$UCSYDIR
 10
0.0
 20
1.0
 30
0.0
  9
$PUCSNAME
  2

  9
$PUCSORG
 10
0.0
 20
0.0
 30
0.0
  9
$PUCSXDIR
 10
1.0
 20
0.0
 30
0.0
  9
$PUCSYDIR
 10
0.0
 20
1.0
 30
0.0
  9
$USERI1
 70
     0
  9
$USERI2
 70
     0
  9
$USERI3
 70
     0
  9
$USERI4
 70
     0
  9
$USERI5
 70
     0
  9
$USERR1
 40
0.0
  9
$USERR2
 40
0.0
  9
$USERR3
 40
0.0
  9
$USERR4
 40
0.0
  9
$USERR5
 40
0.0
  9
$WORLDVIEW
 70
     1
  9
$SHADEDGE
 70
     3
  9
$SHADEDIF
 70
    70
  9
$TILEMODE
 70
     1
  9
$MAXACTVP
 70
    64
  9
$PLIMCHECK
 70
     0
  9
$PEXTMIN
 10
1.0000000000000000E+020
 20
1.0000000000000000E+020
 30
1.0000000000000000E+020
  9
$PEXTMAX
 10
-1.0000000000000000E+020
 20
-1.0000000000000000E+020
 30
-1.0000000000000000E+020
  9
$PLIMMIN
 10
0.0
 20
0.0
  9
$PLIMMAX
 10
12.0
 20
9.0
  9
$UNITMODE
 70
     0
  9
$VISRETAIN
 70
     1
  9
$PLINEGEN
 70
     0
  9
$PSLTSCALE
 70
     1
  0
ENDSEC
  0
SECTION
  2
TABLES
  0
TABLE
  2
VPORT
 70
     3
  0
VPORT
  2
*ACTIVE
 70
     0
 10
0.0
 20
0.0
 11
1.0
 21
1.0
 12
49.0
 22
178.0
 13
0.0
 23
0.0
 14
1.0
 24
1.0
 15
0.0
 25
0.0
 16
0.0
 26
0.0
 36
1.0
 17
0.0
 27
0.0
 37
0.0
 40
358.73145780051152
 41
2.0435339308578739
 42
50.0
 43
0.0
 44
0.0
 50
0.0
 51
0.0
 71
     0
 72
   100
 73
     1
 74
     3
 75
     0
 76
     0
 77
     0
 78
     0
  0
ENDTAB
  0
TABLE
  2
LTYPE
 70
     1
  0
LTYPE
  2
CONTINUOUS
 70
     0
  3
Solid line
 72
    65
 73
     0
 40
0.0
  0
ENDTAB
  0
TABLE
  2
LAYER
 70
     1
  0
LAYER
  2
0
 70
     0
 62
     7
  6
CONTINUOUS
  0
ENDTAB
  0
TABLE
  2
STYLE
 70
     1
  0
STYLE
  2
STANDARD
 70
     0
 40
0.0
 41
1.0
 50
0.0
 71
     0
 42
0.2
  3
txt
  4

  0
ENDTAB
  0
TABLE
  2
VIEW
 70
     0
  0
ENDTAB
  0
TABLE
  2
UCS
 70
     0
  0
ENDTAB
  0
TABLE
  2
APPID
 70
     1
  0
APPID
  2
ACAD
 70
     0
  0
ENDTAB
  0
TABLE
  2
DIMSTYLE
 70
     1
  0
DIMSTYLE
  2
STANDARD
 70
     0
  3

  4

  5

  6

  7

 40
1.0
 41
0.18
 42
0.0625
 43
0.38
 44
0.18
 45
0.0
 46
0.0
 47
0.0
 48
0.0
140
0.18
141
0.09
142
0.0
143
25.399999999999999
144
1.0
145
0.0
146
1.0
147
0.09
 71
     0
 72
     0
 73
     1
 74
     1
 75
     0
 76
     0
 77
     0
 78
     0
170
     0
171
     2
172
     0
173
     0
174
     0
175
     0
176
     0
177
     0
178
     0
  0
ENDTAB
  0
ENDSEC
  0
SECTION
  2
BLOCKS
  0
BLOCK
  8
0
  2
$MODEL_SPACE
 70
     0
 10
0.0
 20
0.0
 30
0.0
  3
$MODEL_SPACE
  1

  0
ENDBLK
  5
20
  8
0
  0
BLOCK
 67
     1
  8
0
  2
$PAPER_SPACE
 70
     0
 10
0.0
 20
0.0
 30
0.0
  3
$PAPER_SPACE
  1

  0
ENDBLK
  5
1C
 67
     1
  8
0
  0
ENDSEC
  0
SECTION
  2
ENTITIES
  0
LINE
  5
22
  8
0
 10
2.75
 20
26.428599999999999
 30
0.0
 11
2.75
 21
26.953099999999999
 31
0.0
  0
LINE
  5
23
  8
0
 10
2.75
 20
26.953099999999999
 30
0.0
 11
2.75
 21
28.352
 31
0.0
  0
LINE
  5
24
  8
0
 10
2.75
 20
26.953099999999999
 30
0.0
 11
2.75
 21
26.428599999999999
 31
0.0
  0
LINE
  5
25
  8
0
 10
2.75
 20
28.352
 30
0.0
 11
2.75
 21
30.683399999999999
 31
0.0
  0
LINE
  5
26
  8
0
 10
2.75
 20
28.352
 30
0.0
 11
2.75
 21
26.953099999999999
 31
0.0
  0
LINE
  5
27
  8
0
 10
2.75
 20
24.611999999999991
 30
0.0
 11
2.75
 21
24.0
 31
0.0
  0
LINE
  5
28
  8
0
 10
2.75
 20
24.611999999999991
 30
0.0
 11
2.75
 21
26.244
 31
0.0
  0
LINE
  5
29
  8
0
 10
2.75
 20
24.0
 30
0.0
 11
15.364520163850599
 21
24.0
 31
0.0
  0
LINE
  5
2A
  8
0
 10
2.75
 20
24.0
 30
0.0
 11
2.75
 21
24.611999999999991
 31
0.0
  0
LINE
  5
2B
  8
0
 10
2.75
 20
26.244
 30
0.0
 11
2.75
 21
24.611999999999991
 31
0.0
  0
LINE
  5
2C
  8
0
 10
2.75
 20
26.244
 30
0.0
 11
2.75
 21
28.963999999999999
 31
0.0
  0
LINE
  5
2D
  8
0
 10
2.75
 20
30.683399999999999
 30
0.0
 11
2.75
 21
33.77259999999999
 31
0.0
  0
LINE
  5
2E
  8
0
 10
2.75
 20
30.683399999999999
 30
0.0
 11
2.75
 21
28.352
 31
0.0
  0
LINE
  5
2F
  8
0
 10
2.75
 20
33.77259999999999
 30
0.0
 11
2.75
 21
37.2697
 31
0.0
  0
LINE
  5
30
  8
0
 10
2.75
 20
33.77259999999999
 30
0.0
 11
2.75
 21
30.683399999999999
 31
0.0
  0
LINE
  5
31
  8
0
 10
2.75
 20
28.963999999999999
 30
0.0
 11
2.75
 21
26.244
 31
0.0
  0
LINE
  5
32
  8
0
 10
2.75
 20
28.963999999999999
 30
0.0
 11
2.75
 21
32.567999999999998
 31
0.0
  0
LINE
  5
33
  8
0
 10
2.75
 20
32.567999999999998
 30
0.0
 11
2.75
 21
28.963999999999999
 31
0.0
  0
LINE
  5
34
  8
0
 10
2.75
 20
32.567999999999998
 30
0.0
 11
2.75
 21
36.648000000000003
 31
0.0
  0
LINE
  5
35
  8
0
 10
2.75
 20
44.7303
 30
0.0
 11
2.75
 21
41.0
 31
0.0
  0
LINE
  5
36
  8
0
 10
2.75
 20
44.7303
 30
0.0
 11
2.75
 21
48.227400000000003
 31
0.0
  0
LINE
  5
37
  8
0
 10
2.75
 20
44.7303
 30
0.0
 11
2.75
 21
48.227400000000003
 31
0.0
  0
LINE
  5
38
  8
0
 10
2.75
 20
49.432000000000002
 30
0.0
 11
2.75
 21
53.036000000000001
 31
0.0
  0
LINE
  5
39
  8
0
 10
2.75
 20
49.432000000000002
 30
0.0
 11
2.75
 21
45.35199999999999
 31
0.0
  0
LINE
  5
3A
  8
0
 10
2.75
 20
48.227400000000003
 30
0.0
 11
2.75
 21
44.7303
 31
0.0
  0
LINE
  5
3B
  8
0
 10
2.75
 20
48.227400000000003
 30
0.0
 11
2.75
 21
51.316600000000001
 31
0.0
  0
LINE
  5
3C
  8
0
 10
2.75
 20
51.316600000000001
 30
0.0
 11
2.75
 21
48.227400000000003
 31
0.0
  0
LINE
  5
3D
  8
0
 10
2.75
 20
51.316600000000001
 30
0.0
 11
2.75
 21
53.648000000000003
 31
0.0
  0
LINE
  5
3E
  8
0
 10
2.75
 20
51.316600000000001
 30
0.0
 11
2.75
 21
48.227400000000003
 31
0.0
  0
LINE
  5
3F
  8
0
 10
2.75
 20
51.316600000000001
 30
0.0
 11
2.75
 21
53.648000000000003
 31
0.0
  0
LINE
  5
40
  8
0
 10
2.75
 20
48.227400000000003
 30
0.0
 11
2.75
 21
44.7303
 31
0.0
  0
LINE
  5
41
  8
0
 10
2.75
 20
48.227400000000003
 30
0.0
 11
2.75
 21
51.316600000000001
 31
0.0
  0
LINE
  5
42
  8
0
 10
2.75
 20
53.036000000000001
 30
0.0
 11
2.75
 21
55.756
 31
0.0
  0
LINE
  5
43
  8
0
 10
2.75
 20
53.036000000000001
 30
0.0
 11
2.75
 21
49.432000000000002
 31
0.0
  0
LINE
  5
44
  8
0
 10
2.75
 20
53.648000000000003
 30
0.0
 11
2.75
 21
51.316600000000001
 31
0.0
  0
LINE
  5
45
  8
0
 10
2.75
 20
53.648000000000003
 30
0.0
 11
2.75
 21
55.046900000000001
 31
0.0
  0
LINE
  5
46
  8
0
 10
2.75
 20
55.756
 30
0.0
 11
2.75
 21
57.388000000000012
 31
0.0
  0
LINE
  5
47
  8
0
 10
2.75
 20
55.756
 30
0.0
 11
2.75
 21
53.036000000000001
 31
0.0
  0
LINE
  5
48
  8
0
 10
2.75
 20
55.571399999999997
 30
0.0
 11
2.75
 21
55.046900000000001
 31
0.0
  0
LINE
  5
49
  8
0
 10
2.75
 20
55.046900000000001
 30
0.0
 11
2.75
 21
53.648000000000003
 31
0.0
  0
LINE
  5
4A
  8
0
 10
2.75
 20
55.046900000000001
 30
0.0
 11
2.75
 21
55.571399999999997
 31
0.0
  0
LINE
  5
4B
  8
0
 10
2.75
 20
55.046900000000001
 30
0.0
 11
2.75
 21
53.648000000000003
 31
0.0
  0
LINE
  5
4C
  8
0
 10
2.75
 20
53.648000000000003
 30
0.0
 11
2.75
 21
51.316600000000001
 31
0.0
  0
LINE
  5
4D
  8
0
 10
2.75
 20
53.648000000000003
 30
0.0
 11
2.75
 21
55.046900000000001
 31
0.0
  0
LINE
  5
4E
  8
0
 10
2.75
 20
58.0
 30
0.0
 11
13.543567063582991
 21
58.0
 31
0.0
  0
LINE
  5
4F
  8
0
 10
2.75
 20
58.0
 30
0.0
 11
2.75
 21
57.388000000000012
 31
0.0
  0
LINE
  5
50
  8
0
 10
2.75
 20
57.388000000000012
 30
0.0
 11
2.75
 21
58.0
 31
0.0
  0
LINE
  5
51
  8
0
 10
2.75
 20
57.388000000000012
 30
0.0
 11
2.75
 21
55.756
 31
0.0
  0
LINE
  5
52
  8
0
 10
2.75
 20
57.388000000000012
 30
0.0
 11
2.75
 21
55.756
 31
0.0
  0
LINE
  5
53
  8
0
 10
2.75
 20
55.756
 30
0.0
 11
2.75
 21
57.388000000000012
 31
0.0
  0
LINE
  5
54
  8
0
 10
2.75
 20
55.756
 30
0.0
 11
2.75
 21
53.036000000000001
 31
0.0
  0
LINE
  5
55
  8
0
 10
2.75
 20
53.036000000000001
 30
0.0
 11
2.75
 21
55.756
 31
0.0
  0
LINE
  5
56
  8
0
 10
2.75
 20
53.036000000000001
 30
0.0
 11
2.75
 21
49.432000000000002
 31
0.0
  0
LINE
  5
57
  8
0
 10
2.75
 20
49.432000000000002
 30
0.0
 11
2.75
 21
53.036000000000001
 31
0.0
  0
LINE
  5
58
  8
0
 10
2.75
 20
49.432000000000002
 30
0.0
 11
2.75
 21
45.35199999999999
 31
0.0
  0
LINE
  5
59
  8
0
 10
2.75
 20
45.35199999999999
 30
0.0
 11
2.75
 21
49.432000000000002
 31
0.0
  0
LINE
  5
5A
  8
0
 10
2.75
 20
45.35199999999999
 30
0.0
 11
2.75
 21
41.0
 31
0.0
  0
LINE
  5
5B
  8
0
 10
2.75
 20
45.35199999999999
 30
0.0
 11
2.75
 21
49.432000000000002
 31
0.0
  0
LINE
  5
5C
  8
0
 10
2.75
 20
37.2697
 30
0.0
 11
2.75
 21
41.0
 31
0.0
  0
LINE
  5
5D
  8
0
 10
2.75
 20
37.2697
 30
0.0
 11
2.75
 21
33.77259999999999
 31
0.0
  0
LINE
  5
5E
  8
0
 10
2.75
 20
36.648000000000003
 30
0.0
 11
2.75
 21
32.567999999999998
 31
0.0
  0
LINE
  5
5F
  8
0
 10
2.75
 20
36.648000000000003
 30
0.0
 11
2.75
 21
41.0
 31
0.0
  0
LINE
  5
60
  8
0
 10
13.957599999999999
 20
37.239600000000003
 30
0.0
 11
14.625999999999999
 21
30.114499999999989
 31
0.0
  0
LINE
  5
61
  8
0
 10
14.625999999999999
 20
30.114499999999989
 30
0.0
 11
15.405900000000001
 21
23.657399999999999
 31
0.0
  0
LINE
  5
62
  8
0
 10
14.625999999999999
 20
30.114499999999989
 30
0.0
 11
15.405900000000001
 21
23.657399999999999
 31
0.0
  0
LINE
  5
63
  8
0
 10
13.561500000000001
 20
46.777999999999999
 30
0.0
 11
13.907199999999991
 21
58.176600000000001
 31
0.0
  0
LINE
  5
64
  8
0
 10
13.561500000000001
 20
46.777999999999999
 30
0.0
 11
13.957599999999999
 21
37.239600000000003
 31
0.0
  0
LINE
  5
65
  8
0
 10
13.957599999999999
 20
37.239600000000003
 30
0.0
 11
14.625999999999999
 21
30.114499999999989
 31
0.0
  0
LINE
  5
6A
  8
0
 10
13.907199999999991
 20
58.176600000000001
 30
0.0
 11
15.151999999999999
 21
70.476900000000001
 31
0.0
  0
LINE
  5
6F
  8
0
 10
15.151999999999999
 20
70.476900000000001
 30
0.0
 11
16.915400000000002
 21
78.589600000000004
 31
0.0
  0
LINE
  5
72
  8
0
 10
14.644500000000001
 20
74.821399999999997
 30
0.0
 11
15.6256968911489
 21
74.218022263709599
 31
0.0
  0
LINE
  5
73
  8
0
 10
14.423400000000001
 20
75.097700000000003
 30
0.0
 11
14.644500000000001
 21
74.821399999999997
 31
0.0
  0
LINE
  5
75
  8
0
 10
2.7500000000000089
 20
58.0
 30
0.0
 11
13.543567063582991
 21
58.0
 31
0.0
  0
LINE
  5
76
  8
0
 10
2.7500000000000089
 20
24.0
 30
0.0
 11
15.364520163850599
 21
24.0
 31
0.0
  0
LINE
  5
77
  8
0
 10
2.75
 20
41.0
 30
0.0
 11
2.75
 21
36.648000000000003
 31
0.0
  0
LINE
  5
78
  8
0
 10
2.75
 20
41.0
 30
0.0
 11
2.75
 21
37.2697
 31
0.0
  0
LINE
  5
79
  8
0
 10
2.75
 20
41.0
 30
0.0
 11
2.75
 21
45.35199999999999
 31
0.0
  0
LINE
  5
7A
  8
0
 10
2.75
 20
41.0
 30
0.0
 11
2.75
 21
44.7303
 31
0.0
  0
LINE
  5
7B
  8
0
 10
14.8118
 20
85.029399999999995
 30
0.0
 11
16.479399999999998
 21
84.349999999999994
 31
0.0
  0
LINE
  5
7C
  8
0
 10
12.279400000000001
 20
87.561800000000005
 30
0.0
 11
13.3706
 21
86.120599999999996
 31
0.0
  0
LINE
  5
7D
  8
0
 10
12.197100000000001
 20
87.520600000000002
 30
0.0
 11
13.3088
 21
86.058800000000005
 31
0.0
  0
LINE
  5
7E
  8
0
 10
11.599999999999991
 20
89.229399999999998
 30
0.0
 11
12.279400000000001
 21
87.561800000000005
 31
0.0
  0
LINE
  5
7F
  8
0
 10
11.4971
 20
89.208799999999997
 30
0.0
 11
12.197100000000001
 21
87.520600000000002
 31
0.0
  0
LINE
  5
80
  8
0
 10
13.3706
 20
86.120599999999996
 30
0.0
 11
14.8118
 21
85.029399999999995
 31
0.0
  0
LINE
  5
81
  8
0
 10
13.3088
 20
86.058800000000005
 30
0.0
 11
14.770599999999989
 21
84.947100000000006
 31
0.0
  0
LINE
  5
82
  8
0
 10
11.3529
 20
91.0
 30
0.0
 11
11.599999999999991
 21
92.770600000000002
 31
0.0
  0
LINE
  5
83
  8
0
 10
11.3529
 20
91.0
 30
0.0
 11
11.599999999999991
 21
89.229399999999998
 31
0.0
  0
LINE
  5
84
  8
0
 10
11.25
 20
91.0
 30
0.0
 11
11.4971
 21
92.791200000000003
 31
0.0
  0
LINE
  5
85
  8
0
 10
11.25
 20
91.0
 30
0.0
 11
11.4971
 21
89.208799999999997
 31
0.0
  0
LINE
  5
86
  8
0
 10
8.6099999999999994
 20
88.439999999999984
 30
0.0
 11
14.423400000000001
 21
75.097700000000003
 31
0.0
  0
LINE
  5
87
  8
0
 10
9.5700000000000003
 20
95.959999999999994
 30
0.0
 11
11.169999999999989
 21
98.079999999999984
 31
0.0
  0
LINE
  5
88
  8
0
 10
8.6099999999999994
 20
93.559999999999988
 30
0.0
 11
9.5700000000000003
 21
95.959999999999994
 31
0.0
  0
LINE
  5
89
  8
0
 10
12.279400000000001
 20
94.438199999999995
 30
0.0
 11
13.3706
 21
95.879400000000004
 31
0.0
  0
LINE
  5
8A
  8
0
 10
11.599999999999991
 20
92.770600000000002
 30
0.0
 11
12.279400000000001
 21
94.438199999999995
 31
0.0
  0
LINE
  5
8B
  8
0
 10
13.3706
 20
95.879400000000004
 30
0.0
 11
14.8118
 21
96.970600000000005
 31
0.0
  0
LINE
  5
8C
  8
0
 10
13.3088
 20
95.941199999999995
 30
0.0
 11
14.770599999999989
 21
97.052899999999994
 31
0.0
  0
LINE
  5
8D
  8
0
 10
14.8118
 20
96.970600000000005
 30
0.0
 11
16.479399999999998
 21
97.650000000000006
 31
0.0
  0
LINE
  5
8E
  8
0
 10
14.770599999999989
 20
97.052899999999994
 30
0.0
 11
16.4588
 21
97.752899999999997
 31
0.0
  0
LINE
  5
8F
  8
0
 10
12.197100000000001
 20
94.479399999999998
 30
0.0
 11
13.3088
 21
95.941199999999995
 31
0.0
  0
LINE
  5
90
  8
0
 10
11.4971
 20
92.791200000000003
 30
0.0
 11
12.197100000000001
 21
94.479399999999998
 31
0.0
  0
LINE
  5
91
  8
0
 10
13.28999999999999
 20
99.680000000000007
 30
0.0
 11
15.689999999999991
 21
100.6399999999999
 31
0.0
  0
LINE
  5
92
  8
0
 10
11.169999999999989
 20
98.079999999999984
 30
0.0
 11
13.28999999999999
 21
99.680000000000007
 31
0.0
  0
LINE
  5
93
  8
0
 10
8.25
 20
91.0
 30
0.0
 11
8.6099999999999994
 21
88.439999999999984
 31
0.0
  0
LINE
  5
94
  8
0
 10
8.25
 20
91.0
 30
0.0
 11
8.6099999999999994
 21
93.559999999999988
 31
0.0
  0
LINE
  5
98
  8
0
 10
10.25
 20
129.0
 30
0.0
 11
15.25
 21
129.0
 31
0.0
  0
LINE
  5
99
  8
0
 10
10.25
 20
129.0
 30
0.0
 11
10.25
 21
129.53999999999991
 31
0.0
  0
LINE
  5
9A
  8
0
 10
15.25
 20
127.0
 30
0.0
 11
15.25
 21
127.61199999999999
 31
0.0
  0
LINE
  5
9B
  8
0
 10
15.25
 20
127.0
 30
0.0
 11
34.415599999999991
 21
127.0
 31
0.0
  0
LINE
  5
9C
  8
0
 10
15.25
 20
127.0
 30
0.0
 11
34.25
 21
127.0
 31
0.0
  0
LINE
  5
9D
  8
0
 10
15.25
 20
127.0
 30
0.0
 11
15.25
 21
129.0
 31
0.0
  0
LINE
  5
9E
  8
0
 10
15.25
 20
127.61199999999999
 30
0.0
 11
15.25
 21
129.0
 31
0.0
  0
LINE
  5
9F
  8
0
 10
15.25
 20
127.61199999999999
 30
0.0
 11
15.25
 21
129.244
 31
0.0
  0
LINE
  5
A0
  8
0
 10
15.25
 20
127.61199999999999
 30
0.0
 11
15.25
 21
127.0
 31
0.0
  0
LINE
  5
A1
  8
0
 10
0.250000000000003
 20
138.0
 30
0.0
 11
0.250000000000003
 21
150.0
 31
0.0
  0
LINE
  5
A2
  8
0
 10
0.250000000000003
 20
138.0
 30
0.0
 11
10.25
 21
138.0
 31
0.0
  0
LINE
  5
A3
  8
0
 10
10.25
 20
138.0
 30
0.0
 11
10.25
 21
136.56
 31
0.0
  0
LINE
  5
A4
  8
0
 10
10.25
 20
138.0
 30
0.0
 11
10.25
 21
150.0
 31
0.0
  0
LINE
  5
A5
  8
0
 10
10.25
 20
140.16
 30
0.0
 11
10.25
 21
144.0
 31
0.0
  0
LINE
  5
A6
  8
0
 10
10.25
 20
140.16
 30
0.0
 11
10.25
 21
136.56
 31
0.0
  0
LINE
  5
A7
  8
0
 10
10.25
 20
136.56
 30
0.0
 11
10.25
 21
140.16
 31
0.0
  0
LINE
  5
A8
  8
0
 10
10.25
 20
136.56
 30
0.0
 11
10.25
 21
133.37999999999991
 31
0.0
  0
LINE
  5
A9
  8
0
 10
10.25
 20
136.56
 30
0.0
 11
10.25
 21
138.0
 31
0.0
  0
LINE
  5
AA
  8
0
 10
10.25
 20
133.37999999999991
 30
0.0
 11
10.25
 21
136.56
 31
0.0
  0
LINE
  5
AB
  8
0
 10
10.25
 20
133.37999999999991
 30
0.0
 11
10.25
 21
130.9799999999999
 31
0.0
  0
LINE
  5
AC
  8
0
 10
10.25
 20
130.9799999999999
 30
0.0
 11
10.25
 21
133.37999999999991
 31
0.0
  0
LINE
  5
AD
  8
0
 10
10.25
 20
130.9799999999999
 30
0.0
 11
10.25
 21
129.53999999999991
 31
0.0
  0
LINE
  5
AE
  8
0
 10
10.25
 20
129.53999999999991
 30
0.0
 11
10.25
 21
130.9799999999999
 31
0.0
  0
LINE
  5
AF
  8
0
 10
10.25
 20
129.53999999999991
 30
0.0
 11
10.25
 21
129.0
 31
0.0
  0
LINE
  5
B0
  8
0
 10
15.25
 20
129.244
 30
0.0
 11
15.25
 21
131.96399999999991
 31
0.0
  0
LINE
  5
B1
  8
0
 10
15.25
 20
129.244
 30
0.0
 11
15.25
 21
127.61199999999999
 31
0.0
  0
LINE
  5
B2
  8
0
 10
15.25
 20
131.96399999999991
 30
0.0
 11
15.25
 21
135.5679999999999
 31
0.0
  0
LINE
  5
B3
  8
0
 10
15.25
 20
131.96399999999991
 30
0.0
 11
15.25
 21
129.244
 31
0.0
  0
LINE
  5
B4
  8
0
 10
15.25
 20
139.64799999999991
 30
0.0
 11
15.25
 21
144.0
 31
0.0
  0
LINE
  5
B5
  8
0
 10
15.25
 20
139.64799999999991
 30
0.0
 11
15.25
 21
135.5679999999999
 31
0.0
  0
LINE
  5
B6
  8
0
 10
15.25
 20
135.5679999999999
 30
0.0
 11
15.25
 21
139.64799999999991
 31
0.0
  0
LINE
  5
B7
  8
0
 10
15.25
 20
135.5679999999999
 30
0.0
 11
15.25
 21
131.96399999999991
 31
0.0
  0
LINE
  5
B8
  8
0
 10
15.25
 20
140.16
 30
0.0
 11
15.25
 21
144.0
 31
0.0
  0
LINE
  5
B9
  8
0
 10
15.25
 20
140.16
 30
0.0
 11
15.25
 21
136.56
 31
0.0
  0
LINE
  5
BA
  8
0
 10
15.25
 20
136.56
 30
0.0
 11
15.25
 21
140.16
 31
0.0
  0
LINE
  5
BB
  8
0
 10
15.25
 20
136.56
 30
0.0
 11
15.25
 21
133.37999999999991
 31
0.0
  0
LINE
  5
BC
  8
0
 10
15.25
 20
133.37999999999991
 30
0.0
 11
15.25
 21
136.56
 31
0.0
  0
LINE
  5
BD
  8
0
 10
15.25
 20
133.37999999999991
 30
0.0
 11
15.25
 21
130.9799999999999
 31
0.0
  0
LINE
  5
BE
  8
0
 10
15.25
 20
130.9799999999999
 30
0.0
 11
15.25
 21
133.37999999999991
 31
0.0
  0
LINE
  5
BF
  8
0
 10
15.25
 20
130.9799999999999
 30
0.0
 11
15.25
 21
129.53999999999991
 31
0.0
  0
LINE
  5
C0
  8
0
 10
15.25
 20
129.53999999999991
 30
0.0
 11
15.25
 21
130.9799999999999
 31
0.0
  0
LINE
  5
C1
  8
0
 10
15.25
 20
129.53999999999991
 30
0.0
 11
15.25
 21
129.0
 31
0.0
  0
LINE
  5
C2
  8
0
 10
10.25
 20
144.0
 30
0.0
 11
10.25
 21
147.84
 31
0.0
  0
LINE
  5
C3
  8
0
 10
10.25
 20
144.0
 30
0.0
 11
10.25
 21
140.16
 31
0.0
  0
LINE
  5
C4
  8
0
 10
0.250000000000003
 20
150.0
 30
0.0
 11
10.25
 21
150.0
 31
0.0
  0
LINE
  5
C5
  8
0
 10
0.250000000000003
 20
150.0
 30
0.0
 11
0.250000000000003
 21
138.0
 31
0.0
  0
LINE
  5
C6
  8
0
 10
10.25
 20
150.0
 30
0.0
 11
10.25
 21
151.44
 31
0.0
  0
LINE
  5
C7
  8
0
 10
10.25
 20
150.0
 30
0.0
 11
10.25
 21
138.0
 31
0.0
  0
LINE
  5
C8
  8
0
 10
10.25
 20
147.84
 30
0.0
 11
10.25
 21
151.44
 31
0.0
  0
LINE
  5
C9
  8
0
 10
10.25
 20
147.84
 30
0.0
 11
10.25
 21
144.0
 31
0.0
  0
LINE
  5
CA
  8
0
 10
15.25
 20
148.352
 30
0.0
 11
15.25
 21
144.0
 31
0.0
  0
LINE
  5
CB
  8
0
 10
15.25
 20
148.352
 30
0.0
 11
15.25
 21
152.43199999999999
 31
0.0
  0
LINE
  5
CC
  8
0
 10
10.25
 20
151.44
 30
0.0
 11
10.25
 21
154.61999999999989
 31
0.0
  0
LINE
  5
CD
  8
0
 10
10.25
 20
151.44
 30
0.0
 11
10.25
 21
147.84
 31
0.0
  0
LINE
  5
CE
  8
0
 10
10.25
 20
151.44
 30
0.0
 11
10.25
 21
150.0
 31
0.0
  0
LINE
  5
CF
  8
0
 10
15.25
 20
144.0
 30
0.0
 11
15.25
 21
147.84
 31
0.0
  0
LINE
  5
D0
  8
0
 10
15.25
 20
144.0
 30
0.0
 11
15.25
 21
140.16
 31
0.0
  0
LINE
  5
D1
  8
0
 10
15.25
 20
144.0
 30
0.0
 11
15.25
 21
148.352
 31
0.0
  0
LINE
  5
D2
  8
0
 10
15.25
 20
144.0
 30
0.0
 11
15.25
 21
139.64799999999991
 31
0.0
  0
LINE
  5
D3
  8
0
 10
15.25
 20
147.84
 30
0.0
 11
15.25
 21
151.44
 31
0.0
  0
LINE
  5
D4
  8
0
 10
15.25
 20
147.84
 30
0.0
 11
15.25
 21
144.0
 31
0.0
  0
LINE
  5
D5
  8
0
 10
10.25
 20
154.61999999999989
 30
0.0
 11
10.25
 21
157.0199999999999
 31
0.0
  0
LINE
  5
D6
  8
0
 10
10.25
 20
154.61999999999989
 30
0.0
 11
10.25
 21
151.44
 31
0.0
  0
LINE
  5
D7
  8
0
 10
15.25
 20
152.43199999999999
 30
0.0
 11
15.25
 21
148.352
 31
0.0
  0
LINE
  5
D8
  8
0
 10
15.25
 20
152.43199999999999
 30
0.0
 11
15.25
 21
156.036
 31
0.0
  0
LINE
  5
D9
  8
0
 10
15.25
 20
156.036
 30
0.0
 11
15.25
 21
152.43199999999999
 31
0.0
  0
LINE
  5
DA
  8
0
 10
15.25
 20
156.036
 30
0.0
 11
15.25
 21
158.756
 31
0.0
  0
LINE
  5
DB
  8
0
 10
10.25
 20
157.0199999999999
 30
0.0
 11
10.25
 21
158.46000000000001
 31
0.0
  0
LINE
  5
DC
  8
0
 10
10.25
 20
157.0199999999999
 30
0.0
 11
10.25
 21
154.61999999999989
 31
0.0
  0
LINE
  5
DD
  8
0
 10
15.25
 20
151.44
 30
0.0
 11
15.25
 21
154.61999999999989
 31
0.0
  0
LINE
  5
DE
  8
0
 10
15.25
 20
151.44
 30
0.0
 11
15.25
 21
147.84
 31
0.0
  0
LINE
  5
DF
  8
0
 10
15.25
 20
154.61999999999989
 30
0.0
 11
15.25
 21
157.0199999999999
 31
0.0
  0
LINE
  5
E0
  8
0
 10
15.25
 20
154.61999999999989
 30
0.0
 11
15.25
 21
151.44
 31
0.0
  0
LINE
  5
E1
  8
0
 10
10.25
 20
158.46000000000001
 30
0.0
 11
10.25
 21
159.0
 31
0.0
  0
LINE
  5
E2
  8
0
 10
10.25
 20
158.46000000000001
 30
0.0
 11
10.25
 21
157.0199999999999
 31
0.0
  0
LINE
  5
E3
  8
0
 10
15.25
 20
158.756
 30
0.0
 11
15.25
 21
156.036
 31
0.0
  0
LINE
  5
E4
  8
0
 10
15.25
 20
158.756
 30
0.0
 11
15.25
 21
160.38800000000001
 31
0.0
  0
LINE
  5
E5
  8
0
 10
10.25
 20
159.0
 30
0.0
 11
15.25
 21
159.0
 31
0.0
  0
LINE
  5
E6
  8
0
 10
10.25
 20
159.0
 30
0.0
 11
10.25
 21
158.46000000000001
 31
0.0
  0
LINE
  5
E7
  8
0
 10
15.25
 20
157.0199999999999
 30
0.0
 11
15.25
 21
158.46000000000001
 31
0.0
  0
LINE
  5
E8
  8
0
 10
15.25
 20
157.0199999999999
 30
0.0
 11
15.25
 21
154.61999999999989
 31
0.0
  0
LINE
  5
E9
  8
0
 10
15.25
 20
158.46000000000001
 30
0.0
 11
15.25
 21
159.0
 31
0.0
  0
LINE
  5
EA
  8
0
 10
15.25
 20
158.46000000000001
 30
0.0
 11
15.25
 21
157.0199999999999
 31
0.0
  0
LINE
  5
EB
  8
0
 10
15.25
 20
129.0
 30
0.0
 11
15.25
 21
127.0
 31
0.0
  0
LINE
  5
EC
  8
0
 10
15.25
 20
129.0
 30
0.0
 11
15.25
 21
129.53999999999991
 31
0.0
  0
LINE
  5
ED
  8
0
 10
15.25
 20
129.0
 30
0.0
 11
15.25
 21
127.61199999999999
 31
0.0
  0
LINE
  5
EE
  8
0
 10
15.25
 20
160.38800000000001
 30
0.0
 11
15.25
 21
161.0
 31
0.0
  0
LINE
  5
EF
  8
0
 10
15.25
 20
160.38800000000001
 30
0.0
 11
15.25
 21
158.756
 31
0.0
  0
LINE
  5
F0
  8
0
 10
15.25
 20
160.38800000000001
 30
0.0
 11
15.25
 21
159.0
 31
0.0
  0
LINE
  5
F1
  8
0
 10
8.6099999999999994
 20
168.44
 30
0.0
 11
12.723213611152801
 21
159.0
 31
0.0
  0
LINE
  5
F2
  8
0
 10
8.6099999999999994
 20
173.55999999999989
 30
0.0
 11
9.5700000000000003
 21
175.96000000000001
 31
0.0
  0
LINE
  5
F3
  8
0
 10
8.25
 20
171.0
 30
0.0
 11
8.6099999999999994
 21
173.55999999999989
 31
0.0
  0
LINE
  5
F4
  8
0
 10
8.25
 20
171.0
 30
0.0
 11
8.6099999999999994
 21
168.44
 31
0.0
  0
LINE
  5
108
  8
0
 10
13.28999999999999
 20
179.68000000000001
 30
0.0
 11
15.689999999999991
 21
180.63999999999999
 31
0.0
  0
LINE
  5
109
  8
0
 10
11.169999999999989
 20
178.08000000000001
 30
0.0
 11
13.28999999999999
 21
179.68000000000001
 31
0.0
  0
LINE
  5
10A
  8
0
 10
9.5700000000000003
 20
175.96000000000001
 30
0.0
 11
11.169999999999989
 21
178.08000000000001
 31
0.0
  0
LINE
  5
10B
  8
0
 10
15.25
 20
161.0
 30
0.0
 11
15.25
 21
160.38800000000001
 31
0.0
  0
LINE
  5
10C
  8
0
 10
15.25
 20
161.0
 30
0.0
 11
34.25
 21
161.0
 31
0.0
  0
LINE
  5
10D
  8
0
 10
15.25
 20
159.0
 30
0.0
 11
15.25
 21
160.38800000000001
 31
0.0
  0
LINE
  5
10E
  8
0
 10
15.25
 20
159.0
 30
0.0
 11
15.25
 21
158.46000000000001
 31
0.0
  0
LINE
  5
10F
  8
0
 10
10.25
 20
209.0
 30
0.0
 11
15.25
 21
209.0
 31
0.0
  0
LINE
  5
110
  8
0
 10
10.25
 20
209.0
 30
0.0
 11
10.25
 21
209.53999999999999
 31
0.0
  0
LINE
  5
111
  8
0
 10
10.25
 20
210.9799999999999
 30
0.0
 11
10.25
 21
213.37999999999991
 31
0.0
  0
LINE
  5
112
  8
0
 10
10.25
 20
210.9799999999999
 30
0.0
 11
10.25
 21
209.53999999999999
 31
0.0
  0
LINE
  5
113
  8
0
 10
10.25
 20
209.53999999999999
 30
0.0
 11
10.25
 21
210.9799999999999
 31
0.0
  0
LINE
  5
114
  8
0
 10
10.25
 20
209.53999999999999
 30
0.0
 11
10.25
 21
209.0
 31
0.0
  0
LINE
  5
115
  8
0
 10
10.25
 20
213.37999999999991
 30
0.0
 11
10.25
 21
216.55999999999989
 31
0.0
  0
LINE
  5
116
  8
0
 10
10.25
 20
213.37999999999991
 30
0.0
 11
10.25
 21
210.9799999999999
 31
0.0
  0
LINE
  5
117
  8
0
 10
15.25
 20
213.37999999999991
 30
0.0
 11
15.25
 21
216.55999999999989
 31
0.0
  0
LINE
  5
118
  8
0
 10
15.25
 20
213.37999999999991
 30
0.0
 11
15.25
 21
210.9799999999999
 31
0.0
  0
LINE
  5
119
  8
0
 10
15.25
 20
210.9799999999999
 30
0.0
 11
15.25
 21
213.37999999999991
 31
0.0
  0
LINE
  5
11A
  8
0
 10
15.25
 20
210.9799999999999
 30
0.0
 11
15.25
 21
209.53999999999999
 31
0.0
  0
LINE
  5
11B
  8
0
 10
15.25
 20
209.53999999999999
 30
0.0
 11
15.25
 21
210.9799999999999
 31
0.0
  0
LINE
  5
11C
  8
0
 10
15.25
 20
209.53999999999999
 30
0.0
 11
15.25
 21
209.0
 31
0.0
  0
LINE
  5
11D
  8
0
 10
10.25
 20
216.55999999999989
 30
0.0
 11
10.25
 21
220.16
 31
0.0
  0
LINE
  5
11E
  8
0
 10
10.25
 20
216.55999999999989
 30
0.0
 11
10.25
 21
213.37999999999991
 31
0.0
  0
LINE
  5
11F
  8
0
 10
10.25
 20
216.55999999999989
 30
0.0
 11
10.25
 21
218.0
 31
0.0
  0
LINE
  5
120
  8
0
 10
15.25
 20
216.55999999999989
 30
0.0
 11
15.25
 21
220.16
 31
0.0
  0
LINE
  5
121
  8
0
 10
15.25
 20
216.55999999999989
 30
0.0
 11
15.25
 21
213.37999999999991
 31
0.0
  0
LINE
  5
122
  8
0
 10
10.25
 20
218.0
 30
0.0
 11
10.25
 21
230.0
 31
0.0
  0
LINE
  5
123
  8
0
 10
10.25
 20
218.0
 30
0.0
 11
10.25
 21
216.55999999999989
 31
0.0
  0
LINE
  5
124
  8
0
 10
10.25
 20
220.16
 30
0.0
 11
10.25
 21
224.0
 31
0.0
  0
LINE
  5
125
  8
0
 10
10.25
 20
220.16
 30
0.0
 11
10.25
 21
216.55999999999989
 31
0.0
  0
LINE
  5
126
  8
0
 10
15.25
 20
220.16
 30
0.0
 11
15.25
 21
224.0
 31
0.0
  0
LINE
  5
127
  8
0
 10
15.25
 20
220.16
 30
0.0
 11
15.25
 21
216.55999999999989
 31
0.0
  0
LINE
  5
128
  8
0
 10
10.25
 20
224.0
 30
0.0
 11
10.25
 21
227.83999999999989
 31
0.0
  0
LINE
  5
129
  8
0
 10
10.25
 20
224.0
 30
0.0
 11
10.25
 21
220.16
 31
0.0
  0
LINE
  5
12A
  8
0
 10
0.250000000000003
 20
218.0
 30
0.0
 11
0.250000000000003
 21
230.0
 31
0.0
  0
LINE
  5
12B
  8
0
 10
0.250000000000003
 20
218.0
 30
0.0
 11
10.25
 21
218.0
 31
0.0
  0
LINE
  5
12C
  8
0
 10
15.25
 20
219.648
 30
0.0
 11
15.25
 21
215.5679999999999
 31
0.0
  0
LINE
  5
12D
  8
0
 10
15.25
 20
219.648
 30
0.0
 11
15.25
 21
224.0
 31
0.0
  0
LINE
  5
12E
  8
0
 10
15.25
 20
215.5679999999999
 30
0.0
 11
15.25
 21
211.964
 31
0.0
  0
LINE
  5
12F
  8
0
 10
15.25
 20
215.5679999999999
 30
0.0
 11
15.25
 21
219.648
 31
0.0
  0
LINE
  5
130
  8
0
 10
15.25
 20
211.964
 30
0.0
 11
15.25
 21
209.244
 31
0.0
  0
LINE
  5
131
  8
0
 10
15.25
 20
211.964
 30
0.0
 11
15.25
 21
215.5679999999999
 31
0.0
  0
LINE
  5
132
  8
0
 10
15.25
 20
209.244
 30
0.0
 11
15.25
 21
207.61199999999991
 31
0.0
  0
LINE
  5
133
  8
0
 10
15.25
 20
209.244
 30
0.0
 11
15.25
 21
211.964
 31
0.0
  0
LINE
  5
134
  8
0
 10
15.25
 20
207.61199999999991
 30
0.0
 11
15.25
 21
207.0
 31
0.0
  0
LINE
  5
135
  8
0
 10
15.25
 20
207.61199999999991
 30
0.0
 11
15.25
 21
209.244
 31
0.0
  0
LINE
  5
136
  8
0
 10
15.25
 20
207.61199999999991
 30
0.0
 11
15.25
 21
209.0
 31
0.0
  0
LINE
  5
137
  8
0
 10
10.25
 20
227.83999999999989
 30
0.0
 11
10.25
 21
231.44
 31
0.0
  0
LINE
  5
138
  8
0
 10
10.25
 20
227.83999999999989
 30
0.0
 11
10.25
 21
224.0
 31
0.0
  0
LINE
  5
139
  8
0
 10
15.25
 20
227.83999999999989
 30
0.0
 11
15.25
 21
231.44
 31
0.0
  0
LINE
  5
13A
  8
0
 10
15.25
 20
227.83999999999989
 30
0.0
 11
15.25
 21
224.0
 31
0.0
  0
LINE
  5
13B
  8
0
 10
10.25
 20
231.44
 30
0.0
 11
10.25
 21
234.62
 31
0.0
  0
LINE
  5
13C
  8
0
 10
10.25
 20
231.44
 30
0.0
 11
10.25
 21
227.83999999999989
 31
0.0
  0
LINE
  5
13D
  8
0
 10
10.25
 20
231.44
 30
0.0
 11
10.25
 21
230.0
 31
0.0
  0
LINE
  5
13E
  8
0
 10
15.25
 20
231.44
 30
0.0
 11
15.25
 21
234.62
 31
0.0
  0
LINE
  5
13F
  8
0
 10
15.25
 20
231.44
 30
0.0
 11
15.25
 21
227.83999999999989
 31
0.0
  0
LINE
  5
140
  8
0
 10
10.25
 20
230.0
 30
0.0
 11
10.25
 21
218.0
 31
0.0
  0
LINE
  5
141
  8
0
 10
10.25
 20
230.0
 30
0.0
 11
10.25
 21
231.44
 31
0.0
  0
LINE
  5
142
  8
0
 10
0.250000000000003
 20
230.0
 30
0.0
 11
10.25
 21
230.0
 31
0.0
  0
LINE
  5
143
  8
0
 10
0.250000000000003
 20
230.0
 30
0.0
 11
0.250000000000003
 21
218.0
 31
0.0
  0
LINE
  5
144
  8
0
 10
15.25
 20
224.0
 30
0.0
 11
15.25
 21
228.352
 31
0.0
  0
LINE
  5
145
  8
0
 10
15.25
 20
224.0
 30
0.0
 11
15.25
 21
219.648
 31
0.0
  0
LINE
  5
146
  8
0
 10
15.25
 20
224.0
 30
0.0
 11
15.25
 21
227.83999999999989
 31
0.0
  0
LINE
  5
147
  8
0
 10
15.25
 20
224.0
 30
0.0
 11
15.25
 21
220.16
 31
0.0
  0
LINE
  5
148
  8
0
 10
15.25
 20
228.352
 30
0.0
 11
15.25
 21
232.43199999999999
 31
0.0
  0
LINE
  5
149
  8
0
 10
15.25
 20
228.352
 30
0.0
 11
15.25
 21
224.0
 31
0.0
  0
LINE
  5
14A
  8
0
 10
10.25
 20
234.62
 30
0.0
 11
10.25
 21
237.02000000000001
 31
0.0
  0
LINE
  5
14B
  8
0
 10
10.25
 20
234.62
 30
0.0
 11
10.25
 21
231.44
 31
0.0
  0
LINE
  5
14C
  8
0
 10
10.25
 20
237.02000000000001
 30
0.0
 11
10.25
 21
238.46000000000001
 31
0.0
  0
LINE
  5
14D
  8
0
 10
10.25
 20
237.02000000000001
 30
0.0
 11
10.25
 21
234.62
 31
0.0
  0
LINE
  5
14E
  8
0
 10
15.25
 20
234.62
 30
0.0
 11
15.25
 21
237.02000000000001
 31
0.0
  0
LINE
  5
14F
  8
0
 10
15.25
 20
234.62
 30
0.0
 11
15.25
 21
231.44
 31
0.0
  0
LINE
  5
150
  8
0
 10
10.25
 20
238.46000000000001
 30
0.0
 11
10.25
 21
239.0
 31
0.0
  0
LINE
  5
151
  8
0
 10
10.25
 20
238.46000000000001
 30
0.0
 11
10.25
 21
237.02000000000001
 31
0.0
  0
LINE
  5
152
  8
0
 10
15.25
 20
237.02000000000001
 30
0.0
 11
15.25
 21
238.46000000000001
 31
0.0
  0
LINE
  5
153
  8
0
 10
15.25
 20
237.02000000000001
 30
0.0
 11
15.25
 21
234.62
 31
0.0
  0
LINE
  5
154
  8
0
 10
15.25
 20
238.46000000000001
 30
0.0
 11
15.25
 21
239.0
 31
0.0
  0
LINE
  5
155
  8
0
 10
15.25
 20
238.46000000000001
 30
0.0
 11
15.25
 21
237.02000000000001
 31
0.0
  0
LINE
  5
156
  8
0
 10
15.25
 20
232.43199999999999
 30
0.0
 11
15.25
 21
236.03599999999989
 31
0.0
  0
LINE
  5
157
  8
0
 10
15.25
 20
232.43199999999999
 30
0.0
 11
15.25
 21
228.352
 31
0.0
  0
LINE
  5
158
  8
0
 10
15.25
 20
236.03599999999989
 30
0.0
 11
15.25
 21
238.75599999999989
 31
0.0
  0
LINE
  5
159
  8
0
 10
15.25
 20
236.03599999999989
 30
0.0
 11
15.25
 21
232.43199999999999
 31
0.0
  0
LINE
  5
15A
  8
0
 10
10.25
 20
239.0
 30
0.0
 11
15.25
 21
239.0
 31
0.0
  0
LINE
  5
15B
  8
0
 10
10.25
 20
239.0
 30
0.0
 11
10.25
 21
238.46000000000001
 31
0.0
  0
LINE
  5
15C
  8
0
 10
15.25
 20
239.0
 30
0.0
 11
15.25
 21
240.38800000000001
 31
0.0
  0
LINE
  5
15D
  8
0
 10
15.25
 20
239.0
 30
0.0
 11
15.25
 21
238.46000000000001
 31
0.0
  0
LINE
  5
15E
  8
0
 10
15.25
 20
238.75599999999989
 30
0.0
 11
15.25
 21
240.38800000000001
 31
0.0
  0
LINE
  5
15F
  8
0
 10
15.25
 20
238.75599999999989
 30
0.0
 11
15.25
 21
236.03599999999989
 31
0.0
  0
LINE
  5
160
  8
0
 10
15.25
 20
240.38800000000001
 30
0.0
 11
15.25
 21
241.0
 31
0.0
  0
LINE
  5
161
  8
0
 10
15.25
 20
240.38800000000001
 30
0.0
 11
15.25
 21
238.75599999999989
 31
0.0
  0
LINE
  5
162
  8
0
 10
15.25
 20
240.38800000000001
 30
0.0
 11
15.25
 21
239.0
 31
0.0
  0
LINE
  5
171
  8
0
 10
8.6099999999999994
 20
248.43999999999991
 30
0.0
 11
12.723213611152691
 21
239.0
 31
0.0
  0
LINE
  5
178
  8
0
 10
13.28999999999999
 20
259.67999999999989
 30
0.0
 11
15.689999999999991
 21
260.63999999999987
 31
0.0
  0
LINE
  5
179
  8
0
 10
11.169999999999989
 20
258.07999999999993
 30
0.0
 11
13.28999999999999
 21
259.67999999999989
 31
0.0
  0
LINE
  5
17A
  8
0
 10
9.5700000000000003
 20
255.96000000000001
 30
0.0
 11
11.169999999999989
 21
258.07999999999993
 31
0.0
  0
LINE
  5
17B
  8
0
 10
8.6099999999999994
 20
253.56
 30
0.0
 11
9.5700000000000003
 21
255.96000000000001
 31
0.0
  0
LINE
  5
17C
  8
0
 10
8.25
 20
251.0
 30
0.0
 11
8.6099999999999994
 21
253.56
 31
0.0
  0
LINE
  5
17D
  8
0
 10
8.25
 20
251.0
 30
0.0
 11
8.6099999999999994
 21
248.43999999999991
 31
0.0
  0
LINE
  5
17E
  8
0
 10
15.25
 20
241.0
 30
0.0
 11
34.25
 21
241.0
 31
0.0
  0
LINE
  5
17F
  8
0
 10
15.25
 20
241.0
 30
0.0
 11
15.25
 21
240.38800000000001
 31
0.0
  0
LINE
  5
180
  8
0
 10
15.25
 20
209.0
 30
0.0
 11
15.25
 21
207.0
 31
0.0
  0
LINE
  5
181
  8
0
 10
15.25
 20
209.0
 30
0.0
 11
15.25
 21
207.61199999999991
 31
0.0
  0
LINE
  5
182
  8
0
 10
15.25
 20
209.0
 30
0.0
 11
15.25
 21
209.53999999999999
 31
0.0
  0
LINE
  5
183
  8
0
 10
15.25
 20
207.0
 30
0.0
 11
34.415599999999991
 21
207.0
 31
0.0
  0
LINE
  5
184
  8
0
 10
15.25
 20
207.0
 30
0.0
 11
34.25
 21
207.0
 31
0.0
  0
LINE
  5
185
  8
0
 10
15.25
 20
207.0
 30
0.0
 11
15.25
 21
207.61199999999991
 31
0.0
  0
LINE
  5
186
  8
0
 10
15.25
 20
207.0
 30
0.0
 11
15.25
 21
209.0
 31
0.0
  0
LINE
  5
187
  8
0
 10
15.25
 20
287.0
 30
0.0
 11
15.25
 21
287.61200000000002
 31
0.0
  0
LINE
  5
188
  8
0
 10
15.25
 20
287.0
 30
0.0
 11
34.415599999999991
 21
287.0
 31
0.0
  0
LINE
  5
189
  8
0
 10
15.25
 20
287.0
 30
0.0
 11
34.25
 21
287.0
 31
0.0
  0
LINE
  5
18A
  8
0
 10
15.25
 20
287.0
 30
0.0
 11
15.25
 21
289.0
 31
0.0
  0
LINE
  5
18B
  8
0
 10
10.25
 20
289.54000000000002
 30
0.0
 11
10.25
 21
290.98000000000002
 31
0.0
  0
LINE
  5
18C
  8
0
 10
10.25
 20
289.54000000000002
 30
0.0
 11
10.25
 21
289.0
 31
0.0
  0
LINE
  5
18D
  8
0
 10
10.25
 20
289.0
 30
0.0
 11
15.25
 21
289.0
 31
0.0
  0
LINE
  5
18E
  8
0
 10
10.25
 20
289.0
 30
0.0
 11
10.25
 21
289.54000000000002
 31
0.0
  0
LINE
  5
18F
  8
0
 10
10.25
 20
290.98000000000002
 30
0.0
 11
10.25
 21
293.38
 31
0.0
  0
LINE
  5
190
  8
0
 10
10.25
 20
290.98000000000002
 30
0.0
 11
10.25
 21
289.54000000000002
 31
0.0
  0
LINE
  5
191
  8
0
 10
15.25
 20
290.98000000000002
 30
0.0
 11
15.25
 21
293.38
 31
0.0
  0
LINE
  5
192
  8
0
 10
15.25
 20
290.98000000000002
 30
0.0
 11
15.25
 21
289.54000000000002
 31
0.0
  0
LINE
  5
193
  8
0
 10
15.25
 20
289.54000000000002
 30
0.0
 11
15.25
 21
290.98000000000002
 31
0.0
  0
LINE
  5
194
  8
0
 10
15.25
 20
289.54000000000002
 30
0.0
 11
15.25
 21
289.0
 31
0.0
  0
LINE
  5
195
  8
0
 10
15.25
 20
289.0
 30
0.0
 11
15.25
 21
287.61200000000002
 31
0.0
  0
LINE
  5
196
  8
0
 10
15.25
 20
289.0
 30
0.0
 11
15.25
 21
287.0
 31
0.0
  0
LINE
  5
197
  8
0
 10
15.25
 20
289.0
 30
0.0
 11
15.25
 21
289.54000000000002
 31
0.0
  0
LINE
  5
198
  8
0
 10
10.25
 20
296.56
 30
0.0
 11
10.25
 21
300.16000000000003
 31
0.0
  0
LINE
  5
199
  8
0
 10
10.25
 20
296.56
 30
0.0
 11
10.25
 21
293.38
 31
0.0
  0
LINE
  5
19A
  8
0
 10
10.25
 20
296.56
 30
0.0
 11
10.25
 21
298.0
 31
0.0
  0
LINE
  5
19B
  8
0
 10
10.25
 20
293.38
 30
0.0
 11
10.25
 21
296.56
 31
0.0
  0
LINE
  5
19C
  8
0
 10
10.25
 20
293.38
 30
0.0
 11
10.25
 21
290.98000000000002
 31
0.0
  0
LINE
  5
19D
  8
0
 10
0.250000000000003
 20
298.0
 30
0.0
 11
0.250000000000003
 21
310.0
 31
0.0
  0
LINE
  5
19E
  8
0
 10
0.250000000000003
 20
298.0
 30
0.0
 11
10.25
 21
298.0
 31
0.0
  0
LINE
  5
19F
  8
0
 10
10.25
 20
298.0
 30
0.0
 11
10.25
 21
296.56
 31
0.0
  0
LINE
  5
1A0
  8
0
 10
10.25
 20
298.0
 30
0.0
 11
10.25
 21
310.0
 31
0.0
  0
LINE
  5
1A1
  8
0
 10
15.25
 20
296.56
 30
0.0
 11
15.25
 21
300.16000000000003
 31
0.0
  0
LINE
  5
1A2
  8
0
 10
15.25
 20
296.56
 30
0.0
 11
15.25
 21
293.38
 31
0.0
  0
LINE
  5
1A3
  8
0
 10
15.25
 20
293.38
 30
0.0
 11
15.25
 21
296.56
 31
0.0
  0
LINE
  5
1A4
  8
0
 10
15.25
 20
293.38
 30
0.0
 11
15.25
 21
290.98000000000002
 31
0.0
  0
LINE
  5
1A5
  8
0
 10
10.25
 20
300.16000000000003
 30
0.0
 11
10.25
 21
304.0
 31
0.0
  0
LINE
  5
1A6
  8
0
 10
10.25
 20
300.16000000000003
 30
0.0
 11
10.25
 21
296.56
 31
0.0
  0
LINE
  5
1A7
  8
0
 10
15.25
 20
300.16000000000003
 30
0.0
 11
15.25
 21
304.0
 31
0.0
  0
LINE
  5
1A8
  8
0
 10
15.25
 20
300.16000000000003
 30
0.0
 11
15.25
 21
296.56
 31
0.0
  0
LINE
  5
1A9
  8
0
 10
10.25
 20
304.0
 30
0.0
 11
10.25
 21
307.83999999999992
 31
0.0
  0
LINE
  5
1AA
  8
0
 10
10.25
 20
304.0
 30
0.0
 11
10.25
 21
300.16000000000003
 31
0.0
  0
LINE
  5
1AB
  8
0
 10
10.25
 20
307.83999999999992
 30
0.0
 11
10.25
 21
311.43999999999988
 31
0.0
  0
LINE
  5
1AC
  8
0
 10
10.25
 20
307.83999999999992
 30
0.0
 11
10.25
 21
304.0
 31
0.0
  0
LINE
  5
1AD
  8
0
 10
15.25
 20
307.83999999999992
 30
0.0
 11
15.25
 21
311.43999999999988
 31
0.0
  0
LINE
  5
1AE
  8
0
 10
15.25
 20
307.83999999999992
 30
0.0
 11
15.25
 21
304.0
 31
0.0
  0
LINE
  5
1AF
  8
0
 10
15.25
 20
299.64799999999991
 30
0.0
 11
15.25
 21
295.56799999999998
 31
0.0
  0
LINE
  5
1B0
  8
0
 10
15.25
 20
299.64799999999991
 30
0.0
 11
15.25
 21
304.0
 31
0.0
  0
LINE
  5
1B1
  8
0
 10
15.25
 20
295.56799999999998
 30
0.0
 11
15.25
 21
291.964
 31
0.0
  0
LINE
  5
1B2
  8
0
 10
15.25
 20
295.56799999999998
 30
0.0
 11
15.25
 21
299.64799999999991
 31
0.0
  0
LINE
  5
1B3
  8
0
 10
15.25
 20
291.964
 30
0.0
 11
15.25
 21
289.24400000000003
 31
0.0
  0
LINE
  5
1B4
  8
0
 10
15.25
 20
291.964
 30
0.0
 11
15.25
 21
295.56799999999998
 31
0.0
  0
LINE
  5
1B5
  8
0
 10
15.25
 20
289.24400000000003
 30
0.0
 11
15.25
 21
287.61200000000002
 31
0.0
  0
LINE
  5
1B6
  8
0
 10
15.25
 20
289.24400000000003
 30
0.0
 11
15.25
 21
291.964
 31
0.0
  0
LINE
  5
1B7
  8
0
 10
15.25
 20
287.61200000000002
 30
0.0
 11
15.25
 21
287.0
 31
0.0
  0
LINE
  5
1B8
  8
0
 10
15.25
 20
287.61200000000002
 30
0.0
 11
15.25
 21
289.24400000000003
 31
0.0
  0
LINE
  5
1B9
  8
0
 10
15.25
 20
287.61200000000002
 30
0.0
 11
15.25
 21
289.0
 31
0.0
  0
LINE
  5
1BA
  8
0
 10
15.25
 20
304.0
 30
0.0
 11
15.25
 21
308.35199999999998
 31
0.0
  0
LINE
  5
1BB
  8
0
 10
15.25
 20
304.0
 30
0.0
 11
15.25
 21
299.64799999999991
 31
0.0
  0
LINE
  5
1BC
  8
0
 10
15.25
 20
304.0
 30
0.0
 11
15.25
 21
307.83999999999992
 31
0.0
  0
LINE
  5
1BD
  8
0
 10
15.25
 20
304.0
 30
0.0
 11
15.25
 21
300.16000000000003
 31
0.0
  0
LINE
  5
1BE
  8
0
 10
0.250000000000003
 20
310.0
 30
0.0
 11
10.25
 21
310.0
 31
0.0
  0
LINE
  5
1BF
  8
0
 10
0.250000000000003
 20
310.0
 30
0.0
 11
0.250000000000003
 21
298.0
 31
0.0
  0
LINE
  5
1C0
  8
0
 10
10.25
 20
310.0
 30
0.0
 11
10.25
 21
311.43999999999988
 31
0.0
  0
LINE
  5
1C1
  8
0
 10
10.25
 20
310.0
 30
0.0
 11
10.25
 21
298.0
 31
0.0
  0
LINE
  5
1C2
  8
0
 10
10.25
 20
311.43999999999988
 30
0.0
 11
10.25
 21
314.62
 31
0.0
  0
LINE
  5
1C3
  8
0
 10
10.25
 20
311.43999999999988
 30
0.0
 11
10.25
 21
307.83999999999992
 31
0.0
  0
LINE
  5
1C4
  8
0
 10
10.25
 20
311.43999999999988
 30
0.0
 11
10.25
 21
310.0
 31
0.0
  0
LINE
  5
1C5
  8
0
 10
10.25
 20
314.62
 30
0.0
 11
10.25
 21
317.01999999999992
 31
0.0
  0
LINE
  5
1C6
  8
0
 10
10.25
 20
314.62
 30
0.0
 11
10.25
 21
311.43999999999988
 31
0.0
  0
LINE
  5
1C7
  8
0
 10
15.25
 20
311.43999999999988
 30
0.0
 11
15.25
 21
314.62
 31
0.0
  0
LINE
  5
1C8
  8
0
 10
15.25
 20
311.43999999999988
 30
0.0
 11
15.25
 21
307.83999999999992
 31
0.0
  0
LINE
  5
1C9
  8
0
 10
15.25
 20
314.62
 30
0.0
 11
15.25
 21
317.01999999999992
 31
0.0
  0
LINE
  5
1CA
  8
0
 10
15.25
 20
314.62
 30
0.0
 11
15.25
 21
311.43999999999988
 31
0.0
  0
LINE
  5
1CB
  8
0
 10
15.25
 20
308.35199999999998
 30
0.0
 11
15.25
 21
312.43200000000002
 31
0.0
  0
LINE
  5
1CC
  8
0
 10
15.25
 20
308.35199999999998
 30
0.0
 11
15.25
 21
304.0
 31
0.0
  0
LINE
  5
1CD
  8
0
 10
15.25
 20
312.43200000000002
 30
0.0
 11
15.25
 21
316.036
 31
0.0
  0
LINE
  5
1CE
  8
0
 10
15.25
 20
312.43200000000002
 30
0.0
 11
15.25
 21
308.35199999999998
 31
0.0
  0
LINE
  5
1CF
  8
0
 10
10.25
 20
317.01999999999992
 30
0.0
 11
10.25
 21
318.45999999999992
 31
0.0
  0
LINE
  5
1D0
  8
0
 10
10.25
 20
317.01999999999992
 30
0.0
 11
10.25
 21
314.62
 31
0.0
  0
LINE
  5
1D1
  8
0
 10
10.25
 20
318.45999999999992
 30
0.0
 11
10.25
 21
319.0
 31
0.0
  0
LINE
  5
1D2
  8
0
 10
10.25
 20
318.45999999999992
 30
0.0
 11
10.25
 21
317.01999999999992
 31
0.0
  0
LINE
  5
1D3
  8
0
 10
15.25
 20
317.01999999999992
 30
0.0
 11
15.25
 21
318.45999999999992
 31
0.0
  0
LINE
  5
1D4
  8
0
 10
15.25
 20
317.01999999999992
 30
0.0
 11
15.25
 21
314.62
 31
0.0
  0
LINE
  5
1D5
  8
0
 10
10.25
 20
319.0
 30
0.0
 11
15.25
 21
319.0
 31
0.0
  0
LINE
  5
1D6
  8
0
 10
10.25
 20
319.0
 30
0.0
 11
10.25
 21
318.45999999999992
 31
0.0
  0
LINE
  5
1D7
  8
0
 10
15.25
 20
318.45999999999992
 30
0.0
 11
15.25
 21
319.0
 31
0.0
  0
LINE
  5
1D8
  8
0
 10
15.25
 20
318.45999999999992
 30
0.0
 11
15.25
 21
317.01999999999992
 31
0.0
  0
LINE
  5
1D9
  8
0
 10
15.25
 20
319.0
 30
0.0
 11
15.25
 21
320.38799999999992
 31
0.0
  0
LINE
  5
1DA
  8
0
 10
15.25
 20
319.0
 30
0.0
 11
15.25
 21
318.45999999999992
 31
0.0
  0
LINE
  5
1DB
  8
0
 10
15.25
 20
316.036
 30
0.0
 11
15.25
 21
318.75599999999991
 31
0.0
  0
LINE
  5
1DC
  8
0
 10
15.25
 20
316.036
 30
0.0
 11
15.25
 21
312.43200000000002
 31
0.0
  0
LINE
  5
1DD
  8
0
 10
15.25
 20
318.75599999999991
 30
0.0
 11
15.25
 21
320.38799999999992
 31
0.0
  0
LINE
  5
1DE
  8
0
 10
15.25
 20
318.75599999999991
 30
0.0
 11
15.25
 21
316.036
 31
0.0
  0
LINE
  5
1DF
  8
0
 10
12.279400000000001
 20
327.5619999999999
 30
0.0
 11
13.3706
 21
326.12099999999992
 31
0.0
  0
LINE
  5
1E0
  8
0
 10
12.197100000000001
 20
327.5209999999999
 30
0.0
 11
13.3088
 21
326.05900000000003
 31
0.0
  0
LINE
  5
1E1
  8
0
 10
11.599999999999991
 20
329.22899999999998
 30
0.0
 11
12.279400000000001
 21
327.5619999999999
 31
0.0
  0
LINE
  5
1E2
  8
0
 10
11.4971
 20
329.20899999999989
 30
0.0
 11
12.197100000000001
 21
327.5209999999999
 31
0.0
  0
LINE
  5
1E3
  8
0
 10
13.3706
 20
326.12099999999992
 30
0.0
 11
14.8118
 21
325.029
 31
0.0
  0
LINE
  5
1E4
  8
0
 10
13.3088
 20
326.05900000000003
 30
0.0
 11
14.770599999999989
 21
324.947
 31
0.0
  0
LINE
  5
1E5
  8
0
 10
14.8118
 20
325.029
 30
0.0
 11
16.479399999999998
 21
324.35000000000002
 31
0.0
  0
LINE
  5
1E6
  8
0
 10
14.770599999999989
 20
324.947
 30
0.0
 11
16.4588
 21
324.24700000000001
 31
0.0
  0
LINE
  5
1E7
  8
0
 10
11.599999999999991
 20
332.7709999999999
 30
0.0
 11
12.279400000000001
 21
334.43799999999999
 31
0.0
  0
LINE
  5
1E8
  8
0
 10
11.3529
 20
331.0
 30
0.0
 11
11.599999999999991
 21
332.7709999999999
 31
0.0
  0
LINE
  5
1E9
  8
0
 10
11.3529
 20
331.0
 30
0.0
 11
11.599999999999991
 21
329.22899999999998
 31
0.0
  0
LINE
  5
1EA
  8
0
 10
11.4971
 20
332.791
 30
0.0
 11
12.197100000000001
 21
334.47899999999998
 31
0.0
  0
LINE
  5
1EB
  8
0
 10
11.25
 20
331.0
 30
0.0
 11
11.4971
 21
332.791
 31
0.0
  0
LINE
  5
1EC
  8
0
 10
11.25
 20
331.0
 30
0.0
 11
11.4971
 21
329.20899999999989
 31
0.0
  0
LINE
  5
1ED
  8
0
 10
8.6099999999999994
 20
328.44
 30
0.0
 11
12.723213611152801
 21
319.0
 31
0.0
  0
LINE
  5
1EE
  8
0
 10
13.3706
 20
335.87900000000002
 30
0.0
 11
14.8118
 21
336.97099999999989
 31
0.0
  0
LINE
  5
1EF
  8
0
 10
13.3088
 20
335.94099999999997
 30
0.0
 11
14.770599999999989
 21
337.053
 31
0.0
  0
LINE
  5
1F0
  8
0
 10
14.8118
 20
336.97099999999989
 30
0.0
 11
16.479399999999998
 21
337.64999999999998
 31
0.0
  0
LINE
  5
1F1
  8
0
 10
14.770599999999989
 20
337.053
 30
0.0
 11
16.4588
 21
337.75299999999999
 31
0.0
  0
LINE
  5
1F2
  8
0
 10
12.279400000000001
 20
334.43799999999999
 30
0.0
 11
13.3706
 21
335.87900000000002
 31
0.0
  0
LINE
  5
1F3
  8
0
 10
12.197100000000001
 20
334.47899999999998
 30
0.0
 11
13.3088
 21
335.94099999999997
 31
0.0
  0
LINE
  5
1F4
  8
0
 10
13.28999999999999
 20
339.68000000000001
 30
0.0
 11
15.689999999999991
 21
340.63999999999999
 31
0.0
  0
LINE
  5
1F5
  8
0
 10
11.169999999999989
 20
338.07999999999993
 30
0.0
 11
13.28999999999999
 21
339.68000000000001
 31
0.0
  0
LINE
  5
1F6
  8
0
 10
9.5700000000000003
 20
335.95999999999992
 30
0.0
 11
11.169999999999989
 21
338.07999999999993
 31
0.0
  0
LINE
  5
1F7
  8
0
 10
8.6099999999999994
 20
333.55999999999989
 30
0.0
 11
9.5700000000000003
 21
335.95999999999992
 31
0.0
  0
LINE
  5
1F8
  8
0
 10
8.25
 20
331.0
 30
0.0
 11
8.6099999999999994
 21
333.55999999999989
 31
0.0
  0
LINE
  5
1F9
  8
0
 10
8.25
 20
331.0
 30
0.0
 11
8.6099999999999994
 21
328.44
 31
0.0
  0
LINE
  5
1FA
  8
0
 10
15.25
 20
320.38799999999992
 30
0.0
 11
15.25
 21
321.0
 31
0.0
  0
LINE
  5
1FB
  8
0
 10
15.25
 20
320.38799999999992
 30
0.0
 11
15.25
 21
318.75599999999991
 31
0.0
  0
LINE
  5
1FC
  8
0
 10
15.25
 20
320.38799999999992
 30
0.0
 11
15.25
 21
319.0
 31
0.0
  0
LINE
  5
1FD
  8
0
 10
22.46599999999999
 20
4.4639999999999986
 30
0.0
 11
23.041999999999991
 21
3.0239999999999991
 31
0.0
  0
LINE
  5
1FE
  8
0
 10
22.46599999999999
 20
4.4639999999999986
 30
0.0
 11
23.041999999999991
 21
3.0239999999999991
 31
0.0
  0
LINE
  5
1FF
  8
0
 10
15.405900000000001
 20
23.657399999999999
 30
0.0
 11
16.854199999999992
 21
18.758900000000001
 31
0.0
  0
LINE
  5
200
  8
0
 10
15.405900000000001
 20
23.657399999999999
 30
0.0
 11
16.854199999999992
 21
18.758900000000001
 31
0.0
  0
LINE
  5
201
  8
0
 10
16.915400000000002
 20
78.589600000000004
 30
0.0
 11
18.678799999999988
 21
83.806899999999985
 31
0.0
  0
LINE
  5
202
  8
0
 10
16.854199999999992
 20
18.758900000000001
 30
0.0
 11
18.8596
 21
15.8644
 31
0.0
  0
LINE
  5
206
  8
0
 10
16.479399999999998
 20
84.349999999999994
 30
0.0
 11
18.25
 21
84.102900000000005
 31
0.0
  0
LINE
  5
207
  8
0
 10
18.25
 20
84.102900000000005
 30
0.0
 11
18.437260600274101
 21
84.129033567337501
 31
0.0
  0
LINE
  5
208
  8
0
 10
18.25
 20
97.897099999999995
 30
0.0
 11
20.020600000000002
 21
97.650000000000006
 31
0.0
  0
LINE
  5
209
  8
0
 10
18.25
 20
98.0
 30
0.0
 11
20.041199999999989
 21
97.752899999999997
 31
0.0
  0
LINE
  5
20A
  8
0
 10
16.479399999999998
 20
97.650000000000006
 30
0.0
 11
18.25
 21
97.897099999999995
 31
0.0
  0
LINE
  5
20B
  8
0
 10
16.4588
 20
97.752899999999997
 30
0.0
 11
18.25
 21
98.0
 31
0.0
  0
LINE
  5
20C
  8
0
 10
15.689999999999991
 20
100.6399999999999
 30
0.0
 11
18.25
 21
101.0
 31
0.0
  0
LINE
  5
20D
  8
0
 10
18.678799999999988
 20
83.806899999999985
 30
0.0
 11
20.407699999999991
 21
86.640100000000004
 31
0.0
  0
LINE
  5
210
  8
0
 10
21.42209999999999
 20
13.9718
 30
0.0
 11
24.318699999999989
 21
12.0792
 31
0.0
  0
LINE
  5
211
  8
0
 10
21.42209999999999
 20
13.9718
 30
0.0
 11
24.318699999999989
 21
12.0792
 31
0.0
  0
LINE
  5
212
  8
0
 10
18.8596
 20
15.8644
 30
0.0
 11
21.42209999999999
 21
13.9718
 31
0.0
  0
LINE
  5
213
  8
0
 10
20.407699999999991
 20
86.640100000000004
 30
0.0
 11
22.447700000000001
 21
89.404200000000003
 31
0.0
  0
LINE
  5
218
  8
0
 10
21.688199999999991
 20
96.970600000000005
 30
0.0
 11
23.1294
 21
95.879400000000004
 31
0.0
  0
LINE
  5
219
  8
0
 10
20.020600000000002
 20
97.650000000000006
 30
0.0
 11
21.688199999999991
 21
96.970600000000005
 31
0.0
  0
LINE
  5
21A
  8
0
 10
22.447700000000001
 20
89.404200000000003
 30
0.0
 11
25.4559
 21
91.857399999999998
 31
0.0
  0
LINE
  5
21C
  8
0
 10
21.729399999999998
 20
97.052899999999994
 30
0.0
 11
23.191199999999991
 21
95.941199999999995
 31
0.0
  0
LINE
  5
21D
  8
0
 10
20.041199999999989
 20
97.752899999999997
 30
0.0
 11
21.729399999999998
 21
97.052899999999994
 31
0.0
  0
LINE
  5
21E
  8
0
 10
18.25
 20
101.0
 30
0.0
 11
24.599616189811599
 21
101.0
 31
0.0
  0
LINE
  5
21F
  8
0
 10
18.25
 20
101.0
 30
0.0
 11
24.599616189811599
 21
101.0
 31
0.0
  0
LINE
  5
221
  8
0
 10
22.46599999999999
 20
7.5359999999999996
 30
0.0
 11
23.041999999999991
 21
8.9760000000000009
 31
0.0
  0
LINE
  5
222
  8
0
 10
22.25
 20
6.0
 30
0.0
 11
22.46599999999999
 21
7.5359999999999996
 31
0.0
  0
LINE
  5
223
  8
0
 10
22.25
 20
6.0
 30
0.0
 11
22.46599999999999
 21
7.5359999999999996
 31
0.0
  0
LINE
  5
224
  8
0
 10
22.25
 20
6.0
 30
0.0
 11
22.46599999999999
 21
4.4639999999999986
 31
0.0
  0
LINE
  5
225
  8
0
 10
22.25
 20
6.0
 30
0.0
 11
22.46599999999999
 21
4.4639999999999986
 31
0.0
  0
LINE
  5
226
  8
0
 10
22.46599999999999
 20
107.464
 30
0.0
 11
23.041999999999991
 21
106.024
 31
0.0
  0
LINE
  5
227
  8
0
 10
22.46599999999999
 20
107.464
 30
0.0
 11
24.599616189811599
 21
101.0
 31
0.0
  0
LINE
  5
228
  8
0
 10
22.46599999999999
 20
107.464
 30
0.0
 11
26.25
 21
96.0
 31
0.0
  0
LINE
  5
229
  8
0
 10
15.25
 20
127.0
 30
0.0
 11
34.415599999999991
 21
127.0
 31
0.0
  0
LINE
  5
22A
  8
0
 10
15.25
 20
127.0
 30
0.0
 11
34.25
 21
127.0
 31
0.0
  0
LINE
  5
231
  8
0
 10
15.689999999999991
 20
180.63999999999999
 30
0.0
 11
18.25
 21
181.0
 31
0.0
  0
LINE
  5
232
  8
0
 10
18.25
 20
181.0
 30
0.0
 11
34.25
 21
181.0
 31
0.0
  0
LINE
  5
23B
  8
0
 10
18.25
 20
181.0
 30
0.0
 11
34.25
 21
181.0
 31
0.0
  0
LINE
  5
23C
  8
0
 10
15.25
 20
161.0
 30
0.0
 11
34.25
 21
161.0
 31
0.0
  0
LINE
  5
23D
  8
0
 10
22.46599999999999
 20
110.536
 30
0.0
 11
23.041999999999991
 21
111.976
 31
0.0
  0
LINE
  5
23E
  8
0
 10
22.25
 20
109.0
 30
0.0
 11
22.46599999999999
 21
110.536
 31
0.0
  0
LINE
  5
23F
  8
0
 10
22.25
 20
109.0
 30
0.0
 11
22.46599999999999
 21
107.464
 31
0.0
  0
LINE
  5
240
  8
0
 10
22.46599999999999
 20
187.464
 30
0.0
 11
23.041999999999991
 21
186.024
 31
0.0
  0
LINE
  5
248
  8
0
 10
15.689999999999991
 20
260.63999999999987
 30
0.0
 11
18.25
 21
261.0
 31
0.0
  0
LINE
  5
24F
  8
0
 10
18.25
 20
261.0
 30
0.0
 11
24.599616189811599
 21
261.0
 31
0.0
  0
LINE
  5
250
  8
0
 10
18.25
 20
261.0
 30
0.0
 11
24.599616189811599
 21
261.0
 31
0.0
  0
LINE
  5
251
  8
0
 10
15.25
 20
241.0
 30
0.0
 11
34.25
 21
241.0
 31
0.0
  0
LINE
  5
252
  8
0
 10
15.25
 20
207.0
 30
0.0
 11
34.25
 21
207.0
 31
0.0
  0
LINE
  5
253
  8
0
 10
15.25
 20
207.0
 30
0.0
 11
34.415599999999991
 21
207.0
 31
0.0
  0
LINE
  5
254
  8
0
 10
22.46599999999999
 20
190.53599999999989
 30
0.0
 11
23.041999999999991
 21
191.976
 31
0.0
  0
LINE
  5
255
  8
0
 10
22.25
 20
189.0
 30
0.0
 11
22.46599999999999
 21
190.53599999999989
 31
0.0
  0
LINE
  5
256
  8
0
 10
22.25
 20
189.0
 30
0.0
 11
22.46599999999999
 21
187.464
 31
0.0
  0
LINE
  5
257
  8
0
 10
23.041999999999991
 20
3.0239999999999991
 30
0.0
 11
24.001999999999988
 21
1.7519999999999989
 31
0.0
  0
LINE
  5
258
  8
0
 10
23.041999999999991
 20
3.0239999999999991
 30
0.0
 11
24.001999999999988
 21
1.7519999999999989
 31
0.0
  0
LINE
  5
25B
  8
0
 10
23.041999999999991
 20
8.9760000000000009
 30
0.0
 11
24.001999999999988
 21
10.24799999999999
 31
0.0
  0
LINE
  5
25C
  8
0
 10
23.041999999999991
 20
8.9760000000000009
 30
0.0
 11
24.001999999999988
 21
10.24799999999999
 31
0.0
  0
LINE
  5
25D
  8
0
 10
23.041999999999991
 20
106.024
 30
0.0
 11
24.001999999999988
 21
104.752
 31
0.0
  0
LINE
  5
25E
  8
0
 10
23.041999999999991
 20
111.976
 30
0.0
 11
24.001999999999988
 21
113.24799999999991
 31
0.0
  0
LINE
  5
25F
  8
0
 10
24.001999999999988
 20
1.7519999999999989
 30
0.0
 11
25.274000000000001
 21
0.7919999999999972
 31
0.0
  0
LINE
  5
260
  8
0
 10
24.001999999999988
 20
1.7519999999999989
 30
0.0
 11
25.274000000000001
 21
0.7919999999999972
 31
0.0
  0
LINE
  5
261
  8
0
 10
23.1294
 20
95.879400000000004
 30
0.0
 11
24.220600000000001
 21
94.438199999999995
 31
0.0
  0
LINE
  5
262
  8
0
 10
23.191199999999991
 20
95.941199999999995
 30
0.0
 11
24.302900000000001
 21
94.479399999999998
 31
0.0
  0
LINE
  5
263
  8
0
 10
24.001999999999988
 20
10.24799999999999
 30
0.0
 11
25.274000000000001
 21
11.208
 31
0.0
  0
LINE
  5
264
  8
0
 10
24.001999999999988
 20
10.24799999999999
 30
0.0
 11
25.274000000000001
 21
11.208
 31
0.0
  0
LINE
  5
269
  8
0
 10
24.001999999999988
 20
104.752
 30
0.0
 11
25.274000000000001
 21
103.7919999999999
 31
0.0
  0
LINE
  5
26A
  8
0
 10
24.001999999999988
 20
113.24799999999991
 30
0.0
 11
25.274000000000001
 21
114.2079999999999
 31
0.0
  0
LINE
  5
26B
  8
0
 10
24.001999999999988
 20
184.75200000000001
 30
0.0
 11
25.274000000000001
 21
183.792
 31
0.0
  0
LINE
  5
26C
  8
0
 10
23.041999999999991
 20
186.024
 30
0.0
 11
24.001999999999988
 21
184.75200000000001
 31
0.0
  0
LINE
  5
270
  8
0
 10
24.001999999999988
 20
193.24799999999991
 30
0.0
 11
25.274000000000001
 21
194.20799999999991
 31
0.0
  0
LINE
  5
271
  8
0
 10
23.041999999999991
 20
191.976
 30
0.0
 11
24.001999999999988
 21
193.24799999999991
 31
0.0
  0
LINE
  5
272
  8
0
 10
25.274000000000001
 20
0.7919999999999972
 30
0.0
 11
26.713999999999999
 21
0.215999999999997
 31
0.0
  0
LINE
  5
273
  8
0
 10
25.274000000000001
 20
0.7919999999999972
 30
0.0
 11
26.713999999999999
 21
0.215999999999997
 31
0.0
  0
LINE
  5
274
  8
0
 10
24.318699999999989
 20
12.0792
 30
0.0
 11
28.25
 21
11.0
 31
0.0
  0
LINE
  5
275
  8
0
 10
24.318699999999989
 20
12.0792
 30
0.0
 11
28.25
 21
11.0
 31
0.0
  0
LINE
  5
276
  8
0
 10
24.318699999999989
 20
12.0792
 30
0.0
 11
28.25
 21
11.0
 31
0.0
  0
LINE
  5
277
  8
0
 10
24.220600000000001
 20
94.438199999999995
 30
0.0
 11
24.899999999999999
 21
92.770600000000002
 31
0.0
  0
LINE
  5
278
  8
0
 10
24.899999999999999
 20
92.770600000000002
 30
0.0
 11
25.014131802209199
 21
91.952786284938995
 31
0.0
  0
LINE
  5
279
  8
0
 10
24.302900000000001
 20
94.479399999999998
 30
0.0
 11
25.0029
 21
92.791200000000003
 31
0.0
  0
LINE
  5
27A
  8
0
 10
25.0029
 20
92.791200000000003
 30
0.0
 11
25.107800675044391
 21
92.030786850912307
 31
0.0
  0
LINE
  5
27B
  8
0
 10
25.274000000000001
 20
11.208
 30
0.0
 11
25.8984777626526
 21
11.6455276367984
 31
0.0
  0
LINE
  5
27C
  8
0
 10
25.274000000000001
 20
11.208
 30
0.0
 11
25.8984777626526
 21
11.6455276367984
 31
0.0
  0
LINE
  5
27D
  8
0
 10
25.274000000000001
 20
103.7919999999999
 30
0.0
 11
26.713999999999999
 21
103.21599999999999
 31
0.0
  0
LINE
  5
285
  8
0
 10
25.274000000000001
 20
114.2079999999999
 30
0.0
 11
34.25
 21
120.4968517458499
 31
0.0
  0
LINE
  5
289
  8
0
 10
25.4559
 20
91.857399999999998
 30
0.0
 11
29.985399999999998
 21
94.103200000000001
 31
0.0
  0
LINE
  5
28E
  8
0
 10
26.25
 20
96.0
 30
0.0
 11
27.25
 21
95.200000000000017
 31
0.0
  0
LINE
  5
28F
  8
0
 10
26.713999999999999
 20
0.215999999999997
 30
0.0
 11
28.25
 21
-0.0000000000000026
 31
0.0
  0
LINE
  5
290
  8
0
 10
26.713999999999999
 20
0.215999999999997
 30
0.0
 11
28.25
 21
-0.0000000000000032
 31
0.0
  0
LINE
  5
291
  8
0
 10
26.713999999999999
 20
103.21599999999999
 30
0.0
 11
28.25
 21
103.0
 31
0.0
  0
LINE
  5
292
  8
0
 10
26.713999999999999
 20
183.21599999999989
 30
0.0
 11
28.25
 21
183.0
 31
0.0
  0
LINE
  5
293
  8
0
 10
25.274000000000001
 20
183.792
 30
0.0
 11
26.713999999999999
 21
183.21599999999989
 31
0.0
  0
LINE
  5
29A
  8
0
 10
26.25
 20
256.0
 30
0.0
 11
27.25
 21
255.19999999999999
 31
0.0
  0
LINE
  5
29B
  8
0
 10
25.274000000000001
 20
194.20799999999991
 30
0.0
 11
34.25
 21
200.49685174584991
 31
0.0
  0
LINE
  5
29C
  8
0
 10
25.274000000000001
 20
194.20799999999991
 30
0.0
 11
34.826000000000001
 21
200.90041442472801
 31
0.0
  0
LINE
  5
29D
  8
0
 10
28.25
 20
11.0
 30
0.0
 11
50.25
 21
11.0
 31
0.0
  0
LINE
  5
29E
  8
0
 10
28.25
 20
11.0
 30
0.0
 11
50.25
 21
11.0
 31
0.0
  0
LINE
  5
29F
  8
0
 10
28.25
 20
11.0
 30
0.0
 11
50.25
 21
11.0
 31
0.0
  0
LINE
  5
2A0
  8
0
 10
27.25
 20
95.200000000000017
 30
0.0
 11
33.381979924437601
 21
95.200000000000017
 31
0.0
  0
LINE
  5
2A1
  8
0
 10
28.25
 20
-0.0000000000000026
 30
0.0
 11
29.786000000000001
 21
0.215999999999997
 31
0.0
  0
LINE
  5
2A2
  8
0
 10
29.786000000000001
 20
0.215999999999997
 30
0.0
 11
31.225999999999999
 21
0.7919999999999972
 31
0.0
  0
LINE
  5
2A3
  8
0
 10
28.25
 20
103.0
 30
0.0
 11
29.786000000000001
 21
103.21599999999999
 31
0.0
  0
LINE
  5
2A4
  8
0
 10
29.786000000000001
 20
103.21599999999999
 30
0.0
 11
31.225999999999999
 21
103.7919999999999
 31
0.0
  0
LINE
  5
2A5
  8
0
 10
27.25
 20
255.19999999999999
 30
0.0
 11
34.25
 21
255.19999999999999
 31
0.0
  0
LINE
  5
2A6
  8
0
 10
28.25
 20
183.0
 30
0.0
 11
29.786000000000001
 21
183.21599999999989
 31
0.0
  0
LINE
  5
2A7
  8
0
 10
29.786000000000001
 20
183.21599999999989
 30
0.0
 11
31.225999999999999
 21
183.792
 31
0.0
  0
LINE
  5
2A8
  8
0
 10
28.25
 20
263.0
 30
0.0
 11
29.786000000000001
 21
263.21600000000001
 31
0.0
  0
LINE
  5
2A9
  8
0
 10
29.985399999999998
 20
94.103200000000001
 30
0.0
 11
38.253700000000002
 21
96.321000000000012
 31
0.0
  0
LINE
  5
2AE
  8
0
 10
31.225999999999999
 20
0.7919999999999972
 30
0.0
 11
32.581200000000003
 21
1.308759
 31
0.0
  0
LINE
  5
2B0
  8
0
 10
31.225999999999999
 20
103.7919999999999
 30
0.0
 11
32.581200000000003
 21
104.309
 31
0.0
  0
LINE
  5
2B1
  8
0
 10
31.225999999999999
 20
103.7919999999999
 30
0.0
 11
32.646599999999999
 21
104.33499999999989
 31
0.0
  0
LINE
  5
2B2
  8
0
 10
32.581200000000003
 20
1.308759
 30
0.0
 11
34.25
 21
1.5
 31
0.0
  0
LINE
  5
2B3
  8
0
 10
32.646599999999999
 20
104.33499999999989
 30
0.0
 11
34.25
 21
104.4999999999999
 31
0.0
  0
LINE
  5
2B6
  8
0
 10
31.225999999999999
 20
183.792
 30
0.0
 11
32.581200000000003
 21
184.309
 31
0.0
  0
LINE
  5
2B7
  8
0
 10
31.225999999999999
 20
183.792
 30
0.0
 11
32.646599999999999
 21
184.33500000000001
 31
0.0
  0
LINE
  5
2B9
  8
0
 10
32.61520145273419
 20
184.3229984434989
 30
0.0
 11
34.25
 21
182.5714285714289
 31
0.0
  0
LINE
  5
2BA
  8
0
 10
32.623724103082289
 20
184.31386703241191
 30
0.0
 11
34.25
 21
182.5714285714289
 31
0.0
  0
LINE
  5
2BE
  8
0
 10
34.25
 20
1.4999999999999889
 30
0.0
 11
34.25
 21
1.0
 31
0.0
  0
LINE
  5
2BF
  8
0
 10
34.25
 20
0.9999999999999969
 30
0.0
 11
34.826000000000001
 21
0.9999999999999969
 31
0.0
  0
LINE
  5
2C0
  8
0
 10
34.25
 20
0.9999999999999969
 30
0.0
 11
34.25
 21
1.5
 31
0.0
  0
LINE
  5
2C1
  8
0
 10
34.25
 20
0.9999999999999969
 30
0.0
 11
34.826000000000001
 21
0.9999999999999969
 31
0.0
  0
LINE
  5
2C2
  8
0
 10
34.25
 20
103.300801373784
 30
0.0
 11
34.25
 21
104.0
 31
0.0
  0
LINE
  5
2C3
  8
0
 10
34.25
 20
95.399734485892694
 30
0.0
 11
34.25
 21
104.0
 31
0.0
  0
LINE
  5
2C5
  8
0
 10
34.25
 20
104.0
 30
0.0
 11
34.826000000000001
 21
104.0
 31
0.0
  0
LINE
  5
2C6
  8
0
 10
34.25
 20
104.0
 30
0.0
 11
34.25
 21
104.4999999999999
 31
0.0
  0
LINE
  5
2C7
  8
0
 10
34.25
 20
104.0
 30
0.0
 11
34.25
 21
103.300801373784
 31
0.0
  0
LINE
  5
2C8
  8
0
 10
34.25
 20
104.0
 30
0.0
 11
34.25
 21
95.399734485892694
 31
0.0
  0
LINE
  5
2C9
  8
0
 10
34.25
 20
120.4968517458499
 30
0.0
 11
34.25
 21
127.0
 31
0.0
  0
LINE
  5
2CA
  8
0
 10
34.25
 20
127.0
 30
0.0
 11
34.25
 21
120.4968517458499
 31
0.0
  0
LINE
  5
2CB
  8
0
 10
34.25
 20
127.0
 30
0.0
 11
34.25
 21
124.0
 31
0.0
  0
LINE
  5
2CC
  8
0
 10
34.25
 20
124.0
 30
0.0
 11
34.25
 21
127.0
 31
0.0
  0
LINE
  5
2CE
  8
0
 10
34.25
 20
104.4999999999999
 30
0.0
 11
34.25
 21
104.0
 31
0.0
  0
LINE
  5
2D2
  8
0
 10
34.826000000000001
 20
0.9999999999999969
 30
0.0
 11
36.361999999999988
 21
0.9999999999999969
 31
0.0
  0
LINE
  5
2D3
  8
0
 10
34.826000000000001
 20
0.9999999999999969
 30
0.0
 11
36.361999999999988
 21
0.9999999999999978
 31
0.0
  0
LINE
  5
2D4
  8
0
 10
34.826000000000001
 20
104.0
 30
0.0
 11
36.361999999999988
 21
104.0
 31
0.0
  0
LINE
  5
2DA
  8
0
 10
34.25
 20
161.0
 30
0.0
 11
34.25
 21
184.0
 31
0.0
  0
LINE
  5
2DB
  8
0
 10
34.25
 20
181.0
 30
0.0
 11
34.25
 21
182.5714285714289
 31
0.0
  0
LINE
  5
2DC
  8
0
 10
34.25
 20
183.30080137378391
 30
0.0
 11
34.25
 21
184.0
 31
0.0
  0
LINE
  5
2DD
  8
0
 10
34.25
 20
182.5714285714289
 30
0.0
 11
34.25
 21
181.0
 31
0.0
  0
LINE
  5
2DE
  8
0
 10
34.25
 20
161.0
 30
0.0
 11
34.25
 21
184.0
 31
0.0
  0
LINE
  5
2E0
  8
0
 10
36.361999999999988
 20
0.9999999999999969
 30
0.0
 11
38.92199999999999
 21
0.999999999999996
 31
0.0
  0
LINE
  5
2E1
  8
0
 10
36.361999999999988
 20
0.9999999999999978
 30
0.0
 11
38.92199999999999
 21
0.9999999999999978
 31
0.0
  0
LINE
  5
2E2
  8
0
 10
36.361999999999988
 20
104.0
 30
0.0
 11
38.92199999999999
 21
104.0
 31
0.0
  0
LINE
  5
2EC
  8
0
 10
38.92199999999999
 20
0.999999999999996
 30
0.0
 11
42.313999999999993
 21
0.999999999999996
 31
0.0
  0
LINE
  5
2ED
  8
0
 10
38.253700000000002
 20
96.321000000000012
 30
0.0
 11
50.25
 21
97.0
 31
0.0
  0
LINE
  5
2EE
  8
0
 10
38.92199999999999
 20
0.9999999999999978
 30
0.0
 11
42.313999999999993
 21
0.9999999999999978
 31
0.0
  0
LINE
  5
2EF
  8
0
 10
38.92199999999999
 20
104.0
 30
0.0
 11
42.313999999999993
 21
104.0
 31
0.0
  0
LINE
  5
303
  8
0
 10
42.313999999999993
 20
0.999999999999996
 30
0.0
 11
46.154000000000003
 21
0.999999999999996
 31
0.0
  0
LINE
  5
304
  8
0
 10
42.313999999999993
 20
0.9999999999999978
 30
0.0
 11
46.154000000000003
 21
0.9999999999999978
 31
0.0
  0
LINE
  5
305
  8
0
 10
40.25
 20
11.0
 30
0.0
 11
40.25
 21
1.5
 31
0.0
  0
LINE
  5
306
  8
0
 10
40.25
 20
1.5
 30
0.0
 11
40.25
 21
11.0
 31
0.0
  0
LINE
  5
307
  8
0
 10
40.25
 20
1.5
 30
0.0
 11
50.25
 21
1.5
 31
0.0
  0
LINE
  5
308
  8
0
 10
46.154000000000003
 20
0.999999999999996
 30
0.0
 11
50.25
 21
0.999999999999996
 31
0.0
  0
LINE
  5
309
  8
0
 10
46.154000000000003
 20
0.9999999999999978
 30
0.0
 11
50.25
 21
0.9999999999999978
 31
0.0
  0
LINE
  5
30A
  8
0
 10
46.154000000000003
 20
104.0
 30
0.0
 11
50.25
 21
104.0
 31
0.0
  0
LINE
  5
30B
  8
0
 10
42.313999999999993
 20
104.0
 30
0.0
 11
46.154000000000003
 21
104.0
 31
0.0
  0
LINE
  5
32C
  8
0
 10
40.25
 20
114.5
 30
0.0
 11
40.25
 21
104.4999999999999
 31
0.0
  0
LINE
  5
32D
  8
0
 10
40.25
 20
114.5
 30
0.0
 11
40.25
 21
128.49999999999989
 31
0.0
  0
LINE
  5
32E
  8
0
 10
40.25
 20
114.5
 30
0.0
 11
50.25
 21
114.5
 31
0.0
  0
LINE
  5
388
  8
0
 10
40.25
 20
128.49999999999989
 30
0.0
 11
40.25
 21
114.5
 31
0.0
  0
LINE
  5
389
  8
0
 10
40.25
 20
128.49999999999989
 30
0.0
 11
42.677999999999891
 21
128.49999999999989
 31
0.0
  0
LINE
  5
38A
  8
0
 10
40.25
 20
128.49999999999989
 30
0.0
 11
42.677999999999891
 21
128.49999999999989
 31
0.0
  0
LINE
  5
38B
  8
0
 10
40.25
 20
104.4999999999999
 30
0.0
 11
40.25
 21
114.5
 31
0.0
  0
LINE
  5
38C
  8
0
 10
40.25
 20
104.4999999999999
 30
0.0
 11
50.25
 21
104.4999999999999
 31
0.0
  0
LINE
  5
3D8
  8
0
 10
46.154000000000003
 20
184.0
 30
0.0
 11
50.25
 21
184.0
 31
0.0
  0
LINE
  5
3D9
  8
0
 10
42.313999999999993
 20
184.0
 30
0.0
 11
46.154000000000003
 21
184.0
 31
0.0
  0
LINE
  5
3DA
  8
0
 10
38.92199999999999
 20
184.0
 30
0.0
 11
42.313999999999993
 21
184.0
 31
0.0
  0
LINE
  5
3DB
  8
0
 10
36.361999999999988
 20
184.0
 30
0.0
 11
38.92199999999999
 21
184.0
 31
0.0
  0
LINE
  5
3DC
  8
0
 10
34.826000000000001
 20
184.0
 30
0.0
 11
36.361999999999988
 21
184.0
 31
0.0
  0
LINE
  5
3DD
  8
0
 10
33.620072082193097
 20
184.435176433555
 30
0.0
 11
34.25
 21
183.30080137378391
 31
0.0
  0
LINE
  5
3DE
  8
0
 10
34.25
 20
184.0
 30
0.0
 11
34.826000000000001
 21
184.0
 31
0.0
  0
LINE
  5
3DF
  8
0
 10
34.25
 20
184.0
 30
0.0
 11
34.25
 21
184.49999999999989
 31
0.0
  0
LINE
  5
3E0
  8
0
 10
34.25
 20
184.0
 30
0.0
 11
34.25
 21
183.30080137378391
 31
0.0
  0
LINE
  5
3E1
  8
0
 10
34.25
 20
184.0
 30
0.0
 11
34.25
 21
161.0
 31
0.0
  0
LINE
  5
3E2
  8
0
 10
32.646599999999999
 20
184.33500000000001
 30
0.0
 11
34.25
 21
184.49999999999989
 31
0.0
  0
LINE
  5
3E3
  8
0
 10
34.25
 20
184.49999999999989
 30
0.0
 11
34.826000000000001
 21
184.49999999999989
 31
0.0
  0
LINE
  5
3E4
  8
0
 10
34.25
 20
184.49999999999989
 30
0.0
 11
34.25
 21
184.0
 31
0.0
  0
LINE
  5
3E5
  8
0
 10
32.581200000000003
 20
184.309
 30
0.0
 11
34.25
 21
184.49999999999989
 31
0.0
  0
LINE
  5
3E9
  8
0
 10
34.25
 20
200.49685174584991
 30
0.0
 11
34.25
 21
207.0
 31
0.0
  0
LINE
  5
3EA
  8
0
 10
34.25
 20
207.0
 30
0.0
 11
34.25
 21
204.0
 31
0.0
  0
LINE
  5
3EB
  8
0
 10
34.25
 20
207.0
 30
0.0
 11
34.25
 21
200.49685174584991
 31
0.0
  0
LINE
  5
3EC
  8
0
 10
34.25
 20
204.0
 30
0.0
 11
34.25
 21
207.0
 31
0.0
  0
LINE
  5
402
  8
0
 10
34.25
 20
263.30080137378388
 30
0.0
 11
34.25
 21
264.0
 31
0.0
  0
LINE
  5
403
  8
0
 10
34.25
 20
241.0
 30
0.0
 11
34.25
 21
264.0
 31
0.0
  0
LINE
  5
434
  8
0
 10
40.25
 20
194.5
 30
0.0
 11
40.25
 21
184.49999999999989
 31
0.0
  0
LINE
  5
435
  8
0
 10
40.25
 20
194.5
 30
0.0
 11
40.25
 21
208.49999999999989
 31
0.0
  0
LINE
  5
436
  8
0
 10
40.25
 20
194.5
 30
0.0
 11
50.25
 21
194.5
 31
0.0
  0
LINE
  5
4DA
  8
0
 10
40.25
 20
208.49999999999989
 30
0.0
 11
40.25
 21
194.5
 31
0.0
  0
LINE
  5
4DB
  8
0
 10
40.25
 20
208.49999999999989
 30
0.0
 11
42.677999999999997
 21
208.49999999999989
 31
0.0
  0
LINE
  5
4DC
  8
0
 10
40.25
 20
184.49999999999989
 30
0.0
 11
40.25
 21
194.5
 31
0.0
  0
LINE
  5
4DD
  8
0
 10
40.25
 20
184.49999999999989
 30
0.0
 11
50.25
 21
184.49999999999989
 31
0.0
  0
LINE
  5
4DE
  8
0
 10
29.786000000000001
 20
263.21600000000001
 30
0.0
 11
31.225999999999999
 21
263.79199999999997
 31
0.0
  0
LINE
  5
4DF
  8
0
 10
31.225999999999999
 20
263.79199999999997
 30
0.0
 11
32.581200000000003
 21
264.30900000000003
 31
0.0
  0
LINE
  5
4E0
  8
0
 10
31.225999999999999
 20
263.79199999999997
 30
0.0
 11
32.646599999999999
 21
264.33499999999992
 31
0.0
  0
LINE
  5
4E1
  8
0
 10
26.713999999999999
 20
263.21600000000001
 30
0.0
 11
28.25
 21
263.0
 31
0.0
  0
LINE
  5
4E2
  8
0
 10
33.62007208219319
 20
264.43517643355489
 30
0.0
 11
34.25
 21
263.30080137378388
 31
0.0
  0
LINE
  5
4E3
  8
0
 10
46.154000000000003
 20
264.0
 30
0.0
 11
50.25
 21
264.0
 31
0.0
  0
LINE
  5
4E4
  8
0
 10
42.313999999999993
 20
264.0
 30
0.0
 11
46.154000000000003
 21
264.0
 31
0.0
  0
LINE
  5
4E5
  8
0
 10
38.92199999999999
 20
264.0
 30
0.0
 11
42.313999999999993
 21
264.0
 31
0.0
  0
LINE
  5
4E6
  8
0
 10
36.361999999999988
 20
264.0
 30
0.0
 11
38.92199999999999
 21
264.0
 31
0.0
  0
LINE
  5
4E7
  8
0
 10
34.826000000000001
 20
264.0
 30
0.0
 11
36.361999999999988
 21
264.0
 31
0.0
  0
LINE
  5
4E8
  8
0
 10
34.25
 20
264.0
 30
0.0
 11
34.826000000000001
 21
264.0
 31
0.0
  0
LINE
  5
4E9
  8
0
 10
34.25
 20
264.0
 30
0.0
 11
34.25
 21
264.5
 31
0.0
  0
LINE
  5
4EA
  8
0
 10
34.25
 20
264.0
 30
0.0
 11
34.25
 21
263.30080137378388
 31
0.0
  0
LINE
  5
4EB
  8
0
 10
34.25
 20
264.0
 30
0.0
 11
34.25
 21
241.0
 31
0.0
  0
LINE
  5
4EC
  8
0
 10
40.25
 20
264.5
 30
0.0
 11
50.25
 21
264.5
 31
0.0
  0
LINE
  5
4ED
  8
0
 10
40.25
 20
264.5
 30
0.0
 11
40.25
 21
274.5
 31
0.0
  0
LINE
  5
4EE
  8
0
 10
32.646599999999999
 20
264.33499999999992
 30
0.0
 11
34.25
 21
264.5
 31
0.0
  0
LINE
  5
4EF
  8
0
 10
34.25
 20
264.5
 30
0.0
 11
34.826000000000001
 21
264.5
 31
0.0
  0
LINE
  5
4F0
  8
0
 10
34.25
 20
264.5
 30
0.0
 11
34.25
 21
264.0
 31
0.0
  0
LINE
  5
4F1
  8
0
 10
32.581200000000003
 20
264.30900000000003
 30
0.0
 11
34.25
 21
264.5
 31
0.0
  0
LINE
  5
4F2
  8
0
 10
25.274000000000001
 20
263.79199999999997
 30
0.0
 11
26.713999999999999
 21
263.21600000000001
 31
0.0
  0
LINE
  5
4F3
  8
0
 10
24.001999999999988
 20
264.75200000000001
 30
0.0
 11
25.274000000000001
 21
263.79199999999997
 31
0.0
  0
LINE
  5
4F4
  8
0
 10
23.041999999999991
 20
266.02399999999989
 30
0.0
 11
24.001999999999988
 21
264.75200000000001
 31
0.0
  0
LINE
  5
4F5
  8
0
 10
22.46599999999999
 20
267.464
 30
0.0
 11
23.041999999999991
 21
266.02399999999989
 31
0.0
  0
LINE
  5
4F6
  8
0
 10
22.46599999999999
 20
267.464
 30
0.0
 11
24.599616189811599
 21
261.0
 31
0.0
  0
LINE
  5
4F7
  8
0
 10
22.46599999999999
 20
267.464
 30
0.0
 11
26.25
 21
256.0
 31
0.0
  0
LINE
  5
4F8
  8
0
 10
34.25
 20
280.49685174584999
 30
0.0
 11
34.25
 21
287.0
 31
0.0
  0
LINE
  5
4F9
  8
0
 10
34.25
 20
287.0
 30
0.0
 11
34.25
 21
284.0
 31
0.0
  0
LINE
  5
4FA
  8
0
 10
34.25
 20
287.0
 30
0.0
 11
34.25
 21
280.49685174584999
 31
0.0
  0
LINE
  5
4FB
  8
0
 10
34.25
 20
284.0
 30
0.0
 11
34.25
 21
287.0
 31
0.0
  0
LINE
  5
4FC
  8
0
 10
40.25
 20
274.5
 30
0.0
 11
50.25
 21
274.5
 31
0.0
  0
LINE
  5
4FD
  8
0
 10
40.25
 20
274.5
 30
0.0
 11
40.25
 21
264.5
 31
0.0
  0
LINE
  5
4FE
  8
0
 10
40.25
 20
274.5
 30
0.0
 11
40.25
 21
288.5
 31
0.0
  0
LINE
  5
4FF
  8
0
 10
25.274000000000001
 20
274.20799999999991
 30
0.0
 11
34.25
 21
280.49685174584999
 31
0.0
  0
LINE
  5
500
  8
0
 10
25.274000000000001
 20
274.20799999999991
 30
0.0
 11
34.826000000000001
 21
280.90041442472801
 31
0.0
  0
LINE
  5
501
  8
0
 10
24.001999999999988
 20
273.24799999999988
 30
0.0
 11
25.274000000000001
 21
274.20799999999991
 31
0.0
  0
LINE
  5
502
  8
0
 10
23.041999999999991
 20
271.97599999999989
 30
0.0
 11
24.001999999999988
 21
273.24799999999988
 31
0.0
  0
LINE
  5
503
  8
0
 10
22.46599999999999
 20
270.536
 30
0.0
 11
23.041999999999991
 21
271.97599999999989
 31
0.0
  0
LINE
  5
504
  8
0
 10
22.25
 20
269.0
 30
0.0
 11
22.46599999999999
 21
270.536
 31
0.0
  0
LINE
  5
505
  8
0
 10
22.25
 20
269.0
 30
0.0
 11
22.46599999999999
 21
267.464
 31
0.0
  0
LINE
  5
506
  8
0
 10
50.25
 20
0.999999999999996
 30
0.0
 11
54.345999999999997
 21
0.999999999999996
 31
0.0
  0
LINE
  5
507
  8
0
 10
50.25
 20
0.9999999999999978
 30
0.0
 11
54.345999999999997
 21
0.9999999999999978
 31
0.0
  0
LINE
  5
508
  8
0
 10
50.25
 20
11.0
 30
0.0
 11
72.25
 21
11.0
 31
0.0
  0
LINE
  5
509
  8
0
 10
50.25
 20
11.0
 30
0.0
 11
72.25
 21
11.0
 31
0.0
  0
LINE
  5
50A
  8
0
 10
50.25
 20
11.0
 30
0.0
 11
50.25
 21
1.5
 31
0.0
  0
LINE
  5
50B
  8
0
 10
50.25
 20
11.0
 30
0.0
 11
72.25
 21
11.0
 31
0.0
  0
LINE
  5
50C
  8
0
 10
50.25
 20
1.5
 30
0.0
 11
50.25
 21
11.0
 31
0.0
  0
LINE
  5
50D
  8
0
 10
50.25
 20
97.0
 30
0.0
 11
50.25
 21
116.0
 31
0.0
  0
LINE
  5
50E
  8
0
 10
50.25
 20
97.0
 30
0.0
 11
62.246299999999998
 21
96.321000000000012
 31
0.0
  0
LINE
  5
50F
  8
0
 10
50.25
 20
103.0
 30
0.0
 11
50.25
 21
104.4999999999999
 31
0.0
  0
LINE
  5
510
  8
0
 10
50.25
 20
116.0
 30
0.0
 11
50.25
 21
97.0
 31
0.0
  0
LINE
  5
511
  8
0
 10
50.25
 20
116.0
 30
0.0
 11
60.25
 21
116.0
 31
0.0
  0
LINE
  5
514
  8
0
 10
50.25
 20
127.140625
 30
0.0
 11
50.25
 21
114.5
 31
0.0
  0
LINE
  5
515
  8
0
 10
50.25
 20
114.5
 30
0.0
 11
50.25
 21
127.140625
 31
0.0
  0
LINE
  5
516
  8
0
 10
50.25
 20
114.5
 30
0.0
 11
50.25
 21
104.4999999999999
 31
0.0
  0
LINE
  5
517
  8
0
 10
50.25
 20
104.4999999999999
 30
0.0
 11
50.25
 21
114.5
 31
0.0
  0
LINE
  5
518
  8
0
 10
50.25
 20
104.4999999999999
 30
0.0
 11
50.25
 21
103.0
 31
0.0
  0
LINE
  5
519
  8
0
 10
50.25
 20
162.0
 30
0.0
 11
60.25
 21
162.0
 31
0.0
  0
LINE
  5
51A
  8
0
 10
50.25
 20
162.0
 30
0.0
 11
50.25
 21
172.0
 31
0.0
  0
LINE
  5
51B
  8
0
 10
50.25
 20
183.0
 30
0.0
 11
50.25
 21
184.49999999999989
 31
0.0
  0
LINE
  5
51C
  8
0
 10
50.25
 20
172.0
 30
0.0
 11
50.25
 21
162.0
 31
0.0
  0
LINE
  5
51D
  8
0
 10
50.25
 20
172.0
 30
0.0
 11
50.25
 21
196.0
 31
0.0
  0
LINE
  5
51E
  8
0
 10
50.25
 20
172.0
 30
0.0
 11
60.25
 21
172.0
 31
0.0
  0
LINE
  5
51F
  8
0
 10
50.25
 20
196.0
 30
0.0
 11
50.25
 21
172.0
 31
0.0
  0
LINE
  5
520
  8
0
 10
50.25
 20
196.0
 30
0.0
 11
60.25
 21
196.0
 31
0.0
  0
LINE
  5
523
  8
0
 10
50.25
 20
207.14062499999989
 30
0.0
 11
50.25
 21
194.5
 31
0.0
  0
LINE
  5
524
  8
0
 10
50.25
 20
242.0
 30
0.0
 11
60.25
 21
242.0
 31
0.0
  0
LINE
  5
525
  8
0
 10
50.25
 20
242.0
 30
0.0
 11
50.25
 21
252.0
 31
0.0
  0
LINE
  5
526
  8
0
 10
50.25
 20
252.0
 30
0.0
 11
60.25
 21
252.0
 31
0.0
  0
LINE
  5
527
  8
0
 10
50.25
 20
252.0
 30
0.0
 11
50.25
 21
242.0
 31
0.0
  0
LINE
  5
528
  8
0
 10
50.25
 20
252.0
 30
0.0
 11
50.25
 21
276.0
 31
0.0
  0
LINE
  5
529
  8
0
 10
50.25
 20
263.0
 30
0.0
 11
50.25
 21
264.5
 31
0.0
  0
LINE
  5
52A
  8
0
 10
50.25
 20
194.5
 30
0.0
 11
50.25
 21
207.14062499999989
 31
0.0
  0
LINE
  5
52B
  8
0
 10
50.25
 20
194.5
 30
0.0
 11
50.25
 21
184.49999999999989
 31
0.0
  0
LINE
  5
55C
  8
0
 10
54.345999999999997
 20
0.999999999999996
 30
0.0
 11
58.186
 21
0.999999999999996
 31
0.0
  0
LINE
  5
55D
  8
0
 10
58.186
 20
0.999999999999996
 30
0.0
 11
61.578000000000003
 21
0.999999999999996
 31
0.0
  0
LINE
  5
55E
  8
0
 10
54.345999999999997
 20
0.9999999999999978
 30
0.0
 11
58.186
 21
0.9999999999999978
 31
0.0
  0
LINE
  5
55F
  8
0
 10
58.186
 20
0.9999999999999978
 30
0.0
 11
61.578000000000003
 21
0.9999999999999978
 31
0.0
  0
LINE
  5
560
  8
0
 10
60.25
 20
116.0
 30
0.0
 11
60.25
 21
96.433992147578792
 31
0.0
  0
LINE
  5
561
  8
0
 10
60.25
 20
96.433992147578792
 30
0.0
 11
60.25
 21
116.0
 31
0.0
  0
LINE
  5
562
  8
0
 10
60.25
 20
104.0
 30
0.0
 11
61.578000000000003
 21
104.0
 31
0.0
  0
LINE
  5
5BE
  8
0
 10
60.25
 20
196.0
 30
0.0
 11
60.25
 21
172.0
 31
0.0
  0
LINE
  5
5BF
  8
0
 10
60.25
 20
172.0
 30
0.0
 11
60.25
 21
196.0
 31
0.0
  0
LINE
  5
5C0
  8
0
 10
60.25
 20
172.0
 30
0.0
 11
60.25
 21
162.0
 31
0.0
  0
LINE
  5
5C1
  8
0
 10
60.25
 20
162.0
 30
0.0
 11
60.25
 21
172.0
 31
0.0
  0
LINE
  5
5C2
  8
0
 10
60.25
 20
184.0
 30
0.0
 11
61.578000000000003
 21
184.0
 31
0.0
  0
LINE
  5
64C
  8
0
 10
61.578000000000003
 20
0.999999999999996
 30
0.0
 11
64.138000000000005
 21
0.9999999999999969
 31
0.0
  0
LINE
  5
64D
  8
0
 10
61.578000000000003
 20
0.9999999999999978
 30
0.0
 11
64.138000000000005
 21
0.9999999999999978
 31
0.0
  0
LINE
  5
64E
  8
0
 10
61.578000000000003
 20
104.0
 30
0.0
 11
64.138000000000005
 21
104.0
 31
0.0
  0
LINE
  5
657
  8
0
 10
61.578000000000003
 20
184.0
 30
0.0
 11
64.138000000000005
 21
184.0
 31
0.0
  0
LINE
  5
660
  8
0
 10
60.25
 20
242.0
 30
0.0
 11
60.25
 21
252.0
 31
0.0
  0
LINE
  5
661
  8
0
 10
60.25
 20
252.0
 30
0.0
 11
60.25
 21
276.0
 31
0.0
  0
LINE
  5
662
  8
0
 10
60.25
 20
252.0
 30
0.0
 11
60.25
 21
242.0
 31
0.0
  0
LINE
  5
663
  8
0
 10
50.25
 20
184.49999999999989
 30
0.0
 11
50.25
 21
194.5
 31
0.0
  0
LINE
  5
664
  8
0
 10
50.25
 20
184.49999999999989
 30
0.0
 11
50.25
 21
183.0
 31
0.0
  0
LINE
  5
665
  8
0
 10
60.25
 20
264.0
 30
0.0
 11
61.578000000000003
 21
264.0
 31
0.0
  0
LINE
  5
666
  8
0
 10
64.138000000000005
 20
0.9999999999999969
 30
0.0
 11
65.673999999999992
 21
0.9999999999999969
 31
0.0
  0
LINE
  5
66A
  8
0
 10
62.246299999999998
 20
96.321000000000012
 30
0.0
 11
70.514600000000002
 21
94.103200000000001
 31
0.0
  0
LINE
  5
66B
  8
0
 10
64.138000000000005
 20
0.9999999999999978
 30
0.0
 11
65.673999999999992
 21
0.9999999999999969
 31
0.0
  0
LINE
  5
66C
  8
0
 10
64.138000000000005
 20
104.0
 30
0.0
 11
65.673999999999992
 21
104.0
 31
0.0
  0
LINE
  5
677
  8
0
 10
65.673999999999992
 20
0.9999999999999969
 30
0.0
 11
66.25
 21
0.9999999999999969
 31
0.0
  0
LINE
  5
678
  8
0
 10
65.673999999999992
 20
0.9999999999999969
 30
0.0
 11
66.25
 21
0.9999999999999969
 31
0.0
  0
LINE
  5
679
  8
0
 10
65.673999999999992
 20
104.0
 30
0.0
 11
66.25
 21
104.0
 31
0.0
  0
LINE
  5
67F
  8
0
 10
64.138000000000005
 20
184.0
 30
0.0
 11
65.673999999999992
 21
184.0
 31
0.0
  0
LINE
  5
680
  8
0
 10
65.673999999999992
 20
184.0
 30
0.0
 11
66.25
 21
184.0
 31
0.0
  0
LINE
  5
681
  8
0
 10
65.673999999999992
 20
200.90041442472801
 30
0.0
 11
75.225999999999999
 21
194.20799999999991
 31
0.0
  0
LINE
  5
690
  8
0
 10
61.578000000000003
 20
264.0
 30
0.0
 11
64.138000000000005
 21
264.0
 31
0.0
  0
LINE
  5
691
  8
0
 10
64.138000000000005
 20
264.0
 30
0.0
 11
65.673999999999992
 21
264.0
 31
0.0
  0
LINE
  5
694
  8
0
 10
65.677599999999984
 20
184.49999999999989
 30
0.0
 11
66.25
 21
184.49999999999989
 31
0.0
  0
LINE
  5
695
  8
0
 10
65.673999999999992
 20
264.0
 30
0.0
 11
66.25
 21
264.0
 31
0.0
  0
LINE
  5
696
  8
0
 10
50.25
 20
264.5
 30
0.0
 11
50.25
 21
274.5
 31
0.0
  0
LINE
  5
697
  8
0
 10
50.25
 20
264.5
 30
0.0
 11
50.25
 21
263.0
 31
0.0
  0
LINE
  5
698
  8
0
 10
66.25
 20
1.4999999999999889
 30
0.0
 11
66.25
 21
1.0
 31
0.0
  0
LINE
  5
699
  8
0
 10
66.25
 20
0.9999999999999969
 30
0.0
 11
66.25
 21
1.5
 31
0.0
  0
LINE
  5
69A
  8
0
 10
66.25
 20
95.399734485892694
 30
0.0
 11
66.25
 21
104.0
 31
0.0
  0
LINE
  5
69C
  8
0
 10
66.25
 20
1.5
 30
0.0
 11
67.853399999999993
 21
1.335126
 31
0.0
  0
LINE
  5
69E
  8
0
 10
66.25
 20
104.0
 30
0.0
 11
66.25
 21
104.4999999999999
 31
0.0
  0
LINE
  5
69F
  8
0
 10
66.25
 20
104.0
 30
0.0
 11
66.25
 21
95.399734485892694
 31
0.0
  0
LINE
  5
6A0
  8
0
 10
66.084400000000002
 20
161.0
 30
0.0
 11
85.25
 21
161.0
 31
0.0
  0
LINE
  5
6A1
  8
0
 10
66.084400000000002
 20
161.0
 30
0.0
 11
85.25
 21
161.0
 31
0.0
  0
LINE
  5
6A2
  8
0
 10
66.25
 20
127.0
 30
0.0
 11
66.25
 21
120.4968517458499
 31
0.0
  0
LINE
  5
6A3
  8
0
 10
66.25
 20
175.1999999999999
 30
0.0
 11
73.25
 21
175.1999999999999
 31
0.0
  0
LINE
  5
6A4
  8
0
 10
66.25
 20
183.30080137378391
 30
0.0
 11
66.879927917806896
 21
184.435176433555
 31
0.0
  0
LINE
  5
6A5
  8
0
 10
66.25
 20
161.0
 30
0.0
 11
66.25
 21
184.0
 31
0.0
  0
LINE
  5
6A6
  8
0
 10
66.25
 20
127.0
 30
0.0
 11
66.25
 21
124.0
 31
0.0
  0
LINE
  5
6A7
  8
0
 10
66.25
 20
127.0
 30
0.0
 11
85.25
 21
127.0
 31
0.0
  0
LINE
  5
6A8
  8
0
 10
66.25
 20
120.4968517458499
 30
0.0
 11
75.225999999999999
 21
114.2079999999999
 31
0.0
  0
LINE
  5
6A9
  8
0
 10
66.25
 20
120.4968517458499
 30
0.0
 11
66.25
 21
127.0
 31
0.0
  0
LINE
  5
6AA
  8
0
 10
66.25
 20
104.4999999999999
 30
0.0
 11
67.853399999999993
 21
104.33499999999989
 31
0.0
  0
LINE
  5
6AC
  8
0
 10
66.25
 20
104.4999999999999
 30
0.0
 11
66.25
 21
104.0
 31
0.0
  0
LINE
  5
6AD
  8
0
 10
66.25
 20
200.49685174584991
 30
0.0
 11
66.25
 21
207.0
 31
0.0
  0
LINE
  5
6AE
  8
0
 10
66.25
 20
184.0
 30
0.0
 11
66.25
 21
184.49999999999989
 31
0.0
  0
LINE
  5
6AF
  8
0
 10
66.25
 20
184.0
 30
0.0
 11
66.25
 21
161.0
 31
0.0
  0
LINE
  5
6B0
  8
0
 10
66.25
 20
255.19999999999999
 30
0.0
 11
73.25
 21
255.19999999999999
 31
0.0
  0
LINE
  5
6B1
  8
0
 10
66.25
 20
263.30080137378388
 30
0.0
 11
66.879927917806796
 21
264.43517643355489
 31
0.0
  0
LINE
  5
6B2
  8
0
 10
66.084400000000002
 20
241.0
 30
0.0
 11
85.25
 21
241.0
 31
0.0
  0
LINE
  5
6B3
  8
0
 10
66.25
 20
241.0
 30
0.0
 11
66.25
 21
264.0
 31
0.0
  0
LINE
  5
6B4
  8
0
 10
66.25
 20
207.0
 30
0.0
 11
66.25
 21
204.0
 31
0.0
  0
LINE
  5
6B5
  8
0
 10
66.25
 20
207.0
 30
0.0
 11
66.25
 21
200.49685174584991
 31
0.0
  0
LINE
  5
6B6
  8
0
 10
66.25
 20
207.0
 30
0.0
 11
85.25
 21
207.0
 31
0.0
  0
LINE
  5
6B7
  8
0
 10
66.25
 20
184.49999999999989
 30
0.0
 11
67.918800000000005
 21
184.309
 31
0.0
  0
LINE
  5
6B8
  8
0
 10
66.25
 20
184.49999999999989
 30
0.0
 11
67.853399999999993
 21
184.33500000000001
 31
0.0
  0
LINE
  5
6B9
  8
0
 10
66.25
 20
184.49999999999989
 30
0.0
 11
66.25
 21
184.0
 31
0.0
  0
LINE
  5
6BA
  8
0
 10
66.25
 20
264.0
 30
0.0
 11
66.25
 21
264.5
 31
0.0
  0
LINE
  5
6BB
  8
0
 10
66.25
 20
264.0
 30
0.0
 11
66.25
 21
241.0
 31
0.0
  0
LINE
  5
6BC
  8
0
 10
65.677599999999984
 20
264.5
 30
0.0
 11
66.25
 21
264.5
 31
0.0
  0
LINE
  5
6BD
  8
0
 10
60.25
 20
276.0
 30
0.0
 11
60.25
 21
252.0
 31
0.0
  0
LINE
  5
6BE
  8
0
 10
50.25
 20
276.0
 30
0.0
 11
60.25
 21
276.0
 31
0.0
  0
LINE
  5
6BF
  8
0
 10
50.25
 20
276.0
 30
0.0
 11
50.25
 21
252.0
 31
0.0
  0
LINE
  5
6C0
  8
0
 10
50.25
 20
274.5
 30
0.0
 11
50.25
 21
287.140625
 31
0.0
  0
LINE
  5
6C1
  8
0
 10
50.25
 20
274.5
 30
0.0
 11
50.25
 21
264.5
 31
0.0
  0
LINE
  5
6C2
  8
0
 10
66.25
 20
280.49685174584999
 30
0.0
 11
66.25
 21
287.0
 31
0.0
  0
LINE
  5
6C3
  8
0
 10
66.25
 20
284.0
 30
0.0
 11
66.25
 21
287.0
 31
0.0
  0
LINE
  5
6C4
  8
0
 10
65.673999999999992
 20
280.90041442472801
 30
0.0
 11
75.225999999999999
 21
274.20799999999991
 31
0.0
  0
LINE
  5
6C5
  8
0
 10
66.25
 20
264.5
 30
0.0
 11
67.918800000000005
 21
264.30900000000003
 31
0.0
  0
LINE
  5
6C6
  8
0
 10
66.25
 20
264.5
 30
0.0
 11
67.853399999999993
 21
264.33499999999992
 31
0.0
  0
LINE
  5
6C7
  8
0
 10
66.25
 20
264.5
 30
0.0
 11
66.25
 21
264.0
 31
0.0
  0
LINE
  5
6C8
  8
0
 10
69.274000000000001
 20
0.7919999999999972
 30
0.0
 11
70.713999999999999
 21
0.215999999999997
 31
0.0
  0
LINE
  5
6C9
  8
0
 10
69.274000000000001
 20
0.7919999999999972
 30
0.0
 11
70.713999999999999
 21
0.215999999999997
 31
0.0
  0
LINE
  5
6CA
  8
0
 10
67.118020075562399
 20
95.200000000000017
 30
0.0
 11
73.25
 21
95.200000000000017
 31
0.0
  0
LINE
  5
6CB
  8
0
 10
67.853399999999993
 20
1.335126
 30
0.0
 11
69.274000000000001
 21
0.7919999999999972
 31
0.0
  0
LINE
  5
6CD
  8
0
 10
69.274000000000001
 20
103.7919999999999
 30
0.0
 11
70.713999999999999
 21
103.21599999999999
 31
0.0
  0
LINE
  5
6CE
  8
0
 10
67.853399999999993
 20
104.33499999999989
 30
0.0
 11
69.274000000000001
 21
103.7919999999999
 31
0.0
  0
LINE
  5
6CF
  8
0
 10
67.918800000000005
 20
104.309
 30
0.0
 11
69.274000000000001
 21
103.7919999999999
 31
0.0
  0
LINE
  5
6D0
  8
0
 10
69.274000000000001
 20
183.792
 30
0.0
 11
70.713999999999999
 21
183.21599999999989
 31
0.0
  0
LINE
  5
6D1
  8
0
 10
67.853399999999993
 20
184.33500000000001
 30
0.0
 11
69.274000000000001
 21
183.792
 31
0.0
  0
LINE
  5
6D2
  8
0
 10
67.918800000000005
 20
184.309
 30
0.0
 11
69.274000000000001
 21
183.792
 31
0.0
  0
LINE
  5
6D3
  8
0
 10
70.514600000000002
 20
94.103200000000001
 30
0.0
 11
75.0441
 21
91.857399999999998
 31
0.0
  0
LINE
  5
6D9
  8
0
 10
70.713999999999999
 20
0.215999999999997
 30
0.0
 11
72.25
 21
-0.0000000000000026
 31
0.0
  0
LINE
  5
6DA
  8
0
 10
70.713999999999999
 20
0.215999999999997
 30
0.0
 11
72.25
 21
-0.0000000000000032
 31
0.0
  0
LINE
  5
6DB
  8
0
 10
70.713999999999999
 20
103.21599999999999
 30
0.0
 11
72.25
 21
103.0
 31
0.0
  0
LINE
  5
6DC
  8
0
 10
72.25
 20
11.0
 30
0.0
 11
76.181299999999993
 21
12.0792
 31
0.0
  0
LINE
  5
6DD
  8
0
 10
72.25
 20
11.0
 30
0.0
 11
76.181299999999993
 21
12.0792
 31
0.0
  0
LINE
  5
6DE
  8
0
 10
72.25
 20
-0.0000000000000026
 30
0.0
 11
73.786000000000001
 21
0.215999999999997
 31
0.0
  0
LINE
  5
6DF
  8
0
 10
72.25
 20
103.0
 30
0.0
 11
73.786000000000001
 21
103.21599999999999
 31
0.0
  0
LINE
  5
6E0
  8
0
 10
73.25
 20
95.200000000000017
 30
0.0
 11
74.25
 21
96.0
 31
0.0
  0
LINE
  5
6E1
  8
0
 10
73.786000000000001
 20
0.215999999999997
 30
0.0
 11
75.225999999999999
 21
0.7919999999999972
 31
0.0
  0
LINE
  5
6E2
  8
0
 10
73.25
 20
175.1999999999999
 30
0.0
 11
74.25
 21
176.0
 31
0.0
  0
LINE
  5
6E3
  8
0
 10
73.786000000000001
 20
103.21599999999999
 30
0.0
 11
75.225999999999999
 21
103.7919999999999
 31
0.0
  0
LINE
  5
6E4
  8
0
 10
72.25
 20
183.0
 30
0.0
 11
73.786000000000001
 21
183.21599999999989
 31
0.0
  0
LINE
  5
6E5
  8
0
 10
73.25
 20
255.19999999999999
 30
0.0
 11
74.25
 21
256.0
 31
0.0
  0
LINE
  5
6E6
  8
0
 10
73.786000000000001
 20
183.21599999999989
 30
0.0
 11
75.225999999999999
 21
183.792
 31
0.0
  0
LINE
  5
6E7
  8
0
 10
70.713999999999999
 20
183.21599999999989
 30
0.0
 11
72.25
 21
183.0
 31
0.0
  0
LINE
  5
6E8
  8
0
 10
72.25
 20
263.0
 30
0.0
 11
73.786000000000001
 21
263.21600000000001
 31
0.0
  0
LINE
  5
6E9
  8
0
 10
75.225999999999999
 20
0.7919999999999972
 30
0.0
 11
76.498000000000005
 21
1.7519999999999989
 31
0.0
  0
LINE
  5
6EA
  8
0
 10
76.498000000000005
 20
1.7519999999999989
 30
0.0
 11
77.457999999999998
 21
3.0239999999999991
 31
0.0
  0
LINE
  5
6EE
  8
0
 10
74.25
 20
96.0
 30
0.0
 11
78.033999999999992
 21
107.464
 31
0.0
  0
LINE
  5
6EF
  8
0
 10
75.0441
 20
91.857399999999998
 30
0.0
 11
78.052300000000002
 21
89.404200000000003
 31
0.0
  0
LINE
  5
6F5
  8
0
 10
76.181299999999993
 20
12.0792
 30
0.0
 11
79.0779
 21
13.9718
 31
0.0
  0
LINE
  5
6F8
  8
0
 10
75.900383810188401
 20
101.0
 30
0.0
 11
82.249999999999986
 21
101.0
 31
0.0
  0
LINE
  5
6F9
  8
0
 10
75.900383810188401
 20
101.0
 30
0.0
 11
82.249999999999986
 21
101.0
 31
0.0
  0
LINE
  5
6FA
  8
0
 10
74.601522237347396
 20
11.6455276367984
 30
0.0
 11
75.225999999999999
 21
11.208
 31
0.0
  0
LINE
  5
6FB
  8
0
 10
75.225999999999999
 20
11.208
 30
0.0
 11
76.498000000000005
 21
10.24799999999999
 31
0.0
  0
LINE
  5
6FC
  8
0
 10
76.498000000000005
 20
10.24799999999999
 30
0.0
 11
77.457999999999998
 21
8.9760000000000009
 31
0.0
  0
LINE
  5
6FD
  8
0
 10
75.225999999999999
 20
103.7919999999999
 30
0.0
 11
76.498000000000005
 21
104.752
 31
0.0
  0
LINE
  5
6FE
  8
0
 10
76.498000000000005
 20
104.752
 30
0.0
 11
77.457999999999998
 21
106.024
 31
0.0
  0
LINE
  5
70B
  8
0
 10
75.900383810188401
 20
181.0
 30
0.0
 11
82.249999999999986
 21
181.0
 31
0.0
  0
LINE
  5
70C
  8
0
 10
75.900383810188401
 20
181.0
 30
0.0
 11
82.249999999999986
 21
181.0
 31
0.0
  0
LINE
  5
70D
  8
0
 10
74.25
 20
176.0
 30
0.0
 11
78.033999999999992
 21
187.464
 31
0.0
  0
LINE
  5
70E
  8
0
 10
75.225999999999999
 20
114.2079999999999
 30
0.0
 11
76.498000000000005
 21
113.24799999999991
 31
0.0
  0
LINE
  5
70F
  8
0
 10
76.498000000000005
 20
113.24799999999991
 30
0.0
 11
77.457999999999998
 21
111.976
 31
0.0
  0
LINE
  5
710
  8
0
 10
75.225999999999999
 20
183.792
 30
0.0
 11
76.498000000000005
 21
184.75200000000001
 31
0.0
  0
LINE
  5
711
  8
0
 10
77.457999999999998
 20
3.0239999999999991
 30
0.0
 11
78.033999999999992
 21
4.4639999999999986
 31
0.0
  0
LINE
  5
714
  8
0
 10
77.457999999999998
 20
8.9760000000000009
 30
0.0
 11
78.033999999999992
 21
7.5359999999999996
 31
0.0
  0
LINE
  5
715
  8
0
 10
78.033999999999992
 20
4.4639999999999986
 30
0.0
 11
78.25
 21
6.0
 31
0.0
  0
LINE
  5
717
  8
0
 10
78.033999999999992
 20
7.5359999999999996
 30
0.0
 11
78.25
 21
6.0
 31
0.0
  0
LINE
  5
718
  8
0
 10
77.457999999999998
 20
106.024
 30
0.0
 11
78.033999999999992
 21
107.464
 31
0.0
  0
LINE
  5
719
  8
0
 10
78.033999999999992
 20
107.464
 30
0.0
 11
78.25
 21
109.0
 31
0.0
  0
LINE
  5
71A
  8
0
 10
78.033999999999992
 20
110.536
 30
0.0
 11
78.25
 21
109.0
 31
0.0
  0
LINE
  5
71F
  8
0
 10
77.457999999999998
 20
111.976
 30
0.0
 11
78.033999999999992
 21
110.536
 31
0.0
  0
LINE
  5
720
  8
0
 10
76.498000000000005
 20
184.75200000000001
 30
0.0
 11
77.457999999999998
 21
186.024
 31
0.0
  0
LINE
  5
721
  8
0
 10
77.457999999999998
 20
186.024
 30
0.0
 11
78.033999999999992
 21
187.464
 31
0.0
  0
LINE
  5
722
  8
0
 10
79.0779
 20
13.9718
 30
0.0
 11
81.640399999999985
 21
15.8644
 31
0.0
  0
LINE
  5
723
  8
0
 10
81.640399999999985
 20
15.8644
 30
0.0
 11
83.645799999999994
 21
18.758900000000001
 31
0.0
  0
LINE
  5
724
  8
0
 10
85.094099999999997
 20
23.657399999999999
 30
0.0
 11
85.873999999999995
 21
30.114499999999989
 31
0.0
  0
LINE
  5
725
  8
0
 10
83.645799999999994
 20
18.758900000000001
 30
0.0
 11
85.094099999999997
 21
23.657399999999999
 31
0.0
  0
LINE
  5
726
  8
0
 10
83.645799999999994
 20
18.758900000000001
 30
0.0
 11
85.094099999999997
 21
23.657399999999999
 31
0.0
  0
LINE
  5
727
  8
0
 10
85.094099999999997
 20
23.657399999999999
 30
0.0
 11
85.873999999999995
 21
30.114499999999989
 31
0.0
  0
LINE
  5
728
  8
0
 10
84.866653722169289
 20
74.25127302984221
 30
0.0
 11
85.855500000000006
 21
74.821399999999997
 31
0.0
  0
LINE
  5
72A
  8
0
 10
85.135479836149386
 20
24.0
 30
0.0
 11
97.75
 21
24.0
 31
0.0
  0
LINE
  5
72B
  8
0
 10
85.135479836149386
 20
24.0
 30
0.0
 11
97.75
 21
24.0
 31
0.0
  0
LINE
  5
72C
  8
0
 10
83.584599999999995
 20
78.589600000000004
 30
0.0
 11
85.347999999999999
 21
70.476900000000001
 31
0.0
  0
LINE
  5
733
  8
0
 10
78.052300000000002
 20
89.404200000000003
 30
0.0
 11
80.092299999999994
 21
86.640100000000004
 31
0.0
  0
LINE
  5
735
  8
0
 10
80.092299999999994
 20
86.640100000000004
 30
0.0
 11
81.821200000000005
 21
83.806899999999985
 31
0.0
  0
LINE
  5
73A
  8
0
 10
81.821200000000005
 20
83.806899999999985
 30
0.0
 11
83.584599999999995
 21
78.589600000000004
 31
0.0
  0
LINE
  5
749
  8
0
 10
82.249999999999986
 20
101.0
 30
0.0
 11
84.809999999999988
 21
100.6399999999999
 31
0.0
  0
LINE
  5
74A
  8
0
 10
84.809999999999988
 20
100.6399999999999
 30
0.0
 11
87.209999999999994
 21
99.680000000000007
 31
0.0
  0
LINE
  5
74B
  8
0
 10
85.25
 20
127.0
 30
0.0
 11
85.25
 21
127.61199999999999
 31
0.0
  0
LINE
  5
74C
  8
0
 10
85.25
 20
139.64799999999991
 30
0.0
 11
85.25
 21
135.5679999999999
 31
0.0
  0
LINE
  5
74D
  8
0
 10
85.25
 20
139.64799999999991
 30
0.0
 11
85.25
 21
144.0
 31
0.0
  0
LINE
  5
74E
  8
0
 10
85.25
 20
135.5679999999999
 30
0.0
 11
85.25
 21
131.96399999999991
 31
0.0
  0
LINE
  5
74F
  8
0
 10
85.25
 20
135.5679999999999
 30
0.0
 11
85.25
 21
139.64799999999991
 31
0.0
  0
LINE
  5
750
  8
0
 10
85.25
 20
131.96399999999991
 30
0.0
 11
85.25
 21
129.244
 31
0.0
  0
LINE
  5
751
  8
0
 10
85.25
 20
131.96399999999991
 30
0.0
 11
85.25
 21
135.5679999999999
 31
0.0
  0
LINE
  5
752
  8
0
 10
85.25
 20
129.244
 30
0.0
 11
85.25
 21
127.61199999999999
 31
0.0
  0
LINE
  5
753
  8
0
 10
85.25
 20
129.244
 30
0.0
 11
85.25
 21
131.96399999999991
 31
0.0
  0
LINE
  5
754
  8
0
 10
85.25
 20
127.61199999999999
 30
0.0
 11
85.25
 21
127.0
 31
0.0
  0
LINE
  5
755
  8
0
 10
85.25
 20
127.61199999999999
 30
0.0
 11
85.25
 21
129.244
 31
0.0
  0
LINE
  5
756
  8
0
 10
85.25
 20
144.0
 30
0.0
 11
85.25
 21
148.352
 31
0.0
  0
LINE
  5
757
  8
0
 10
85.25
 20
144.0
 30
0.0
 11
85.25
 21
139.64799999999991
 31
0.0
  0
LINE
  5
758
  8
0
 10
85.25
 20
154.51942461872289
 30
0.0
 11
86.076700000000002
 21
155.0979999999999
 31
0.0
  0
LINE
  5
759
  8
0
 10
85.25
 20
154.45176300984491
 30
0.0
 11
85.855500000000006
 21
154.821
 31
0.0
  0
LINE
  5
75A
  8
0
 10
85.25
 20
148.352
 30
0.0
 11
85.25
 21
152.43199999999999
 31
0.0
  0
LINE
  5
75B
  8
0
 10
85.25
 20
148.352
 30
0.0
 11
85.25
 21
144.0
 31
0.0
  0
LINE
  5
75C
  8
0
 10
85.25
 20
152.43199999999999
 30
0.0
 11
85.25
 21
156.036
 31
0.0
  0
LINE
  5
75D
  8
0
 10
85.25
 20
152.43199999999999
 30
0.0
 11
85.25
 21
148.352
 31
0.0
  0
LINE
  5
75E
  8
0
 10
85.25
 20
156.036
 30
0.0
 11
85.25
 21
158.756
 31
0.0
  0
LINE
  5
75F
  8
0
 10
85.25
 20
156.036
 30
0.0
 11
85.25
 21
152.43199999999999
 31
0.0
  0
LINE
  5
760
  8
0
 10
97.75
 20
24.0
 30
0.0
 11
97.75
 21
24.611999999999991
 31
0.0
  0
LINE
  5
761
  8
0
 10
97.75
 20
24.611999999999991
 30
0.0
 11
97.75
 21
26.244
 31
0.0
  0
LINE
  5
762
  8
0
 10
97.75
 20
24.611999999999991
 30
0.0
 11
97.75
 21
24.0
 31
0.0
  0
LINE
  5
763
  8
0
 10
97.75
 20
26.244
 30
0.0
 11
97.75
 21
28.963999999999999
 31
0.0
  0
LINE
  5
764
  8
0
 10
97.75
 20
26.244
 30
0.0
 11
97.75
 21
24.611999999999991
 31
0.0
  0
LINE
  5
765
  8
0
 10
85.873999999999995
 20
30.114499999999989
 30
0.0
 11
86.542399999999986
 21
37.239600000000003
 31
0.0
  0
LINE
  5
766
  8
0
 10
85.873999999999995
 20
30.114499999999989
 30
0.0
 11
86.542399999999986
 21
37.239600000000003
 31
0.0
  0
LINE
  5
767
  8
0
 10
97.75
 20
28.963999999999999
 30
0.0
 11
97.75
 21
32.567999999999998
 31
0.0
  0
LINE
  5
768
  8
0
 10
97.75
 20
28.963999999999999
 30
0.0
 11
97.75
 21
26.244
 31
0.0
  0
LINE
  5
769
  8
0
 10
97.75
 20
32.567999999999998
 30
0.0
 11
97.75
 21
36.648000000000003
 31
0.0
  0
LINE
  5
76A
  8
0
 10
97.75
 20
32.567999999999998
 30
0.0
 11
97.75
 21
28.963999999999999
 31
0.0
  0
LINE
  5
76C
  8
0
 10
86.542399999999986
 20
37.239600000000003
 30
0.0
 11
86.938500000000005
 21
46.777999999999999
 31
0.0
  0
LINE
  5
76F
  8
0
 10
97.75
 20
58.0
 30
0.0
 11
97.75
 21
57.388000000000012
 31
0.0
  0
LINE
  5
770
  8
0
 10
97.75
 20
57.388000000000012
 30
0.0
 11
97.75
 21
55.756
 31
0.0
  0
LINE
  5
771
  8
0
 10
97.75
 20
57.388000000000012
 30
0.0
 11
97.75
 21
58.0
 31
0.0
  0
LINE
  5
772
  8
0
 10
97.75
 20
55.756
 30
0.0
 11
97.75
 21
53.036000000000001
 31
0.0
  0
LINE
  5
773
  8
0
 10
97.75
 20
55.756
 30
0.0
 11
97.75
 21
57.388000000000012
 31
0.0
  0
LINE
  5
774
  8
0
 10
97.75
 20
53.036000000000001
 30
0.0
 11
97.75
 21
49.432000000000002
 31
0.0
  0
LINE
  5
775
  8
0
 10
97.75
 20
53.036000000000001
 30
0.0
 11
97.75
 21
55.756
 31
0.0
  0
LINE
  5
776
  8
0
 10
97.75
 20
49.432000000000002
 30
0.0
 11
97.75
 21
45.35199999999999
 31
0.0
  0
LINE
  5
777
  8
0
 10
97.75
 20
49.432000000000002
 30
0.0
 11
97.75
 21
53.036000000000001
 31
0.0
  0
LINE
  5
778
  8
0
 10
97.75
 20
45.35199999999999
 30
0.0
 11
97.75
 21
41.0
 31
0.0
  0
LINE
  5
779
  8
0
 10
97.75
 20
45.35199999999999
 30
0.0
 11
97.75
 21
49.432000000000002
 31
0.0
  0
LINE
  5
77A
  8
0
 10
85.347999999999999
 20
70.476900000000001
 30
0.0
 11
86.592799999999997
 21
58.176600000000001
 31
0.0
  0
LINE
  5
781
  8
0
 10
85.855500000000006
 20
154.821
 30
0.0
 11
86.076700000000002
 21
155.0979999999999
 31
0.0
  0
LINE
  5
782
  8
0
 10
85.855500000000006
 20
74.821399999999997
 30
0.0
 11
86.076700000000002
 21
75.097700000000003
 31
0.0
  0
LINE
  5
783
  8
0
 10
86.592799999999997
 20
58.176600000000001
 30
0.0
 11
86.938500000000005
 21
46.777999999999999
 31
0.0
  0
LINE
  5
787
  8
0
 10
86.076700000000002
 20
75.097700000000003
 30
0.0
 11
91.890000000000001
 21
88.439999999999984
 31
0.0
  0
LINE
  5
78F
  8
0
 10
86.076700000000002
 20
155.0979999999999
 30
0.0
 11
91.890000000000001
 21
168.44
 31
0.0
  0
LINE
  5
790
  8
0
 10
87.209999999999994
 20
99.680000000000007
 30
0.0
 11
89.329999999999984
 21
98.079999999999984
 31
0.0
  0
LINE
  5
791
  8
0
 10
89.329999999999984
 20
98.079999999999984
 30
0.0
 11
90.930000000000007
 21
95.959999999999994
 31
0.0
  0
LINE
  5
792
  8
0
 10
90.930000000000007
 20
95.959999999999994
 30
0.0
 11
91.890000000000001
 21
93.559999999999988
 31
0.0
  0
LINE
  5
793
  8
0
 10
91.890000000000001
 20
93.559999999999988
 30
0.0
 11
92.249999999999986
 21
91.0
 31
0.0
  0
LINE
  5
794
  8
0
 10
91.890000000000001
 20
88.439999999999984
 30
0.0
 11
92.249999999999986
 21
91.0
 31
0.0
  0
LINE
  5
795
  8
0
 10
86.956432936416988
 20
58.0
 30
0.0
 11
97.75
 21
58.0
 31
0.0
  0
LINE
  5
796
  8
0
 10
97.75
 20
41.0
 30
0.0
 11
97.75
 21
36.648000000000003
 31
0.0
  0
LINE
  5
797
  8
0
 10
97.75
 20
41.0
 30
0.0
 11
97.75
 21
45.35199999999999
 31
0.0
  0
LINE
  5
798
  8
0
 10
97.75
 20
36.648000000000003
 30
0.0
 11
97.75
 21
41.0
 31
0.0
  0
LINE
  5
799
  8
0
 10
97.75
 20
36.648000000000003
 30
0.0
 11
97.75
 21
32.567999999999998
 31
0.0
  0
LINE
  5
79A
  8
0
 10
85.25
 20
158.756
 30
0.0
 11
85.25
 21
160.38800000000001
 31
0.0
  0
LINE
  5
79B
  8
0
 10
85.25
 20
158.756
 30
0.0
 11
85.25
 21
156.036
 31
0.0
  0
LINE
  5
7AA
  8
0
 10
82.249999999999986
 20
181.0
 30
0.0
 11
84.809999999999988
 21
180.63999999999999
 31
0.0
  0
LINE
  5
7AB
  8
0
 10
84.809999999999988
 20
180.63999999999999
 30
0.0
 11
87.209999999999994
 21
179.68000000000001
 31
0.0
  0
LINE
  5
7B8
  8
0
 10
91.890000000000001
 20
168.44
 30
0.0
 11
92.249999999999986
 21
171.0
 31
0.0
  0
LINE
  5
7BB
  8
0
 10
89.329999999999984
 20
178.08000000000001
 30
0.0
 11
90.930000000000007
 21
175.96000000000001
 31
0.0
  0
LINE
  5
7BC
  8
0
 10
90.930000000000007
 20
175.96000000000001
 30
0.0
 11
91.890000000000001
 21
173.55999999999989
 31
0.0
  0
LINE
  5
7BD
  8
0
 10
91.890000000000001
 20
173.55999999999989
 30
0.0
 11
92.249999999999986
 21
171.0
 31
0.0
  0
LINE
  5
7BE
  8
0
 10
87.209999999999994
 20
179.68000000000001
 30
0.0
 11
89.329999999999984
 21
178.08000000000001
 31
0.0
  0
LINE
  5
7BF
  8
0
 10
85.25
 20
161.0
 30
0.0
 11
85.25
 21
160.38800000000001
 31
0.0
  0
LINE
  5
7C0
  8
0
 10
85.25
 20
160.38800000000001
 30
0.0
 11
85.25
 21
161.0
 31
0.0
  0
LINE
  5
7C1
  8
0
 10
85.25
 20
160.38800000000001
 30
0.0
 11
85.25
 21
158.756
 31
0.0
  0
LINE
  5
7C2
  8
0
 10
78.033999999999992
 20
187.464
 30
0.0
 11
78.25
 21
189.0
 31
0.0
  0
LINE
  5
7C3
  8
0
 10
74.25
 20
256.0
 30
0.0
 11
78.033999999999992
 21
267.464
 31
0.0
  0
LINE
  5
7D4
  8
0
 10
75.900383810188401
 20
261.0
 30
0.0
 11
82.249999999999986
 21
261.0
 31
0.0
  0
LINE
  5
7D5
  8
0
 10
75.900383810188401
 20
261.0
 30
0.0
 11
82.249999999999986
 21
261.0
 31
0.0
  0
LINE
  5
7D6
  8
0
 10
75.225999999999999
 20
194.20799999999991
 30
0.0
 11
76.498000000000005
 21
193.24799999999991
 31
0.0
  0
LINE
  5
7D7
  8
0
 10
76.498000000000005
 20
193.24799999999991
 30
0.0
 11
77.457999999999998
 21
191.976
 31
0.0
  0
LINE
  5
7D8
  8
0
 10
85.25
 20
219.648
 30
0.0
 11
85.25
 21
224.0
 31
0.0
  0
LINE
  5
7D9
  8
0
 10
85.25
 20
219.648
 30
0.0
 11
85.25
 21
215.5679999999999
 31
0.0
  0
LINE
  5
7DA
  8
0
 10
85.25
 20
215.5679999999999
 30
0.0
 11
85.25
 21
219.648
 31
0.0
  0
LINE
  5
7DB
  8
0
 10
85.25
 20
215.5679999999999
 30
0.0
 11
85.25
 21
211.964
 31
0.0
  0
LINE
  5
7DC
  8
0
 10
85.25
 20
211.964
 30
0.0
 11
85.25
 21
215.5679999999999
 31
0.0
  0
LINE
  5
7DD
  8
0
 10
85.25
 20
211.964
 30
0.0
 11
85.25
 21
209.244
 31
0.0
  0
LINE
  5
7DE
  8
0
 10
85.25
 20
209.244
 30
0.0
 11
85.25
 21
211.964
 31
0.0
  0
LINE
  5
7DF
  8
0
 10
85.25
 20
209.244
 30
0.0
 11
85.25
 21
207.61199999999991
 31
0.0
  0
LINE
  5
7E0
  8
0
 10
85.25
 20
207.61199999999991
 30
0.0
 11
85.25
 21
209.244
 31
0.0
  0
LINE
  5
7E1
  8
0
 10
85.25
 20
207.61199999999991
 30
0.0
 11
85.25
 21
207.0
 31
0.0
  0
LINE
  5
7E2
  8
0
 10
85.25
 20
224.0
 30
0.0
 11
85.25
 21
228.352
 31
0.0
  0
LINE
  5
7E3
  8
0
 10
85.25
 20
224.0
 30
0.0
 11
85.25
 21
219.648
 31
0.0
  0
LINE
  5
7E4
  8
0
 10
85.25
 20
234.51942461872289
 30
0.0
 11
86.076700000000002
 21
235.0979999999999
 31
0.0
  0
LINE
  5
7E5
  8
0
 10
85.25
 20
234.451763009845
 30
0.0
 11
85.855500000000006
 21
234.82099999999991
 31
0.0
  0
LINE
  5
7E6
  8
0
 10
85.25
 20
228.352
 30
0.0
 11
85.25
 21
224.0
 31
0.0
  0
LINE
  5
7E7
  8
0
 10
85.25
 20
228.352
 30
0.0
 11
85.25
 21
232.43199999999999
 31
0.0
  0
LINE
  5
7E8
  8
0
 10
85.25
 20
232.43199999999999
 30
0.0
 11
85.25
 21
228.352
 31
0.0
  0
LINE
  5
7E9
  8
0
 10
85.25
 20
232.43199999999999
 30
0.0
 11
85.25
 21
236.03599999999989
 31
0.0
  0
LINE
  5
7EA
  8
0
 10
85.25
 20
236.03599999999989
 30
0.0
 11
85.25
 21
232.43199999999999
 31
0.0
  0
LINE
  5
7EB
  8
0
 10
85.25
 20
236.03599999999989
 30
0.0
 11
85.25
 21
238.75599999999989
 31
0.0
  0
LINE
  5
7EC
  8
0
 10
85.25
 20
238.75599999999989
 30
0.0
 11
85.25
 21
236.03599999999989
 31
0.0
  0
LINE
  5
7ED
  8
0
 10
85.25
 20
238.75599999999989
 30
0.0
 11
85.25
 21
240.38800000000001
 31
0.0
  0
LINE
  5
7FC
  8
0
 10
82.249999999999986
 20
261.0
 30
0.0
 11
84.809999999999988
 21
260.63999999999987
 31
0.0
  0
LINE
  5
7FD
  8
0
 10
84.809999999999988
 20
260.63999999999987
 30
0.0
 11
87.209999999999994
 21
259.67999999999989
 31
0.0
  0
LINE
  5
7FE
  8
0
 10
85.25
 20
240.38800000000001
 30
0.0
 11
85.25
 21
238.75599999999989
 31
0.0
  0
LINE
  5
7FF
  8
0
 10
85.25
 20
240.38800000000001
 30
0.0
 11
85.25
 21
241.0
 31
0.0
  0
LINE
  5
801
  8
0
 10
85.855500000000006
 20
234.82099999999991
 30
0.0
 11
86.076700000000002
 21
235.0979999999999
 31
0.0
  0
LINE
  5
804
  8
0
 10
86.076700000000002
 20
235.0979999999999
 30
0.0
 11
91.890000000000001
 21
248.43999999999991
 31
0.0
  0
LINE
  5
808
  8
0
 10
91.890000000000001
 20
248.43999999999991
 30
0.0
 11
92.249999999999986
 21
251.0
 31
0.0
  0
LINE
  5
80F
  8
0
 10
87.209999999999994
 20
259.67999999999989
 30
0.0
 11
89.329999999999984
 21
258.07999999999993
 31
0.0
  0
LINE
  5
810
  8
0
 10
89.329999999999984
 20
258.07999999999993
 30
0.0
 11
90.930000000000007
 21
255.96000000000001
 31
0.0
  0
LINE
  5
811
  8
0
 10
90.930000000000007
 20
255.96000000000001
 30
0.0
 11
91.890000000000001
 21
253.56
 31
0.0
  0
LINE
  5
812
  8
0
 10
91.890000000000001
 20
253.56
 30
0.0
 11
92.249999999999986
 21
251.0
 31
0.0
  0
LINE
  5
813
  8
0
 10
85.25
 20
241.0
 30
0.0
 11
85.25
 21
240.38800000000001
 31
0.0
  0
LINE
  5
814
  8
0
 10
85.25
 20
207.0
 30
0.0
 11
85.25
 21
207.61199999999991
 31
0.0
  0
LINE
  5
815
  8
0
 10
77.457999999999998
 20
191.976
 30
0.0
 11
78.033999999999992
 21
190.53599999999989
 31
0.0
  0
LINE
  5
816
  8
0
 10
78.033999999999992
 20
190.53599999999989
 30
0.0
 11
78.25
 21
189.0
 31
0.0
  0
LINE
  5
817
  8
0
 10
73.786000000000001
 20
263.21600000000001
 30
0.0
 11
75.225999999999999
 21
263.79199999999997
 31
0.0
  0
LINE
  5
818
  8
0
 10
75.225999999999999
 20
263.79199999999997
 30
0.0
 11
76.498000000000005
 21
264.75200000000001
 31
0.0
  0
LINE
  5
819
  8
0
 10
70.713999999999999
 20
263.21600000000001
 30
0.0
 11
72.25
 21
263.0
 31
0.0
  0
LINE
  5
81A
  8
0
 10
69.274000000000001
 20
263.79199999999997
 30
0.0
 11
70.713999999999999
 21
263.21600000000001
 31
0.0
  0
LINE
  5
81B
  8
0
 10
76.498000000000005
 20
264.75200000000001
 30
0.0
 11
77.457999999999998
 21
266.02399999999989
 31
0.0
  0
LINE
  5
81C
  8
0
 10
77.457999999999998
 20
266.02399999999989
 30
0.0
 11
78.033999999999992
 21
267.464
 31
0.0
  0
LINE
  5
81D
  8
0
 10
78.033999999999992
 20
267.464
 30
0.0
 11
78.25
 21
269.0
 31
0.0
  0
LINE
  5
81E
  8
0
 10
75.225999999999999
 20
274.20799999999991
 30
0.0
 11
76.498000000000005
 21
273.24799999999988
 31
0.0
  0
LINE
  5
81F
  8
0
 10
76.498000000000005
 20
273.24799999999988
 30
0.0
 11
77.457999999999998
 21
271.97599999999989
 31
0.0
  0
LINE
  5
820
  8
0
 10
77.457999999999998
 20
271.97599999999989
 30
0.0
 11
78.033999999999992
 21
270.536
 31
0.0
  0
LINE
  5
821
  8
0
 10
78.033999999999992
 20
270.536
 30
0.0
 11
78.25
 21
269.0
 31
0.0
  0
LINE
  5
822
  8
0
 10
67.853399999999993
 20
264.33499999999992
 30
0.0
 11
69.274000000000001
 21
263.79199999999997
 31
0.0
  0
LINE
  5
823
  8
0
 10
67.918800000000005
 20
264.30900000000003
 30
0.0
 11
69.274000000000001
 21
263.79199999999997
 31
0.0
  0
LINE
  5
824
  8
0
 10
66.25
 20
287.0
 30
0.0
 11
85.25
 21
287.0
 31
0.0
  0
LINE
  5
825
  8
0
 10
66.25
 20
287.0
 30
0.0
 11
66.25
 21
280.49685174584999
 31
0.0
  0
LINE
  5
826
  8
0
 10
85.25
 20
287.0
 30
0.0
 11
85.25
 21
287.61200000000002
 31
0.0
  0
LINE
  5
827
  8
0
 10
49.25
 20
287.0
 30
0.0
 11
53.60199999999999
 21
287.61200000000002
 31
0.0
  0
LINE
  5
828
  8
0
 10
33.826000000000001
 20
299.90399999999988
 30
0.0
 11
35.361999999999988
 21
296.06400000000002
 31
0.0
  0
LINE
  5
829
  8
0
 10
33.826000000000001
 20
308.096
 30
0.0
 11
35.361999999999988
 21
311.93599999999992
 31
0.0
  0
LINE
  5
82A
  8
0
 10
33.25
 20
304.0
 30
0.0
 11
33.826000000000001
 21
308.096
 31
0.0
  0
LINE
  5
82B
  8
0
 10
33.25
 20
304.0
 30
0.0
 11
33.826000000000001
 21
299.90399999999988
 31
0.0
  0
LINE
  5
82C
  8
0
 10
32.861999999999988
 20
299.64799999999991
 30
0.0
 11
34.494
 21
295.56799999999998
 31
0.0
  0
LINE
  5
82D
  8
0
 10
34.494
 20
295.56799999999998
 30
0.0
 11
37.213999999999999
 21
291.964
 31
0.0
  0
LINE
  5
82E
  8
0
 10
32.25
 20
304.0
 30
0.0
 11
32.861999999999988
 21
308.35199999999998
 31
0.0
  0
LINE
  5
82F
  8
0
 10
32.25
 20
304.0
 30
0.0
 11
32.861999999999988
 21
299.64799999999991
 31
0.0
  0
LINE
  5
830
  8
0
 10
32.861999999999988
 20
308.35199999999998
 30
0.0
 11
34.494
 21
312.43200000000002
 31
0.0
  0
LINE
  5
831
  8
0
 10
35.361999999999988
 20
296.06400000000002
 30
0.0
 11
37.92199999999999
 21
292.67200000000003
 31
0.0
  0
LINE
  5
832
  8
0
 10
35.753999999999998
 20
300.416
 30
0.0
 11
37.097999999999992
 21
297.05599999999993
 31
0.0
  0
LINE
  5
833
  8
0
 10
35.753999999999998
 20
307.58399999999989
 30
0.0
 11
37.097999999999992
 21
310.94400000000002
 31
0.0
  0
LINE
  5
834
  8
0
 10
35.25
 20
304.0
 30
0.0
 11
35.753999999999998
 21
300.416
 31
0.0
  0
LINE
  5
835
  8
0
 10
35.25
 20
304.0
 30
0.0
 11
35.753999999999998
 21
307.58399999999989
 31
0.0
  0
LINE
  5
836
  8
0
 10
35.203099999999999
 20
300.26999999999992
 30
0.0
 11
36.60199999999999
 21
296.77299999999991
 31
0.0
  0
LINE
  5
837
  8
0
 10
36.60199999999999
 20
296.77299999999991
 30
0.0
 11
38.933399999999999
 21
293.68299999999999
 31
0.0
  0
LINE
  5
838
  8
0
 10
34.678600000000003
 20
304.0
 30
0.0
 11
35.203099999999999
 21
307.73000000000002
 31
0.0
  0
LINE
  5
839
  8
0
 10
34.678600000000003
 20
304.0
 30
0.0
 11
35.203099999999999
 21
300.26999999999992
 31
0.0
  0
LINE
  5
83A
  8
0
 10
35.361999999999988
 20
311.93599999999992
 30
0.0
 11
37.92199999999999
 21
315.32799999999992
 31
0.0
  0
LINE
  5
83B
  8
0
 10
35.203099999999999
 20
307.73000000000002
 30
0.0
 11
36.60199999999999
 21
311.22699999999998
 31
0.0
  0
LINE
  5
83C
  8
0
 10
40.25
 20
288.5
 30
0.0
 11
42.678000000000203
 21
288.5
 31
0.0
  0
LINE
  5
83D
  8
0
 10
40.25
 20
288.5
 30
0.0
 11
40.25
 21
274.5
 31
0.0
  0
LINE
  5
83E
  8
0
 10
37.097999999999992
 20
310.94400000000002
 30
0.0
 11
39.338000000000001
 21
313.91199999999998
 31
0.0
  0
LINE
  5
83F
  8
0
 10
37.097999999999992
 20
297.05599999999993
 30
0.0
 11
39.338000000000001
 21
294.08799999999991
 31
0.0
  0
LINE
  5
840
  8
0
 10
37.92199999999999
 20
292.67200000000003
 30
0.0
 11
41.313999999999993
 21
290.11200000000002
 31
0.0
  0
LINE
  5
841
  8
0
 10
39.128
 20
301.31200000000001
 30
0.0
 11
40.135999999999989
 21
298.79199999999997
 31
0.0
  0
LINE
  5
842
  8
0
 10
38.75
 20
304.0
 30
0.0
 11
39.128
 21
301.31200000000001
 31
0.0
  0
LINE
  5
843
  8
0
 10
38.75
 20
304.0
 30
0.0
 11
39.128
 21
306.68799999999987
 31
0.0
  0
LINE
  5
844
  8
0
 10
39.128
 20
306.68799999999987
 30
0.0
 11
40.135999999999989
 21
309.20799999999991
 31
0.0
  0
LINE
  5
845
  8
0
 10
39.0961
 20
304.0
 30
0.0
 11
39.649999999999991
 21
306.58499999999992
 31
0.0
  0
LINE
  5
846
  8
0
 10
39.0961
 20
304.0
 30
0.0
 11
39.649999999999991
 21
301.41500000000002
 31
0.0
  0
LINE
  5
847
  8
0
 10
38.54229999999999
 20
301.13799999999992
 30
0.0
 11
39.649999999999991
 21
298.46199999999988
 31
0.0
  0
LINE
  5
848
  8
0
 10
38.54229999999999
 20
306.86200000000002
 30
0.0
 11
39.649999999999991
 21
309.53800000000001
 31
0.0
  0
LINE
  5
849
  8
0
 10
38.173099999999991
 20
304.0
 30
0.0
 11
38.54229999999999
 21
306.86200000000002
 31
0.0
  0
LINE
  5
84A
  8
0
 10
38.173099999999991
 20
304.0
 30
0.0
 11
38.54229999999999
 21
301.13799999999992
 31
0.0
  0
LINE
  5
84B
  8
0
 10
38.9116
 20
298.0
 30
0.0
 11
40.7577
 21
295.50799999999992
 31
0.0
  0
LINE
  5
84C
  8
0
 10
37.711599999999997
 20
300.86200000000002
 30
0.0
 11
38.9116
 21
298.0
 31
0.0
  0
LINE
  5
84D
  8
0
 10
38.9116
 20
310.0
 30
0.0
 11
40.7577
 21
312.49200000000002
 31
0.0
  0
LINE
  5
84E
  8
0
 10
37.711599999999997
 20
307.13799999999992
 30
0.0
 11
38.9116
 21
310.0
 31
0.0
  0
LINE
  5
84F
  8
0
 10
37.25
 20
304.0
 30
0.0
 11
37.711599999999997
 21
307.13799999999992
 31
0.0
  0
LINE
  5
850
  8
0
 10
37.25
 20
304.0
 30
0.0
 11
37.711599999999997
 21
300.86200000000002
 31
0.0
  0
LINE
  5
851
  8
0
 10
39.338000000000001
 20
313.91199999999998
 30
0.0
 11
42.305999999999997
 21
316.15199999999987
 31
0.0
  0
LINE
  5
852
  8
0
 10
40.135999999999989
 20
298.79199999999997
 30
0.0
 11
41.816000000000003
 21
296.56599999999992
 31
0.0
  0
LINE
  5
853
  8
0
 10
39.649999999999991
 20
298.46199999999988
 30
0.0
 11
41.4039
 21
296.15399999999988
 31
0.0
  0
LINE
  5
854
  8
0
 10
39.649999999999991
 20
301.41500000000002
 30
0.0
 11
40.25
 21
299.61507222824088
 31
0.0
  0
LINE
  5
855
  8
0
 10
40.25
 20
298.98700000000002
 30
0.0
 11
40.25
 21
299.58699999999999
 31
0.0
  0
LINE
  5
856
  8
0
 10
40.25
 20
298.98700000000002
 30
0.0
 11
40.4816
 21
298.70299999999992
 31
0.0
  0
LINE
  5
859
  8
0
 10
40.25
 20
299.58699999999999
 30
0.0
 11
40.25
 21
301.709
 31
0.0
  0
LINE
  5
85A
  8
0
 10
40.25
 20
299.58699999999999
 30
0.0
 11
40.25
 21
298.98700000000002
 31
0.0
  0
LINE
  5
85C
  8
0
 10
40.25
 20
301.709
 30
0.0
 11
40.25
 21
304.0
 31
0.0
  0
LINE
  5
85D
  8
0
 10
40.25
 20
301.709
 30
0.0
 11
40.25
 21
299.58699999999999
 31
0.0
  0
LINE
  5
85F
  8
0
 10
40.759964809152891
 20
298.54520149758991
 30
0.0
 11
42.049999999999997
 21
296.7999999999999
 31
0.0
  0
LINE
  5
860
  8
0
 10
40.7577
 20
295.50799999999992
 30
0.0
 11
43.25
 21
293.66199999999998
 31
0.0
  0
LINE
  5
861
  8
0
 10
40.4816
 20
298.70299999999992
 30
0.0
 11
41.0214
 21
298.39699999999988
 31
0.0
  0
LINE
  5
862
  8
0
 10
39.649999999999991
 20
306.58499999999992
 30
0.0
 11
40.25
 21
308.38492777175901
 31
0.0
  0
LINE
  5
863
  8
0
 10
40.135999999999989
 20
309.20799999999991
 30
0.0
 11
41.816000000000003
 21
311.43400000000003
 31
0.0
  0
LINE
  5
864
  8
0
 10
39.649999999999991
 20
309.53800000000001
 30
0.0
 11
41.4039
 21
311.846
 31
0.0
  0
LINE
  5
865
  8
0
 10
40.25
 20
309.01299999999992
 30
0.0
 11
40.25
 21
308.41300000000001
 31
0.0
  0
LINE
  5
866
  8
0
 10
40.25
 20
309.01299999999992
 30
0.0
 11
40.4816
 21
309.29700000000003
 31
0.0
  0
LINE
  5
867
  8
0
 10
40.25
 20
308.41300000000001
 30
0.0
 11
40.25
 21
306.291
 31
0.0
  0
LINE
  5
868
  8
0
 10
40.25
 20
308.41300000000001
 30
0.0
 11
40.25
 21
309.01299999999992
 31
0.0
  0
LINE
  5
86C
  8
0
 10
40.75996480915299
 20
309.45479850240997
 30
0.0
 11
42.049999999999997
 21
311.19999999999999
 31
0.0
  0
LINE
  5
86D
  8
0
 10
40.7577
 20
312.49200000000002
 30
0.0
 11
43.25
 21
314.33799999999991
 31
0.0
  0
LINE
  5
86E
  8
0
 10
40.4816
 20
309.29700000000003
 30
0.0
 11
41.0214
 21
309.60300000000001
 31
0.0
  0
LINE
  5
86F
  8
0
 10
40.25
 20
306.291
 30
0.0
 11
40.25
 21
304.0
 31
0.0
  0
LINE
  5
870
  8
0
 10
40.25
 20
306.291
 30
0.0
 11
40.25
 21
308.41300000000001
 31
0.0
  0
LINE
  5
871
  8
0
 10
40.25
 20
304.0
 30
0.0
 11
40.25
 21
306.291
 31
0.0
  0
LINE
  5
872
  8
0
 10
40.25
 20
304.0
 30
0.0
 11
40.25
 21
301.709
 31
0.0
  0
LINE
  5
873
  8
0
 10
39.338000000000001
 20
294.08799999999991
 30
0.0
 11
42.305999999999997
 21
291.84800000000001
 31
0.0
  0
LINE
  5
874
  8
0
 10
38.933399999999999
 20
293.68299999999999
 30
0.0
 11
42.02259999999999
 21
291.35199999999998
 31
0.0
  0
LINE
  5
875
  8
0
 10
37.213999999999999
 20
291.964
 30
0.0
 11
40.817999999999998
 21
289.24400000000003
 31
0.0
  0
LINE
  5
876
  8
0
 10
40.817999999999998
 20
289.24400000000003
 30
0.0
 11
44.898000000000003
 21
287.61200000000002
 31
0.0
  0
LINE
  5
877
  8
0
 10
36.60199999999999
 20
311.22699999999998
 30
0.0
 11
38.933399999999999
 21
314.31700000000001
 31
0.0
  0
LINE
  5
878
  8
0
 10
37.92199999999999
 20
315.32799999999992
 30
0.0
 11
41.313999999999993
 21
317.88799999999992
 31
0.0
  0
LINE
  5
879
  8
0
 10
38.933399999999999
 20
314.31700000000001
 30
0.0
 11
42.02259999999999
 21
316.64799999999991
 31
0.0
  0
LINE
  5
87A
  8
0
 10
34.494
 20
312.43200000000002
 30
0.0
 11
37.213999999999999
 21
316.036
 31
0.0
  0
LINE
  5
87B
  8
0
 10
37.213999999999999
 20
316.036
 30
0.0
 11
40.817999999999998
 21
318.75599999999991
 31
0.0
  0
LINE
  5
87C
  8
0
 10
41.313999999999993
 20
290.11200000000002
 30
0.0
 11
45.153999999999989
 21
288.57599999999991
 31
0.0
  0
LINE
  5
87D
  8
0
 10
41.0214
 20
298.39699999999988
 30
0.0
 11
42.523699999999991
 21
297.54500000000002
 31
0.0
  0
LINE
  5
880
  8
0
 10
41.0214
 20
309.60300000000001
 30
0.0
 11
42.523699999999991
 21
310.45400000000001
 31
0.0
  0
LINE
  5
882
  8
0
 10
41.816000000000003
 20
311.43400000000003
 30
0.0
 11
44.042000000000002
 21
313.11399999999998
 31
0.0
  0
LINE
  5
883
  8
0
 10
41.816000000000003
 20
296.56599999999992
 30
0.0
 11
44.042000000000002
 21
294.88599999999991
 31
0.0
  0
LINE
  5
884
  8
0
 10
41.4039
 20
296.15399999999988
 30
0.0
 11
43.71159999999999
 21
294.39999999999992
 31
0.0
  0
LINE
  5
885
  8
0
 10
41.4039
 20
311.846
 30
0.0
 11
43.71159999999999
 21
313.60000000000002
 31
0.0
  0
LINE
  5
886
  8
0
 10
41.313999999999993
 20
317.88799999999992
 30
0.0
 11
45.153999999999989
 21
319.42399999999998
 31
0.0
  0
LINE
  5
887
  8
0
 10
42.02259999999999
 20
291.35199999999998
 30
0.0
 11
45.519699999999993
 21
289.95299999999997
 31
0.0
  0
LINE
  5
888
  8
0
 10
50.25
 20
287.140625
 30
0.0
 11
50.25
 21
274.5
 31
0.0
  0
LINE
  5
889
  8
0
 10
85.25
 20
287.61200000000002
 30
0.0
 11
85.25
 21
289.24400000000003
 31
0.0
  0
LINE
  5
88A
  8
0
 10
85.25
 20
287.61200000000002
 30
0.0
 11
85.25
 21
287.0
 31
0.0
  0
LINE
  5
88B
  8
0
 10
53.60199999999999
 20
287.61200000000002
 30
0.0
 11
57.682000000000002
 21
289.24400000000003
 31
0.0
  0
LINE
  5
88C
  8
0
 10
42.049999999999997
 20
296.7999999999999
 30
0.0
 11
44.173099999999991
 21
295.23099999999999
 31
0.0
  0
LINE
  5
88D
  8
0
 10
42.049999999999997
 20
311.19999999999999
 30
0.0
 11
44.173099999999991
 21
312.76900000000001
 31
0.0
  0
LINE
  5
88E
  8
0
 10
42.25
 20
304.0
 30
0.0
 11
42.501999999999988
 21
302.20799999999991
 31
0.0
  0
LINE
  5
88F
  8
0
 10
42.25
 20
304.0
 30
0.0
 11
42.501999999999988
 21
305.79199999999997
 31
0.0
  0
LINE
  5
892
  8
0
 10
42.305999999999997
 20
316.15199999999987
 30
0.0
 11
45.665999999999997
 21
317.49599999999998
 31
0.0
  0
LINE
  5
893
  8
0
 10
42.501999999999988
 20
302.20799999999991
 30
0.0
 11
43.173999999999999
 21
300.52800000000002
 31
0.0
  0
LINE
  5
895
  8
0
 10
42.523699999999991
 20
297.54500000000002
 30
0.0
 11
44.668700000000001
 21
296.32900000000001
 31
0.0
  0
LINE
  5
896
  8
0
 10
42.501999999999988
 20
305.79199999999997
 30
0.0
 11
43.173999999999999
 21
307.47199999999992
 31
0.0
  0
LINE
  5
898
  8
0
 10
43.173999999999999
 20
300.52800000000002
 30
0.0
 11
44.293999999999997
 21
299.04399999999998
 31
0.0
  0
LINE
  5
899
  8
0
 10
43.71159999999999
 20
294.39999999999992
 30
0.0
 11
46.388399999999997
 21
293.29199999999997
 31
0.0
  0
LINE
  5
89A
  8
0
 10
43.25
 20
293.66199999999998
 30
0.0
 11
46.111600000000003
 21
292.46199999999988
 31
0.0
  0
LINE
  5
89C
  8
0
 10
43.173999999999999
 20
307.47199999999992
 30
0.0
 11
44.293999999999997
 21
308.9559999999999
 31
0.0
  0
LINE
  5
89D
  8
0
 10
43.466000000000001
 20
305.536
 30
0.0
 11
44.042000000000002
 21
306.976
 31
0.0
  0
LINE
  5
89E
  8
0
 10
43.466000000000001
 20
302.464
 30
0.0
 11
44.042000000000002
 21
301.024
 31
0.0
  0
LINE
  5
89F
  8
0
 10
43.25
 20
304.0
 30
0.0
 11
43.466000000000001
 21
302.464
 31
0.0
  0
LINE
  5
8A0
  8
0
 10
43.25
 20
304.0
 30
0.0
 11
43.466000000000001
 21
305.536
 31
0.0
  0
LINE
  5
8A3
  8
0
 10
42.523699999999991
 20
310.45400000000001
 30
0.0
 11
44.668700000000001
 21
311.67099999999988
 31
0.0
  0
LINE
  5
8A4
  8
0
 10
44.042000000000002
 20
294.88599999999991
 30
0.0
 11
46.561999999999998
 21
293.87799999999987
 31
0.0
  0
LINE
  5
8A5
  8
0
 10
44.173099999999991
 20
295.23099999999999
 30
0.0
 11
46.665399999999998
 21
294.39999999999992
 31
0.0
  0
LINE
  5
8A6
  8
0
 10
44.042000000000002
 20
306.976
 30
0.0
 11
45.001999999999988
 21
308.24799999999988
 31
0.0
  0
LINE
  5
8A7
  8
0
 10
44.293999999999997
 20
308.9559999999999
 30
0.0
 11
45.777999999999992
 21
310.07599999999991
 31
0.0
  0
LINE
  5
8A8
  8
0
 10
44.293999999999997
 20
299.04399999999998
 30
0.0
 11
45.777999999999992
 21
297.92399999999998
 31
0.0
  0
LINE
  5
8A9
  8
0
 10
44.042000000000002
 20
301.024
 30
0.0
 11
45.001999999999988
 21
299.75200000000001
 31
0.0
  0
LINE
  5
8AB
  8
0
 10
45.001999999999988
 20
299.75200000000001
 30
0.0
 11
46.273999999999987
 21
298.79199999999997
 31
0.0
  0
LINE
  5
8AC
  8
0
 10
45.001999999999988
 20
308.24799999999988
 30
0.0
 11
46.273999999999987
 21
309.20799999999991
 31
0.0
  0
LINE
  5
8AD
  8
0
 10
45.393999999999991
 20
305.024
 30
0.0
 11
45.777999999999992
 21
305.98399999999998
 31
0.0
  0
LINE
  5
8AE
  8
0
 10
45.25
 20
304.0
 30
0.0
 11
45.393999999999991
 21
302.976
 31
0.0
  0
LINE
  5
8AF
  8
0
 10
45.25
 20
304.0
 30
0.0
 11
45.393999999999991
 21
305.024
 31
0.0
  0
LINE
  5
8B0
  8
0
 10
45.393999999999991
 20
302.976
 30
0.0
 11
45.777999999999992
 21
302.01599999999991
 31
0.0
  0
LINE
  5
8B2
  8
0
 10
44.668700000000001
 20
296.32900000000001
 30
0.0
 11
46.802100000000003
 21
295.11900000000003
 31
0.0
  0
LINE
  5
8B6
  8
0
 10
44.042000000000002
 20
313.11399999999998
 30
0.0
 11
46.561999999999998
 21
314.12200000000001
 31
0.0
  0
LINE
  5
8B7
  8
0
 10
43.71159999999999
 20
313.60000000000002
 30
0.0
 11
46.388399999999997
 21
314.70799999999991
 31
0.0
  0
LINE
  5
8B8
  8
0
 10
44.173099999999991
 20
312.76900000000001
 30
0.0
 11
46.665399999999998
 21
313.60000000000002
 31
0.0
  0
LINE
  5
8B9
  8
0
 10
43.25
 20
314.33799999999991
 30
0.0
 11
46.111600000000003
 21
315.53800000000001
 31
0.0
  0
LINE
  5
8BA
  8
0
 10
44.668700000000001
 20
311.67099999999988
 30
0.0
 11
46.802100000000003
 21
312.88
 31
0.0
  0
LINE
  5
8BC
  8
0
 10
42.305999999999997
 20
291.84800000000001
 30
0.0
 11
45.665999999999997
 21
290.50399999999991
 31
0.0
  0
LINE
  5
8BD
  8
0
 10
45.153999999999989
 20
288.57599999999991
 30
0.0
 11
49.25
 21
288.0
 31
0.0
  0
LINE
  5
8BE
  8
0
 10
49.25
 20
288.0
 30
0.0
 11
53.345999999999997
 21
288.57599999999991
 31
0.0
  0
LINE
  5
8BF
  8
0
 10
53.345999999999997
 20
288.57599999999991
 30
0.0
 11
57.186000000000007
 21
290.11200000000002
 31
0.0
  0
LINE
  5
8C0
  8
0
 10
85.25
 20
289.24400000000003
 30
0.0
 11
85.25
 21
291.964
 31
0.0
  0
LINE
  5
8C1
  8
0
 10
85.25
 20
289.24400000000003
 30
0.0
 11
85.25
 21
287.61200000000002
 31
0.0
  0
LINE
  5
8C3
  8
0
 10
45.665999999999997
 20
317.49599999999998
 30
0.0
 11
49.25
 21
318.0
 31
0.0
  0
LINE
  5
8C4
  8
0
 10
49.25
 20
290.0
 30
0.0
 11
52.834000000000003
 21
290.50399999999991
 31
0.0
  0
LINE
  5
8C5
  8
0
 10
46.561999999999998
 20
293.87799999999987
 30
0.0
 11
49.25
 21
293.5
 31
0.0
  0
LINE
  5
8C6
  8
0
 10
46.665399999999998
 20
294.39999999999992
 30
0.0
 11
49.25
 21
293.846
 31
0.0
  0
LINE
  5
8C7
  8
0
 10
46.388399999999997
 20
293.29199999999997
 30
0.0
 11
49.25
 21
292.923
 31
0.0
  0
LINE
  5
8C8
  8
0
 10
46.111600000000003
 20
292.46199999999988
 30
0.0
 11
49.25
 21
292.0
 31
0.0
  0
LINE
  5
8C9
  8
0
 10
45.777999999999992
 20
297.92399999999998
 30
0.0
 11
47.457999999999998
 21
297.25200000000001
 31
0.0
  0
LINE
  5
8CA
  8
0
 10
46.273999999999987
 20
298.79199999999997
 30
0.0
 11
47.713999999999992
 21
298.21600000000001
 31
0.0
  0
LINE
  5
8CB
  8
0
 10
45.777999999999992
 20
310.07599999999991
 30
0.0
 11
47.457999999999998
 21
310.74799999999988
 31
0.0
  0
LINE
  5
8CC
  8
0
 10
46.273999999999987
 20
309.20799999999991
 30
0.0
 11
47.713999999999992
 21
309.78399999999999
 31
0.0
  0
LINE
  5
8CD
  8
0
 10
45.777999999999992
 20
305.98399999999998
 30
0.0
 11
46.417999999999992
 21
306.83199999999988
 31
0.0
  0
LINE
  5
8CE
  8
0
 10
45.777999999999992
 20
302.01599999999991
 30
0.0
 11
46.417999999999992
 21
301.16800000000001
 31
0.0
  0
LINE
  5
8CF
  8
0
 10
46.417999999999992
 20
306.83199999999988
 30
0.0
 11
47.265999999999998
 21
307.47199999999992
 31
0.0
  0
LINE
  5
8D0
  8
0
 10
46.417999999999992
 20
301.16800000000001
 30
0.0
 11
47.265999999999998
 21
300.52800000000002
 31
0.0
  0
LINE
  5
8D1
  8
0
 10
46.561999999999998
 20
314.12200000000001
 30
0.0
 11
49.25
 21
314.5
 31
0.0
  0
LINE
  5
8D2
  8
0
 10
46.665399999999998
 20
313.60000000000002
 30
0.0
 11
49.25
 21
314.15399999999988
 31
0.0
  0
LINE
  5
8D3
  8
0
 10
46.388399999999997
 20
314.70799999999991
 30
0.0
 11
49.25
 21
315.077
 31
0.0
  0
LINE
  5
8D4
  8
0
 10
46.111600000000003
 20
315.53800000000001
 30
0.0
 11
49.25
 21
316.0
 31
0.0
  0
LINE
  5
8D6
  8
0
 10
46.802100000000003
 20
295.11900000000003
 30
0.0
 11
48.137700000000002
 21
294.38299999999992
 31
0.0
  0
LINE
  5
8DB
  8
0
 10
47.457999999999998
 20
297.25200000000001
 30
0.0
 11
49.25
 21
297.0
 31
0.0
  0
LINE
  5
8DC
  8
0
 10
47.457999999999998
 20
310.74799999999988
 30
0.0
 11
49.25
 21
311.0
 31
0.0
  0
LINE
  5
8DD
  8
0
 10
47.265999999999998
 20
307.47199999999992
 30
0.0
 11
48.226000000000013
 21
307.85599999999988
 31
0.0
  0
LINE
  5
8DE
  8
0
 10
47.265999999999998
 20
300.52800000000002
 30
0.0
 11
48.226000000000013
 21
300.14400000000001
 31
0.0
  0
LINE
  5
8DF
  8
0
 10
49.25
 20
293.5
 30
0.0
 11
51.938000000000002
 21
293.87799999999987
 31
0.0
  0
LINE
  5
8E0
  8
0
 10
49.25
 20
293.846
 30
0.0
 11
51.834600000000002
 21
294.39999999999992
 31
0.0
  0
LINE
  5
8E1
  8
0
 10
49.25
 20
292.0
 30
0.0
 11
52.38839999999999
 21
292.46199999999988
 31
0.0
  0
LINE
  5
8E4
  8
0
 10
49.25
 20
292.923
 30
0.0
 11
52.111600000000003
 21
293.29199999999997
 31
0.0
  0
LINE
  5
8E5
  8
0
 10
48.729700000000001
 20
294.06999999999999
 30
0.0
 11
49.25
 21
294.0
 31
0.0
  0
LINE
  5
8E6
  8
0
 10
51.938000000000002
 20
293.87799999999987
 30
0.0
 11
54.457999999999998
 21
294.88599999999991
 31
0.0
  0
LINE
  5
8E7
  8
0
 10
52.111600000000003
 20
293.29199999999997
 30
0.0
 11
54.788499999999999
 21
294.39999999999992
 31
0.0
  0
LINE
  5
8E8
  8
0
 10
52.38839999999999
 20
292.46199999999988
 30
0.0
 11
55.25
 21
293.66199999999998
 31
0.0
  0
LINE
  5
8E9
  8
0
 10
50.362299999999991
 20
294.38299999999992
 30
0.0
 11
51.69789999999999
 21
295.11900000000003
 31
0.0
  0
LINE
  5
8EB
  8
0
 10
49.25
 20
294.0
 30
0.0
 11
50.362299999999991
 21
294.38299999999992
 31
0.0
  0
LINE
  5
8EC
  8
0
 10
47.713999999999992
 20
298.21600000000001
 30
0.0
 11
49.25
 21
298.0
 31
0.0
  0
LINE
  5
8ED
  8
0
 10
47.713999999999992
 20
309.78399999999999
 30
0.0
 11
49.25
 21
310.0
 31
0.0
  0
LINE
  5
8EE
  8
0
 10
48.226000000000013
 20
307.85599999999988
 30
0.0
 11
49.25
 21
308.0
 31
0.0
  0
LINE
  5
8EF
  8
0
 10
49.25
 20
297.0
 30
0.0
 11
51.042000000000002
 21
297.25200000000001
 31
0.0
  0
LINE
  5
8F0
  8
0
 10
49.25
 20
298.0
 30
0.0
 11
50.786000000000001
 21
298.21600000000001
 31
0.0
  0
LINE
  5
8F1
  8
0
 10
49.25
 20
311.0
 30
0.0
 11
51.042000000000002
 21
310.74799999999988
 31
0.0
  0
LINE
  5
8F2
  8
0
 10
49.25
 20
310.0
 30
0.0
 11
50.786000000000001
 21
309.78399999999999
 31
0.0
  0
LINE
  5
8F3
  8
0
 10
49.25
 20
308.0
 30
0.0
 11
50.274000000000001
 21
307.85599999999988
 31
0.0
  0
LINE
  5
8F4
  8
0
 10
49.25
 20
300.0
 30
0.0
 11
50.274000000000001
 21
300.14400000000001
 31
0.0
  0
LINE
  5
8F5
  8
0
 10
48.226000000000013
 20
300.14400000000001
 30
0.0
 11
49.25
 21
300.0
 31
0.0
  0
LINE
  5
8F7
  8
0
 10
51.834600000000002
 20
294.39999999999992
 30
0.0
 11
54.326900000000002
 21
295.23099999999999
 31
0.0
  0
LINE
  5
8F8
  8
0
 10
51.69789999999999
 20
295.11900000000003
 30
0.0
 11
53.831299999999999
 21
296.32900000000001
 31
0.0
  0
LINE
  5
8FA
  8
0
 10
51.042000000000002
 20
297.25200000000001
 30
0.0
 11
52.722000000000001
 21
297.92399999999998
 31
0.0
  0
LINE
  5
8FB
  8
0
 10
50.786000000000001
 20
298.21600000000001
 30
0.0
 11
52.225999999999999
 21
298.79199999999997
 31
0.0
  0
LINE
  5
8FC
  8
0
 10
50.274000000000001
 20
300.14400000000001
 30
0.0
 11
51.234000000000002
 21
300.52800000000002
 31
0.0
  0
LINE
  5
8FD
  8
0
 10
52.225999999999999
 20
298.79199999999997
 30
0.0
 11
53.497999999999998
 21
299.75200000000001
 31
0.0
  0
LINE
  5
8FE
  8
0
 10
51.234000000000002
 20
300.52800000000002
 30
0.0
 11
52.082000000000001
 21
301.16800000000001
 31
0.0
  0
LINE
  5
8FF
  8
0
 10
51.042000000000002
 20
310.74799999999988
 30
0.0
 11
52.722000000000001
 21
310.07599999999991
 31
0.0
  0
LINE
  5
900
  8
0
 10
50.786000000000001
 20
309.78399999999999
 30
0.0
 11
52.225999999999999
 21
309.20799999999991
 31
0.0
  0
LINE
  5
901
  8
0
 10
50.274000000000001
 20
307.85599999999988
 30
0.0
 11
51.234000000000002
 21
307.47199999999992
 31
0.0
  0
LINE
  5
902
  8
0
 10
51.234000000000002
 20
307.47199999999992
 30
0.0
 11
52.082000000000001
 21
306.83199999999988
 31
0.0
  0
LINE
  5
903
  8
0
 10
52.225999999999999
 20
309.20799999999991
 30
0.0
 11
53.497999999999998
 21
308.24799999999988
 31
0.0
  0
LINE
  5
904
  8
0
 10
52.082000000000001
 20
306.83199999999988
 30
0.0
 11
52.722000000000001
 21
305.98399999999998
 31
0.0
  0
LINE
  5
905
  8
0
 10
52.082000000000001
 20
301.16800000000001
 30
0.0
 11
52.722000000000001
 21
302.01599999999991
 31
0.0
  0
LINE
  5
906
  8
0
 10
52.722000000000001
 20
297.92399999999998
 30
0.0
 11
54.206000000000003
 21
299.04399999999998
 31
0.0
  0
LINE
  5
907
  8
0
 10
52.722000000000001
 20
310.07599999999991
 30
0.0
 11
54.206000000000003
 21
308.9559999999999
 31
0.0
  0
LINE
  5
908
  8
0
 10
52.722000000000001
 20
305.98399999999998
 30
0.0
 11
53.106000000000002
 21
305.024
 31
0.0
  0
LINE
  5
909
  8
0
 10
52.722000000000001
 20
302.01599999999991
 30
0.0
 11
53.106000000000002
 21
302.976
 31
0.0
  0
LINE
  5
913
  8
0
 10
48.137700000000002
 20
294.38299999999992
 30
0.0
 11
48.729700000000001
 21
294.06999999999999
 31
0.0
  0
LINE
  5
91A
  8
0
 10
51.69789999999999
 20
312.88
 30
0.0
 11
53.831299999999999
 21
311.67099999999988
 31
0.0
  0
LINE
  5
91D
  8
0
 10
51.834600000000002
 20
313.60000000000002
 30
0.0
 11
54.326900000000002
 21
312.76900000000001
 31
0.0
  0
LINE
  5
91E
  8
0
 10
50.362299999999991
 20
313.61700000000002
 30
0.0
 11
51.69789999999999
 21
312.88
 31
0.0
  0
LINE
  5
925
  8
0
 10
49.25
 20
314.5
 30
0.0
 11
51.938000000000002
 21
314.12200000000001
 31
0.0
  0
LINE
  5
926
  8
0
 10
49.25
 20
315.077
 30
0.0
 11
52.111600000000003
 21
314.70799999999991
 31
0.0
  0
LINE
  5
927
  8
0
 10
49.25
 20
314.15399999999988
 30
0.0
 11
51.834600000000002
 21
313.60000000000002
 31
0.0
  0
LINE
  5
928
  8
0
 10
49.25
 20
316.0
 30
0.0
 11
52.38839999999999
 21
315.53800000000001
 31
0.0
  0
LINE
  5
929
  8
0
 10
51.938000000000002
 20
314.12200000000001
 30
0.0
 11
54.457999999999998
 21
313.11399999999998
 31
0.0
  0
LINE
  5
92A
  8
0
 10
52.111600000000003
 20
314.70799999999991
 30
0.0
 11
54.788499999999999
 21
313.60000000000002
 31
0.0
  0
LINE
  5
92B
  8
0
 10
52.38839999999999
 20
315.53800000000001
 30
0.0
 11
55.25
 21
314.33799999999991
 31
0.0
  0
LINE
  5
92C
  8
0
 10
49.25
 20
314.0
 30
0.0
 11
49.770299999999999
 21
313.92999999999989
 31
0.0
  0
LINE
  5
92D
  8
0
 10
49.770299999999999
 20
313.92999999999989
 30
0.0
 11
50.362299999999991
 21
313.61700000000002
 31
0.0
  0
LINE
  5
92E
  8
0
 10
48.729700000000001
 20
313.92999999999989
 30
0.0
 11
49.25
 21
314.0
 31
0.0
  0
LINE
  5
92F
  8
0
 10
48.137700000000002
 20
313.61700000000002
 30
0.0
 11
48.729700000000001
 21
313.92999999999989
 31
0.0
  0
LINE
  5
933
  8
0
 10
46.802100000000003
 20
312.88
 30
0.0
 11
48.137700000000002
 21
313.61700000000002
 31
0.0
  0
LINE
  5
934
  8
0
 10
49.25
 20
318.0
 30
0.0
 11
52.834000000000003
 21
317.49599999999998
 31
0.0
  0
LINE
  5
936
  8
0
 10
52.834000000000003
 20
317.49599999999998
 30
0.0
 11
56.193999999999988
 21
316.15199999999987
 31
0.0
  0
LINE
  5
937
  8
0
 10
52.834000000000003
 20
290.50399999999991
 30
0.0
 11
56.193999999999988
 21
291.84800000000001
 31
0.0
  0
LINE
  5
938
  8
0
 10
45.665999999999997
 20
290.50399999999991
 30
0.0
 11
49.25
 21
290.0
 31
0.0
  0
LINE
  5
939
  8
0
 10
52.9803
 20
318.04700000000003
 30
0.0
 11
56.477400000000003
 21
316.64799999999991
 31
0.0
  0
LINE
  5
93A
  8
0
 10
57.186000000000007
 20
290.11200000000002
 30
0.0
 11
60.578000000000003
 21
292.67200000000003
 31
0.0
  0
LINE
  5
93B
  8
0
 10
55.25
 20
293.66199999999998
 30
0.0
 11
57.7423
 21
295.50799999999992
 31
0.0
  0
LINE
  5
93C
  8
0
 10
56.193999999999988
 20
291.84800000000001
 30
0.0
 11
59.161999999999992
 21
294.08799999999991
 31
0.0
  0
LINE
  5
93D
  8
0
 10
54.457999999999998
 20
294.88599999999991
 30
0.0
 11
56.683999999999997
 21
296.56599999999992
 31
0.0
  0
LINE
  5
93E
  8
0
 10
54.788499999999999
 20
294.39999999999992
 30
0.0
 11
57.09620000000001
 21
296.15399999999988
 31
0.0
  0
LINE
  5
93F
  8
0
 10
54.326900000000002
 20
295.23099999999999
 30
0.0
 11
56.450000000000003
 21
296.7999999999999
 31
0.0
  0
LINE
  5
940
  8
0
 10
53.106000000000002
 20
305.024
 30
0.0
 11
53.25
 21
304.0
 31
0.0
  0
LINE
  5
941
  8
0
 10
53.106000000000002
 20
302.976
 30
0.0
 11
53.25
 21
304.0
 31
0.0
  0
LINE
  5
942
  8
0
 10
54.206000000000003
 20
299.04399999999998
 30
0.0
 11
55.326000000000001
 21
300.52800000000002
 31
0.0
  0
LINE
  5
943
  8
0
 10
53.497999999999998
 20
299.75200000000001
 30
0.0
 11
54.457999999999998
 21
301.024
 31
0.0
  0
LINE
  5
944
  8
0
 10
53.497999999999998
 20
308.24799999999988
 30
0.0
 11
54.457999999999998
 21
306.976
 31
0.0
  0
LINE
  5
945
  8
0
 10
54.457999999999998
 20
306.976
 30
0.0
 11
55.033999999999999
 21
305.536
 31
0.0
  0
LINE
  5
946
  8
0
 10
55.033999999999999
 20
305.536
 30
0.0
 11
55.25
 21
304.0
 31
0.0
  0
LINE
  5
947
  8
0
 10
54.457999999999998
 20
301.024
 30
0.0
 11
55.033999999999999
 21
302.464
 31
0.0
  0
LINE
  5
948
  8
0
 10
55.033999999999999
 20
302.464
 30
0.0
 11
55.25
 21
304.0
 31
0.0
  0
LINE
  5
949
  8
0
 10
54.206000000000003
 20
308.9559999999999
 30
0.0
 11
55.326000000000001
 21
307.47199999999992
 31
0.0
  0
LINE
  5
94C
  8
0
 10
55.326000000000001
 20
300.52800000000002
 30
0.0
 11
55.997999999999998
 21
302.20799999999991
 31
0.0
  0
LINE
  5
94E
  8
0
 10
55.326000000000001
 20
307.47199999999992
 30
0.0
 11
55.997999999999998
 21
305.79199999999997
 31
0.0
  0
LINE
  5
951
  8
0
 10
54.457999999999998
 20
313.11399999999998
 30
0.0
 11
56.683999999999997
 21
311.43400000000003
 31
0.0
  0
LINE
  5
952
  8
0
 10
54.788499999999999
 20
313.60000000000002
 30
0.0
 11
57.09620000000001
 21
311.846
 31
0.0
  0
LINE
  5
953
  8
0
 10
54.326900000000002
 20
312.76900000000001
 30
0.0
 11
56.450000000000003
 21
311.19999999999999
 31
0.0
  0
LINE
  5
954
  8
0
 10
55.25
 20
314.33799999999991
 30
0.0
 11
57.7423
 21
312.49200000000002
 31
0.0
  0
LINE
  5
955
  8
0
 10
53.831299999999999
 20
311.67099999999988
 30
0.0
 11
55.976300000000002
 21
310.45400000000001
 31
0.0
  0
LINE
  5
957
  8
0
 10
55.976300000000002
 20
310.45400000000001
 30
0.0
 11
57.4786
 21
309.60300000000001
 31
0.0
  0
LINE
  5
958
  8
0
 10
53.831299999999999
 20
296.32900000000001
 30
0.0
 11
55.976300000000002
 21
297.54500000000002
 31
0.0
  0
LINE
  5
959
  8
0
 10
55.997999999999998
 20
302.20799999999991
 30
0.0
 11
56.25
 21
304.0
 31
0.0
  0
LINE
  5
95A
  8
0
 10
55.997999999999998
 20
305.79199999999997
 30
0.0
 11
56.25
 21
304.0
 31
0.0
  0
LINE
  5
95C
  8
0
 10
56.683999999999997
 20
296.56599999999992
 30
0.0
 11
58.363999999999997
 21
298.79199999999997
 31
0.0
  0
LINE
  5
95D
  8
0
 10
57.09620000000001
 20
296.15399999999988
 30
0.0
 11
58.850000000000001
 21
298.46199999999988
 31
0.0
  0
LINE
  5
95E
  8
0
 10
56.450000000000003
 20
296.7999999999999
 30
0.0
 11
57.7398937022338
 21
298.54512129100289
 31
0.0
  0
LINE
  5
962
  8
0
 10
57.7423
 20
295.50799999999992
 30
0.0
 11
59.588500000000003
 21
298.0
 31
0.0
  0
LINE
  5
963
  8
0
 10
57.4786
 20
298.39699999999988
 30
0.0
 11
58.060600000000001
 21
299.13599999999991
 31
0.0
  0
LINE
  5
964
  8
0
 10
58.363999999999997
 20
298.79199999999997
 30
0.0
 11
59.372
 21
301.31200000000001
 31
0.0
  0
LINE
  5
965
  8
0
 10
58.850000000000001
 20
298.46199999999988
 30
0.0
 11
59.957700000000003
 21
301.13799999999992
 31
0.0
  0
LINE
  5
967
  8
0
 10
58.060600000000001
 20
299.13599999999991
 30
0.0
 11
58.25
 21
299.58699999999999
 31
0.0
  0
LINE
  5
968
  8
0
 10
58.25
 20
299.61528887818997
 30
0.0
 11
58.850000000000001
 21
301.41500000000002
 31
0.0
  0
LINE
  5
969
  8
0
 10
58.25
 20
308.38471112180991
 30
0.0
 11
58.850000000000001
 21
306.58499999999992
 31
0.0
  0
LINE
  5
96A
  8
0
 10
58.0184
 20
309.29700000000003
 30
0.0
 11
58.25
 21
309.01299999999992
 31
0.0
  0
LINE
  5
96D
  8
0
 10
58.25
 20
309.01299999999992
 30
0.0
 11
58.25
 21
308.41300000000001
 31
0.0
  0
LINE
  5
96E
  8
0
 10
58.25
 20
308.41300000000001
 30
0.0
 11
58.25
 21
306.291
 31
0.0
  0
LINE
  5
96F
  8
0
 10
58.25
 20
308.41300000000001
 30
0.0
 11
58.25
 21
309.01299999999992
 31
0.0
  0
LINE
  5
970
  8
0
 10
58.25
 20
306.291
 30
0.0
 11
58.25
 21
304.0
 31
0.0
  0
LINE
  5
971
  8
0
 10
58.25
 20
306.291
 30
0.0
 11
58.25
 21
308.41300000000001
 31
0.0
  0
LINE
  5
972
  8
0
 10
58.25
 20
301.709
 30
0.0
 11
58.25
 21
299.58699999999999
 31
0.0
  0
LINE
  5
973
  8
0
 10
58.25
 20
301.709
 30
0.0
 11
58.25
 21
304.0
 31
0.0
  0
LINE
  5
974
  8
0
 10
58.850000000000001
 20
301.41500000000002
 30
0.0
 11
59.403799999999997
 21
304.0
 31
0.0
  0
LINE
  5
975
  8
0
 10
58.363999999999997
 20
309.20799999999991
 30
0.0
 11
59.372
 21
306.68799999999987
 31
0.0
  0
LINE
  5
976
  8
0
 10
58.850000000000001
 20
309.53800000000001
 30
0.0
 11
59.957700000000003
 21
306.86200000000002
 31
0.0
  0
LINE
  5
977
  8
0
 10
58.850000000000001
 20
306.58499999999992
 30
0.0
 11
59.403799999999997
 21
304.0
 31
0.0
  0
LINE
  5
978
  8
0
 10
58.25
 20
304.0
 30
0.0
 11
58.25
 21
301.709
 31
0.0
  0
LINE
  5
979
  8
0
 10
58.25
 20
304.0
 30
0.0
 11
58.25
 21
306.291
 31
0.0
  0
LINE
  5
97A
  8
0
 10
58.25
 20
299.58699999999999
 30
0.0
 11
58.25
 21
301.709
 31
0.0
  0
LINE
  5
97E
  8
0
 10
56.683999999999997
 20
311.43400000000003
 30
0.0
 11
58.363999999999997
 21
309.20799999999991
 31
0.0
  0
LINE
  5
97F
  8
0
 10
57.09620000000001
 20
311.846
 30
0.0
 11
58.850000000000001
 21
309.53800000000001
 31
0.0
  0
LINE
  5
980
  8
0
 10
56.450000000000003
 20
311.19999999999999
 30
0.0
 11
57.739893702233708
 21
309.454878708997
 31
0.0
  0
LINE
  5
981
  8
0
 10
56.450000000000003
 20
311.19999999999999
 30
0.0
 11
57.739893702233708
 21
309.454878708997
 31
0.0
  0
LINE
  5
982
  8
0
 10
57.7423
 20
312.49200000000002
 30
0.0
 11
59.588500000000003
 21
310.0
 31
0.0
  0
LINE
  5
983
  8
0
 10
57.4786
 20
309.60300000000001
 30
0.0
 11
58.0184
 21
309.29700000000003
 31
0.0
  0
LINE
  5
985
  8
0
 10
55.976300000000002
 20
297.54500000000002
 30
0.0
 11
57.4786
 21
298.39699999999988
 31
0.0
  0
LINE
  5
986
  8
0
 10
56.193999999999988
 20
316.15199999999987
 30
0.0
 11
59.161999999999992
 21
313.91199999999998
 31
0.0
  0
LINE
  5
987
  8
0
 10
59.372
 20
306.68799999999987
 30
0.0
 11
59.75
 21
304.0
 31
0.0
  0
LINE
  5
988
  8
0
 10
59.372
 20
301.31200000000001
 30
0.0
 11
59.75
 21
304.0
 31
0.0
  0
LINE
  5
989
  8
0
 10
59.161999999999992
 20
313.91199999999998
 30
0.0
 11
61.402000000000001
 21
310.94400000000002
 31
0.0
  0
LINE
  5
98A
  8
0
 10
59.161999999999992
 20
294.08799999999991
 30
0.0
 11
61.402000000000001
 21
297.05599999999993
 31
0.0
  0
LINE
  5
98B
  8
0
 10
59.566600000000001
 20
314.31700000000001
 30
0.0
 11
61.898000000000003
 21
311.22699999999998
 31
0.0
  0
LINE
  5
98C
  8
0
 10
57.186000000000007
 20
317.88799999999992
 30
0.0
 11
60.578000000000003
 21
315.32799999999992
 31
0.0
  0
LINE
  5
98D
  8
0
 10
56.477400000000003
 20
316.64799999999991
 30
0.0
 11
59.566600000000001
 21
314.31700000000001
 31
0.0
  0
LINE
  5
98E
  8
0
 10
59.588500000000003
 20
298.0
 30
0.0
 11
60.788499999999999
 21
300.86200000000002
 31
0.0
  0
LINE
  5
98F
  8
0
 10
59.588500000000003
 20
310.0
 30
0.0
 11
60.788499999999999
 21
307.13799999999992
 31
0.0
  0
LINE
  5
990
  8
0
 10
59.957700000000003
 20
301.13799999999992
 30
0.0
 11
60.326900000000002
 21
304.0
 31
0.0
  0
LINE
  5
991
  8
0
 10
59.957700000000003
 20
306.86200000000002
 30
0.0
 11
60.326900000000002
 21
304.0
 31
0.0
  0
LINE
  5
992
  8
0
 10
59.697600000000001
 20
309.74000000000001
 30
0.0
 11
60.788499999999701
 21
307.138000000001
 31
0.0
  0
LINE
  5
993
  8
0
 10
59.697600000000001
 20
309.74000000000001
 30
0.0
 11
60.788499999999999
 21
307.13799999999992
 31
0.0
  0
LINE
  5
994
  8
0
 10
60.578000000000003
 20
292.67200000000003
 30
0.0
 11
63.137999999999998
 21
296.06400000000002
 31
0.0
  0
LINE
  5
995
  8
0
 10
60.788499999999999
 20
300.86200000000002
 30
0.0
 11
61.25
 21
304.0
 31
0.0
  0
LINE
  5
996
  8
0
 10
60.788499999999999
 20
307.13799999999992
 30
0.0
 11
61.25
 21
304.0
 31
0.0
  0
LINE
  5
997
  8
0
 10
60.578000000000003
 20
315.32799999999992
 30
0.0
 11
63.137999999999998
 21
311.93599999999992
 31
0.0
  0
LINE
  5
998
  8
0
 10
61.286000000000001
 20
316.036
 30
0.0
 11
64.006
 21
312.43200000000002
 31
0.0
  0
LINE
  5
999
  8
0
 10
59.566600000000001
 20
293.68299999999999
 30
0.0
 11
61.898000000000003
 21
296.77299999999991
 31
0.0
  0
LINE
  5
99A
  8
0
 10
56.477400000000003
 20
291.35199999999998
 30
0.0
 11
59.566600000000001
 21
293.68299999999999
 31
0.0
  0
LINE
  5
99B
  8
0
 10
52.9803
 20
289.95299999999997
 30
0.0
 11
56.477400000000003
 21
291.35199999999998
 31
0.0
  0
LINE
  5
99C
  8
0
 10
49.25
 20
289.42899999999997
 30
0.0
 11
52.9803
 21
289.95299999999997
 31
0.0
  0
LINE
  5
99D
  8
0
 10
85.25
 20
295.56799999999998
 30
0.0
 11
85.25
 21
299.64799999999991
 31
0.0
  0
LINE
  5
99E
  8
0
 10
85.25
 20
295.56799999999998
 30
0.0
 11
85.25
 21
291.964
 31
0.0
  0
LINE
  5
99F
  8
0
 10
85.25
 20
291.964
 30
0.0
 11
85.25
 21
295.56799999999998
 31
0.0
  0
LINE
  5
9A0
  8
0
 10
85.25
 20
291.964
 30
0.0
 11
85.25
 21
289.24400000000003
 31
0.0
  0
LINE
  5
9A1
  8
0
 10
63.137999999999998
 20
296.06400000000002
 30
0.0
 11
64.673999999999992
 21
299.90399999999988
 31
0.0
  0
LINE
  5
9A2
  8
0
 10
61.402000000000001
 20
297.05599999999993
 30
0.0
 11
62.746000000000002
 21
300.416
 31
0.0
  0
LINE
  5
9A3
  8
0
 10
61.402000000000001
 20
310.94400000000002
 30
0.0
 11
62.746000000000002
 21
307.58399999999989
 31
0.0
  0
LINE
  5
9A4
  8
0
 10
62.746000000000002
 20
307.58399999999989
 30
0.0
 11
63.25
 21
304.0
 31
0.0
  0
LINE
  5
9A5
  8
0
 10
62.746000000000002
 20
300.416
 30
0.0
 11
63.25
 21
304.0
 31
0.0
  0
LINE
  5
9A6
  8
0
 10
63.296900000000001
 20
307.73000000000002
 30
0.0
 11
63.82139999999999
 21
304.0
 31
0.0
  0
LINE
  5
9A7
  8
0
 10
63.137999999999998
 20
311.93599999999992
 30
0.0
 11
64.673999999999992
 21
308.096
 31
0.0
  0
LINE
  5
9A8
  8
0
 10
61.898000000000003
 20
311.22699999999998
 30
0.0
 11
63.296900000000001
 21
307.73000000000002
 31
0.0
  0
LINE
  5
9A9
  8
0
 10
64.673999999999992
 20
299.90399999999988
 30
0.0
 11
65.25
 21
304.0
 31
0.0
  0
LINE
  5
9AA
  8
0
 10
64.673999999999992
 20
308.096
 30
0.0
 11
65.25
 21
304.0
 31
0.0
  0
LINE
  5
9AB
  8
0
 10
65.638000000000005
 20
308.35199999999998
 30
0.0
 11
66.25
 21
304.0
 31
0.0
  0
LINE
  5
9AC
  8
0
 10
64.006
 20
312.43200000000002
 30
0.0
 11
65.638000000000005
 21
308.35199999999998
 31
0.0
  0
LINE
  5
9AD
  8
0
 10
63.296900000000001
 20
300.26999999999992
 30
0.0
 11
63.82139999999999
 21
304.0
 31
0.0
  0
LINE
  5
9AE
  8
0
 10
61.898000000000003
 20
296.77299999999991
 30
0.0
 11
63.296900000000001
 21
300.26999999999992
 31
0.0
  0
LINE
  5
9AF
  8
0
 10
85.25
 20
299.64799999999991
 30
0.0
 11
85.25
 21
304.0
 31
0.0
  0
LINE
  5
9B0
  8
0
 10
85.25
 20
299.64799999999991
 30
0.0
 11
85.25
 21
295.56799999999998
 31
0.0
  0
LINE
  5
9B1
  8
0
 10
85.25
 20
304.0
 30
0.0
 11
85.25
 21
308.35199999999998
 31
0.0
  0
LINE
  5
9B2
  8
0
 10
85.25
 20
304.0
 30
0.0
 11
85.25
 21
299.64799999999991
 31
0.0
  0
LINE
  5
9B3
  8
0
 10
85.25
 20
314.51942461872301
 30
0.0
 11
86.076700000000002
 21
315.09800000000001
 31
0.0
  0
LINE
  5
9B4
  8
0
 10
85.25
 20
314.45176300984502
 30
0.0
 11
85.855500000000006
 21
314.82099999999991
 31
0.0
  0
LINE
  5
9B5
  8
0
 10
85.25
 20
308.35199999999998
 30
0.0
 11
85.25
 21
304.0
 31
0.0
  0
LINE
  5
9B6
  8
0
 10
85.25
 20
308.35199999999998
 30
0.0
 11
85.25
 21
312.43200000000002
 31
0.0
  0
LINE
  5
9B7
  8
0
 10
85.855500000000006
 20
314.82099999999991
 30
0.0
 11
86.076700000000002
 21
315.09800000000001
 31
0.0
  0
LINE
  5
9B8
  8
0
 10
86.076700000000002
 20
315.09800000000001
 30
0.0
 11
91.890000000000001
 21
328.44
 31
0.0
  0
LINE
  5
9B9
  8
0
 10
85.25
 20
312.43200000000002
 30
0.0
 11
85.25
 21
308.35199999999998
 31
0.0
  0
LINE
  5
9BA
  8
0
 10
85.25
 20
312.43200000000002
 30
0.0
 11
85.25
 21
316.036
 31
0.0
  0
LINE
  5
9BB
  8
0
 10
85.25
 20
316.036
 30
0.0
 11
85.25
 21
312.43200000000002
 31
0.0
  0
LINE
  5
9BC
  8
0
 10
85.25
 20
316.036
 30
0.0
 11
85.25
 21
318.75599999999991
 31
0.0
  0
LINE
  5
9BD
  8
0
 10
65.638000000000005
 20
299.64799999999991
 30
0.0
 11
66.25
 21
304.0
 31
0.0
  0
LINE
  5
9BE
  8
0
 10
64.006
 20
295.56799999999998
 30
0.0
 11
65.638000000000005
 21
299.64799999999991
 31
0.0
  0
LINE
  5
9BF
  8
0
 10
61.286000000000001
 20
291.964
 30
0.0
 11
64.006
 21
295.56799999999998
 31
0.0
  0
LINE
  5
9C0
  8
0
 10
57.682000000000002
 20
289.24400000000003
 30
0.0
 11
61.286000000000001
 21
291.964
 31
0.0
  0
LINE
  5
9C1
  8
0
 10
45.519699999999993
 20
289.95299999999997
 30
0.0
 11
49.25
 21
289.42899999999997
 31
0.0
  0
LINE
  5
9C2
  8
0
 10
44.898000000000003
 20
287.61200000000002
 30
0.0
 11
49.25
 21
287.0
 31
0.0
  0
LINE
  5
9C3
  8
0
 10
42.02259999999999
 20
316.64799999999991
 30
0.0
 11
45.519699999999993
 21
318.04700000000003
 31
0.0
  0
LINE
  5
9C4
  8
0
 10
49.25
 20
320.0
 30
0.0
 11
53.345999999999997
 21
319.42399999999998
 31
0.0
  0
LINE
  5
9C5
  8
0
 10
45.153999999999989
 20
319.42399999999998
 30
0.0
 11
49.25
 21
320.0
 31
0.0
  0
LINE
  5
9C6
  8
0
 10
53.345999999999997
 20
319.42399999999998
 30
0.0
 11
57.186000000000007
 21
317.88799999999992
 31
0.0
  0
LINE
  5
9C7
  8
0
 10
85.25
 20
318.75599999999991
 30
0.0
 11
85.25
 21
316.036
 31
0.0
  0
LINE
  5
9C8
  8
0
 10
85.25
 20
318.75599999999991
 30
0.0
 11
85.25
 21
320.38799999999992
 31
0.0
  0
LINE
  5
9C9
  8
0
 10
85.25
 20
320.38799999999992
 30
0.0
 11
85.25
 21
318.75599999999991
 31
0.0
  0
LINE
  5
9CA
  8
0
 10
85.25
 20
320.38799999999992
 30
0.0
 11
85.25
 21
321.0
 31
0.0
  0
LINE
  5
9CB
  8
0
 10
57.682000000000002
 20
318.75599999999991
 30
0.0
 11
61.286000000000001
 21
316.036
 31
0.0
  0
LINE
  5
9CC
  8
0
 10
53.60199999999999
 20
320.38799999999992
 30
0.0
 11
57.682000000000002
 21
318.75599999999991
 31
0.0
  0
LINE
  5
9CD
  8
0
 10
49.25
 20
318.57099999999991
 30
0.0
 11
52.9803
 21
318.04700000000003
 31
0.0
  0
LINE
  5
9CE
  8
0
 10
45.519699999999993
 20
318.04700000000003
 30
0.0
 11
49.25
 21
318.57099999999991
 31
0.0
  0
LINE
  5
9CF
  8
0
 10
40.817999999999998
 20
318.75599999999991
 30
0.0
 11
44.898000000000003
 21
320.38799999999992
 31
0.0
  0
LINE
  5
9D0
  8
0
 10
16.4588
 20
324.24700000000001
 30
0.0
 11
18.25
 21
324.0
 31
0.0
  0
LINE
  5
9D1
  8
0
 10
16.479399999999998
 20
324.35000000000002
 30
0.0
 11
18.25
 21
324.10300000000001
 31
0.0
  0
LINE
  5
9D2
  8
0
 10
21.688199999999991
 20
325.029
 30
0.0
 11
23.1294
 21
326.12099999999992
 31
0.0
  0
LINE
  5
9D3
  8
0
 10
20.020600000000002
 20
324.35000000000002
 30
0.0
 11
21.688199999999991
 21
325.029
 31
0.0
  0
LINE
  5
9D4
  8
0
 10
18.25
 20
324.10300000000001
 30
0.0
 11
20.020600000000002
 21
324.35000000000002
 31
0.0
  0
LINE
  5
9D5
  8
0
 10
21.688199999999991
 20
336.97099999999989
 30
0.0
 11
23.1294
 21
335.87900000000002
 31
0.0
  0
LINE
  5
9D6
  8
0
 10
20.020600000000002
 20
337.64999999999998
 30
0.0
 11
21.688199999999991
 21
336.97099999999989
 31
0.0
  0
LINE
  5
9D7
  8
0
 10
21.729399999999998
 20
337.053
 30
0.0
 11
23.191199999999991
 21
335.94099999999997
 31
0.0
  0
LINE
  5
9D8
  8
0
 10
18.25
 20
337.89699999999988
 30
0.0
 11
20.020600000000002
 21
337.64999999999998
 31
0.0
  0
LINE
  5
9D9
  8
0
 10
20.041199999999989
 20
337.75299999999999
 30
0.0
 11
21.729399999999998
 21
337.053
 31
0.0
  0
LINE
  5
9DA
  8
0
 10
18.25
 20
338.0
 30
0.0
 11
20.041199999999989
 21
337.75299999999999
 31
0.0
  0
LINE
  5
9DB
  8
0
 10
16.479399999999998
 20
337.64999999999998
 30
0.0
 11
18.25
 21
337.89699999999988
 31
0.0
  0
LINE
  5
9DC
  8
0
 10
16.4588
 20
337.75299999999999
 30
0.0
 11
18.25
 21
338.0
 31
0.0
  0
LINE
  5
9DD
  8
0
 10
18.25
 20
341.0
 30
0.0
 11
24.599616189811599
 21
341.0
 31
0.0
  0
LINE
  5
9DE
  8
0
 10
18.25
 20
341.0
 30
0.0
 11
24.599616189811599
 21
341.0
 31
0.0
  0
LINE
  5
9DF
  8
0
 10
15.689999999999991
 20
340.63999999999999
 30
0.0
 11
18.25
 21
341.0
 31
0.0
  0
LINE
  5
9E0
  8
0
 10
23.1294
 20
326.12099999999992
 30
0.0
 11
24.220600000000001
 21
327.5619999999999
 31
0.0
  0
LINE
  5
9E1
  8
0
 10
24.220600000000001
 20
327.5619999999999
 30
0.0
 11
24.899999999999999
 21
329.22899999999998
 31
0.0
  0
LINE
  5
9E2
  8
0
 10
24.899999999999999
 20
329.22899999999998
 30
0.0
 11
25.147099999999998
 21
331.0
 31
0.0
  0
LINE
  5
9E3
  8
0
 10
24.899999999999999
 20
332.7709999999999
 30
0.0
 11
25.147099999999998
 21
331.0
 31
0.0
  0
LINE
  5
9E4
  8
0
 10
24.220600000000001
 20
334.43799999999999
 30
0.0
 11
24.899999999999999
 21
332.7709999999999
 31
0.0
  0
LINE
  5
9E5
  8
0
 10
24.302900000000001
 20
334.47899999999998
 30
0.0
 11
25.0029
 21
332.791
 31
0.0
  0
LINE
  5
9E6
  8
0
 10
25.0029
 20
332.791
 30
0.0
 11
25.25
 21
331.0
 31
0.0
  0
LINE
  5
9E7
  8
0
 10
34.25
 20
321.0
 30
0.0
 11
34.25
 21
344.0
 31
0.0
  0
LINE
  5
9E8
  8
0
 10
23.1294
 20
335.87900000000002
 30
0.0
 11
24.220600000000001
 21
334.43799999999999
 31
0.0
  0
LINE
  5
9E9
  8
0
 10
23.191199999999991
 20
335.94099999999997
 30
0.0
 11
24.302900000000001
 21
334.47899999999998
 31
0.0
  0
LINE
  5
9EA
  8
0
 10
34.25
 20
344.0
 30
0.0
 11
34.25
 21
321.0
 31
0.0
  0
LINE
  5
9EB
  8
0
 10
34.25
 20
344.0
 30
0.0
 11
34.25
 21
343.300801373784
 31
0.0
  0
LINE
  5
9EC
  8
0
 10
34.25
 20
344.0
 30
0.0
 11
34.826000000000001
 21
344.0
 31
0.0
  0
LINE
  5
9ED
  8
0
 10
46.154000000000003
 20
344.0
 30
0.0
 11
50.25
 21
344.0
 31
0.0
  0
LINE
  5
9EE
  8
0
 10
42.313999999999993
 20
344.0
 30
0.0
 11
46.154000000000003
 21
344.0
 31
0.0
  0
LINE
  5
9EF
  8
0
 10
38.92199999999999
 20
344.0
 30
0.0
 11
42.313999999999993
 21
344.0
 31
0.0
  0
LINE
  5
9F0
  8
0
 10
36.361999999999988
 20
344.0
 30
0.0
 11
38.92199999999999
 21
344.0
 31
0.0
  0
LINE
  5
9F1
  8
0
 10
34.826000000000001
 20
344.0
 30
0.0
 11
36.361999999999988
 21
344.0
 31
0.0
  0
LINE
  5
9F2
  8
0
 10
34.25
 20
343.300801373784
 30
0.0
 11
34.25
 21
344.0
 31
0.0
  0
LINE
  5
9F3
  8
0
 10
33.503
 20
344.6459999999999
 30
0.0
 11
34.25
 21
343.300801373784
 31
0.0
  0
LINE
  5
9F4
  8
0
 10
33.457999999999998
 20
346.024
 30
0.0
 11
34.033999999999992
 21
347.46399999999988
 31
0.0
  0
LINE
  5
9F5
  8
0
 10
33.457999999999998
 20
346.024
 30
0.0
 11
33.503
 21
344.6459999999999
 31
0.0
  0
LINE
  5
9F6
  8
0
 10
34.033999999999992
 20
347.46399999999988
 30
0.0
 11
34.25
 21
349.0
 31
0.0
  0
LINE
  5
9F7
  8
0
 10
26.25
 20
336.0
 30
0.0
 11
27.25
 21
335.19999999999987
 31
0.0
  0
LINE
  5
9F8
  8
0
 10
27.25
 20
335.19999999999987
 30
0.0
 11
34.25
 21
335.19999999999987
 31
0.0
  0
LINE
  5
9F9
  8
0
 10
22.46599999999999
 20
347.46399999999988
 30
0.0
 11
24.599616189811599
 21
341.0
 31
0.0
  0
LINE
  5
9FA
  8
0
 10
22.46599999999999
 20
347.46399999999988
 30
0.0
 11
26.25
 21
336.0
 31
0.0
  0
LINE
  5
9FB
  8
0
 10
33.457999999999998
 20
351.976
 30
0.0
 11
34.033999999999992
 21
350.536
 31
0.0
  0
LINE
  5
9FC
  8
0
 10
34.033999999999992
 20
350.536
 30
0.0
 11
34.25
 21
349.0
 31
0.0
  0
LINE
  5
9FD
  8
0
 10
29.786000000000001
 20
354.78399999999988
 30
0.0
 11
31.225999999999999
 21
354.20800000000003
 31
0.0
  0
LINE
  5
9FE
  8
0
 10
31.225999999999999
 20
354.20800000000003
 30
0.0
 11
32.497999999999998
 21
353.24799999999999
 31
0.0
  0
LINE
  5
9FF
  8
0
 10
32.497999999999998
 20
353.24799999999999
 30
0.0
 11
33.457999999999998
 21
351.976
 31
0.0
  0
LINE
  5
A00
  8
0
 10
25.274000000000001
 20
354.20800000000003
 30
0.0
 11
26.713999999999999
 21
354.78399999999988
 31
0.0
  0
LINE
  5
A01
  8
0
 10
28.25
 20
355.0
 30
0.0
 11
29.786000000000001
 21
354.78399999999988
 31
0.0
  0
LINE
  5
A02
  8
0
 10
26.713999999999999
 20
354.78399999999988
 30
0.0
 11
28.25
 21
355.0
 31
0.0
  0
LINE
  5
A03
  8
0
 10
24.001999999999988
 20
353.24799999999999
 30
0.0
 11
25.274000000000001
 21
354.20800000000003
 31
0.0
  0
LINE
  5
A04
  8
0
 10
23.041999999999991
 20
351.976
 30
0.0
 11
24.001999999999988
 21
353.24799999999999
 31
0.0
  0
LINE
  5
A05
  8
0
 10
22.46599999999999
 20
350.536
 30
0.0
 11
23.041999999999991
 21
351.976
 31
0.0
  0
LINE
  5
A06
  8
0
 10
22.25
 20
349.0
 30
0.0
 11
22.46599999999999
 21
350.536
 31
0.0
  0
LINE
  5
A07
  8
0
 10
22.25
 20
349.0
 30
0.0
 11
22.46599999999999
 21
347.46399999999988
 31
0.0
  0
LINE
  5
A08
  8
0
 10
66.25
 20
321.0
 30
0.0
 11
66.25
 21
344.0
 31
0.0
  0
LINE
  5
A09
  8
0
 10
85.25
 20
321.0
 30
0.0
 11
85.25
 21
320.38799999999992
 31
0.0
  0
LINE
  5
A0A
  8
0
 10
50.25
 20
322.0
 30
0.0
 11
60.25
 21
322.0
 31
0.0
  0
LINE
  5
A0B
  8
0
 10
50.25
 20
322.0
 30
0.0
 11
50.25
 21
332.0
 31
0.0
  0
LINE
  5
A0C
  8
0
 10
60.25
 20
322.0
 30
0.0
 11
60.25
 21
332.0
 31
0.0
  0
LINE
  5
A0D
  8
0
 10
60.25
 20
332.0
 30
0.0
 11
60.25
 21
356.0
 31
0.0
  0
LINE
  5
A0E
  8
0
 10
60.25
 20
332.0
 30
0.0
 11
60.25
 21
322.0
 31
0.0
  0
LINE
  5
A0F
  8
0
 10
50.25
 20
332.0
 30
0.0
 11
60.25
 21
332.0
 31
0.0
  0
LINE
  5
A10
  8
0
 10
50.25
 20
332.0
 30
0.0
 11
50.25
 21
322.0
 31
0.0
  0
LINE
  5
A11
  8
0
 10
50.25
 20
332.0
 30
0.0
 11
50.25
 21
356.0
 31
0.0
  0
LINE
  5
A12
  8
0
 10
50.25
 20
343.0
 30
0.0
 11
50.25
 21
356.0
 31
0.0
  0
LINE
  5
A13
  8
0
 10
66.25
 20
335.19999999999987
 30
0.0
 11
73.25
 21
335.19999999999987
 31
0.0
  0
LINE
  5
A14
  8
0
 10
60.25
 20
344.0
 30
0.0
 11
61.578000000000003
 21
344.0
 31
0.0
  0
LINE
  5
A15
  8
0
 10
61.578000000000003
 20
344.0
 30
0.0
 11
64.138000000000005
 21
344.0
 31
0.0
  0
LINE
  5
A16
  8
0
 10
64.138000000000005
 20
344.0
 30
0.0
 11
65.673999999999992
 21
344.0
 31
0.0
  0
LINE
  5
A17
  8
0
 10
66.25
 20
344.0
 30
0.0
 11
66.25
 21
321.0
 31
0.0
  0
LINE
  5
A18
  8
0
 10
65.673999999999992
 20
344.0
 30
0.0
 11
66.25
 21
344.0
 31
0.0
  0
LINE
  5
A19
  8
0
 10
66.25
 20
343.300801373784
 30
0.0
 11
66.996999999999986
 21
344.6459999999999
 31
0.0
  0
LINE
  5
A1A
  8
0
 10
73.25
 20
335.19999999999987
 30
0.0
 11
74.25
 21
336.0
 31
0.0
  0
LINE
  5
A45
  8
0
 10
75.900383810188401
 20
341.0
 30
0.0
 11
82.249999999999986
 21
341.0
 31
0.0
  0
LINE
  5
A46
  8
0
 10
82.249999999999986
 20
341.0
 30
0.0
 11
84.809999999999988
 21
340.63999999999999
 31
0.0
  0
LINE
  5
A47
  8
0
 10
84.809999999999988
 20
340.63999999999999
 30
0.0
 11
87.209999999999994
 21
339.68000000000001
 31
0.0
  0
LINE
  5
A48
  8
0
 10
87.209999999999994
 20
339.68000000000001
 30
0.0
 11
89.329999999999984
 21
338.07999999999993
 31
0.0
  0
LINE
  5
A49
  8
0
 10
89.329999999999984
 20
338.07999999999993
 30
0.0
 11
90.930000000000007
 21
335.95999999999992
 31
0.0
  0
LINE
  5
A4A
  8
0
 10
90.930000000000007
 20
335.95999999999992
 30
0.0
 11
91.890000000000001
 21
333.55999999999989
 31
0.0
  0
LINE
  5
A4B
  8
0
 10
91.890000000000001
 20
333.55999999999989
 30
0.0
 11
92.249999999999986
 21
331.0
 31
0.0
  0
LINE
  5
A4C
  8
0
 10
74.25
 20
336.0
 30
0.0
 11
78.033999999999992
 21
347.46399999999988
 31
0.0
  0
LINE
  5
A4D
  8
0
 10
78.033999999999992
 20
347.46399999999988
 30
0.0
 11
78.25
 21
349.0
 31
0.0
  0
LINE
  5
A4E
  8
0
 10
66.996999999999986
 20
344.6459999999999
 30
0.0
 11
67.042000000000002
 21
346.024
 31
0.0
  0
LINE
  5
A4F
  8
0
 10
66.466000000000008
 20
347.46399999999988
 30
0.0
 11
67.042000000000002
 21
346.024
 31
0.0
  0
LINE
  5
A50
  8
0
 10
60.25
 20
356.0
 30
0.0
 11
60.25
 21
332.0
 31
0.0
  0
LINE
  5
A51
  8
0
 10
50.25
 20
356.0
 30
0.0
 11
60.25
 21
356.0
 31
0.0
  0
LINE
  5
A52
  8
0
 10
50.25
 20
356.0
 30
0.0
 11
50.25
 21
332.0
 31
0.0
  0
LINE
  5
A53
  8
0
 10
50.25
 20
356.0
 30
0.0
 11
50.25
 21
343.0
 31
0.0
  0
LINE
  5
A54
  8
0
 10
77.457999999999998
 20
351.976
 30
0.0
 11
78.033999999999992
 21
350.536
 31
0.0
  0
LINE
  5
A55
  8
0
 10
78.033999999999992
 20
350.536
 30
0.0
 11
78.25
 21
349.0
 31
0.0
  0
LINE
  5
A56
  8
0
 10
75.225999999999999
 20
354.20800000000003
 30
0.0
 11
76.498000000000005
 21
353.24799999999999
 31
0.0
  0
LINE
  5
A57
  8
0
 10
76.498000000000005
 20
353.24799999999999
 30
0.0
 11
77.457999999999998
 21
351.976
 31
0.0
  0
LINE
  5
A58
  8
0
 10
72.25
 20
355.0
 30
0.0
 11
73.786000000000001
 21
354.78399999999988
 31
0.0
  0
LINE
  5
A59
  8
0
 10
73.786000000000001
 20
354.78399999999988
 30
0.0
 11
75.225999999999999
 21
354.20800000000003
 31
0.0
  0
LINE
  5
A5A
  8
0
 10
70.713999999999999
 20
354.78399999999988
 30
0.0
 11
72.25
 21
355.0
 31
0.0
  0
LINE
  5
A5B
  8
0
 10
69.274000000000001
 20
354.20800000000003
 30
0.0
 11
70.713999999999999
 21
354.78399999999988
 31
0.0
  0
LINE
  5
A5C
  8
0
 10
68.001999999999995
 20
353.24799999999999
 30
0.0
 11
69.274000000000001
 21
354.20800000000003
 31
0.0
  0
LINE
  5
A5D
  8
0
 10
67.042000000000002
 20
351.976
 30
0.0
 11
68.001999999999995
 21
353.24799999999999
 31
0.0
  0
LINE
  5
A5E
  8
0
 10
66.466000000000008
 20
350.536
 30
0.0
 11
67.042000000000002
 21
351.976
 31
0.0
  0
LINE
  5
A5F
  8
0
 10
66.25
 20
349.0
 30
0.0
 11
66.466000000000008
 21
350.536
 31
0.0
  0
LINE
  5
A60
  8
0
 10
66.25
 20
349.0
 30
0.0
 11
66.466000000000008
 21
347.46399999999988
 31
0.0
  0
LINE
  5
A61
  8
0
 10
91.890000000000001
 20
328.44
 30
0.0
 11
92.249999999999986
 21
331.0
 31
0.0
  0
LINE
  5
A62
  8
0
 10
66.084400000000002
 20
321.0
 30
0.0
 11
85.25
 21
321.0
 31
0.0
  0
LINE
  5
A63
  8
0
 10
49.25
 20
321.0
 30
0.0
 11
53.60199999999999
 21
320.38799999999992
 31
0.0
  0
LINE
  5
A64
  8
0
 10
44.898000000000003
 20
320.38799999999992
 30
0.0
 11
49.25
 21
321.0
 31
0.0
  0
LINE
  5
A65
  8
0
 10
15.25
 20
321.0
 30
0.0
 11
34.25
 21
321.0
 31
0.0
  0
LINE
  5
A66
  8
0
 10
15.25
 20
287.0
 30
0.0
 11
34.415599999999991
 21
287.0
 31
0.0
  0
LINE
  5
A67
  8
0
 10
15.25
 20
287.0
 30
0.0
 11
34.25
 21
287.0
 31
0.0
  0
LINE
  5
A68
  8
0
 10
15.25
 20
321.0
 30
0.0
 11
34.25
 21
321.0
 31
0.0
  0
LINE
  5
A69
  8
0
 10
15.25
 20
321.0
 30
0.0
 11
15.25
 21
320.38799999999992
 31
0.0
  0
LINE
  5
A6E
  8
0
 10
18.25
 20
324.0
 30
0.0
 11
19.98676436531218
 21
324.2520072835818
 31
0.0
  0
LINE
  5
A6F
  8
0
 10
19.98676436531218
 20
324.2520072835818
 30
0.0
 11
21.625149840141141
 21
324.88395410033422
 31
0.0
  0
LINE
  5
A70
  8
0
 10
21.625149840141141
 20
324.88395410033422
 30
0.0
 11
23.234793926039401
 21
326.061673016057
 31
0.0
  0
LINE
  5
A71
  8
0
 10
23.234793926039401
 20
326.061673016057
 30
0.0
 11
24.269564148782589
 21
327.46919062237419
 31
0.0
  0
LINE
  5
A72
  8
0
 10
24.269564148782589
 20
327.46919062237419
 30
0.0
 11
25.016898293365781
 21
329.22140709981932
 31
0.0
  0
LINE
  5
A73
  8
0
 10
25.016898293365781
 20
329.22140709981932
 30
0.0
 11
25.25
 21
331.0
 31
0.0
  0
LINE
  5
A74
  8
0
 10
81.75
 20
324.0
 30
0.0
 11
80.013235634687817
 21
324.2520072835818
 31
0.0
  0
LINE
  5
A75
  8
0
 10
81.75
 20
338.0
 30
0.0
 11
79.958799999999997
 21
337.75299999999999
 31
0.0
  0
LINE
  5
A76
  8
0
 10
81.75
 20
337.89699999999988
 30
0.0
 11
79.979399999999984
 21
337.64999999999998
 31
0.0
  0
LINE
  5
A77
  8
0
 10
81.75
 20
324.10300000000001
 30
0.0
 11
79.979399999999984
 21
324.35000000000002
 31
0.0
  0
LINE
  5
A78
  8
0
 10
86.691199999999995
 20
335.94099999999997
 30
0.0
 11
85.229399999999998
 21
337.053
 31
0.0
  0
LINE
  5
A79
  8
0
 10
86.629400000000004
 20
335.87900000000002
 30
0.0
 11
85.188199999999995
 21
336.97099999999989
 31
0.0
  0
LINE
  5
A7A
  8
0
 10
86.691199999999995
 20
326.05900000000003
 30
0.0
 11
85.229399999999998
 21
324.947
 31
0.0
  0
LINE
  5
A7B
  8
0
 10
86.629400000000004
 20
326.12099999999992
 30
0.0
 11
85.188199999999995
 21
325.029
 31
0.0
  0
LINE
  5
A7C
  8
0
 10
88.75
 20
331.0
 30
0.0
 11
88.502899999999997
 21
329.20899999999989
 31
0.0
  0
LINE
  5
A7D
  8
0
 10
88.647099999999995
 20
331.0
 30
0.0
 11
88.400000000000006
 21
329.22899999999998
 31
0.0
  0
LINE
  5
A7E
  8
0
 10
87.802899999999994
 20
327.5209999999999
 30
0.0
 11
86.691199999999995
 21
326.05900000000003
 31
0.0
  0
LINE
  5
A7F
  8
0
 10
87.720600000000005
 20
327.5619999999999
 30
0.0
 11
86.629400000000004
 21
326.12099999999992
 31
0.0
  0
LINE
  5
A80
  8
0
 10
88.502899999999997
 20
329.20899999999989
 30
0.0
 11
87.802899999999994
 21
327.5209999999999
 31
0.0
  0
LINE
  5
A81
  8
0
 10
88.400000000000006
 20
329.22899999999998
 30
0.0
 11
87.720600000000005
 21
327.5619999999999
 31
0.0
  0
LINE
  5
A82
  8
0
 10
87.802899999999994
 20
334.47899999999998
 30
0.0
 11
86.691199999999995
 21
335.94099999999997
 31
0.0
  0
LINE
  5
A83
  8
0
 10
87.720600000000005
 20
334.43799999999999
 30
0.0
 11
86.629400000000004
 21
335.87900000000002
 31
0.0
  0
LINE
  5
A84
  8
0
 10
88.502899999999997
 20
332.791
 30
0.0
 11
87.802899999999994
 21
334.47899999999998
 31
0.0
  0
LINE
  5
A85
  8
0
 10
88.400000000000006
 20
332.7709999999999
 30
0.0
 11
87.720600000000005
 21
334.43799999999999
 31
0.0
  0
LINE
  5
A86
  8
0
 10
88.75
 20
331.0
 30
0.0
 11
88.502899999999997
 21
332.791
 31
0.0
  0
LINE
  5
A87
  8
0
 10
88.647099999999995
 20
331.0
 30
0.0
 11
88.400000000000006
 21
332.7709999999999
 31
0.0
  0
LINE
  5
A88
  8
0
 10
85.229399999999998
 20
324.947
 30
0.0
 11
83.541199999999989
 21
324.24700000000001
 31
0.0
  0
LINE
  5
A89
  8
0
 10
85.188199999999995
 20
325.029
 30
0.0
 11
83.520599999999988
 21
324.35000000000002
 31
0.0
  0
LINE
  5
A8A
  8
0
 10
83.541199999999989
 20
324.24700000000001
 30
0.0
 11
81.75
 21
324.0
 31
0.0
  0
LINE
  5
A8B
  8
0
 10
83.520599999999988
 20
324.35000000000002
 30
0.0
 11
81.75
 21
324.10300000000001
 31
0.0
  0
LINE
  5
A8C
  8
0
 10
85.229399999999998
 20
337.053
 30
0.0
 11
83.541199999999989
 21
337.75299999999999
 31
0.0
  0
LINE
  5
A8D
  8
0
 10
85.188199999999995
 20
336.97099999999989
 30
0.0
 11
83.520599999999988
 21
337.64999999999998
 31
0.0
  0
LINE
  5
A8E
  8
0
 10
83.541199999999989
 20
337.75299999999999
 30
0.0
 11
81.75
 21
338.0
 31
0.0
  0
LINE
  5
A8F
  8
0
 10
83.520599999999988
 20
337.64999999999998
 30
0.0
 11
81.75
 21
337.89699999999988
 31
0.0
  0
LINE
  5
A90
  8
0
 10
78.374850159858852
 20
324.88395410033422
 30
0.0
 11
76.765206073960599
 21
326.061673016057
 31
0.0
  0
LINE
  5
A91
  8
0
 10
78.270600000000002
 20
337.053
 30
0.0
 11
76.808800000000005
 21
335.94099999999997
 31
0.0
  0
LINE
  5
A92
  8
0
 10
78.311800000000005
 20
336.97099999999989
 30
0.0
 11
76.870599999999996
 21
335.87900000000002
 31
0.0
  0
LINE
  5
A93
  8
0
 10
78.311800000000005
 20
325.029
 30
0.0
 11
76.870599999999996
 21
326.12099999999992
 31
0.0
  0
LINE
  5
A94
  8
0
 10
80.013235634687817
 20
324.2520072835818
 30
0.0
 11
78.374850159858852
 21
324.88395410033422
 31
0.0
  0
LINE
  5
A95
  8
0
 10
79.979399999999984
 20
324.35000000000002
 30
0.0
 11
78.311800000000005
 21
325.029
 31
0.0
  0
LINE
  5
A96
  8
0
 10
79.958799999999997
 20
337.75299999999999
 30
0.0
 11
78.270600000000002
 21
337.053
 31
0.0
  0
LINE
  5
A97
  8
0
 10
79.979399999999984
 20
337.64999999999998
 30
0.0
 11
78.311800000000005
 21
336.97099999999989
 31
0.0
  0
LINE
  5
A98
  8
0
 10
74.983101706634216
 20
329.22140709981932
 30
0.0
 11
74.75
 21
331.0
 31
0.0
  0
LINE
  5
A99
  8
0
 10
75.099999999999994
 20
329.22899999999998
 30
0.0
 11
74.852900000000005
 21
331.0
 31
0.0
  0
LINE
  5
A9A
  8
0
 10
76.765206073960599
 20
326.061673016057
 30
0.0
 11
75.730435851217408
 21
327.46919062237419
 31
0.0
  0
LINE
  5
A9B
  8
0
 10
76.870599999999996
 20
326.12099999999992
 30
0.0
 11
75.779399999999995
 21
327.5619999999999
 31
0.0
  0
LINE
  5
A9C
  8
0
 10
75.730435851217408
 20
327.46919062237419
 30
0.0
 11
74.983101706634216
 21
329.22140709981932
 31
0.0
  0
LINE
  5
A9D
  8
0
 10
75.779399999999995
 20
327.5619999999999
 30
0.0
 11
75.099999999999994
 21
329.22899999999998
 31
0.0
  0
LINE
  5
A9E
  8
0
 10
76.808800000000005
 20
335.94099999999997
 30
0.0
 11
75.697100000000006
 21
334.47899999999998
 31
0.0
  0
LINE
  5
A9F
  8
0
 10
76.870599999999996
 20
335.87900000000002
 30
0.0
 11
75.779399999999995
 21
334.43799999999999
 31
0.0
  0
LINE
  5
AA0
  8
0
 10
74.997100000000003
 20
332.791
 30
0.0
 11
74.75
 21
331.0
 31
0.0
  0
LINE
  5
AA1
  8
0
 10
75.099999999999994
 20
332.7709999999999
 30
0.0
 11
74.852900000000005
 21
331.0
 31
0.0
  0
LINE
  5
AA2
  8
0
 10
75.697100000000006
 20
334.47899999999998
 30
0.0
 11
74.997100000000003
 21
332.791
 31
0.0
  0
LINE
  5
AA3
  8
0
 10
75.779399999999995
 20
334.43799999999999
 30
0.0
 11
75.099999999999994
 21
332.7709999999999
 31
0.0
  0
LINE
  5
AA4
  8
0
 10
79.979399999999984
 20
257.64999999999992
 30
0.0
 11
78.311800000000005
 21
256.971
 31
0.0
  0
LINE
  5
AA5
  8
0
 10
79.958799999999997
 20
257.75299999999999
 30
0.0
 11
78.270600000000002
 21
257.053
 31
0.0
  0
LINE
  5
AA6
  8
0
 10
78.311800000000005
 20
256.971
 30
0.0
 11
76.870599999999996
 21
255.87899999999999
 31
0.0
  0
LINE
  5
AA7
  8
0
 10
78.270600000000002
 20
257.053
 30
0.0
 11
76.808800000000005
 21
255.94099999999989
 31
0.0
  0
LINE
  5
AA8
  8
0
 10
76.870599999999996
 20
255.87899999999999
 30
0.0
 11
75.779399999999995
 21
254.43799999999999
 31
0.0
  0
LINE
  5
AA9
  8
0
 10
76.808800000000005
 20
255.94099999999989
 30
0.0
 11
75.697100000000006
 21
254.47900000000001
 31
0.0
  0
LINE
  5
AAA
  8
0
 10
87.720600000000005
 20
254.43799999999999
 30
0.0
 11
86.629400000000004
 21
255.87899999999999
 31
0.0
  0
LINE
  5
AAB
  8
0
 10
87.802899999999994
 20
254.47900000000001
 30
0.0
 11
86.691199999999995
 21
255.94099999999989
 31
0.0
  0
LINE
  5
AAC
  8
0
 10
83.520599999999988
 20
257.64999999999992
 30
0.0
 11
81.75
 21
257.89699999999988
 31
0.0
  0
LINE
  5
AAD
  8
0
 10
83.541199999999989
 20
257.75299999999999
 30
0.0
 11
81.75
 21
258.0
 31
0.0
  0
LINE
  5
AAE
  8
0
 10
81.75
 20
257.89699999999988
 30
0.0
 11
79.979399999999984
 21
257.64999999999992
 31
0.0
  0
LINE
  5
AAF
  8
0
 10
81.75
 20
258.0
 30
0.0
 11
79.958799999999997
 21
257.75299999999999
 31
0.0
  0
LINE
  5
AB0
  8
0
 10
85.188199999999995
 20
256.971
 30
0.0
 11
83.520599999999988
 21
257.64999999999992
 31
0.0
  0
LINE
  5
AB1
  8
0
 10
85.229399999999998
 20
257.053
 30
0.0
 11
83.541199999999989
 21
257.75299999999999
 31
0.0
  0
LINE
  5
AB2
  8
0
 10
86.629400000000004
 20
255.87899999999999
 30
0.0
 11
85.188199999999995
 21
256.971
 31
0.0
  0
LINE
  5
AB3
  8
0
 10
86.691199999999995
 20
255.94099999999989
 30
0.0
 11
85.229399999999998
 21
257.053
 31
0.0
  0
LINE
  5
AB4
  8
0
 10
88.400000000000006
 20
252.7709999999999
 30
0.0
 11
87.720600000000005
 21
254.43799999999999
 31
0.0
  0
LINE
  5
AB5
  8
0
 10
88.502899999999997
 20
252.79099999999991
 30
0.0
 11
87.802899999999994
 21
254.47900000000001
 31
0.0
  0
LINE
  5
AB6
  8
0
 10
79.979399999999984
 20
244.34999999999999
 30
0.0
 11
78.311800000000005
 21
245.02899999999991
 31
0.0
  0
LINE
  5
AB7
  8
0
 10
80.013235634687817
 20
244.2520072835818
 30
0.0
 11
78.374850159858852
 21
244.88395410033419
 31
0.0
  0
LINE
  5
AB8
  8
0
 10
75.779399999999995
 20
254.43799999999999
 30
0.0
 11
75.099999999999994
 21
252.7709999999999
 31
0.0
  0
LINE
  5
AB9
  8
0
 10
75.697100000000006
 20
254.47900000000001
 30
0.0
 11
74.997100000000003
 21
252.79099999999991
 31
0.0
  0
LINE
  5
ABA
  8
0
 10
75.779399999999995
 20
247.56200000000001
 30
0.0
 11
75.099999999999994
 21
249.22900000000001
 31
0.0
  0
LINE
  5
ABB
  8
0
 10
75.730435851217408
 20
247.4691906223743
 30
0.0
 11
74.983101706634216
 21
249.22140709981929
 31
0.0
  0
LINE
  5
ABC
  8
0
 10
75.099999999999994
 20
249.22900000000001
 30
0.0
 11
74.852900000000005
 21
251.0
 31
0.0
  0
LINE
  5
ABD
  8
0
 10
74.983101706634216
 20
249.22140709981929
 30
0.0
 11
74.75
 21
251.0
 31
0.0
  0
LINE
  5
ABE
  8
0
 10
75.099999999999994
 20
252.7709999999999
 30
0.0
 11
74.852900000000005
 21
251.0
 31
0.0
  0
LINE
  5
ABF
  8
0
 10
74.997100000000003
 20
252.79099999999991
 30
0.0
 11
74.75
 21
251.0
 31
0.0
  0
LINE
  5
AC0
  8
0
 10
78.311800000000005
 20
245.02899999999991
 30
0.0
 11
76.870599999999996
 21
246.1209999999999
 31
0.0
  0
LINE
  5
AC1
  8
0
 10
78.374850159858852
 20
244.88395410033419
 30
0.0
 11
76.765206073960599
 21
246.061673016057
 31
0.0
  0
LINE
  5
AC2
  8
0
 10
76.870599999999996
 20
246.1209999999999
 30
0.0
 11
75.779399999999995
 21
247.56200000000001
 31
0.0
  0
LINE
  5
AC3
  8
0
 10
76.765206073960599
 20
246.061673016057
 30
0.0
 11
75.730435851217408
 21
247.4691906223743
 31
0.0
  0
LINE
  5
AC4
  8
0
 10
87.720600000000005
 20
247.56200000000001
 30
0.0
 11
86.629400000000004
 21
246.1209999999999
 31
0.0
  0
LINE
  5
AC5
  8
0
 10
87.802899999999994
 20
247.5209999999999
 30
0.0
 11
86.691199999999995
 21
246.059
 31
0.0
  0
LINE
  5
AC6
  8
0
 10
85.188199999999995
 20
245.02899999999991
 30
0.0
 11
83.520599999999988
 21
244.34999999999999
 31
0.0
  0
LINE
  5
AC7
  8
0
 10
86.629400000000004
 20
246.1209999999999
 30
0.0
 11
85.188199999999995
 21
245.02899999999991
 31
0.0
  0
LINE
  5
AC8
  8
0
 10
86.691199999999995
 20
246.059
 30
0.0
 11
85.229399999999998
 21
244.947
 31
0.0
  0
LINE
  5
AC9
  8
0
 10
88.647099999999995
 20
251.0
 30
0.0
 11
88.400000000000006
 21
249.22900000000001
 31
0.0
  0
LINE
  5
ACA
  8
0
 10
88.75
 20
251.0
 30
0.0
 11
88.502899999999997
 21
249.209
 31
0.0
  0
LINE
  5
ACB
  8
0
 10
88.400000000000006
 20
249.22900000000001
 30
0.0
 11
87.720600000000005
 21
247.56200000000001
 31
0.0
  0
LINE
  5
ACC
  8
0
 10
88.502899999999997
 20
249.209
 30
0.0
 11
87.802899999999994
 21
247.5209999999999
 31
0.0
  0
LINE
  5
ACD
  8
0
 10
88.647099999999995
 20
251.0
 30
0.0
 11
88.400000000000006
 21
252.7709999999999
 31
0.0
  0
LINE
  5
ACE
  8
0
 10
88.75
 20
251.0
 30
0.0
 11
88.502899999999997
 21
252.79099999999991
 31
0.0
  0
LINE
  5
ACF
  8
0
 10
83.520599999999988
 20
244.34999999999999
 30
0.0
 11
81.75
 21
244.10300000000001
 31
0.0
  0
LINE
  5
AD0
  8
0
 10
83.541199999999989
 20
244.24700000000001
 30
0.0
 11
81.75
 21
244.0
 31
0.0
  0
LINE
  5
AD1
  8
0
 10
81.75
 20
244.10300000000001
 30
0.0
 11
79.979399999999984
 21
244.34999999999999
 31
0.0
  0
LINE
  5
AD2
  8
0
 10
81.75
 20
244.0
 30
0.0
 11
80.013235634687817
 21
244.2520072835818
 31
0.0
  0
LINE
  5
AD3
  8
0
 10
85.229399999999998
 20
244.947
 30
0.0
 11
83.541199999999989
 21
244.24700000000001
 31
0.0
  0
LINE
  5
AD4
  8
0
 10
18.25
 20
258.0
 30
0.0
 11
20.041199999999989
 21
257.75299999999999
 31
0.0
  0
LINE
  5
AD5
  8
0
 10
18.25
 20
257.89699999999988
 30
0.0
 11
20.020600000000002
 21
257.64999999999992
 31
0.0
  0
LINE
  5
AD6
  8
0
 10
13.3088
 20
255.94099999999989
 30
0.0
 11
14.770599999999989
 21
257.053
 31
0.0
  0
LINE
  5
AD7
  8
0
 10
13.3706
 20
255.87899999999999
 30
0.0
 11
14.8118
 21
256.971
 31
0.0
  0
LINE
  5
AD8
  8
0
 10
12.197100000000001
 20
254.47900000000001
 30
0.0
 11
13.3088
 21
255.94099999999989
 31
0.0
  0
LINE
  5
AD9
  8
0
 10
12.279400000000001
 20
254.43799999999999
 30
0.0
 11
13.3706
 21
255.87899999999999
 31
0.0
  0
LINE
  5
ADA
  8
0
 10
14.770599999999989
 20
257.053
 30
0.0
 11
16.4588
 21
257.75299999999999
 31
0.0
  0
LINE
  5
ADB
  8
0
 10
14.8118
 20
256.971
 30
0.0
 11
16.479399999999998
 21
257.64999999999992
 31
0.0
  0
LINE
  5
ADC
  8
0
 10
16.4588
 20
257.75299999999999
 30
0.0
 11
18.25
 21
258.0
 31
0.0
  0
LINE
  5
ADD
  8
0
 10
16.479399999999998
 20
257.64999999999992
 30
0.0
 11
18.25
 21
257.89699999999988
 31
0.0
  0
LINE
  5
ADE
  8
0
 10
21.729399999999998
 20
257.053
 30
0.0
 11
23.191199999999991
 21
255.94099999999989
 31
0.0
  0
LINE
  5
ADF
  8
0
 10
21.688199999999991
 20
256.971
 30
0.0
 11
23.1294
 21
255.87899999999999
 31
0.0
  0
LINE
  5
AE0
  8
0
 10
20.041199999999989
 20
257.75299999999999
 30
0.0
 11
21.729399999999998
 21
257.053
 31
0.0
  0
LINE
  5
AE1
  8
0
 10
20.020600000000002
 20
257.64999999999992
 30
0.0
 11
21.688199999999991
 21
256.971
 31
0.0
  0
LINE
  5
AE2
  8
0
 10
23.191199999999991
 20
255.94099999999989
 30
0.0
 11
24.302900000000001
 21
254.47900000000001
 31
0.0
  0
LINE
  5
AE3
  8
0
 10
23.1294
 20
255.87899999999999
 30
0.0
 11
24.220600000000001
 21
254.43799999999999
 31
0.0
  0
LINE
  5
AE4
  8
0
 10
25.0029
 20
252.79099999999991
 30
0.0
 11
25.25
 21
251.0
 31
0.0
  0
LINE
  5
AE5
  8
0
 10
24.899999999999999
 20
252.7709999999999
 30
0.0
 11
25.147099999999998
 21
251.0
 31
0.0
  0
LINE
  5
AE6
  8
0
 10
24.302900000000001
 20
254.47900000000001
 30
0.0
 11
25.0029
 21
252.79099999999991
 31
0.0
  0
LINE
  5
AE7
  8
0
 10
24.220600000000001
 20
254.43799999999999
 30
0.0
 11
24.899999999999999
 21
252.7709999999999
 31
0.0
  0
LINE
  5
AE8
  8
0
 10
11.25
 20
251.0
 30
0.0
 11
11.4971
 21
249.209
 31
0.0
  0
LINE
  5
AE9
  8
0
 10
11.3529
 20
251.0
 30
0.0
 11
11.599999999999991
 21
249.22900000000001
 31
0.0
  0
LINE
  5
AEA
  8
0
 10
11.4971
 20
249.209
 30
0.0
 11
12.197100000000001
 21
247.5209999999999
 31
0.0
  0
LINE
  5
AEB
  8
0
 10
11.599999999999991
 20
249.22900000000001
 30
0.0
 11
12.279400000000001
 21
247.56200000000001
 31
0.0
  0
LINE
  5
AEC
  8
0
 10
11.4971
 20
252.79099999999991
 30
0.0
 11
12.197100000000001
 21
254.47900000000001
 31
0.0
  0
LINE
  5
AED
  8
0
 10
11.599999999999991
 20
252.7709999999999
 30
0.0
 11
12.279400000000001
 21
254.43799999999999
 31
0.0
  0
LINE
  5
AEE
  8
0
 10
11.25
 20
251.0
 30
0.0
 11
11.4971
 21
252.79099999999991
 31
0.0
  0
LINE
  5
AEF
  8
0
 10
11.3529
 20
251.0
 30
0.0
 11
11.599999999999991
 21
252.7709999999999
 31
0.0
  0
LINE
  5
AF0
  8
0
 10
25.016898293365781
 20
249.22140709981929
 30
0.0
 11
25.25
 21
251.0
 31
0.0
  0
LINE
  5
AF1
  8
0
 10
24.899999999999999
 20
249.22900000000001
 30
0.0
 11
25.147099999999998
 21
251.0
 31
0.0
  0
LINE
  5
AF2
  8
0
 10
24.269564148782589
 20
247.4691906223743
 30
0.0
 11
25.016898293365781
 21
249.22140709981929
 31
0.0
  0
LINE
  5
AF3
  8
0
 10
24.220600000000001
 20
247.56200000000001
 30
0.0
 11
24.899999999999999
 21
249.22900000000001
 31
0.0
  0
LINE
  5
AF4
  8
0
 10
13.3088
 20
246.059
 30
0.0
 11
14.770599999999989
 21
244.947
 31
0.0
  0
LINE
  5
AF5
  8
0
 10
13.3706
 20
246.1209999999999
 30
0.0
 11
14.8118
 21
245.02899999999991
 31
0.0
  0
LINE
  5
AF6
  8
0
 10
12.197100000000001
 20
247.5209999999999
 30
0.0
 11
13.3088
 21
246.059
 31
0.0
  0
LINE
  5
AF7
  8
0
 10
12.279400000000001
 20
247.56200000000001
 30
0.0
 11
13.3706
 21
246.1209999999999
 31
0.0
  0
LINE
  5
AF8
  8
0
 10
14.770599999999989
 20
244.947
 30
0.0
 11
16.4588
 21
244.24700000000001
 31
0.0
  0
LINE
  5
AF9
  8
0
 10
14.8118
 20
245.02899999999991
 30
0.0
 11
16.479399999999998
 21
244.34999999999999
 31
0.0
  0
LINE
  5
AFA
  8
0
 10
18.25
 20
244.0
 30
0.0
 11
19.98676436531218
 21
244.2520072835818
 31
0.0
  0
LINE
  5
AFB
  8
0
 10
18.25
 20
244.10300000000001
 30
0.0
 11
20.020600000000002
 21
244.34999999999999
 31
0.0
  0
LINE
  5
AFC
  8
0
 10
16.4588
 20
244.24700000000001
 30
0.0
 11
18.25
 21
244.0
 31
0.0
  0
LINE
  5
AFD
  8
0
 10
16.479399999999998
 20
244.34999999999999
 30
0.0
 11
18.25
 21
244.10300000000001
 31
0.0
  0
LINE
  5
AFE
  8
0
 10
21.625149840141141
 20
244.88395410033419
 30
0.0
 11
23.234793926039401
 21
246.061673016057
 31
0.0
  0
LINE
  5
AFF
  8
0
 10
21.688199999999991
 20
245.02899999999991
 30
0.0
 11
23.1294
 21
246.1209999999999
 31
0.0
  0
LINE
  5
B00
  8
0
 10
19.98676436531218
 20
244.2520072835818
 30
0.0
 11
21.625149840141141
 21
244.88395410033419
 31
0.0
  0
LINE
  5
B01
  8
0
 10
20.020600000000002
 20
244.34999999999999
 30
0.0
 11
21.688199999999991
 21
245.02899999999991
 31
0.0
  0
LINE
  5
B02
  8
0
 10
23.234793926039401
 20
246.061673016057
 30
0.0
 11
24.269564148782589
 21
247.4691906223743
 31
0.0
  0
LINE
  5
B03
  8
0
 10
23.1294
 20
246.1209999999999
 30
0.0
 11
24.220600000000001
 21
247.56200000000001
 31
0.0
  0
LINE
  5
B04
  8
0
 10
44.898000000000003
 20
240.38800000000001
 30
0.0
 11
49.25
 21
241.0
 31
0.0
  0
LINE
  5
B05
  8
0
 10
45.519699999999993
 20
238.047
 30
0.0
 11
49.25
 21
238.57099999999991
 31
0.0
  0
LINE
  5
B06
  8
0
 10
45.153999999999989
 20
239.42400000000001
 30
0.0
 11
49.25
 21
240.0
 31
0.0
  0
LINE
  5
B07
  8
0
 10
48.729700000000001
 20
233.93000000000001
 30
0.0
 11
49.25
 21
234.0
 31
0.0
  0
LINE
  5
B08
  8
0
 10
47.457999999999998
 20
230.74799999999991
 30
0.0
 11
49.25
 21
231.0
 31
0.0
  0
LINE
  5
B09
  8
0
 10
46.111600000000003
 20
235.53800000000001
 30
0.0
 11
49.25
 21
236.0
 31
0.0
  0
LINE
  5
B0A
  8
0
 10
46.388399999999997
 20
234.70799999999991
 30
0.0
 11
49.25
 21
235.077
 31
0.0
  0
LINE
  5
B0B
  8
0
 10
46.665399999999998
 20
233.59999999999999
 30
0.0
 11
49.25
 21
234.154
 31
0.0
  0
LINE
  5
B0C
  8
0
 10
46.561999999999998
 20
234.12200000000001
 30
0.0
 11
49.25
 21
234.5
 31
0.0
  0
LINE
  5
B0D
  8
0
 10
45.665999999999997
 20
237.4959999999999
 30
0.0
 11
49.25
 21
238.0
 31
0.0
  0
LINE
  5
B0E
  8
0
 10
40.817999999999998
 20
238.75599999999989
 30
0.0
 11
44.898000000000003
 21
240.38800000000001
 31
0.0
  0
LINE
  5
B0F
  8
0
 10
41.0214
 20
229.60300000000001
 30
0.0
 11
42.523699999999991
 21
230.45400000000001
 31
0.0
  0
LINE
  5
B10
  8
0
 10
38.933399999999999
 20
234.31700000000001
 30
0.0
 11
42.02259999999999
 21
236.64799999999991
 31
0.0
  0
LINE
  5
B11
  8
0
 10
37.92199999999999
 20
235.32799999999989
 30
0.0
 11
41.313999999999993
 21
237.88799999999989
 31
0.0
  0
LINE
  5
B12
  8
0
 10
40.7577
 20
232.49199999999999
 30
0.0
 11
43.25
 21
234.33799999999991
 31
0.0
  0
LINE
  5
B13
  8
0
 10
40.75996480915299
 20
229.45479850241
 30
0.0
 11
42.049999999999997
 21
231.1999999999999
 31
0.0
  0
LINE
  5
B14
  8
0
 10
39.649999999999991
 20
229.53800000000001
 30
0.0
 11
41.4039
 21
231.84599999999989
 31
0.0
  0
LINE
  5
B15
  8
0
 10
40.135999999999989
 20
229.20799999999991
 30
0.0
 11
41.816000000000003
 21
231.434
 31
0.0
  0
LINE
  5
B16
  8
0
 10
39.338000000000001
 20
233.91200000000001
 30
0.0
 11
42.305999999999997
 21
236.15199999999999
 31
0.0
  0
LINE
  5
B17
  8
0
 10
37.213999999999999
 20
236.036
 30
0.0
 11
40.817999999999998
 21
238.75599999999989
 31
0.0
  0
LINE
  5
B18
  8
0
 10
36.60199999999999
 20
231.227
 30
0.0
 11
38.933399999999999
 21
234.31700000000001
 31
0.0
  0
LINE
  5
B19
  8
0
 10
37.097999999999992
 20
230.94399999999999
 30
0.0
 11
39.338000000000001
 21
233.91200000000001
 31
0.0
  0
LINE
  5
B1A
  8
0
 10
35.361999999999988
 20
231.93599999999989
 30
0.0
 11
37.92199999999999
 21
235.32799999999989
 31
0.0
  0
LINE
  5
B1B
  8
0
 10
34.494
 20
232.43199999999999
 30
0.0
 11
37.213999999999999
 21
236.036
 31
0.0
  0
LINE
  5
B1C
  8
0
 10
35.203099999999999
 20
227.72999999999999
 30
0.0
 11
36.60199999999999
 21
231.227
 31
0.0
  0
LINE
  5
B1D
  8
0
 10
33.826000000000001
 20
228.09599999999989
 30
0.0
 11
35.361999999999988
 21
231.93599999999989
 31
0.0
  0
LINE
  5
B1E
  8
0
 10
35.753999999999998
 20
227.584
 30
0.0
 11
37.097999999999992
 21
230.94399999999999
 31
0.0
  0
LINE
  5
B1F
  8
0
 10
38.9116
 20
230.0
 30
0.0
 11
40.7577
 21
232.49199999999999
 31
0.0
  0
LINE
  5
B20
  8
0
 10
42.02259999999999
 20
236.64799999999991
 30
0.0
 11
45.519699999999993
 21
238.047
 31
0.0
  0
LINE
  5
B21
  8
0
 10
42.305999999999997
 20
236.15199999999999
 30
0.0
 11
45.665999999999997
 21
237.4959999999999
 31
0.0
  0
LINE
  5
B22
  8
0
 10
44.668700000000001
 20
231.67099999999999
 30
0.0
 11
46.802100000000003
 21
232.88
 31
0.0
  0
LINE
  5
B23
  8
0
 10
43.25
 20
234.33799999999991
 30
0.0
 11
46.111600000000003
 21
235.53800000000001
 31
0.0
  0
LINE
  5
B24
  8
0
 10
44.173099999999991
 20
232.76900000000001
 30
0.0
 11
46.665399999999998
 21
233.59999999999999
 31
0.0
  0
LINE
  5
B25
  8
0
 10
43.71159999999999
 20
233.59999999999999
 30
0.0
 11
46.388399999999997
 21
234.70799999999991
 31
0.0
  0
LINE
  5
B26
  8
0
 10
44.042000000000002
 20
233.114
 30
0.0
 11
46.561999999999998
 21
234.12200000000001
 31
0.0
  0
LINE
  5
B27
  8
0
 10
44.293999999999997
 20
228.9559999999999
 30
0.0
 11
45.777999999999992
 21
230.07599999999991
 31
0.0
  0
LINE
  5
B28
  8
0
 10
42.523699999999991
 20
230.45400000000001
 30
0.0
 11
44.668700000000001
 21
231.67099999999999
 31
0.0
  0
LINE
  5
B29
  8
0
 10
42.049999999999997
 20
231.1999999999999
 30
0.0
 11
44.173099999999991
 21
232.76900000000001
 31
0.0
  0
LINE
  5
B2A
  8
0
 10
41.4039
 20
231.84599999999989
 30
0.0
 11
43.71159999999999
 21
233.59999999999999
 31
0.0
  0
LINE
  5
B2B
  8
0
 10
41.816000000000003
 20
231.434
 30
0.0
 11
44.042000000000002
 21
233.114
 31
0.0
  0
LINE
  5
B2C
  8
0
 10
46.802100000000003
 20
232.88
 30
0.0
 11
48.137700000000002
 21
233.61699999999999
 31
0.0
  0
LINE
  5
B2D
  8
0
 10
45.777999999999992
 20
230.07599999999991
 30
0.0
 11
47.457999999999998
 21
230.74799999999991
 31
0.0
  0
LINE
  5
B2E
  8
0
 10
48.137700000000002
 20
233.61699999999999
 30
0.0
 11
48.729700000000001
 21
233.93000000000001
 31
0.0
  0
LINE
  5
B2F
  8
0
 10
41.313999999999993
 20
237.88799999999989
 30
0.0
 11
45.153999999999989
 21
239.42400000000001
 31
0.0
  0
LINE
  5
B30
  8
0
 10
64.006
 20
232.43199999999999
 30
0.0
 11
65.638000000000005
 21
228.352
 31
0.0
  0
LINE
  5
B31
  8
0
 10
63.137999999999998
 20
231.93599999999989
 30
0.0
 11
64.673999999999992
 21
228.09599999999989
 31
0.0
  0
LINE
  5
B32
  8
0
 10
53.60199999999999
 20
240.38800000000001
 30
0.0
 11
57.682000000000002
 21
238.75599999999989
 31
0.0
  0
LINE
  5
B33
  8
0
 10
53.345999999999997
 20
239.42400000000001
 30
0.0
 11
57.186000000000007
 21
237.88799999999989
 31
0.0
  0
LINE
  5
B34
  8
0
 10
56.477400000000003
 20
236.64799999999991
 30
0.0
 11
59.566600000000001
 21
234.31700000000001
 31
0.0
  0
LINE
  5
B35
  8
0
 10
56.193999999999988
 20
236.15199999999999
 30
0.0
 11
59.161999999999992
 21
233.91200000000001
 31
0.0
  0
LINE
  5
B36
  8
0
 10
56.450000000000003
 20
231.1999999999999
 30
0.0
 11
57.739893702233708
 21
229.45487870899689
 31
0.0
  0
LINE
  5
B37
  8
0
 10
56.450000000000003
 20
231.1999999999999
 30
0.0
 11
57.739893702233708
 21
229.45487870899689
 31
0.0
  0
LINE
  5
B38
  8
0
 10
55.976300000000002
 20
230.45400000000001
 30
0.0
 11
57.4786
 21
229.60300000000001
 31
0.0
  0
LINE
  5
B39
  8
0
 10
55.25
 20
234.33799999999991
 30
0.0
 11
57.7423
 21
232.49199999999999
 31
0.0
  0
LINE
  5
B3A
  8
0
 10
54.788499999999999
 20
233.59999999999999
 30
0.0
 11
57.09620000000001
 21
231.84599999999989
 31
0.0
  0
LINE
  5
B3B
  8
0
 10
54.457999999999998
 20
233.114
 30
0.0
 11
56.683999999999997
 21
231.434
 31
0.0
  0
LINE
  5
B3C
  8
0
 10
52.9803
 20
238.047
 30
0.0
 11
56.477400000000003
 21
236.64799999999991
 31
0.0
  0
LINE
  5
B3D
  8
0
 10
52.834000000000003
 20
237.4959999999999
 30
0.0
 11
56.193999999999988
 21
236.15199999999999
 31
0.0
  0
LINE
  5
B3E
  8
0
 10
52.38839999999999
 20
235.53800000000001
 30
0.0
 11
55.25
 21
234.33799999999991
 31
0.0
  0
LINE
  5
B3F
  8
0
 10
52.111600000000003
 20
234.70799999999991
 30
0.0
 11
54.788499999999999
 21
233.59999999999999
 31
0.0
  0
LINE
  5
B40
  8
0
 10
51.938000000000002
 20
234.12200000000001
 30
0.0
 11
54.457999999999998
 21
233.114
 31
0.0
  0
LINE
  5
B41
  8
0
 10
51.834600000000002
 20
233.59999999999999
 30
0.0
 11
54.326900000000002
 21
232.76900000000001
 31
0.0
  0
LINE
  5
B42
  8
0
 10
51.69789999999999
 20
232.88
 30
0.0
 11
53.831299999999999
 21
231.67099999999999
 31
0.0
  0
LINE
  5
B43
  8
0
 10
51.042000000000002
 20
230.74799999999991
 30
0.0
 11
52.722000000000001
 21
230.07599999999991
 31
0.0
  0
LINE
  5
B44
  8
0
 10
49.25
 20
236.0
 30
0.0
 11
52.38839999999999
 21
235.53800000000001
 31
0.0
  0
LINE
  5
B45
  8
0
 10
49.25
 20
234.154
 30
0.0
 11
51.834600000000002
 21
233.59999999999999
 31
0.0
  0
LINE
  5
B46
  8
0
 10
49.25
 20
235.077
 30
0.0
 11
52.111600000000003
 21
234.70799999999991
 31
0.0
  0
LINE
  5
B47
  8
0
 10
49.25
 20
234.5
 30
0.0
 11
51.938000000000002
 21
234.12200000000001
 31
0.0
  0
LINE
  5
B48
  8
0
 10
50.362299999999991
 20
233.61699999999999
 30
0.0
 11
51.69789999999999
 21
232.88
 31
0.0
  0
LINE
  5
B49
  8
0
 10
49.25
 20
231.0
 30
0.0
 11
51.042000000000002
 21
230.74799999999991
 31
0.0
  0
LINE
  5
B4A
  8
0
 10
49.770299999999999
 20
233.93000000000001
 30
0.0
 11
50.362299999999991
 21
233.61699999999999
 31
0.0
  0
LINE
  5
B4B
  8
0
 10
49.25
 20
234.0
 30
0.0
 11
49.770299999999999
 21
233.93000000000001
 31
0.0
  0
LINE
  5
B4C
  8
0
 10
53.831299999999999
 20
231.67099999999999
 30
0.0
 11
55.976300000000002
 21
230.45400000000001
 31
0.0
  0
LINE
  5
B4D
  8
0
 10
54.326900000000002
 20
232.76900000000001
 30
0.0
 11
56.450000000000003
 21
231.1999999999999
 31
0.0
  0
LINE
  5
B4E
  8
0
 10
52.722000000000001
 20
230.07599999999991
 30
0.0
 11
54.206000000000003
 21
228.9559999999999
 31
0.0
  0
LINE
  5
B4F
  8
0
 10
49.25
 20
241.0
 30
0.0
 11
53.60199999999999
 21
240.38800000000001
 31
0.0
  0
LINE
  5
B50
  8
0
 10
49.25
 20
238.57099999999991
 30
0.0
 11
52.9803
 21
238.047
 31
0.0
  0
LINE
  5
B51
  8
0
 10
49.25
 20
240.0
 30
0.0
 11
53.345999999999997
 21
239.42400000000001
 31
0.0
  0
LINE
  5
B52
  8
0
 10
49.25
 20
238.0
 30
0.0
 11
52.834000000000003
 21
237.4959999999999
 31
0.0
  0
LINE
  5
B53
  8
0
 10
57.682000000000002
 20
238.75599999999989
 30
0.0
 11
61.286000000000001
 21
236.036
 31
0.0
  0
LINE
  5
B54
  8
0
 10
57.186000000000007
 20
237.88799999999989
 30
0.0
 11
60.578000000000003
 21
235.32799999999989
 31
0.0
  0
LINE
  5
B55
  8
0
 10
59.566600000000001
 20
234.31700000000001
 30
0.0
 11
61.898000000000003
 21
231.227
 31
0.0
  0
LINE
  5
B56
  8
0
 10
59.161999999999992
 20
233.91200000000001
 30
0.0
 11
61.402000000000001
 21
230.94399999999999
 31
0.0
  0
LINE
  5
B57
  8
0
 10
57.7423
 20
232.49199999999999
 30
0.0
 11
59.588500000000003
 21
230.0
 31
0.0
  0
LINE
  5
B58
  8
0
 10
57.09620000000001
 20
231.84599999999989
 30
0.0
 11
58.850000000000001
 21
229.53800000000001
 31
0.0
  0
LINE
  5
B59
  8
0
 10
56.683999999999997
 20
231.434
 30
0.0
 11
58.363999999999997
 21
229.20799999999991
 31
0.0
  0
LINE
  5
B5A
  8
0
 10
61.898000000000003
 20
231.227
 30
0.0
 11
63.296900000000001
 21
227.72999999999999
 31
0.0
  0
LINE
  5
B5B
  8
0
 10
61.402000000000001
 20
230.94399999999999
 30
0.0
 11
62.746000000000002
 21
227.584
 31
0.0
  0
LINE
  5
B5C
  8
0
 10
61.286000000000001
 20
236.036
 30
0.0
 11
64.006
 21
232.43199999999999
 31
0.0
  0
LINE
  5
B5D
  8
0
 10
60.578000000000003
 20
235.32799999999989
 30
0.0
 11
63.137999999999998
 21
231.93599999999989
 31
0.0
  0
LINE
  5
B5E
  8
0
 10
45.519699999999993
 20
209.95299999999989
 30
0.0
 11
49.25
 21
209.429
 31
0.0
  0
LINE
  5
B5F
  8
0
 10
45.665999999999997
 20
210.50399999999999
 30
0.0
 11
49.25
 21
210.0
 31
0.0
  0
LINE
  5
B60
  8
0
 10
48.226000000000013
 20
220.14400000000001
 30
0.0
 11
49.25
 21
220.0
 31
0.0
  0
LINE
  5
B61
  8
0
 10
48.226000000000013
 20
227.85599999999999
 30
0.0
 11
49.25
 21
228.0
 31
0.0
  0
LINE
  5
B62
  8
0
 10
47.713999999999992
 20
229.78399999999991
 30
0.0
 11
49.25
 21
230.0
 31
0.0
  0
LINE
  5
B63
  8
0
 10
47.713999999999992
 20
218.21600000000001
 30
0.0
 11
49.25
 21
218.0
 31
0.0
  0
LINE
  5
B64
  8
0
 10
48.729700000000001
 20
214.06999999999991
 30
0.0
 11
49.25
 21
214.0
 31
0.0
  0
LINE
  5
B65
  8
0
 10
47.457999999999998
 20
217.25200000000001
 30
0.0
 11
49.25
 21
217.0
 31
0.0
  0
LINE
  5
B66
  8
0
 10
46.111600000000003
 20
212.4619999999999
 30
0.0
 11
49.25
 21
212.0
 31
0.0
  0
LINE
  5
B67
  8
0
 10
46.388399999999997
 20
213.292
 30
0.0
 11
49.25
 21
212.923
 31
0.0
  0
LINE
  5
B68
  8
0
 10
46.665399999999998
 20
214.39999999999989
 30
0.0
 11
49.25
 21
213.846
 31
0.0
  0
LINE
  5
B69
  8
0
 10
46.561999999999998
 20
213.87799999999999
 30
0.0
 11
49.25
 21
213.5
 31
0.0
  0
LINE
  5
B6A
  8
0
 10
41.313999999999993
 20
210.11199999999999
 30
0.0
 11
45.153999999999989
 21
208.57599999999991
 31
0.0
  0
LINE
  5
B6B
  8
0
 10
37.213999999999999
 20
211.96399999999991
 30
0.0
 11
40.817999999999998
 21
209.244
 31
0.0
  0
LINE
  5
B6C
  8
0
 10
40.817999999999998
 20
209.244
 30
0.0
 11
44.898000000000003
 21
207.61199999999999
 31
0.0
  0
LINE
  5
B6D
  8
0
 10
32.861999999999988
 20
228.352
 30
0.0
 11
34.494
 21
232.43199999999999
 31
0.0
  0
LINE
  5
B6E
  8
0
 10
32.861999999999988
 20
219.64799999999991
 30
0.0
 11
34.494
 21
215.5679999999999
 31
0.0
  0
LINE
  5
B6F
  8
0
 10
33.25
 20
224.0
 30
0.0
 11
33.826000000000001
 21
219.904
 31
0.0
  0
LINE
  5
B70
  8
0
 10
33.25
 20
224.0
 30
0.0
 11
33.826000000000001
 21
228.09599999999989
 31
0.0
  0
LINE
  5
B71
  8
0
 10
32.25
 20
224.0
 30
0.0
 11
32.861999999999988
 21
219.64799999999991
 31
0.0
  0
LINE
  5
B72
  8
0
 10
32.25
 20
224.0
 30
0.0
 11
32.861999999999988
 21
228.352
 31
0.0
  0
LINE
  5
B73
  8
0
 10
41.0214
 20
218.39699999999991
 30
0.0
 11
42.523699999999991
 21
217.54499999999999
 31
0.0
  0
LINE
  5
B74
  8
0
 10
38.933399999999999
 20
213.68299999999991
 30
0.0
 11
42.02259999999999
 21
211.352
 31
0.0
  0
LINE
  5
B75
  8
0
 10
39.338000000000001
 20
214.08799999999991
 30
0.0
 11
42.305999999999997
 21
211.84800000000001
 31
0.0
  0
LINE
  5
B76
  8
0
 10
40.7577
 20
215.5079999999999
 30
0.0
 11
43.25
 21
213.66200000000001
 31
0.0
  0
LINE
  5
B77
  8
0
 10
40.759964809152891
 20
218.54520149758989
 30
0.0
 11
42.049999999999997
 21
216.80000000000001
 31
0.0
  0
LINE
  5
B78
  8
0
 10
39.649999999999991
 20
218.4619999999999
 30
0.0
 11
41.4039
 21
216.154
 31
0.0
  0
LINE
  5
B79
  8
0
 10
40.135999999999989
 20
218.792
 30
0.0
 11
41.816000000000003
 21
216.56599999999989
 31
0.0
  0
LINE
  5
B7A
  8
0
 10
37.92199999999999
 20
212.672
 30
0.0
 11
41.313999999999993
 21
210.11199999999999
 31
0.0
  0
LINE
  5
B7B
  8
0
 10
37.25
 20
224.0
 30
0.0
 11
37.711599999999997
 21
220.86199999999999
 31
0.0
  0
LINE
  5
B7C
  8
0
 10
37.25
 20
224.0
 30
0.0
 11
37.711599999999997
 21
227.13799999999989
 31
0.0
  0
LINE
  5
B7D
  8
0
 10
37.097999999999992
 20
217.05600000000001
 30
0.0
 11
39.338000000000001
 21
214.08799999999991
 31
0.0
  0
LINE
  5
B7E
  8
0
 10
36.60199999999999
 20
216.77299999999991
 30
0.0
 11
38.933399999999999
 21
213.68299999999991
 31
0.0
  0
LINE
  5
B7F
  8
0
 10
35.361999999999988
 20
216.06399999999999
 30
0.0
 11
37.92199999999999
 21
212.672
 31
0.0
  0
LINE
  5
B80
  8
0
 10
34.678600000000003
 20
224.0
 30
0.0
 11
35.203099999999999
 21
220.2699999999999
 31
0.0
  0
LINE
  5
B81
  8
0
 10
35.25
 20
224.0
 30
0.0
 11
35.753999999999998
 21
220.41599999999991
 31
0.0
  0
LINE
  5
B82
  8
0
 10
35.203099999999999
 20
220.2699999999999
 30
0.0
 11
36.60199999999999
 21
216.77299999999991
 31
0.0
  0
LINE
  5
B83
  8
0
 10
34.494
 20
215.5679999999999
 30
0.0
 11
37.213999999999999
 21
211.96399999999991
 31
0.0
  0
LINE
  5
B84
  8
0
 10
33.826000000000001
 20
219.904
 30
0.0
 11
35.361999999999988
 21
216.06399999999999
 31
0.0
  0
LINE
  5
B85
  8
0
 10
35.753999999999998
 20
220.41599999999991
 30
0.0
 11
37.097999999999992
 21
217.05600000000001
 31
0.0
  0
LINE
  5
B86
  8
0
 10
35.25
 20
224.0
 30
0.0
 11
35.753999999999998
 21
227.584
 31
0.0
  0
LINE
  5
B87
  8
0
 10
34.678600000000003
 20
224.0
 30
0.0
 11
35.203099999999999
 21
227.72999999999999
 31
0.0
  0
LINE
  5
B88
  8
0
 10
40.25
 20
224.0
 30
0.0
 11
40.25
 21
221.709
 31
0.0
  0
LINE
  5
B89
  8
0
 10
40.25
 20
221.709
 30
0.0
 11
40.25
 21
224.0
 31
0.0
  0
LINE
  5
B8A
  8
0
 10
38.173099999999991
 20
224.0
 30
0.0
 11
38.54229999999999
 21
221.13799999999989
 31
0.0
  0
LINE
  5
B8B
  8
0
 10
39.0961
 20
224.0
 30
0.0
 11
39.649999999999991
 21
221.41499999999999
 31
0.0
  0
LINE
  5
B8C
  8
0
 10
38.75
 20
224.0
 30
0.0
 11
39.128
 21
221.3119999999999
 31
0.0
  0
LINE
  5
B8D
  8
0
 10
38.9116
 20
218.0
 30
0.0
 11
40.7577
 21
215.5079999999999
 31
0.0
  0
LINE
  5
B8E
  8
0
 10
38.54229999999999
 20
221.13799999999989
 30
0.0
 11
39.649999999999991
 21
218.4619999999999
 31
0.0
  0
LINE
  5
B8F
  8
0
 10
39.128
 20
221.3119999999999
 30
0.0
 11
40.135999999999989
 21
218.792
 31
0.0
  0
LINE
  5
B90
  8
0
 10
37.711599999999997
 20
220.86199999999999
 30
0.0
 11
38.9116
 21
218.0
 31
0.0
  0
LINE
  5
B91
  8
0
 10
40.25
 20
218.98699999999999
 30
0.0
 11
40.4816
 21
218.70299999999989
 31
0.0
  0
LINE
  5
B92
  8
0
 10
40.25
 20
221.709
 30
0.0
 11
40.25
 21
219.5869999999999
 31
0.0
  0
LINE
  5
B93
  8
0
 10
40.25
 20
219.5869999999999
 30
0.0
 11
40.25
 21
218.98699999999999
 31
0.0
  0
LINE
  5
B94
  8
0
 10
40.25
 20
219.5869999999999
 30
0.0
 11
40.25
 21
221.709
 31
0.0
  0
LINE
  5
B95
  8
0
 10
40.25
 20
218.98699999999999
 30
0.0
 11
40.25
 21
219.5869999999999
 31
0.0
  0
LINE
  5
B96
  8
0
 10
39.649999999999991
 20
221.41499999999999
 30
0.0
 11
40.25
 21
219.61507222824099
 31
0.0
  0
LINE
  5
B97
  8
0
 10
40.4816
 20
218.70299999999989
 30
0.0
 11
41.0214
 21
218.39699999999991
 31
0.0
  0
LINE
  5
B98
  8
0
 10
38.54229999999999
 20
226.86199999999999
 30
0.0
 11
39.649999999999991
 21
229.53800000000001
 31
0.0
  0
LINE
  5
B99
  8
0
 10
39.0961
 20
224.0
 30
0.0
 11
39.649999999999991
 21
226.58499999999989
 31
0.0
  0
LINE
  5
B9A
  8
0
 10
39.128
 20
226.68799999999999
 30
0.0
 11
40.135999999999989
 21
229.20799999999991
 31
0.0
  0
LINE
  5
B9B
  8
0
 10
37.711599999999997
 20
227.13799999999989
 30
0.0
 11
38.9116
 21
230.0
 31
0.0
  0
LINE
  5
B9C
  8
0
 10
38.173099999999991
 20
224.0
 30
0.0
 11
38.54229999999999
 21
226.86199999999999
 31
0.0
  0
LINE
  5
B9D
  8
0
 10
38.75
 20
224.0
 30
0.0
 11
39.128
 21
226.68799999999999
 31
0.0
  0
LINE
  5
B9E
  8
0
 10
40.25
 20
229.01299999999989
 30
0.0
 11
40.4816
 21
229.297
 31
0.0
  0
LINE
  5
B9F
  8
0
 10
40.25
 20
224.0
 30
0.0
 11
40.25
 21
226.291
 31
0.0
  0
LINE
  5
BA0
  8
0
 10
40.25
 20
226.291
 30
0.0
 11
40.25
 21
228.41300000000001
 31
0.0
  0
LINE
  5
BA1
  8
0
 10
40.25
 20
226.291
 30
0.0
 11
40.25
 21
224.0
 31
0.0
  0
LINE
  5
BA2
  8
0
 10
40.25
 20
228.41300000000001
 30
0.0
 11
40.25
 21
229.01299999999989
 31
0.0
  0
LINE
  5
BA3
  8
0
 10
40.25
 20
228.41300000000001
 30
0.0
 11
40.25
 21
226.291
 31
0.0
  0
LINE
  5
BA4
  8
0
 10
40.25
 20
229.01299999999989
 30
0.0
 11
40.25
 21
228.41300000000001
 31
0.0
  0
LINE
  5
BA5
  8
0
 10
39.649999999999991
 20
226.58499999999989
 30
0.0
 11
40.25
 21
228.38492777175901
 31
0.0
  0
LINE
  5
BA6
  8
0
 10
40.4816
 20
229.297
 30
0.0
 11
41.0214
 21
229.60300000000001
 31
0.0
  0
LINE
  5
BA7
  8
0
 10
42.305999999999997
 20
211.84800000000001
 30
0.0
 11
45.665999999999997
 21
210.50399999999999
 31
0.0
  0
LINE
  5
BA8
  8
0
 10
44.668700000000001
 20
216.32899999999989
 30
0.0
 11
46.802100000000003
 21
215.119
 31
0.0
  0
LINE
  5
BA9
  8
0
 10
45.001999999999988
 20
228.24799999999999
 30
0.0
 11
46.273999999999987
 21
229.20799999999991
 31
0.0
  0
LINE
  5
BAA
  8
0
 10
45.001999999999988
 20
219.75200000000001
 30
0.0
 11
46.273999999999987
 21
218.792
 31
0.0
  0
LINE
  5
BAB
  8
0
 10
44.293999999999997
 20
219.04400000000001
 30
0.0
 11
45.777999999999992
 21
217.92400000000001
 31
0.0
  0
LINE
  5
BAC
  8
0
 10
44.173099999999991
 20
215.23099999999991
 30
0.0
 11
46.665399999999998
 21
214.39999999999989
 31
0.0
  0
LINE
  5
BAD
  8
0
 10
44.042000000000002
 20
214.88599999999991
 30
0.0
 11
46.561999999999998
 21
213.87799999999999
 31
0.0
  0
LINE
  5
BAE
  8
0
 10
43.25
 20
213.66200000000001
 30
0.0
 11
46.111600000000003
 21
212.4619999999999
 31
0.0
  0
LINE
  5
BAF
  8
0
 10
43.71159999999999
 20
214.39999999999989
 30
0.0
 11
46.388399999999997
 21
213.292
 31
0.0
  0
LINE
  5
BB0
  8
0
 10
42.02259999999999
 20
211.352
 30
0.0
 11
45.519699999999993
 21
209.95299999999989
 31
0.0
  0
LINE
  5
BB1
  8
0
 10
43.25
 20
224.0
 30
0.0
 11
43.466000000000001
 21
222.46399999999991
 31
0.0
  0
LINE
  5
BB2
  8
0
 10
42.25
 20
224.0
 30
0.0
 11
42.501999999999988
 21
222.20799999999991
 31
0.0
  0
LINE
  5
BB3
  8
0
 10
42.523699999999991
 20
217.54499999999999
 30
0.0
 11
44.668700000000001
 21
216.32899999999989
 31
0.0
  0
LINE
  5
BB4
  8
0
 10
42.501999999999988
 20
222.20799999999991
 30
0.0
 11
43.173999999999999
 21
220.52799999999999
 31
0.0
  0
LINE
  5
BB5
  8
0
 10
42.049999999999997
 20
216.80000000000001
 30
0.0
 11
44.173099999999991
 21
215.23099999999991
 31
0.0
  0
LINE
  5
BB6
  8
0
 10
41.4039
 20
216.154
 30
0.0
 11
43.71159999999999
 21
214.39999999999989
 31
0.0
  0
LINE
  5
BB7
  8
0
 10
41.816000000000003
 20
216.56599999999989
 30
0.0
 11
44.042000000000002
 21
214.88599999999991
 31
0.0
  0
LINE
  5
BB8
  8
0
 10
44.042000000000002
 20
221.024
 30
0.0
 11
45.001999999999988
 21
219.75200000000001
 31
0.0
  0
LINE
  5
BB9
  8
0
 10
43.173999999999999
 20
220.52799999999999
 30
0.0
 11
44.293999999999997
 21
219.04400000000001
 31
0.0
  0
LINE
  5
BBA
  8
0
 10
43.466000000000001
 20
222.46399999999991
 30
0.0
 11
44.042000000000002
 21
221.024
 31
0.0
  0
LINE
  5
BBB
  8
0
 10
42.501999999999988
 20
225.792
 30
0.0
 11
43.173999999999999
 21
227.47199999999989
 31
0.0
  0
LINE
  5
BBC
  8
0
 10
42.25
 20
224.0
 30
0.0
 11
42.501999999999988
 21
225.792
 31
0.0
  0
LINE
  5
BBD
  8
0
 10
44.042000000000002
 20
226.976
 30
0.0
 11
45.001999999999988
 21
228.24799999999999
 31
0.0
  0
LINE
  5
BBE
  8
0
 10
43.173999999999999
 20
227.47199999999989
 30
0.0
 11
44.293999999999997
 21
228.9559999999999
 31
0.0
  0
LINE
  5
BBF
  8
0
 10
43.25
 20
224.0
 30
0.0
 11
43.466000000000001
 21
225.536
 31
0.0
  0
LINE
  5
BC0
  8
0
 10
43.466000000000001
 20
225.536
 30
0.0
 11
44.042000000000002
 21
226.976
 31
0.0
  0
LINE
  5
BC1
  8
0
 10
45.25
 20
224.0
 30
0.0
 11
45.393999999999991
 21
222.976
 31
0.0
  0
LINE
  5
BC2
  8
0
 10
46.802100000000003
 20
215.119
 30
0.0
 11
48.137700000000002
 21
214.3829999999999
 31
0.0
  0
LINE
  5
BC3
  8
0
 10
46.417999999999992
 20
221.16800000000001
 30
0.0
 11
47.265999999999998
 21
220.52799999999999
 31
0.0
  0
LINE
  5
BC4
  8
0
 10
46.273999999999987
 20
218.792
 30
0.0
 11
47.713999999999992
 21
218.21600000000001
 31
0.0
  0
LINE
  5
BC5
  8
0
 10
45.777999999999992
 20
217.92400000000001
 30
0.0
 11
47.457999999999998
 21
217.25200000000001
 31
0.0
  0
LINE
  5
BC6
  8
0
 10
45.777999999999992
 20
222.01599999999991
 30
0.0
 11
46.417999999999992
 21
221.16800000000001
 31
0.0
  0
LINE
  5
BC7
  8
0
 10
45.393999999999991
 20
222.976
 30
0.0
 11
45.777999999999992
 21
222.01599999999991
 31
0.0
  0
LINE
  5
BC8
  8
0
 10
48.137700000000002
 20
214.3829999999999
 30
0.0
 11
48.729700000000001
 21
214.06999999999991
 31
0.0
  0
LINE
  5
BC9
  8
0
 10
47.265999999999998
 20
220.52799999999999
 30
0.0
 11
48.226000000000013
 21
220.14400000000001
 31
0.0
  0
LINE
  5
BCA
  8
0
 10
46.417999999999992
 20
226.83199999999999
 30
0.0
 11
47.265999999999998
 21
227.47199999999989
 31
0.0
  0
LINE
  5
BCB
  8
0
 10
46.273999999999987
 20
229.20799999999991
 30
0.0
 11
47.713999999999992
 21
229.78399999999991
 31
0.0
  0
LINE
  5
BCC
  8
0
 10
45.777999999999992
 20
225.98400000000001
 30
0.0
 11
46.417999999999992
 21
226.83199999999999
 31
0.0
  0
LINE
  5
BCD
  8
0
 10
45.25
 20
224.0
 30
0.0
 11
45.393999999999991
 21
225.024
 31
0.0
  0
LINE
  5
BCE
  8
0
 10
45.393999999999991
 20
225.024
 30
0.0
 11
45.777999999999992
 21
225.98400000000001
 31
0.0
  0
LINE
  5
BCF
  8
0
 10
47.265999999999998
 20
227.47199999999989
 30
0.0
 11
48.226000000000013
 21
227.85599999999999
 31
0.0
  0
LINE
  5
BD0
  8
0
 10
57.682000000000002
 20
209.244
 30
0.0
 11
61.286000000000001
 21
211.96399999999991
 31
0.0
  0
LINE
  5
BD1
  8
0
 10
53.345999999999997
 20
208.57599999999991
 30
0.0
 11
57.186000000000007
 21
210.11199999999999
 31
0.0
  0
LINE
  5
BD2
  8
0
 10
53.60199999999999
 20
207.61199999999999
 30
0.0
 11
57.682000000000002
 21
209.244
 31
0.0
  0
LINE
  5
BD3
  8
0
 10
64.006
 20
215.5679999999999
 30
0.0
 11
65.638000000000005
 21
219.64799999999991
 31
0.0
  0
LINE
  5
BD4
  8
0
 10
63.137999999999998
 20
216.06399999999999
 30
0.0
 11
64.673999999999992
 21
219.904
 31
0.0
  0
LINE
  5
BD5
  8
0
 10
56.477400000000003
 20
211.352
 30
0.0
 11
59.566600000000001
 21
213.68299999999991
 31
0.0
  0
LINE
  5
BD6
  8
0
 10
55.976300000000002
 20
217.54499999999999
 30
0.0
 11
57.4786
 21
218.39699999999991
 31
0.0
  0
LINE
  5
BD7
  8
0
 10
56.450000000000003
 20
216.80000000000001
 30
0.0
 11
57.7398937022338
 21
218.545121291003
 31
0.0
  0
LINE
  5
BD8
  8
0
 10
54.788499999999999
 20
214.39999999999989
 30
0.0
 11
57.09620000000001
 21
216.154
 31
0.0
  0
LINE
  5
BD9
  8
0
 10
54.457999999999998
 20
214.88599999999991
 30
0.0
 11
56.683999999999997
 21
216.56599999999989
 31
0.0
  0
LINE
  5
BDA
  8
0
 10
56.193999999999988
 20
211.84800000000001
 30
0.0
 11
59.161999999999992
 21
214.08799999999991
 31
0.0
  0
LINE
  5
BDB
  8
0
 10
55.25
 20
213.66200000000001
 30
0.0
 11
57.7423
 21
215.5079999999999
 31
0.0
  0
LINE
  5
BDC
  8
0
 10
49.25
 20
209.429
 30
0.0
 11
52.9803
 21
209.95299999999989
 31
0.0
  0
LINE
  5
BDD
  8
0
 10
52.082000000000001
 20
221.16800000000001
 30
0.0
 11
52.722000000000001
 21
222.01599999999991
 31
0.0
  0
LINE
  5
BDE
  8
0
 10
52.082000000000001
 20
226.83199999999999
 30
0.0
 11
52.722000000000001
 21
225.98400000000001
 31
0.0
  0
LINE
  5
BDF
  8
0
 10
52.225999999999999
 20
229.20799999999991
 30
0.0
 11
53.497999999999998
 21
228.24799999999999
 31
0.0
  0
LINE
  5
BE0
  8
0
 10
52.225999999999999
 20
218.792
 30
0.0
 11
53.497999999999998
 21
219.75200000000001
 31
0.0
  0
LINE
  5
BE1
  8
0
 10
51.042000000000002
 20
217.25200000000001
 30
0.0
 11
52.722000000000001
 21
217.92400000000001
 31
0.0
  0
LINE
  5
BE2
  8
0
 10
51.69789999999999
 20
215.119
 30
0.0
 11
53.831299999999999
 21
216.32899999999989
 31
0.0
  0
LINE
  5
BE3
  8
0
 10
51.834600000000002
 20
214.39999999999989
 30
0.0
 11
54.326900000000002
 21
215.23099999999991
 31
0.0
  0
LINE
  5
BE4
  8
0
 10
52.38839999999999
 20
212.4619999999999
 30
0.0
 11
55.25
 21
213.66200000000001
 31
0.0
  0
LINE
  5
BE5
  8
0
 10
52.111600000000003
 20
213.292
 30
0.0
 11
54.788499999999999
 21
214.39999999999989
 31
0.0
  0
LINE
  5
BE6
  8
0
 10
51.938000000000002
 20
213.87799999999999
 30
0.0
 11
54.457999999999998
 21
214.88599999999991
 31
0.0
  0
LINE
  5
BE7
  8
0
 10
49.25
 20
210.0
 30
0.0
 11
52.834000000000003
 21
210.50399999999999
 31
0.0
  0
LINE
  5
BE8
  8
0
 10
50.274000000000001
 20
220.14400000000001
 30
0.0
 11
51.234000000000002
 21
220.52799999999999
 31
0.0
  0
LINE
  5
BE9
  8
0
 10
49.25
 20
218.0
 30
0.0
 11
50.786000000000001
 21
218.21600000000001
 31
0.0
  0
LINE
  5
BEA
  8
0
 10
49.25
 20
217.0
 30
0.0
 11
51.042000000000002
 21
217.25200000000001
 31
0.0
  0
LINE
  5
BEB
  8
0
 10
50.362299999999991
 20
214.3829999999999
 30
0.0
 11
51.69789999999999
 21
215.119
 31
0.0
  0
LINE
  5
BEC
  8
0
 10
49.25
 20
212.923
 30
0.0
 11
52.111600000000003
 21
213.292
 31
0.0
  0
LINE
  5
BED
  8
0
 10
49.25
 20
212.0
 30
0.0
 11
52.38839999999999
 21
212.4619999999999
 31
0.0
  0
LINE
  5
BEE
  8
0
 10
49.25
 20
213.846
 30
0.0
 11
51.834600000000002
 21
214.39999999999989
 31
0.0
  0
LINE
  5
BEF
  8
0
 10
49.25
 20
213.5
 30
0.0
 11
51.938000000000002
 21
213.87799999999999
 31
0.0
  0
LINE
  5
BF0
  8
0
 10
49.25
 20
214.0
 30
0.0
 11
50.362299999999991
 21
214.3829999999999
 31
0.0
  0
LINE
  5
BF1
  8
0
 10
49.25
 20
220.0
 30
0.0
 11
50.274000000000001
 21
220.14400000000001
 31
0.0
  0
LINE
  5
BF2
  8
0
 10
51.234000000000002
 20
220.52799999999999
 30
0.0
 11
52.082000000000001
 21
221.16800000000001
 31
0.0
  0
LINE
  5
BF3
  8
0
 10
50.786000000000001
 20
218.21600000000001
 30
0.0
 11
52.225999999999999
 21
218.792
 31
0.0
  0
LINE
  5
BF4
  8
0
 10
50.274000000000001
 20
227.85599999999999
 30
0.0
 11
51.234000000000002
 21
227.47199999999989
 31
0.0
  0
LINE
  5
BF5
  8
0
 10
49.25
 20
230.0
 30
0.0
 11
50.786000000000001
 21
229.78399999999991
 31
0.0
  0
LINE
  5
BF6
  8
0
 10
49.25
 20
228.0
 30
0.0
 11
50.274000000000001
 21
227.85599999999999
 31
0.0
  0
LINE
  5
BF7
  8
0
 10
51.234000000000002
 20
227.47199999999989
 30
0.0
 11
52.082000000000001
 21
226.83199999999999
 31
0.0
  0
LINE
  5
BF8
  8
0
 10
50.786000000000001
 20
229.78399999999991
 30
0.0
 11
52.225999999999999
 21
229.20799999999991
 31
0.0
  0
LINE
  5
BF9
  8
0
 10
55.997999999999998
 20
222.20799999999991
 30
0.0
 11
56.25
 21
224.0
 31
0.0
  0
LINE
  5
BFA
  8
0
 10
55.033999999999999
 20
222.46399999999991
 30
0.0
 11
55.25
 21
224.0
 31
0.0
  0
LINE
  5
BFB
  8
0
 10
53.106000000000002
 20
222.976
 30
0.0
 11
53.25
 21
224.0
 31
0.0
  0
LINE
  5
BFC
  8
0
 10
52.9803
 20
209.95299999999989
 30
0.0
 11
56.477400000000003
 21
211.352
 31
0.0
  0
LINE
  5
BFD
  8
0
 10
53.831299999999999
 20
216.32899999999989
 30
0.0
 11
55.976300000000002
 21
217.54499999999999
 31
0.0
  0
LINE
  5
BFE
  8
0
 10
54.457999999999998
 20
221.024
 30
0.0
 11
55.033999999999999
 21
222.46399999999991
 31
0.0
  0
LINE
  5
BFF
  8
0
 10
54.206000000000003
 20
219.04400000000001
 30
0.0
 11
55.326000000000001
 21
220.52799999999999
 31
0.0
  0
LINE
  5
C00
  8
0
 10
54.326900000000002
 20
215.23099999999991
 30
0.0
 11
56.450000000000003
 21
216.80000000000001
 31
0.0
  0
LINE
  5
C01
  8
0
 10
52.834000000000003
 20
210.50399999999999
 30
0.0
 11
56.193999999999988
 21
211.84800000000001
 31
0.0
  0
LINE
  5
C02
  8
0
 10
53.497999999999998
 20
219.75200000000001
 30
0.0
 11
54.457999999999998
 21
221.024
 31
0.0
  0
LINE
  5
C03
  8
0
 10
52.722000000000001
 20
217.92400000000001
 30
0.0
 11
54.206000000000003
 21
219.04400000000001
 31
0.0
  0
LINE
  5
C04
  8
0
 10
52.722000000000001
 20
222.01599999999991
 30
0.0
 11
53.106000000000002
 21
222.976
 31
0.0
  0
LINE
  5
C05
  8
0
 10
55.326000000000001
 20
220.52799999999999
 30
0.0
 11
55.997999999999998
 21
222.20799999999991
 31
0.0
  0
LINE
  5
C06
  8
0
 10
54.206000000000003
 20
228.9559999999999
 30
0.0
 11
55.326000000000001
 21
227.47199999999989
 31
0.0
  0
LINE
  5
C07
  8
0
 10
54.457999999999998
 20
226.976
 30
0.0
 11
55.033999999999999
 21
225.536
 31
0.0
  0
LINE
  5
C08
  8
0
 10
53.497999999999998
 20
228.24799999999999
 30
0.0
 11
54.457999999999998
 21
226.976
 31
0.0
  0
LINE
  5
C09
  8
0
 10
53.106000000000002
 20
225.024
 30
0.0
 11
53.25
 21
224.0
 31
0.0
  0
LINE
  5
C0A
  8
0
 10
52.722000000000001
 20
225.98400000000001
 30
0.0
 11
53.106000000000002
 21
225.024
 31
0.0
  0
LINE
  5
C0B
  8
0
 10
55.326000000000001
 20
227.47199999999989
 30
0.0
 11
55.997999999999998
 21
225.792
 31
0.0
  0
LINE
  5
C0C
  8
0
 10
55.033999999999999
 20
225.536
 30
0.0
 11
55.25
 21
224.0
 31
0.0
  0
LINE
  5
C0D
  8
0
 10
55.997999999999998
 20
225.792
 30
0.0
 11
56.25
 21
224.0
 31
0.0
  0
LINE
  5
C0E
  8
0
 10
59.566600000000001
 20
213.68299999999991
 30
0.0
 11
61.898000000000003
 21
216.77299999999991
 31
0.0
  0
LINE
  5
C0F
  8
0
 10
59.697600000000001
 20
229.74000000000001
 30
0.0
 11
60.788499999999999
 21
227.13799999999989
 31
0.0
  0
LINE
  5
C10
  8
0
 10
59.697600000000001
 20
229.74000000000001
 30
0.0
 11
60.788499999999701
 21
227.13800000000089
 31
0.0
  0
LINE
  5
C11
  8
0
 10
59.588500000000003
 20
230.0
 30
0.0
 11
60.788499999999999
 21
227.13799999999989
 31
0.0
  0
LINE
  5
C12
  8
0
 10
59.588500000000003
 20
218.0
 30
0.0
 11
60.788499999999999
 21
220.86199999999999
 31
0.0
  0
LINE
  5
C13
  8
0
 10
59.161999999999992
 20
214.08799999999991
 30
0.0
 11
61.402000000000001
 21
217.05600000000001
 31
0.0
  0
LINE
  5
C14
  8
0
 10
57.186000000000007
 20
210.11199999999999
 30
0.0
 11
60.578000000000003
 21
212.672
 31
0.0
  0
LINE
  5
C15
  8
0
 10
59.957700000000003
 20
221.13799999999989
 30
0.0
 11
60.326900000000002
 21
224.0
 31
0.0
  0
LINE
  5
C16
  8
0
 10
59.372
 20
221.3119999999999
 30
0.0
 11
59.75
 21
224.0
 31
0.0
  0
LINE
  5
C17
  8
0
 10
58.25
 20
224.0
 30
0.0
 11
58.25
 21
221.709
 31
0.0
  0
LINE
  5
C18
  8
0
 10
58.850000000000001
 20
221.41499999999999
 30
0.0
 11
59.403799999999997
 21
224.0
 31
0.0
  0
LINE
  5
C19
  8
0
 10
58.25
 20
221.709
 30
0.0
 11
58.25
 21
224.0
 31
0.0
  0
LINE
  5
C1A
  8
0
 10
58.25
 20
219.61528887819
 30
0.0
 11
58.850000000000001
 21
221.41499999999999
 31
0.0
  0
LINE
  5
C1B
  8
0
 10
58.363999999999997
 20
218.792
 30
0.0
 11
59.372
 21
221.3119999999999
 31
0.0
  0
LINE
  5
C1C
  8
0
 10
57.7423
 20
215.5079999999999
 30
0.0
 11
59.588500000000003
 21
218.0
 31
0.0
  0
LINE
  5
C1D
  8
0
 10
57.09620000000001
 20
216.154
 30
0.0
 11
58.850000000000001
 21
218.4619999999999
 31
0.0
  0
LINE
  5
C1E
  8
0
 10
56.683999999999997
 20
216.56599999999989
 30
0.0
 11
58.363999999999997
 21
218.792
 31
0.0
  0
LINE
  5
C1F
  8
0
 10
58.25
 20
219.5869999999999
 30
0.0
 11
58.25
 21
221.709
 31
0.0
  0
LINE
  5
C20
  8
0
 10
58.25
 20
221.709
 30
0.0
 11
58.25
 21
219.5869999999999
 31
0.0
  0
LINE
  5
C21
  8
0
 10
58.060600000000001
 20
219.13599999999991
 30
0.0
 11
58.25
 21
219.5869999999999
 31
0.0
  0
LINE
  5
C22
  8
0
 10
57.4786
 20
218.39699999999991
 30
0.0
 11
58.060600000000001
 21
219.13599999999991
 31
0.0
  0
LINE
  5
C23
  8
0
 10
58.850000000000001
 20
218.4619999999999
 30
0.0
 11
59.957700000000003
 21
221.13799999999989
 31
0.0
  0
LINE
  5
C24
  8
0
 10
58.363999999999997
 20
229.20799999999991
 30
0.0
 11
59.372
 21
226.68799999999999
 31
0.0
  0
LINE
  5
C25
  8
0
 10
58.25
 20
228.38471112180989
 30
0.0
 11
58.850000000000001
 21
226.58499999999989
 31
0.0
  0
LINE
  5
C26
  8
0
 10
57.4786
 20
229.60300000000001
 30
0.0
 11
58.0184
 21
229.297
 31
0.0
  0
LINE
  5
C27
  8
0
 10
58.25
 20
224.0
 30
0.0
 11
58.25
 21
226.291
 31
0.0
  0
LINE
  5
C28
  8
0
 10
58.25
 20
226.291
 30
0.0
 11
58.25
 21
228.41300000000001
 31
0.0
  0
LINE
  5
C29
  8
0
 10
58.25
 20
226.291
 30
0.0
 11
58.25
 21
224.0
 31
0.0
  0
LINE
  5
C2A
  8
0
 10
58.25
 20
228.41300000000001
 30
0.0
 11
58.25
 21
229.01299999999989
 31
0.0
  0
LINE
  5
C2B
  8
0
 10
58.25
 20
228.41300000000001
 30
0.0
 11
58.25
 21
226.291
 31
0.0
  0
LINE
  5
C2C
  8
0
 10
58.25
 20
229.01299999999989
 30
0.0
 11
58.25
 21
228.41300000000001
 31
0.0
  0
LINE
  5
C2D
  8
0
 10
58.0184
 20
229.297
 30
0.0
 11
58.25
 21
229.01299999999989
 31
0.0
  0
LINE
  5
C2E
  8
0
 10
59.372
 20
226.68799999999999
 30
0.0
 11
59.75
 21
224.0
 31
0.0
  0
LINE
  5
C2F
  8
0
 10
58.850000000000001
 20
226.58499999999989
 30
0.0
 11
59.403799999999997
 21
224.0
 31
0.0
  0
LINE
  5
C30
  8
0
 10
58.850000000000001
 20
229.53800000000001
 30
0.0
 11
59.957700000000003
 21
226.86199999999999
 31
0.0
  0
LINE
  5
C31
  8
0
 10
59.957700000000003
 20
226.86199999999999
 30
0.0
 11
60.326900000000002
 21
224.0
 31
0.0
  0
LINE
  5
C32
  8
0
 10
63.296900000000001
 20
220.2699999999999
 30
0.0
 11
63.82139999999999
 21
224.0
 31
0.0
  0
LINE
  5
C33
  8
0
 10
62.746000000000002
 20
220.41599999999991
 30
0.0
 11
63.25
 21
224.0
 31
0.0
  0
LINE
  5
C34
  8
0
 10
60.788499999999999
 20
220.86199999999999
 30
0.0
 11
61.25
 21
224.0
 31
0.0
  0
LINE
  5
C35
  8
0
 10
61.286000000000001
 20
211.96399999999991
 30
0.0
 11
64.006
 21
215.5679999999999
 31
0.0
  0
LINE
  5
C36
  8
0
 10
61.898000000000003
 20
216.77299999999991
 30
0.0
 11
63.296900000000001
 21
220.2699999999999
 31
0.0
  0
LINE
  5
C37
  8
0
 10
61.402000000000001
 20
217.05600000000001
 30
0.0
 11
62.746000000000002
 21
220.41599999999991
 31
0.0
  0
LINE
  5
C38
  8
0
 10
60.578000000000003
 20
212.672
 30
0.0
 11
63.137999999999998
 21
216.06399999999999
 31
0.0
  0
LINE
  5
C39
  8
0
 10
60.788499999999999
 20
227.13799999999989
 30
0.0
 11
61.25
 21
224.0
 31
0.0
  0
LINE
  5
C3A
  8
0
 10
62.746000000000002
 20
227.584
 30
0.0
 11
63.25
 21
224.0
 31
0.0
  0
LINE
  5
C3B
  8
0
 10
63.296900000000001
 20
227.72999999999999
 30
0.0
 11
63.82139999999999
 21
224.0
 31
0.0
  0
LINE
  5
C3C
  8
0
 10
65.638000000000005
 20
219.64799999999991
 30
0.0
 11
66.25
 21
224.0
 31
0.0
  0
LINE
  5
C3D
  8
0
 10
64.673999999999992
 20
219.904
 30
0.0
 11
65.25
 21
224.0
 31
0.0
  0
LINE
  5
C3E
  8
0
 10
65.638000000000005
 20
228.352
 30
0.0
 11
66.25
 21
224.0
 31
0.0
  0
LINE
  5
C3F
  8
0
 10
64.673999999999992
 20
228.09599999999989
 30
0.0
 11
65.25
 21
224.0
 31
0.0
  0
LINE
  5
C40
  8
0
 10
49.25
 20
208.0
 30
0.0
 11
53.345999999999997
 21
208.57599999999991
 31
0.0
  0
LINE
  5
C41
  8
0
 10
49.25
 20
207.0
 30
0.0
 11
53.60199999999999
 21
207.61199999999999
 31
0.0
  0
LINE
  5
C42
  8
0
 10
44.898000000000003
 20
207.61199999999999
 30
0.0
 11
49.25
 21
207.0
 31
0.0
  0
LINE
  5
C43
  8
0
 10
45.153999999999989
 20
208.57599999999991
 30
0.0
 11
49.25
 21
208.0
 31
0.0
  0
LINE
  5
C44
  8
0
 10
79.958799999999997
 20
177.75299999999999
 30
0.0
 11
78.270600000000002
 21
177.053
 31
0.0
  0
LINE
  5
C45
  8
0
 10
79.979399999999984
 20
177.64999999999989
 30
0.0
 11
78.311800000000005
 21
176.971
 31
0.0
  0
LINE
  5
C46
  8
0
 10
75.697100000000006
 20
174.47900000000001
 30
0.0
 11
74.997100000000003
 21
172.791
 31
0.0
  0
LINE
  5
C47
  8
0
 10
75.779399999999995
 20
174.43799999999999
 30
0.0
 11
75.099999999999994
 21
172.7709999999999
 31
0.0
  0
LINE
  5
C48
  8
0
 10
78.270600000000002
 20
177.053
 30
0.0
 11
76.808800000000005
 21
175.94099999999989
 31
0.0
  0
LINE
  5
C49
  8
0
 10
78.311800000000005
 20
176.971
 30
0.0
 11
76.870599999999996
 21
175.87899999999999
 31
0.0
  0
LINE
  5
C4A
  8
0
 10
76.808800000000005
 20
175.94099999999989
 30
0.0
 11
75.697100000000006
 21
174.47900000000001
 31
0.0
  0
LINE
  5
C4B
  8
0
 10
76.870599999999996
 20
175.87899999999999
 30
0.0
 11
75.779399999999995
 21
174.43799999999999
 31
0.0
  0
LINE
  5
C4C
  8
0
 10
87.802899999999994
 20
174.47900000000001
 30
0.0
 11
86.691199999999995
 21
175.94099999999989
 31
0.0
  0
LINE
  5
C4D
  8
0
 10
87.720600000000005
 20
174.43799999999999
 30
0.0
 11
86.629400000000004
 21
175.87899999999999
 31
0.0
  0
LINE
  5
C4E
  8
0
 10
83.541199999999989
 20
177.75299999999999
 30
0.0
 11
81.75
 21
178.0
 31
0.0
  0
LINE
  5
C4F
  8
0
 10
83.520599999999988
 20
177.64999999999989
 30
0.0
 11
81.75
 21
177.89699999999991
 31
0.0
  0
LINE
  5
C50
  8
0
 10
81.75
 20
178.0
 30
0.0
 11
79.958799999999997
 21
177.75299999999999
 31
0.0
  0
LINE
  5
C51
  8
0
 10
81.75
 20
177.89699999999991
 30
0.0
 11
79.979399999999984
 21
177.64999999999989
 31
0.0
  0
LINE
  5
C52
  8
0
 10
85.229399999999998
 20
177.053
 30
0.0
 11
83.541199999999989
 21
177.75299999999999
 31
0.0
  0
LINE
  5
C53
  8
0
 10
85.188199999999995
 20
176.971
 30
0.0
 11
83.520599999999988
 21
177.64999999999989
 31
0.0
  0
LINE
  5
C54
  8
0
 10
86.691199999999995
 20
175.94099999999989
 30
0.0
 11
85.229399999999998
 21
177.053
 31
0.0
  0
LINE
  5
C55
  8
0
 10
86.629400000000004
 20
175.87899999999999
 30
0.0
 11
85.188199999999995
 21
176.971
 31
0.0
  0
LINE
  5
C56
  8
0
 10
74.997100000000003
 20
172.791
 30
0.0
 11
74.75
 21
171.0
 31
0.0
  0
LINE
  5
C57
  8
0
 10
75.099999999999994
 20
172.7709999999999
 30
0.0
 11
74.852900000000005
 21
171.0
 31
0.0
  0
LINE
  5
C58
  8
0
 10
74.983101706634216
 20
169.22140709981929
 30
0.0
 11
74.75
 21
171.0
 31
0.0
  0
LINE
  5
C59
  8
0
 10
75.099999999999994
 20
169.22900000000001
 30
0.0
 11
74.852900000000005
 21
171.0
 31
0.0
  0
LINE
  5
C5A
  8
0
 10
80.013235634687817
 20
164.2520072835818
 30
0.0
 11
78.374850159858852
 21
164.88395410033419
 31
0.0
  0
LINE
  5
C5B
  8
0
 10
79.979399999999984
 20
164.34999999999999
 30
0.0
 11
78.311800000000005
 21
165.029
 31
0.0
  0
LINE
  5
C5C
  8
0
 10
75.730435851217408
 20
167.4691906223743
 30
0.0
 11
74.983101706634216
 21
169.22140709981929
 31
0.0
  0
LINE
  5
C5D
  8
0
 10
75.779399999999995
 20
167.56200000000001
 30
0.0
 11
75.099999999999994
 21
169.22900000000001
 31
0.0
  0
LINE
  5
C5E
  8
0
 10
76.870599999999996
 20
166.1209999999999
 30
0.0
 11
75.779399999999995
 21
167.56200000000001
 31
0.0
  0
LINE
  5
C5F
  8
0
 10
78.374850159858852
 20
164.88395410033419
 30
0.0
 11
76.765206073960599
 21
166.061673016057
 31
0.0
  0
LINE
  5
C60
  8
0
 10
78.311800000000005
 20
165.029
 30
0.0
 11
76.870599999999996
 21
166.1209999999999
 31
0.0
  0
LINE
  5
C61
  8
0
 10
76.765206073960599
 20
166.061673016057
 30
0.0
 11
75.730435851217408
 21
167.4691906223743
 31
0.0
  0
LINE
  5
C62
  8
0
 10
83.541199999999989
 20
164.24700000000001
 30
0.0
 11
81.75
 21
164.0
 31
0.0
  0
LINE
  5
C63
  8
0
 10
83.520599999999988
 20
164.34999999999999
 30
0.0
 11
81.75
 21
164.10300000000001
 31
0.0
  0
LINE
  5
C64
  8
0
 10
81.75
 20
164.0
 30
0.0
 11
80.013235634687817
 21
164.2520072835818
 31
0.0
  0
LINE
  5
C65
  8
0
 10
81.75
 20
164.10300000000001
 30
0.0
 11
79.979399999999984
 21
164.34999999999999
 31
0.0
  0
LINE
  5
C66
  8
0
 10
85.229399999999998
 20
164.94699999999989
 30
0.0
 11
83.541199999999989
 21
164.24700000000001
 31
0.0
  0
LINE
  5
C67
  8
0
 10
85.188199999999995
 20
165.029
 30
0.0
 11
83.520599999999988
 21
164.34999999999999
 31
0.0
  0
LINE
  5
C68
  8
0
 10
87.802899999999994
 20
167.5209999999999
 30
0.0
 11
86.691199999999995
 21
166.059
 31
0.0
  0
LINE
  5
C69
  8
0
 10
87.720600000000005
 20
167.56200000000001
 30
0.0
 11
86.629400000000004
 21
166.1209999999999
 31
0.0
  0
LINE
  5
C6A
  8
0
 10
86.691199999999995
 20
166.059
 30
0.0
 11
85.229399999999998
 21
164.94699999999989
 31
0.0
  0
LINE
  5
C6B
  8
0
 10
86.629400000000004
 20
166.1209999999999
 30
0.0
 11
85.188199999999995
 21
165.029
 31
0.0
  0
LINE
  5
C6C
  8
0
 10
88.502899999999997
 20
169.209
 30
0.0
 11
87.802899999999994
 21
167.5209999999999
 31
0.0
  0
LINE
  5
C6D
  8
0
 10
88.400000000000006
 20
169.22900000000001
 30
0.0
 11
87.720600000000005
 21
167.56200000000001
 31
0.0
  0
LINE
  5
C6E
  8
0
 10
88.502899999999997
 20
172.791
 30
0.0
 11
87.802899999999994
 21
174.47900000000001
 31
0.0
  0
LINE
  5
C6F
  8
0
 10
88.400000000000006
 20
172.7709999999999
 30
0.0
 11
87.720600000000005
 21
174.43799999999999
 31
0.0
  0
LINE
  5
C70
  8
0
 10
88.75
 20
171.0
 30
0.0
 11
88.502899999999997
 21
172.791
 31
0.0
  0
LINE
  5
C71
  8
0
 10
88.647099999999995
 20
171.0
 30
0.0
 11
88.400000000000006
 21
172.7709999999999
 31
0.0
  0
LINE
  5
C72
  8
0
 10
88.75
 20
171.0
 30
0.0
 11
88.502899999999997
 21
169.209
 31
0.0
  0
LINE
  5
C73
  8
0
 10
88.647099999999995
 20
171.0
 30
0.0
 11
88.400000000000006
 21
169.22900000000001
 31
0.0
  0
LINE
  5
C74
  8
0
 10
18.25
 20
164.10300000000001
 30
0.0
 11
20.020600000000002
 21
164.34999999999999
 31
0.0
  0
LINE
  5
C75
  8
0
 10
18.25
 20
164.0
 30
0.0
 11
19.98676436531218
 21
164.2520072835818
 31
0.0
  0
LINE
  5
C76
  8
0
 10
18.25
 20
177.89699999999991
 30
0.0
 11
20.020600000000002
 21
177.64999999999989
 31
0.0
  0
LINE
  5
C77
  8
0
 10
18.25
 20
178.0
 30
0.0
 11
20.041199999999989
 21
177.75299999999999
 31
0.0
  0
LINE
  5
C78
  8
0
 10
13.3706
 20
166.1209999999999
 30
0.0
 11
14.8118
 21
165.029
 31
0.0
  0
LINE
  5
C79
  8
0
 10
13.3088
 20
166.059
 30
0.0
 11
14.770599999999989
 21
164.94699999999989
 31
0.0
  0
LINE
  5
C7A
  8
0
 10
13.3706
 20
175.87899999999999
 30
0.0
 11
14.8118
 21
176.971
 31
0.0
  0
LINE
  5
C7B
  8
0
 10
13.3088
 20
175.94099999999989
 30
0.0
 11
14.770599999999989
 21
177.053
 31
0.0
  0
LINE
  5
C7C
  8
0
 10
12.279400000000001
 20
167.56200000000001
 30
0.0
 11
13.3706
 21
166.1209999999999
 31
0.0
  0
LINE
  5
C7D
  8
0
 10
11.4971
 20
169.209
 30
0.0
 11
12.197100000000001
 21
167.5209999999999
 31
0.0
  0
LINE
  5
C7E
  8
0
 10
12.197100000000001
 20
167.5209999999999
 30
0.0
 11
13.3088
 21
166.059
 31
0.0
  0
LINE
  5
C7F
  8
0
 10
12.279400000000001
 20
174.43799999999999
 30
0.0
 11
13.3706
 21
175.87899999999999
 31
0.0
  0
LINE
  5
C80
  8
0
 10
12.197100000000001
 20
174.47900000000001
 30
0.0
 11
13.3088
 21
175.94099999999989
 31
0.0
  0
LINE
  5
C81
  8
0
 10
11.599999999999991
 20
172.7709999999999
 30
0.0
 11
12.279400000000001
 21
174.43799999999999
 31
0.0
  0
LINE
  5
C82
  8
0
 10
11.4971
 20
172.791
 30
0.0
 11
12.197100000000001
 21
174.47900000000001
 31
0.0
  0
LINE
  5
C83
  8
0
 10
11.599999999999991
 20
169.22900000000001
 30
0.0
 11
12.279400000000001
 21
167.56200000000001
 31
0.0
  0
LINE
  5
C84
  8
0
 10
14.8118
 20
165.029
 30
0.0
 11
16.479399999999998
 21
164.34999999999999
 31
0.0
  0
LINE
  5
C85
  8
0
 10
14.770599999999989
 20
164.94699999999989
 30
0.0
 11
16.4588
 21
164.24700000000001
 31
0.0
  0
LINE
  5
C86
  8
0
 10
16.479399999999998
 20
164.34999999999999
 30
0.0
 11
18.25
 21
164.10300000000001
 31
0.0
  0
LINE
  5
C87
  8
0
 10
16.4588
 20
164.24700000000001
 30
0.0
 11
18.25
 21
164.0
 31
0.0
  0
LINE
  5
C88
  8
0
 10
14.8118
 20
176.971
 30
0.0
 11
16.479399999999998
 21
177.64999999999989
 31
0.0
  0
LINE
  5
C89
  8
0
 10
14.770599999999989
 20
177.053
 30
0.0
 11
16.4588
 21
177.75299999999999
 31
0.0
  0
LINE
  5
C8A
  8
0
 10
16.479399999999998
 20
177.64999999999989
 30
0.0
 11
18.25
 21
177.89699999999991
 31
0.0
  0
LINE
  5
C8B
  8
0
 10
16.4588
 20
177.75299999999999
 30
0.0
 11
18.25
 21
178.0
 31
0.0
  0
LINE
  5
C8C
  8
0
 10
21.688199999999991
 20
165.029
 30
0.0
 11
23.1294
 21
166.1209999999999
 31
0.0
  0
LINE
  5
C8D
  8
0
 10
21.625149840141141
 20
164.88395410033419
 30
0.0
 11
23.234793926039401
 21
166.061673016057
 31
0.0
  0
LINE
  5
C8E
  8
0
 10
21.688199999999991
 20
176.971
 30
0.0
 11
23.1294
 21
175.87899999999999
 31
0.0
  0
LINE
  5
C8F
  8
0
 10
21.729399999999998
 20
177.053
 30
0.0
 11
23.191199999999991
 21
175.94099999999989
 31
0.0
  0
LINE
  5
C90
  8
0
 10
20.020600000000002
 20
164.34999999999999
 30
0.0
 11
21.688199999999991
 21
165.029
 31
0.0
  0
LINE
  5
C91
  8
0
 10
19.98676436531218
 20
164.2520072835818
 30
0.0
 11
21.625149840141141
 21
164.88395410033419
 31
0.0
  0
LINE
  5
C92
  8
0
 10
20.020600000000002
 20
177.64999999999989
 30
0.0
 11
21.688199999999991
 21
176.971
 31
0.0
  0
LINE
  5
C93
  8
0
 10
20.041199999999989
 20
177.75299999999999
 30
0.0
 11
21.729399999999998
 21
177.053
 31
0.0
  0
LINE
  5
C94
  8
0
 10
23.1294
 20
166.1209999999999
 30
0.0
 11
24.220600000000001
 21
167.56200000000001
 31
0.0
  0
LINE
  5
C95
  8
0
 10
24.269564148782589
 20
167.4691906223743
 30
0.0
 11
25.016898293365781
 21
169.22140709981929
 31
0.0
  0
LINE
  5
C96
  8
0
 10
23.234793926039401
 20
166.061673016057
 30
0.0
 11
24.269564148782589
 21
167.4691906223743
 31
0.0
  0
LINE
  5
C97
  8
0
 10
23.1294
 20
175.87899999999999
 30
0.0
 11
24.220600000000001
 21
174.43799999999999
 31
0.0
  0
LINE
  5
C98
  8
0
 10
23.191199999999991
 20
175.94099999999989
 30
0.0
 11
24.302900000000001
 21
174.47900000000001
 31
0.0
  0
LINE
  5
C99
  8
0
 10
24.220600000000001
 20
167.56200000000001
 30
0.0
 11
24.899999999999999
 21
169.22900000000001
 31
0.0
  0
LINE
  5
C9A
  8
0
 10
24.220600000000001
 20
174.43799999999999
 30
0.0
 11
24.899999999999999
 21
172.7709999999999
 31
0.0
  0
LINE
  5
C9B
  8
0
 10
24.302900000000001
 20
174.47900000000001
 30
0.0
 11
25.0029
 21
172.791
 31
0.0
  0
LINE
  5
C9C
  8
0
 10
11.3529
 20
171.0
 30
0.0
 11
11.599999999999991
 21
172.7709999999999
 31
0.0
  0
LINE
  5
C9D
  8
0
 10
11.25
 20
171.0
 30
0.0
 11
11.4971
 21
172.791
 31
0.0
  0
LINE
  5
C9E
  8
0
 10
11.3529
 20
171.0
 30
0.0
 11
11.599999999999991
 21
169.22900000000001
 31
0.0
  0
LINE
  5
C9F
  8
0
 10
11.25
 20
171.0
 30
0.0
 11
11.4971
 21
169.209
 31
0.0
  0
LINE
  5
CA0
  8
0
 10
24.899999999999999
 20
169.22900000000001
 30
0.0
 11
25.147099999999998
 21
171.0
 31
0.0
  0
LINE
  5
CA1
  8
0
 10
24.899999999999999
 20
172.7709999999999
 30
0.0
 11
25.147099999999998
 21
171.0
 31
0.0
  0
LINE
  5
CA2
  8
0
 10
25.0029
 20
172.791
 30
0.0
 11
25.25
 21
171.0
 31
0.0
  0
LINE
  5
CA3
  8
0
 10
25.016898293365781
 20
169.22140709981929
 30
0.0
 11
25.25
 21
171.0
 31
0.0
  0
LINE
  5
CA4
  8
0
 10
47.713999999999992
 20
149.78399999999999
 30
0.0
 11
49.25
 21
150.0
 31
0.0
  0
LINE
  5
CA5
  8
0
 10
48.226000000000013
 20
147.85599999999991
 30
0.0
 11
49.25
 21
148.0
 31
0.0
  0
LINE
  5
CA6
  8
0
 10
45.665999999999997
 20
157.4959999999999
 30
0.0
 11
49.25
 21
158.0
 31
0.0
  0
LINE
  5
CA7
  8
0
 10
46.561999999999998
 20
154.12200000000001
 30
0.0
 11
49.25
 21
154.49999999999989
 31
0.0
  0
LINE
  5
CA8
  8
0
 10
46.665399999999998
 20
153.59999999999999
 30
0.0
 11
49.25
 21
154.15399999999991
 31
0.0
  0
LINE
  5
CA9
  8
0
 10
46.388399999999997
 20
154.70799999999991
 30
0.0
 11
49.25
 21
155.07699999999991
 31
0.0
  0
LINE
  5
CAA
  8
0
 10
46.111600000000003
 20
155.53800000000001
 30
0.0
 11
49.25
 21
156.0
 31
0.0
  0
LINE
  5
CAB
  8
0
 10
47.457999999999998
 20
150.74799999999991
 30
0.0
 11
49.25
 21
151.0
 31
0.0
  0
LINE
  5
CAC
  8
0
 10
48.729700000000001
 20
153.93000000000001
 30
0.0
 11
49.25
 21
154.0
 31
0.0
  0
LINE
  5
CAD
  8
0
 10
45.153999999999989
 20
159.42400000000001
 30
0.0
 11
49.25
 21
160.0
 31
0.0
  0
LINE
  5
CAE
  8
0
 10
45.519699999999993
 20
158.047
 30
0.0
 11
49.25
 21
158.57099999999991
 31
0.0
  0
LINE
  5
CAF
  8
0
 10
44.898000000000003
 20
160.38799999999989
 30
0.0
 11
49.25
 21
161.0
 31
0.0
  0
LINE
  5
CB0
  8
0
 10
33.25
 20
144.0
 30
0.0
 11
33.826000000000001
 21
148.096
 31
0.0
  0
LINE
  5
CB1
  8
0
 10
33.25
 20
144.0
 30
0.0
 11
33.826000000000001
 21
139.904
 31
0.0
  0
LINE
  5
CB2
  8
0
 10
32.861999999999988
 20
148.352
 30
0.0
 11
34.494
 21
152.43199999999999
 31
0.0
  0
LINE
  5
CB3
  8
0
 10
32.25
 20
144.0
 30
0.0
 11
32.861999999999988
 21
139.64799999999991
 31
0.0
  0
LINE
  5
CB4
  8
0
 10
32.25
 20
144.0
 30
0.0
 11
32.861999999999988
 21
148.352
 31
0.0
  0
LINE
  5
CB5
  8
0
 10
48.137700000000002
 20
153.61699999999999
 30
0.0
 11
48.729700000000001
 21
153.93000000000001
 31
0.0
  0
LINE
  5
CB6
  8
0
 10
44.042000000000002
 20
153.114
 30
0.0
 11
46.561999999999998
 21
154.12200000000001
 31
0.0
  0
LINE
  5
CB7
  8
0
 10
43.71159999999999
 20
153.59999999999999
 30
0.0
 11
46.388399999999997
 21
154.70799999999991
 31
0.0
  0
LINE
  5
CB8
  8
0
 10
34.494
 20
152.43199999999999
 30
0.0
 11
37.213999999999999
 21
156.036
 31
0.0
  0
LINE
  5
CB9
  8
0
 10
35.361999999999988
 20
151.93599999999989
 30
0.0
 11
37.92199999999999
 21
155.32799999999989
 31
0.0
  0
LINE
  5
CBA
  8
0
 10
37.097999999999992
 20
150.94399999999999
 30
0.0
 11
39.338000000000001
 21
153.91200000000001
 31
0.0
  0
LINE
  5
CBB
  8
0
 10
36.60199999999999
 20
151.227
 30
0.0
 11
38.933399999999999
 21
154.31700000000001
 31
0.0
  0
LINE
  5
CBC
  8
0
 10
40.7577
 20
152.49199999999999
 30
0.0
 11
43.25
 21
154.33799999999991
 31
0.0
  0
LINE
  5
CBD
  8
0
 10
40.135999999999989
 20
149.20799999999991
 30
0.0
 11
41.816000000000003
 21
151.434
 31
0.0
  0
LINE
  5
CBE
  8
0
 10
39.649999999999991
 20
149.53800000000001
 30
0.0
 11
41.4039
 21
151.846
 31
0.0
  0
LINE
  5
CBF
  8
0
 10
40.75996480915299
 20
149.45479850241
 30
0.0
 11
42.049999999999997
 21
151.19999999999999
 31
0.0
  0
LINE
  5
CC0
  8
0
 10
41.0214
 20
149.60300000000001
 30
0.0
 11
42.523699999999991
 21
150.45400000000001
 31
0.0
  0
LINE
  5
CC1
  8
0
 10
37.25
 20
144.0
 30
0.0
 11
37.711599999999997
 21
147.13799999999989
 31
0.0
  0
LINE
  5
CC2
  8
0
 10
37.25
 20
144.0
 30
0.0
 11
37.711599999999997
 21
140.86199999999999
 31
0.0
  0
LINE
  5
CC3
  8
0
 10
35.25
 20
144.0
 30
0.0
 11
35.753999999999998
 21
147.58399999999989
 31
0.0
  0
LINE
  5
CC4
  8
0
 10
35.25
 20
144.0
 30
0.0
 11
35.753999999999998
 21
140.416
 31
0.0
  0
LINE
  5
CC5
  8
0
 10
35.203099999999999
 20
147.72999999999999
 30
0.0
 11
36.60199999999999
 21
151.227
 31
0.0
  0
LINE
  5
CC6
  8
0
 10
34.678600000000003
 20
144.0
 30
0.0
 11
35.203099999999999
 21
147.72999999999999
 31
0.0
  0
LINE
  5
CC7
  8
0
 10
34.678600000000003
 20
144.0
 30
0.0
 11
35.203099999999999
 21
140.2699999999999
 31
0.0
  0
LINE
  5
CC8
  8
0
 10
33.826000000000001
 20
148.096
 30
0.0
 11
35.361999999999988
 21
151.93599999999989
 31
0.0
  0
LINE
  5
CC9
  8
0
 10
35.753999999999998
 20
147.58399999999989
 30
0.0
 11
37.097999999999992
 21
150.94399999999999
 31
0.0
  0
LINE
  5
CCA
  8
0
 10
40.25
 20
139.5869999999999
 30
0.0
 11
40.25
 21
141.70899999999989
 31
0.0
  0
LINE
  5
CCB
  8
0
 10
40.25
 20
141.70899999999989
 30
0.0
 11
40.25
 21
139.5869999999999
 31
0.0
  0
LINE
  5
CCC
  8
0
 10
39.128
 20
146.6879999999999
 30
0.0
 11
40.135999999999989
 21
149.20799999999991
 31
0.0
  0
LINE
  5
CCD
  8
0
 10
39.0961
 20
144.0
 30
0.0
 11
39.649999999999991
 21
146.58499999999989
 31
0.0
  0
LINE
  5
CCE
  8
0
 10
38.54229999999999
 20
146.86199999999999
 30
0.0
 11
39.649999999999991
 21
149.53800000000001
 31
0.0
  0
LINE
  5
CCF
  8
0
 10
39.0961
 20
144.0
 30
0.0
 11
39.649999999999991
 21
141.41499999999999
 31
0.0
  0
LINE
  5
CD0
  8
0
 10
38.9116
 20
150.0
 30
0.0
 11
40.7577
 21
152.49199999999999
 31
0.0
  0
LINE
  5
CD1
  8
0
 10
38.75
 20
144.0
 30
0.0
 11
39.128
 21
146.6879999999999
 31
0.0
  0
LINE
  5
CD2
  8
0
 10
38.173099999999991
 20
144.0
 30
0.0
 11
38.54229999999999
 21
146.86199999999999
 31
0.0
  0
LINE
  5
CD3
  8
0
 10
38.173099999999991
 20
144.0
 30
0.0
 11
38.54229999999999
 21
141.13799999999989
 31
0.0
  0
LINE
  5
CD4
  8
0
 10
38.75
 20
144.0
 30
0.0
 11
39.128
 21
141.31200000000001
 31
0.0
  0
LINE
  5
CD5
  8
0
 10
37.711599999999997
 20
147.13799999999989
 30
0.0
 11
38.9116
 21
150.0
 31
0.0
  0
LINE
  5
CD6
  8
0
 10
39.649999999999991
 20
146.58499999999989
 30
0.0
 11
40.25
 21
148.38492777175901
 31
0.0
  0
LINE
  5
CD7
  8
0
 10
40.25
 20
148.41300000000001
 30
0.0
 11
40.25
 21
146.29099999999991
 31
0.0
  0
LINE
  5
CD8
  8
0
 10
40.25
 20
146.29099999999991
 30
0.0
 11
40.25
 21
148.41300000000001
 31
0.0
  0
LINE
  5
CD9
  8
0
 10
40.25
 20
146.29099999999991
 30
0.0
 11
40.25
 21
144.0
 31
0.0
  0
LINE
  5
CDA
  8
0
 10
40.25
 20
144.0
 30
0.0
 11
40.25
 21
146.29099999999991
 31
0.0
  0
LINE
  5
CDB
  8
0
 10
40.25
 20
141.70899999999989
 30
0.0
 11
40.25
 21
144.0
 31
0.0
  0
LINE
  5
CDC
  8
0
 10
40.25
 20
144.0
 30
0.0
 11
40.25
 21
141.70899999999989
 31
0.0
  0
LINE
  5
CDD
  8
0
 10
40.25
 20
149.01299999999989
 30
0.0
 11
40.4816
 21
149.297
 31
0.0
  0
LINE
  5
CDE
  8
0
 10
40.25
 20
149.01299999999989
 30
0.0
 11
40.25
 21
148.41300000000001
 31
0.0
  0
LINE
  5
CDF
  8
0
 10
40.25
 20
148.41300000000001
 30
0.0
 11
40.25
 21
149.01299999999989
 31
0.0
  0
LINE
  5
CE0
  8
0
 10
40.4816
 20
149.297
 30
0.0
 11
41.0214
 21
149.60300000000001
 31
0.0
  0
LINE
  5
CE1
  8
0
 10
45.001999999999988
 20
148.24799999999991
 30
0.0
 11
46.273999999999987
 21
149.20799999999991
 31
0.0
  0
LINE
  5
CE2
  8
0
 10
44.293999999999997
 20
148.9559999999999
 30
0.0
 11
45.777999999999992
 21
150.07599999999991
 31
0.0
  0
LINE
  5
CE3
  8
0
 10
44.173099999999991
 20
152.76899999999989
 30
0.0
 11
46.665399999999998
 21
153.59999999999999
 31
0.0
  0
LINE
  5
CE4
  8
0
 10
44.668700000000001
 20
151.67099999999991
 30
0.0
 11
46.802100000000003
 21
152.87999999999991
 31
0.0
  0
LINE
  5
CE5
  8
0
 10
42.501999999999988
 20
145.792
 30
0.0
 11
43.173999999999999
 21
147.47199999999989
 31
0.0
  0
LINE
  5
CE6
  8
0
 10
42.501999999999988
 20
142.20799999999991
 30
0.0
 11
43.173999999999999
 21
140.52799999999999
 31
0.0
  0
LINE
  5
CE7
  8
0
 10
41.816000000000003
 20
151.434
 30
0.0
 11
44.042000000000002
 21
153.114
 31
0.0
  0
LINE
  5
CE8
  8
0
 10
41.4039
 20
151.846
 30
0.0
 11
43.71159999999999
 21
153.59999999999999
 31
0.0
  0
LINE
  5
CE9
  8
0
 10
42.049999999999997
 20
151.19999999999999
 30
0.0
 11
44.173099999999991
 21
152.76899999999989
 31
0.0
  0
LINE
  5
CEA
  8
0
 10
42.523699999999991
 20
150.45400000000001
 30
0.0
 11
44.668700000000001
 21
151.67099999999991
 31
0.0
  0
LINE
  5
CEB
  8
0
 10
42.25
 20
144.0
 30
0.0
 11
42.501999999999988
 21
145.792
 31
0.0
  0
LINE
  5
CEC
  8
0
 10
42.25
 20
144.0
 30
0.0
 11
42.501999999999988
 21
142.20799999999991
 31
0.0
  0
LINE
  5
CED
  8
0
 10
43.466000000000001
 20
145.53599999999989
 30
0.0
 11
44.042000000000002
 21
146.97599999999991
 31
0.0
  0
LINE
  5
CEE
  8
0
 10
43.25
 20
144.0
 30
0.0
 11
43.466000000000001
 21
145.53599999999989
 31
0.0
  0
LINE
  5
CEF
  8
0
 10
43.466000000000001
 20
142.46399999999991
 30
0.0
 11
44.042000000000002
 21
141.02399999999989
 31
0.0
  0
LINE
  5
CF0
  8
0
 10
43.25
 20
144.0
 30
0.0
 11
43.466000000000001
 21
142.46399999999991
 31
0.0
  0
LINE
  5
CF1
  8
0
 10
43.173999999999999
 20
147.47199999999989
 30
0.0
 11
44.293999999999997
 21
148.9559999999999
 31
0.0
  0
LINE
  5
CF2
  8
0
 10
44.042000000000002
 20
146.97599999999991
 30
0.0
 11
45.001999999999988
 21
148.24799999999991
 31
0.0
  0
LINE
  5
CF3
  8
0
 10
46.273999999999987
 20
149.20799999999991
 30
0.0
 11
47.713999999999992
 21
149.78399999999999
 31
0.0
  0
LINE
  5
CF4
  8
0
 10
46.417999999999992
 20
146.83199999999999
 30
0.0
 11
47.265999999999998
 21
147.47199999999989
 31
0.0
  0
LINE
  5
CF5
  8
0
 10
45.777999999999992
 20
150.07599999999991
 30
0.0
 11
47.457999999999998
 21
150.74799999999991
 31
0.0
  0
LINE
  5
CF6
  8
0
 10
46.802100000000003
 20
152.87999999999991
 30
0.0
 11
48.137700000000002
 21
153.61699999999999
 31
0.0
  0
LINE
  5
CF7
  8
0
 10
45.777999999999992
 20
145.98400000000001
 30
0.0
 11
46.417999999999992
 21
146.83199999999999
 31
0.0
  0
LINE
  5
CF8
  8
0
 10
45.777999999999992
 20
142.01599999999991
 30
0.0
 11
46.417999999999992
 21
141.16800000000001
 31
0.0
  0
LINE
  5
CF9
  8
0
 10
45.393999999999991
 20
145.02399999999989
 30
0.0
 11
45.777999999999992
 21
145.98400000000001
 31
0.0
  0
LINE
  5
CFA
  8
0
 10
45.25
 20
144.0
 30
0.0
 11
45.393999999999991
 21
145.02399999999989
 31
0.0
  0
LINE
  5
CFB
  8
0
 10
45.393999999999991
 20
142.97599999999991
 30
0.0
 11
45.777999999999992
 21
142.01599999999991
 31
0.0
  0
LINE
  5
CFC
  8
0
 10
45.25
 20
144.0
 30
0.0
 11
45.393999999999991
 21
142.97599999999991
 31
0.0
  0
LINE
  5
CFD
  8
0
 10
47.265999999999998
 20
147.47199999999989
 30
0.0
 11
48.226000000000013
 21
147.85599999999991
 31
0.0
  0
LINE
  5
CFE
  8
0
 10
39.338000000000001
 20
153.91200000000001
 30
0.0
 11
42.305999999999997
 21
156.1519999999999
 31
0.0
  0
LINE
  5
CFF
  8
0
 10
37.92199999999999
 20
155.32799999999989
 30
0.0
 11
41.313999999999993
 21
157.88799999999989
 31
0.0
  0
LINE
  5
D00
  8
0
 10
38.933399999999999
 20
154.31700000000001
 30
0.0
 11
42.02259999999999
 21
156.64799999999991
 31
0.0
  0
LINE
  5
D01
  8
0
 10
40.817999999999998
 20
158.75599999999989
 30
0.0
 11
44.898000000000003
 21
160.38799999999989
 31
0.0
  0
LINE
  5
D02
  8
0
 10
37.213999999999999
 20
156.036
 30
0.0
 11
40.817999999999998
 21
158.75599999999989
 31
0.0
  0
LINE
  5
D03
  8
0
 10
41.313999999999993
 20
157.88799999999989
 30
0.0
 11
45.153999999999989
 21
159.42400000000001
 31
0.0
  0
LINE
  5
D04
  8
0
 10
43.25
 20
154.33799999999991
 30
0.0
 11
46.111600000000003
 21
155.53800000000001
 31
0.0
  0
LINE
  5
D05
  8
0
 10
42.305999999999997
 20
156.1519999999999
 30
0.0
 11
45.665999999999997
 21
157.4959999999999
 31
0.0
  0
LINE
  5
D06
  8
0
 10
42.02259999999999
 20
156.64799999999991
 30
0.0
 11
45.519699999999993
 21
158.047
 31
0.0
  0
LINE
  5
D07
  8
0
 10
63.137999999999998
 20
151.93599999999989
 30
0.0
 11
64.673999999999992
 21
148.096
 31
0.0
  0
LINE
  5
D08
  8
0
 10
64.006
 20
152.43199999999999
 30
0.0
 11
65.638000000000005
 21
148.352
 31
0.0
  0
LINE
  5
D09
  8
0
 10
60.578000000000003
 20
155.32799999999989
 30
0.0
 11
63.137999999999998
 21
151.93599999999989
 31
0.0
  0
LINE
  5
D0A
  8
0
 10
61.286000000000001
 20
156.036
 30
0.0
 11
64.006
 21
152.43199999999999
 31
0.0
  0
LINE
  5
D0B
  8
0
 10
59.161999999999992
 20
153.91200000000001
 30
0.0
 11
61.402000000000001
 21
150.94399999999999
 31
0.0
  0
LINE
  5
D0C
  8
0
 10
59.566600000000001
 20
154.31700000000001
 30
0.0
 11
61.898000000000003
 21
151.227
 31
0.0
  0
LINE
  5
D0D
  8
0
 10
49.770299999999999
 20
153.93000000000001
 30
0.0
 11
50.362299999999991
 21
153.61699999999999
 31
0.0
  0
LINE
  5
D0E
  8
0
 10
49.25
 20
154.15399999999991
 30
0.0
 11
51.834600000000002
 21
153.59999999999999
 31
0.0
  0
LINE
  5
D0F
  8
0
 10
51.938000000000002
 20
154.12200000000001
 30
0.0
 11
54.457999999999998
 21
153.114
 31
0.0
  0
LINE
  5
D10
  8
0
 10
52.111600000000003
 20
154.70799999999991
 30
0.0
 11
54.788499999999999
 21
153.59999999999999
 31
0.0
  0
LINE
  5
D11
  8
0
 10
55.25
 20
154.33799999999991
 30
0.0
 11
57.7423
 21
152.49199999999999
 31
0.0
  0
LINE
  5
D12
  8
0
 10
54.457999999999998
 20
153.114
 30
0.0
 11
56.683999999999997
 21
151.434
 31
0.0
  0
LINE
  5
D13
  8
0
 10
54.788499999999999
 20
153.59999999999999
 30
0.0
 11
57.09620000000001
 21
151.846
 31
0.0
  0
LINE
  5
D14
  8
0
 10
55.976300000000002
 20
150.45400000000001
 30
0.0
 11
57.4786
 21
149.60300000000001
 31
0.0
  0
LINE
  5
D15
  8
0
 10
56.450000000000003
 20
151.19999999999999
 30
0.0
 11
57.739893702233708
 21
149.454878708997
 31
0.0
  0
LINE
  5
D16
  8
0
 10
56.450000000000003
 20
151.19999999999999
 30
0.0
 11
57.739893702233708
 21
149.454878708997
 31
0.0
  0
LINE
  5
D17
  8
0
 10
52.225999999999999
 20
149.20799999999991
 30
0.0
 11
53.497999999999998
 21
148.24799999999991
 31
0.0
  0
LINE
  5
D18
  8
0
 10
52.082000000000001
 20
146.83199999999999
 30
0.0
 11
52.722000000000001
 21
145.98400000000001
 31
0.0
  0
LINE
  5
D19
  8
0
 10
52.082000000000001
 20
141.16800000000001
 30
0.0
 11
52.722000000000001
 21
142.01599999999991
 31
0.0
  0
LINE
  5
D1A
  8
0
 10
51.042000000000002
 20
150.74799999999991
 30
0.0
 11
52.722000000000001
 21
150.07599999999991
 31
0.0
  0
LINE
  5
D1B
  8
0
 10
51.69789999999999
 20
152.87999999999991
 30
0.0
 11
53.831299999999999
 21
151.67099999999991
 31
0.0
  0
LINE
  5
D1C
  8
0
 10
51.834600000000002
 20
153.59999999999999
 30
0.0
 11
54.326900000000002
 21
152.76899999999989
 31
0.0
  0
LINE
  5
D1D
  8
0
 10
49.25
 20
150.0
 30
0.0
 11
50.786000000000001
 21
149.78399999999999
 31
0.0
  0
LINE
  5
D1E
  8
0
 10
50.274000000000001
 20
147.85599999999991
 30
0.0
 11
51.234000000000002
 21
147.47199999999989
 31
0.0
  0
LINE
  5
D1F
  8
0
 10
49.25
 20
151.0
 30
0.0
 11
51.042000000000002
 21
150.74799999999991
 31
0.0
  0
LINE
  5
D20
  8
0
 10
50.362299999999991
 20
153.61699999999999
 30
0.0
 11
51.69789999999999
 21
152.87999999999991
 31
0.0
  0
LINE
  5
D21
  8
0
 10
49.25
 20
148.0
 30
0.0
 11
50.274000000000001
 21
147.85599999999991
 31
0.0
  0
LINE
  5
D22
  8
0
 10
50.786000000000001
 20
149.78399999999999
 30
0.0
 11
52.225999999999999
 21
149.20799999999991
 31
0.0
  0
LINE
  5
D23
  8
0
 10
51.234000000000002
 20
147.47199999999989
 30
0.0
 11
52.082000000000001
 21
146.83199999999999
 31
0.0
  0
LINE
  5
D24
  8
0
 10
54.457999999999998
 20
146.97599999999991
 30
0.0
 11
55.033999999999999
 21
145.53599999999989
 31
0.0
  0
LINE
  5
D25
  8
0
 10
54.206000000000003
 20
148.9559999999999
 30
0.0
 11
55.326000000000001
 21
147.47199999999989
 31
0.0
  0
LINE
  5
D26
  8
0
 10
54.457999999999998
 20
141.02399999999989
 30
0.0
 11
55.033999999999999
 21
142.46399999999991
 31
0.0
  0
LINE
  5
D27
  8
0
 10
54.326900000000002
 20
152.76899999999989
 30
0.0
 11
56.450000000000003
 21
151.19999999999999
 31
0.0
  0
LINE
  5
D28
  8
0
 10
53.831299999999999
 20
151.67099999999991
 30
0.0
 11
55.976300000000002
 21
150.45400000000001
 31
0.0
  0
LINE
  5
D29
  8
0
 10
52.722000000000001
 20
145.98400000000001
 30
0.0
 11
53.106000000000002
 21
145.02399999999989
 31
0.0
  0
LINE
  5
D2A
  8
0
 10
53.106000000000002
 20
145.02399999999989
 30
0.0
 11
53.25
 21
144.0
 31
0.0
  0
LINE
  5
D2B
  8
0
 10
52.722000000000001
 20
142.01599999999991
 30
0.0
 11
53.106000000000002
 21
142.97599999999991
 31
0.0
  0
LINE
  5
D2C
  8
0
 10
53.106000000000002
 20
142.97599999999991
 30
0.0
 11
53.25
 21
144.0
 31
0.0
  0
LINE
  5
D2D
  8
0
 10
53.497999999999998
 20
148.24799999999991
 30
0.0
 11
54.457999999999998
 21
146.97599999999991
 31
0.0
  0
LINE
  5
D2E
  8
0
 10
52.722000000000001
 20
150.07599999999991
 30
0.0
 11
54.206000000000003
 21
148.9559999999999
 31
0.0
  0
LINE
  5
D2F
  8
0
 10
55.326000000000001
 20
147.47199999999989
 30
0.0
 11
55.997999999999998
 21
145.792
 31
0.0
  0
LINE
  5
D30
  8
0
 10
55.326000000000001
 20
140.52799999999999
 30
0.0
 11
55.997999999999998
 21
142.20799999999991
 31
0.0
  0
LINE
  5
D31
  8
0
 10
55.033999999999999
 20
145.53599999999989
 30
0.0
 11
55.25
 21
144.0
 31
0.0
  0
LINE
  5
D32
  8
0
 10
55.033999999999999
 20
142.46399999999991
 30
0.0
 11
55.25
 21
144.0
 31
0.0
  0
LINE
  5
D33
  8
0
 10
55.997999999999998
 20
145.792
 30
0.0
 11
56.25
 21
144.0
 31
0.0
  0
LINE
  5
D34
  8
0
 10
55.997999999999998
 20
142.20799999999991
 30
0.0
 11
56.25
 21
144.0
 31
0.0
  0
LINE
  5
D35
  8
0
 10
59.588500000000003
 20
150.0
 30
0.0
 11
60.788499999999999
 21
147.13799999999989
 31
0.0
  0
LINE
  5
D36
  8
0
 10
59.697600000000001
 20
149.74000000000001
 30
0.0
 11
60.788499999999701
 21
147.138000000001
 31
0.0
  0
LINE
  5
D37
  8
0
 10
59.697600000000001
 20
149.74000000000001
 30
0.0
 11
60.788499999999999
 21
147.13799999999989
 31
0.0
  0
LINE
  5
D38
  8
0
 10
58.25
 20
141.70899999999989
 30
0.0
 11
58.25
 21
139.5869999999999
 31
0.0
  0
LINE
  5
D39
  8
0
 10
58.25
 20
139.5869999999999
 30
0.0
 11
58.25
 21
141.70899999999989
 31
0.0
  0
LINE
  5
D3A
  8
0
 10
58.25
 20
148.38471112180989
 30
0.0
 11
58.850000000000001
 21
146.58499999999989
 31
0.0
  0
LINE
  5
D3B
  8
0
 10
58.363999999999997
 20
149.20799999999991
 30
0.0
 11
59.372
 21
146.6879999999999
 31
0.0
  0
LINE
  5
D3C
  8
0
 10
57.09620000000001
 20
151.846
 30
0.0
 11
58.850000000000001
 21
149.53800000000001
 31
0.0
  0
LINE
  5
D3D
  8
0
 10
57.7423
 20
152.49199999999999
 30
0.0
 11
59.588500000000003
 21
150.0
 31
0.0
  0
LINE
  5
D3E
  8
0
 10
58.25
 20
148.41300000000001
 30
0.0
 11
58.25
 21
146.29099999999991
 31
0.0
  0
LINE
  5
D3F
  8
0
 10
58.25
 20
146.29099999999991
 30
0.0
 11
58.25
 21
148.41300000000001
 31
0.0
  0
LINE
  5
D40
  8
0
 10
58.25
 20
146.29099999999991
 30
0.0
 11
58.25
 21
144.0
 31
0.0
  0
LINE
  5
D41
  8
0
 10
58.25
 20
144.0
 30
0.0
 11
58.25
 21
146.29099999999991
 31
0.0
  0
LINE
  5
D42
  8
0
 10
58.25
 20
141.70899999999989
 30
0.0
 11
58.25
 21
144.0
 31
0.0
  0
LINE
  5
D43
  8
0
 10
58.25
 20
144.0
 30
0.0
 11
58.25
 21
141.70899999999989
 31
0.0
  0
LINE
  5
D44
  8
0
 10
56.683999999999997
 20
151.434
 30
0.0
 11
58.363999999999997
 21
149.20799999999991
 31
0.0
  0
LINE
  5
D45
  8
0
 10
58.0184
 20
149.297
 30
0.0
 11
58.25
 21
149.01299999999989
 31
0.0
  0
LINE
  5
D46
  8
0
 10
58.25
 20
149.01299999999989
 30
0.0
 11
58.25
 21
148.41300000000001
 31
0.0
  0
LINE
  5
D47
  8
0
 10
58.25
 20
148.41300000000001
 30
0.0
 11
58.25
 21
149.01299999999989
 31
0.0
  0
LINE
  5
D48
  8
0
 10
57.4786
 20
149.60300000000001
 30
0.0
 11
58.0184
 21
149.297
 31
0.0
  0
LINE
  5
D49
  8
0
 10
59.957700000000003
 20
146.86199999999999
 30
0.0
 11
60.326900000000002
 21
144.0
 31
0.0
  0
LINE
  5
D4A
  8
0
 10
59.372
 20
146.6879999999999
 30
0.0
 11
59.75
 21
144.0
 31
0.0
  0
LINE
  5
D4B
  8
0
 10
58.850000000000001
 20
146.58499999999989
 30
0.0
 11
59.403799999999997
 21
144.0
 31
0.0
  0
LINE
  5
D4C
  8
0
 10
58.850000000000001
 20
141.41499999999999
 30
0.0
 11
59.403799999999997
 21
144.0
 31
0.0
  0
LINE
  5
D4D
  8
0
 10
59.372
 20
141.31200000000001
 30
0.0
 11
59.75
 21
144.0
 31
0.0
  0
LINE
  5
D4E
  8
0
 10
59.957700000000003
 20
141.13799999999989
 30
0.0
 11
60.326900000000002
 21
144.0
 31
0.0
  0
LINE
  5
D4F
  8
0
 10
58.850000000000001
 20
149.53800000000001
 30
0.0
 11
59.957700000000003
 21
146.86199999999999
 31
0.0
  0
LINE
  5
D50
  8
0
 10
61.402000000000001
 20
150.94399999999999
 30
0.0
 11
62.746000000000002
 21
147.58399999999989
 31
0.0
  0
LINE
  5
D51
  8
0
 10
61.898000000000003
 20
151.227
 30
0.0
 11
63.296900000000001
 21
147.72999999999999
 31
0.0
  0
LINE
  5
D52
  8
0
 10
60.788499999999999
 20
147.13799999999989
 30
0.0
 11
61.25
 21
144.0
 31
0.0
  0
LINE
  5
D53
  8
0
 10
60.788499999999999
 20
140.86199999999999
 30
0.0
 11
61.25
 21
144.0
 31
0.0
  0
LINE
  5
D54
  8
0
 10
63.296900000000001
 20
147.72999999999999
 30
0.0
 11
63.82139999999999
 21
144.0
 31
0.0
  0
LINE
  5
D55
  8
0
 10
62.746000000000002
 20
147.58399999999989
 30
0.0
 11
63.25
 21
144.0
 31
0.0
  0
LINE
  5
D56
  8
0
 10
62.746000000000002
 20
140.416
 30
0.0
 11
63.25
 21
144.0
 31
0.0
  0
LINE
  5
D57
  8
0
 10
63.296900000000001
 20
140.2699999999999
 30
0.0
 11
63.82139999999999
 21
144.0
 31
0.0
  0
LINE
  5
D58
  8
0
 10
56.193999999999988
 20
156.1519999999999
 30
0.0
 11
59.161999999999992
 21
153.91200000000001
 31
0.0
  0
LINE
  5
D59
  8
0
 10
56.477400000000003
 20
156.64799999999991
 30
0.0
 11
59.566600000000001
 21
154.31700000000001
 31
0.0
  0
LINE
  5
D5A
  8
0
 10
53.345999999999997
 20
159.42400000000001
 30
0.0
 11
57.186000000000007
 21
157.88799999999989
 31
0.0
  0
LINE
  5
D5B
  8
0
 10
53.60199999999999
 20
160.38799999999989
 30
0.0
 11
57.682000000000002
 21
158.75599999999989
 31
0.0
  0
LINE
  5
D5C
  8
0
 10
49.25
 20
158.0
 30
0.0
 11
52.834000000000003
 21
157.4959999999999
 31
0.0
  0
LINE
  5
D5D
  8
0
 10
49.25
 20
160.0
 30
0.0
 11
53.345999999999997
 21
159.42400000000001
 31
0.0
  0
LINE
  5
D5E
  8
0
 10
49.25
 20
158.57099999999991
 30
0.0
 11
52.9803
 21
158.047
 31
0.0
  0
LINE
  5
D5F
  8
0
 10
49.25
 20
161.0
 30
0.0
 11
53.60199999999999
 21
160.38799999999989
 31
0.0
  0
LINE
  5
D60
  8
0
 10
52.38839999999999
 20
155.53800000000001
 30
0.0
 11
55.25
 21
154.33799999999991
 31
0.0
  0
LINE
  5
D61
  8
0
 10
49.25
 20
154.49999999999989
 30
0.0
 11
51.938000000000002
 21
154.12200000000001
 31
0.0
  0
LINE
  5
D62
  8
0
 10
49.25
 20
155.07699999999991
 30
0.0
 11
52.111600000000003
 21
154.70799999999991
 31
0.0
  0
LINE
  5
D63
  8
0
 10
49.25
 20
156.0
 30
0.0
 11
52.38839999999999
 21
155.53800000000001
 31
0.0
  0
LINE
  5
D64
  8
0
 10
49.25
 20
154.0
 30
0.0
 11
49.770299999999999
 21
153.93000000000001
 31
0.0
  0
LINE
  5
D65
  8
0
 10
52.834000000000003
 20
157.4959999999999
 30
0.0
 11
56.193999999999988
 21
156.1519999999999
 31
0.0
  0
LINE
  5
D66
  8
0
 10
52.9803
 20
158.047
 30
0.0
 11
56.477400000000003
 21
156.64799999999991
 31
0.0
  0
LINE
  5
D67
  8
0
 10
57.186000000000007
 20
157.88799999999989
 30
0.0
 11
60.578000000000003
 21
155.32799999999989
 31
0.0
  0
LINE
  5
D68
  8
0
 10
57.682000000000002
 20
158.75599999999989
 30
0.0
 11
61.286000000000001
 21
156.036
 31
0.0
  0
LINE
  5
D69
  8
0
 10
65.638000000000005
 20
139.64799999999991
 30
0.0
 11
66.25
 21
144.0
 31
0.0
  0
LINE
  5
D6A
  8
0
 10
65.638000000000005
 20
148.352
 30
0.0
 11
66.25
 21
144.0
 31
0.0
  0
LINE
  5
D6B
  8
0
 10
64.673999999999992
 20
148.096
 30
0.0
 11
65.25
 21
144.0
 31
0.0
  0
LINE
  5
D6C
  8
0
 10
64.673999999999992
 20
139.904
 30
0.0
 11
65.25
 21
144.0
 31
0.0
  0
LINE
  5
D6D
  8
0
 10
47.713999999999992
 20
138.21600000000001
 30
0.0
 11
49.25
 21
138.0
 31
0.0
  0
LINE
  5
D6E
  8
0
 10
48.226000000000013
 20
140.14400000000001
 30
0.0
 11
49.25
 21
140.0
 31
0.0
  0
LINE
  5
D6F
  8
0
 10
32.861999999999988
 20
139.64799999999991
 30
0.0
 11
34.494
 21
135.5679999999999
 31
0.0
  0
LINE
  5
D70
  8
0
 10
40.135999999999989
 20
138.792
 30
0.0
 11
41.816000000000003
 21
136.56599999999989
 31
0.0
  0
LINE
  5
D71
  8
0
 10
39.649999999999991
 20
138.4619999999999
 30
0.0
 11
41.4039
 21
136.15399999999991
 31
0.0
  0
LINE
  5
D72
  8
0
 10
40.759964809152891
 20
138.54520149758989
 30
0.0
 11
42.049999999999997
 21
136.80000000000001
 31
0.0
  0
LINE
  5
D73
  8
0
 10
41.0214
 20
138.39699999999991
 30
0.0
 11
42.523699999999991
 21
137.54499999999999
 31
0.0
  0
LINE
  5
D74
  8
0
 10
35.753999999999998
 20
140.416
 30
0.0
 11
37.097999999999992
 21
137.0559999999999
 31
0.0
  0
LINE
  5
D75
  8
0
 10
33.826000000000001
 20
139.904
 30
0.0
 11
35.361999999999988
 21
136.06399999999999
 31
0.0
  0
LINE
  5
D76
  8
0
 10
35.203099999999999
 20
140.2699999999999
 30
0.0
 11
36.60199999999999
 21
136.77299999999991
 31
0.0
  0
LINE
  5
D77
  8
0
 10
39.649999999999991
 20
141.41499999999999
 30
0.0
 11
40.25
 21
139.6150722282409
 31
0.0
  0
LINE
  5
D78
  8
0
 10
37.711599999999997
 20
140.86199999999999
 30
0.0
 11
38.9116
 21
138.0
 31
0.0
  0
LINE
  5
D79
  8
0
 10
39.128
 20
141.31200000000001
 30
0.0
 11
40.135999999999989
 21
138.792
 31
0.0
  0
LINE
  5
D7A
  8
0
 10
38.54229999999999
 20
141.13799999999989
 30
0.0
 11
39.649999999999991
 21
138.4619999999999
 31
0.0
  0
LINE
  5
D7B
  8
0
 10
38.9116
 20
138.0
 30
0.0
 11
40.7577
 21
135.5079999999999
 31
0.0
  0
LINE
  5
D7C
  8
0
 10
40.25
 20
138.98699999999999
 30
0.0
 11
40.4816
 21
138.70299999999989
 31
0.0
  0
LINE
  5
D7D
  8
0
 10
40.25
 20
138.98699999999999
 30
0.0
 11
40.25
 21
139.5869999999999
 31
0.0
  0
LINE
  5
D7E
  8
0
 10
40.25
 20
139.5869999999999
 30
0.0
 11
40.25
 21
138.98699999999999
 31
0.0
  0
LINE
  5
D7F
  8
0
 10
40.4816
 20
138.70299999999989
 30
0.0
 11
41.0214
 21
138.39699999999991
 31
0.0
  0
LINE
  5
D80
  8
0
 10
44.293999999999997
 20
139.04400000000001
 30
0.0
 11
45.777999999999992
 21
137.92400000000001
 31
0.0
  0
LINE
  5
D81
  8
0
 10
45.001999999999988
 20
139.75200000000001
 30
0.0
 11
46.273999999999987
 21
138.792
 31
0.0
  0
LINE
  5
D82
  8
0
 10
43.173999999999999
 20
140.52799999999999
 30
0.0
 11
44.293999999999997
 21
139.04400000000001
 31
0.0
  0
LINE
  5
D83
  8
0
 10
42.523699999999991
 20
137.54499999999999
 30
0.0
 11
44.668700000000001
 21
136.32900000000001
 31
0.0
  0
LINE
  5
D84
  8
0
 10
44.042000000000002
 20
141.02399999999989
 30
0.0
 11
45.001999999999988
 21
139.75200000000001
 31
0.0
  0
LINE
  5
D85
  8
0
 10
45.777999999999992
 20
137.92400000000001
 30
0.0
 11
47.457999999999998
 21
137.25200000000001
 31
0.0
  0
LINE
  5
D86
  8
0
 10
46.273999999999987
 20
138.792
 30
0.0
 11
47.713999999999992
 21
138.21600000000001
 31
0.0
  0
LINE
  5
D87
  8
0
 10
46.417999999999992
 20
141.16800000000001
 30
0.0
 11
47.265999999999998
 21
140.52799999999999
 31
0.0
  0
LINE
  5
D88
  8
0
 10
47.265999999999998
 20
140.52799999999999
 30
0.0
 11
48.226000000000013
 21
140.14400000000001
 31
0.0
  0
LINE
  5
D89
  8
0
 10
63.137999999999998
 20
136.06399999999999
 30
0.0
 11
64.673999999999992
 21
139.904
 31
0.0
  0
LINE
  5
D8A
  8
0
 10
64.006
 20
135.5679999999999
 30
0.0
 11
65.638000000000005
 21
139.64799999999991
 31
0.0
  0
LINE
  5
D8B
  8
0
 10
56.450000000000003
 20
136.80000000000001
 30
0.0
 11
57.7398937022338
 21
138.545121291003
 31
0.0
  0
LINE
  5
D8C
  8
0
 10
55.976300000000002
 20
137.54499999999999
 30
0.0
 11
57.4786
 21
138.39699999999991
 31
0.0
  0
LINE
  5
D8D
  8
0
 10
51.042000000000002
 20
137.25200000000001
 30
0.0
 11
52.722000000000001
 21
137.92400000000001
 31
0.0
  0
LINE
  5
D8E
  8
0
 10
52.225999999999999
 20
138.792
 30
0.0
 11
53.497999999999998
 21
139.75200000000001
 31
0.0
  0
LINE
  5
D8F
  8
0
 10
49.25
 20
138.0
 30
0.0
 11
50.786000000000001
 21
138.21600000000001
 31
0.0
  0
LINE
  5
D90
  8
0
 10
50.786000000000001
 20
138.21600000000001
 30
0.0
 11
52.225999999999999
 21
138.792
 31
0.0
  0
LINE
  5
D91
  8
0
 10
50.274000000000001
 20
140.14400000000001
 30
0.0
 11
51.234000000000002
 21
140.52799999999999
 31
0.0
  0
LINE
  5
D92
  8
0
 10
49.25
 20
140.0
 30
0.0
 11
50.274000000000001
 21
140.14400000000001
 31
0.0
  0
LINE
  5
D93
  8
0
 10
51.234000000000002
 20
140.52799999999999
 30
0.0
 11
52.082000000000001
 21
141.16800000000001
 31
0.0
  0
LINE
  5
D94
  8
0
 10
54.206000000000003
 20
139.04400000000001
 30
0.0
 11
55.326000000000001
 21
140.52799999999999
 31
0.0
  0
LINE
  5
D95
  8
0
 10
53.831299999999999
 20
136.32900000000001
 30
0.0
 11
55.976300000000002
 21
137.54499999999999
 31
0.0
  0
LINE
  5
D96
  8
0
 10
52.722000000000001
 20
137.92400000000001
 30
0.0
 11
54.206000000000003
 21
139.04400000000001
 31
0.0
  0
LINE
  5
D97
  8
0
 10
53.497999999999998
 20
139.75200000000001
 30
0.0
 11
54.457999999999998
 21
141.02399999999989
 31
0.0
  0
LINE
  5
D98
  8
0
 10
59.588500000000003
 20
138.0
 30
0.0
 11
60.788499999999999
 21
140.86199999999999
 31
0.0
  0
LINE
  5
D99
  8
0
 10
58.850000000000001
 20
138.4619999999999
 30
0.0
 11
59.957700000000003
 21
141.13799999999989
 31
0.0
  0
LINE
  5
D9A
  8
0
 10
58.363999999999997
 20
138.792
 30
0.0
 11
59.372
 21
141.31200000000001
 31
0.0
  0
LINE
  5
D9B
  8
0
 10
58.25
 20
139.61528887819
 30
0.0
 11
58.850000000000001
 21
141.41499999999999
 31
0.0
  0
LINE
  5
D9C
  8
0
 10
57.09620000000001
 20
136.15399999999991
 30
0.0
 11
58.850000000000001
 21
138.4619999999999
 31
0.0
  0
LINE
  5
D9D
  8
0
 10
57.7423
 20
135.5079999999999
 30
0.0
 11
59.588500000000003
 21
138.0
 31
0.0
  0
LINE
  5
D9E
  8
0
 10
56.683999999999997
 20
136.56599999999989
 30
0.0
 11
58.363999999999997
 21
138.792
 31
0.0
  0
LINE
  5
D9F
  8
0
 10
57.4786
 20
138.39699999999991
 30
0.0
 11
58.060600000000001
 21
139.13599999999991
 31
0.0
  0
LINE
  5
DA0
  8
0
 10
58.060600000000001
 20
139.13599999999991
 30
0.0
 11
58.25
 21
139.5869999999999
 31
0.0
  0
LINE
  5
DA1
  8
0
 10
61.402000000000001
 20
137.0559999999999
 30
0.0
 11
62.746000000000002
 21
140.416
 31
0.0
  0
LINE
  5
DA2
  8
0
 10
61.898000000000003
 20
136.77299999999991
 30
0.0
 11
63.296900000000001
 21
140.2699999999999
 31
0.0
  0
LINE
  5
DA3
  8
0
 10
46.561999999999998
 20
133.8779999999999
 30
0.0
 11
49.25
 21
133.49999999999989
 31
0.0
  0
LINE
  5
DA4
  8
0
 10
46.665399999999998
 20
134.39999999999989
 30
0.0
 11
49.25
 21
133.84599999999989
 31
0.0
  0
LINE
  5
DA5
  8
0
 10
46.388399999999997
 20
133.292
 30
0.0
 11
49.25
 21
132.923
 31
0.0
  0
LINE
  5
DA6
  8
0
 10
46.111600000000003
 20
132.4619999999999
 30
0.0
 11
49.25
 21
132.0
 31
0.0
  0
LINE
  5
DA7
  8
0
 10
47.457999999999998
 20
137.25200000000001
 30
0.0
 11
49.25
 21
137.0
 31
0.0
  0
LINE
  5
DA8
  8
0
 10
48.729700000000001
 20
134.06999999999999
 30
0.0
 11
49.25
 21
134.0
 31
0.0
  0
LINE
  5
DA9
  8
0
 10
45.665999999999997
 20
130.50399999999999
 30
0.0
 11
49.25
 21
130.0
 31
0.0
  0
LINE
  5
DAA
  8
0
 10
45.519699999999993
 20
129.95299999999989
 30
0.0
 11
49.25
 21
129.429
 31
0.0
  0
LINE
  5
DAB
  8
0
 10
37.92199999999999
 20
132.672
 30
0.0
 11
41.313999999999993
 21
130.11199999999999
 31
0.0
  0
LINE
  5
DAC
  8
0
 10
40.7577
 20
135.5079999999999
 30
0.0
 11
43.25
 21
133.66200000000001
 31
0.0
  0
LINE
  5
DAD
  8
0
 10
39.338000000000001
 20
134.08799999999991
 30
0.0
 11
42.305999999999997
 21
131.84800000000001
 31
0.0
  0
LINE
  5
DAE
  8
0
 10
38.933399999999999
 20
133.68299999999991
 30
0.0
 11
42.02259999999999
 21
131.352
 31
0.0
  0
LINE
  5
DAF
  8
0
 10
40.817999999999998
 20
129.244
 30
0.0
 11
44.898000000000003
 21
127.61199999999999
 31
0.0
  0
LINE
  5
DB0
  8
0
 10
35.361999999999988
 20
136.06399999999999
 30
0.0
 11
37.92199999999999
 21
132.672
 31
0.0
  0
LINE
  5
DB1
  8
0
 10
36.60199999999999
 20
136.77299999999991
 30
0.0
 11
38.933399999999999
 21
133.68299999999991
 31
0.0
  0
LINE
  5
DB2
  8
0
 10
37.097999999999992
 20
137.0559999999999
 30
0.0
 11
39.338000000000001
 21
134.08799999999991
 31
0.0
  0
LINE
  5
DB3
  8
0
 10
37.213999999999999
 20
131.96399999999991
 30
0.0
 11
40.817999999999998
 21
129.244
 31
0.0
  0
LINE
  5
DB4
  8
0
 10
34.494
 20
135.5679999999999
 30
0.0
 11
37.213999999999999
 21
131.96399999999991
 31
0.0
  0
LINE
  5
DB5
  8
0
 10
42.02259999999999
 20
131.352
 30
0.0
 11
45.519699999999993
 21
129.95299999999989
 31
0.0
  0
LINE
  5
DB6
  8
0
 10
43.71159999999999
 20
134.39999999999989
 30
0.0
 11
46.388399999999997
 21
133.292
 31
0.0
  0
LINE
  5
DB7
  8
0
 10
43.25
 20
133.66200000000001
 30
0.0
 11
46.111600000000003
 21
132.4619999999999
 31
0.0
  0
LINE
  5
DB8
  8
0
 10
44.042000000000002
 20
134.88599999999991
 30
0.0
 11
46.561999999999998
 21
133.8779999999999
 31
0.0
  0
LINE
  5
DB9
  8
0
 10
44.173099999999991
 20
135.23099999999991
 30
0.0
 11
46.665399999999998
 21
134.39999999999989
 31
0.0
  0
LINE
  5
DBA
  8
0
 10
44.668700000000001
 20
136.32900000000001
 30
0.0
 11
46.802100000000003
 21
135.119
 31
0.0
  0
LINE
  5
DBB
  8
0
 10
42.305999999999997
 20
131.84800000000001
 30
0.0
 11
45.665999999999997
 21
130.50399999999999
 31
0.0
  0
LINE
  5
DBC
  8
0
 10
41.313999999999993
 20
130.11199999999999
 30
0.0
 11
45.153999999999989
 21
128.57599999999991
 31
0.0
  0
LINE
  5
DBD
  8
0
 10
41.816000000000003
 20
136.56599999999989
 30
0.0
 11
44.042000000000002
 21
134.88599999999991
 31
0.0
  0
LINE
  5
DBE
  8
0
 10
41.4039
 20
136.15399999999991
 30
0.0
 11
43.71159999999999
 21
134.39999999999989
 31
0.0
  0
LINE
  5
DBF
  8
0
 10
42.049999999999997
 20
136.80000000000001
 30
0.0
 11
44.173099999999991
 21
135.23099999999991
 31
0.0
  0
LINE
  5
DC0
  8
0
 10
46.802100000000003
 20
135.119
 30
0.0
 11
48.137700000000002
 21
134.3829999999999
 31
0.0
  0
LINE
  5
DC1
  8
0
 10
48.137700000000002
 20
134.3829999999999
 30
0.0
 11
48.729700000000001
 21
134.06999999999999
 31
0.0
  0
LINE
  5
DC2
  8
0
 10
55.25
 20
133.66200000000001
 30
0.0
 11
57.7423
 21
135.5079999999999
 31
0.0
  0
LINE
  5
DC3
  8
0
 10
56.193999999999988
 20
131.84800000000001
 30
0.0
 11
59.161999999999992
 21
134.08799999999991
 31
0.0
  0
LINE
  5
DC4
  8
0
 10
54.457999999999998
 20
134.88599999999991
 30
0.0
 11
56.683999999999997
 21
136.56599999999989
 31
0.0
  0
LINE
  5
DC5
  8
0
 10
54.788499999999999
 20
134.39999999999989
 30
0.0
 11
57.09620000000001
 21
136.15399999999991
 31
0.0
  0
LINE
  5
DC6
  8
0
 10
56.477400000000003
 20
131.352
 30
0.0
 11
59.566600000000001
 21
133.68299999999991
 31
0.0
  0
LINE
  5
DC7
  8
0
 10
53.60199999999999
 20
127.61199999999999
 30
0.0
 11
57.682000000000002
 21
129.244
 31
0.0
  0
LINE
  5
DC8
  8
0
 10
53.345999999999997
 20
128.57599999999991
 30
0.0
 11
57.186000000000007
 21
130.11199999999999
 31
0.0
  0
LINE
  5
DC9
  8
0
 10
49.25
 20
130.0
 30
0.0
 11
52.834000000000003
 21
130.50399999999999
 31
0.0
  0
LINE
  5
DCA
  8
0
 10
51.938000000000002
 20
133.8779999999999
 30
0.0
 11
54.457999999999998
 21
134.88599999999991
 31
0.0
  0
LINE
  5
DCB
  8
0
 10
52.111600000000003
 20
133.292
 30
0.0
 11
54.788499999999999
 21
134.39999999999989
 31
0.0
  0
LINE
  5
DCC
  8
0
 10
52.38839999999999
 20
132.4619999999999
 30
0.0
 11
55.25
 21
133.66200000000001
 31
0.0
  0
LINE
  5
DCD
  8
0
 10
51.834600000000002
 20
134.39999999999989
 30
0.0
 11
54.326900000000002
 21
135.23099999999991
 31
0.0
  0
LINE
  5
DCE
  8
0
 10
51.69789999999999
 20
135.119
 30
0.0
 11
53.831299999999999
 21
136.32900000000001
 31
0.0
  0
LINE
  5
DCF
  8
0
 10
49.25
 20
129.429
 30
0.0
 11
52.9803
 21
129.95299999999989
 31
0.0
  0
LINE
  5
DD0
  8
0
 10
49.25
 20
133.49999999999989
 30
0.0
 11
51.938000000000002
 21
133.8779999999999
 31
0.0
  0
LINE
  5
DD1
  8
0
 10
49.25
 20
133.84599999999989
 30
0.0
 11
51.834600000000002
 21
134.39999999999989
 31
0.0
  0
LINE
  5
DD2
  8
0
 10
49.25
 20
132.0
 30
0.0
 11
52.38839999999999
 21
132.4619999999999
 31
0.0
  0
LINE
  5
DD3
  8
0
 10
49.25
 20
132.923
 30
0.0
 11
52.111600000000003
 21
133.292
 31
0.0
  0
LINE
  5
DD4
  8
0
 10
50.362299999999991
 20
134.3829999999999
 30
0.0
 11
51.69789999999999
 21
135.119
 31
0.0
  0
LINE
  5
DD5
  8
0
 10
49.25
 20
137.0
 30
0.0
 11
51.042000000000002
 21
137.25200000000001
 31
0.0
  0
LINE
  5
DD6
  8
0
 10
49.25
 20
134.0
 30
0.0
 11
50.362299999999991
 21
134.3829999999999
 31
0.0
  0
LINE
  5
DD7
  8
0
 10
52.834000000000003
 20
130.50399999999999
 30
0.0
 11
56.193999999999988
 21
131.84800000000001
 31
0.0
  0
LINE
  5
DD8
  8
0
 10
54.326900000000002
 20
135.23099999999991
 30
0.0
 11
56.450000000000003
 21
136.80000000000001
 31
0.0
  0
LINE
  5
DD9
  8
0
 10
52.9803
 20
129.95299999999989
 30
0.0
 11
56.477400000000003
 21
131.352
 31
0.0
  0
LINE
  5
DDA
  8
0
 10
57.186000000000007
 20
130.11199999999999
 30
0.0
 11
60.578000000000003
 21
132.672
 31
0.0
  0
LINE
  5
DDB
  8
0
 10
59.161999999999992
 20
134.08799999999991
 30
0.0
 11
61.402000000000001
 21
137.0559999999999
 31
0.0
  0
LINE
  5
DDC
  8
0
 10
59.566600000000001
 20
133.68299999999991
 30
0.0
 11
61.898000000000003
 21
136.77299999999991
 31
0.0
  0
LINE
  5
DDD
  8
0
 10
57.682000000000002
 20
129.244
 30
0.0
 11
61.286000000000001
 21
131.96399999999991
 31
0.0
  0
LINE
  5
DDE
  8
0
 10
60.578000000000003
 20
132.672
 30
0.0
 11
63.137999999999998
 21
136.06399999999999
 31
0.0
  0
LINE
  5
DDF
  8
0
 10
61.286000000000001
 20
131.96399999999991
 30
0.0
 11
64.006
 21
135.5679999999999
 31
0.0
  0
LINE
  5
DE0
  8
0
 10
45.153999999999989
 20
128.57599999999991
 30
0.0
 11
49.25
 21
128.0
 31
0.0
  0
LINE
  5
DE1
  8
0
 10
44.898000000000003
 20
127.61199999999999
 30
0.0
 11
49.25
 21
127.0
 31
0.0
  0
LINE
  5
DE2
  8
0
 10
49.25
 20
127.0
 30
0.0
 11
53.60199999999999
 21
127.61199999999999
 31
0.0
  0
LINE
  5
DE3
  8
0
 10
49.25
 20
128.0
 30
0.0
 11
53.345999999999997
 21
128.57599999999991
 31
0.0
  0
LINE
  5
DE4
  8
0
 10
14.770599999999989
 20
84.947100000000006
 30
0.0
 11
16.377807546235999
 21
84.325841248328985
 31
0.0
  0
LINE
  5
DE5
  8
0
 10
16.377807546235999
 20
84.325841248328985
 30
0.0
 11
18.56232378845425
 21
83.932884902747219
 31
0.0
  0
LINE
  5
DE6
  8
0
 10
76.808800000000005
 20
95.941199999999995
 30
0.0
 11
75.697100000000006
 21
94.479399999999998
 31
0.0
  0
LINE
  5
DE7
  8
0
 10
76.870599999999996
 20
95.879400000000004
 30
0.0
 11
75.779399999999995
 21
94.438199999999995
 31
0.0
  0
LINE
  5
DE8
  8
0
 10
74.997100000000003
 20
92.791200000000003
 30
0.0
 11
74.892199324955598
 21
92.030786850912307
 31
0.0
  0
LINE
  5
DE9
  8
0
 10
75.099999999999994
 20
92.770600000000002
 30
0.0
 11
74.985868197790808
 21
91.952786284938995
 31
0.0
  0
LINE
  5
DEA
  8
0
 10
75.697100000000006
 20
94.479399999999998
 30
0.0
 11
74.997100000000003
 21
92.791200000000003
 31
0.0
  0
LINE
  5
DEB
  8
0
 10
75.779399999999995
 20
94.438199999999995
 30
0.0
 11
75.099999999999994
 21
92.770600000000002
 31
0.0
  0
LINE
  5
DEC
  8
0
 10
81.75
 20
98.0
 30
0.0
 11
79.958799999999997
 21
97.752899999999997
 31
0.0
  0
LINE
  5
DED
  8
0
 10
81.75
 20
97.897099999999995
 30
0.0
 11
79.979399999999984
 21
97.650000000000006
 31
0.0
  0
LINE
  5
DEE
  8
0
 10
83.541199999999989
 20
97.752899999999997
 30
0.0
 11
81.75
 21
98.0
 31
0.0
  0
LINE
  5
DEF
  8
0
 10
83.520599999999988
 20
97.650000000000006
 30
0.0
 11
81.75
 21
97.897099999999995
 31
0.0
  0
LINE
  5
DF0
  8
0
 10
78.270600000000002
 20
97.052899999999994
 30
0.0
 11
76.808800000000005
 21
95.941199999999995
 31
0.0
  0
LINE
  5
DF1
  8
0
 10
78.311800000000005
 20
96.970600000000005
 30
0.0
 11
76.870599999999996
 21
95.879400000000004
 31
0.0
  0
LINE
  5
DF2
  8
0
 10
79.958799999999997
 20
97.752899999999997
 30
0.0
 11
78.270600000000002
 21
97.052899999999994
 31
0.0
  0
LINE
  5
DF3
  8
0
 10
79.979399999999984
 20
97.650000000000006
 30
0.0
 11
78.311800000000005
 21
96.970600000000005
 31
0.0
  0
LINE
  5
DF4
  8
0
 10
85.229399999999998
 20
97.052899999999994
 30
0.0
 11
83.541199999999989
 21
97.752899999999997
 31
0.0
  0
LINE
  5
DF5
  8
0
 10
85.188199999999995
 20
96.970600000000005
 30
0.0
 11
83.520599999999988
 21
97.650000000000006
 31
0.0
  0
LINE
  5
DF6
  8
0
 10
87.802899999999994
 20
94.479399999999998
 30
0.0
 11
86.691199999999995
 21
95.941199999999995
 31
0.0
  0
LINE
  5
DF7
  8
0
 10
87.720600000000005
 20
94.438199999999995
 30
0.0
 11
86.629400000000004
 21
95.879400000000004
 31
0.0
  0
LINE
  5
DF8
  8
0
 10
86.691199999999995
 20
95.941199999999995
 30
0.0
 11
85.229399999999998
 21
97.052899999999994
 31
0.0
  0
LINE
  5
DF9
  8
0
 10
86.629400000000004
 20
95.879400000000004
 30
0.0
 11
85.188199999999995
 21
96.970600000000005
 31
0.0
  0
LINE
  5
DFA
  8
0
 10
86.691199999999995
 20
86.058800000000005
 30
0.0
 11
85.229399999999998
 21
84.947100000000006
 31
0.0
  0
LINE
  5
DFB
  8
0
 10
86.629400000000004
 20
86.120599999999996
 30
0.0
 11
85.188199999999995
 21
85.029399999999995
 31
0.0
  0
LINE
  5
DFC
  8
0
 10
87.802899999999994
 20
87.520600000000002
 30
0.0
 11
86.691199999999995
 21
86.058800000000005
 31
0.0
  0
LINE
  5
DFD
  8
0
 10
87.720600000000005
 20
87.561800000000005
 30
0.0
 11
86.629400000000004
 21
86.120599999999996
 31
0.0
  0
LINE
  5
DFE
  8
0
 10
88.502899999999997
 20
89.208799999999997
 30
0.0
 11
87.802899999999994
 21
87.520600000000002
 31
0.0
  0
LINE
  5
DFF
  8
0
 10
88.400000000000006
 20
89.229399999999998
 30
0.0
 11
87.720600000000005
 21
87.561800000000005
 31
0.0
  0
LINE
  5
E00
  8
0
 10
88.502899999999997
 20
92.791200000000003
 30
0.0
 11
87.802899999999994
 21
94.479399999999998
 31
0.0
  0
LINE
  5
E01
  8
0
 10
88.400000000000006
 20
92.770600000000002
 30
0.0
 11
87.720600000000005
 21
94.438199999999995
 31
0.0
  0
LINE
  5
E02
  8
0
 10
88.75
 20
91.0
 30
0.0
 11
88.502899999999997
 21
89.208799999999997
 31
0.0
  0
LINE
  5
E03
  8
0
 10
88.75
 20
91.0
 30
0.0
 11
88.502899999999997
 21
92.791200000000003
 31
0.0
  0
LINE
  5
E04
  8
0
 10
88.647099999999995
 20
91.0
 30
0.0
 11
88.400000000000006
 21
89.229399999999998
 31
0.0
  0
LINE
  5
E05
  8
0
 10
88.647099999999995
 20
91.0
 30
0.0
 11
88.400000000000006
 21
92.770600000000002
 31
0.0
  0
LINE
  5
E06
  8
0
 10
85.188199999999995
 20
85.029399999999995
 30
0.0
 11
83.520599999999988
 21
84.349999999999994
 31
0.0
  0
LINE
  5
E07
  8
0
 10
83.622192453763986
 20
84.325841248328985
 30
0.0
 11
81.43767621154575
 21
83.932884902747219
 31
0.0
  0
LINE
  5
E08
  8
0
 10
81.75
 20
84.102900000000005
 30
0.0
 11
81.562739399725899
 21
84.129033567337501
 31
0.0
  0
LINE
  5
E09
  8
0
 10
83.520599999999988
 20
84.349999999999994
 30
0.0
 11
81.75
 21
84.102900000000005
 31
0.0
  0
LINE
  5
E0A
  8
0
 10
85.229399999999998
 20
84.947100000000006
 30
0.0
 11
83.622192453763986
 21
84.325841248328985
 31
0.0
  0
ENDSEC
  0
EOF
