  0
SECTION
  2
HEADER
  9
$ACADVER
  1
AC1009
  9
$INSBASE
 10
0.0
 20
0.0
 30
0.0
  9
$EXTMIN
 10
0.0
 20
-0.0000000000000017
 30
0.0
  9
$EXTMAX
 10
120.0
 20
161.0
 30
0.0
  9
$LIMMIN
 10
0.0
 20
0.0
  9
$LIMMAX
 10
12.0
 20
9.0
  9
$ORTHOMODE
 70
     0
  9
$REGENMODE
 70
     1
  9
$FILLMODE
 70
     1
  9
$QTEXTMODE
 70
     0
  9
$MIRRTEXT
 70
     1
  9
$DRAGMODE
 70
     2
  9
$LTSCALE
 40
1.0
  9
$OSMODE
 70
    37
  9
$ATTMODE
 70
     1
  9
$TEXTSIZE
 40
0.2
  9
$TRACEWID
 40
0.05
  9
$TEXTSTYLE
  7
STANDARD
  9
$CLAYER
  8
0
  9
$CELTYPE
  6
CONTINUOUS
  9
$CECOLOR
 62
   256
  9
$DIMSCALE
 40
1.0
  9
$DIMASZ
 40
0.18
  9
$DIMEXO
 40
0.0625
  9
$DIMDLI
 40
0.38
  9
$DIMRND
 40
0.0
  9
$DIMDLE
 40
0.0
  9
$DIMEXE
 40
0.18
  9
$DIMTP
 40
0.0
  9
$DIMTM
 40
0.0
  9
$DIMTXT
 40
0.18
  9
$DIMCEN
 40
0.09
  9
$DIMTSZ
 40
0.0
  9
$DIMTOL
 70
     0
  9
$DIMLIM
 70
     0
  9
$DIMTIH
 70
     1
  9
$DIMTOH
 70
     1
  9
$DIMSE1
 70
     0
  9
$DIMSE2
 70
     0
  9
$DIMTAD
 70
     0
  9
$DIMZIN
 70
     0
  9
$DIMBLK
  1

  9
$DIMASO
 70
     1
  9
$DIMSHO
 70
     1
  9
$DIMPOST
  1

  9
$DIMAPOST
  1

  9
$DIMALT
 70
     0
  9
$DIMALTD
 70
     2
  9
$DIMALTF
 40
25.399999999999999
  9
$DIMLFAC
 40
1.0
  9
$DIMTOFL
 70
     0
  9
$DIMTVP
 40
0.0
  9
$DIMTIX
 70
     0
  9
$DIMSOXD
 70
     0
  9
$DIMSAH
 70
     0
  9
$DIMBLK1
  1

  9
$DIMBLK2
  1

  9
$DIMSTYLE
  2
STANDARD
  9
$DIMCLRD
 70
     0
  9
$DIMCLRE
 70
     0
  9
$DIMCLRT
 70
     0
  9
$DIMTFAC
 40
1.0
  9
$DIMGAP
 40
0.09
  9
$LUNITS
 70
     2
  9
$LUPREC
 70
     4
  9
$SKETCHINC
 40
0.1
  9
$FILLETRAD
 40
0.0
  9
$AUNITS
 70
     0
  9
$AUPREC
 70
     0
  9
$MENU
  1
.
  9
$ELEVATION
 40
0.0
  9
$PELEVATION
 40
0.0
  9
$THICKNESS
 40
0.0
  9
$LIMCHECK
 70
     0
  9
$BLIPMODE
 70
     0
  9
$CHAMFERA
 40
0.0
  9
$CHAMFERB
 40
0.0
  9
$SKPOLY
 70
     0
  9
$TDCREATE
 40
2454674.6031481479
  9
$TDUPDATE
 40
2454674.6056239121
  9
$TDINDWG
 40
0.0024759375
  9
$TDUSRTIMER
 40
0.0024759375
  9
$USRTIMER
 70
     1
  9
$ANGBASE
 50
0.0
  9
$ANGDIR
 70
     0
  9
$PDMODE
 70
     0
  9
$PDSIZE
 40
0.0
  9
$PLINEWID
 40
0.0
  9
$COORDS
 70
     1
  9
$SPLFRAME
 70
     0
  9
$SPLINETYPE
 70
     6
  9
$SPLINESEGS
 70
     8
  9
$ATTDIA
 70
     0
  9
$ATTREQ
 70
     1
  9
$HANDLING
 70
 22529
  9
$HANDSEED
  5
7F1
  9
$SURFTAB1
 70
     6
  9
$SURFTAB2
 70
     6
  9
$SURFTYPE
 70
     6
  9
$SURFU
 70
     6
  9
$SURFV
 70
     6
  9
$UCSNAME
  2

  9
$UCSORG
 10
0.0
 20
0.0
 30
0.0
  9
$UCSXDIR
 10
1.0
 20
0.0
 30
0.0
  9
$UCSYDIR
 10
0.0
 20
1.0
 30
0.0
  9
$PUCSNAME
  2

  9
$PUCSORG
 10
0.0
 20
0.0
 30
0.0
  9
$PUCSXDIR
 10
1.0
 20
0.0
 30
0.0
  9
$PUCSYDIR
 10
0.0
 20
1.0
 30
0.0
  9
$USERI1
 70
     0
  9
$USERI2
 70
     0
  9
$USERI3
 70
     0
  9
$USERI4
 70
     0
  9
$USERI5
 70
     0
  9
$USERR1
 40
0.0
  9
$USERR2
 40
0.0
  9
$USERR3
 40
0.0
  9
$USERR4
 40
0.0
  9
$USERR5
 40
0.0
  9
$WORLDVIEW
 70
     1
  9
$SHADEDGE
 70
     3
  9
$SHADEDIF
 70
    70
  9
$TILEMODE
 70
     1
  9
$MAXACTVP
 70
    64
  9
$PLIMCHECK
 70
     0
  9
$PEXTMIN
 10
1.0000000000000000E+020
 20
1.0000000000000000E+020
 30
1.0000000000000000E+020
  9
$PEXTMAX
 10
-1.0000000000000000E+020
 20
-1.0000000000000000E+020
 30
-1.0000000000000000E+020
  9
$PLIMMIN
 10
0.0
 20
0.0
  9
$PLIMMAX
 10
12.0
 20
9.0
  9
$UNITMODE
 70
     0
  9
$VISRETAIN
 70
     1
  9
$PLINEGEN
 70
     0
  9
$PSLTSCALE
 70
     1
  0
ENDSEC
  0
SECTION
  2
TABLES
  0
TABLE
  2
VPORT
 70
     3
  0
VPORT
  2
*ACTIVE
 70
     0
 10
0.0
 20
0.0
 11
1.0
 21
1.0
 12
60.0
 22
80.5
 13
0.0
 23
0.0
 14
1.0
 24
1.0
 15
0.0
 25
0.0
 16
0.0
 26
0.0
 36
1.0
 17
0.0
 27
0.0
 37
0.0
 40
162.23529411764699
 41
2.0435339308578739
 42
50.0
 43
0.0
 44
0.0
 50
0.0
 51
0.0
 71
     0
 72
   100
 73
     1
 74
     3
 75
     0
 76
     0
 77
     0
 78
     0
  0
ENDTAB
  0
TABLE
  2
LTYPE
 70
     1
  0
LTYPE
  2
CONTINUOUS
 70
     0
  3
Solid line
 72
    65
 73
     0
 40
0.0
  0
ENDTAB
  0
TABLE
  2
LAYER
 70
     1
  0
LAYER
  2
0
 70
     0
 62
     7
  6
CONTINUOUS
  0
ENDTAB
  0
TABLE
  2
STYLE
 70
     1
  0
STYLE
  2
STANDARD
 70
     0
 40
0.0
 41
1.0
 50
0.0
 71
     0
 42
0.2
  3
txt
  4

  0
ENDTAB
  0
TABLE
  2
VIEW
 70
     0
  0
ENDTAB
  0
TABLE
  2
UCS
 70
     0
  0
ENDTAB
  0
TABLE
  2
APPID
 70
     1
  0
APPID
  2
ACAD
 70
     0
  0
ENDTAB
  0
TABLE
  2
DIMSTYLE
 70
     1
  0
DIMSTYLE
  2
STANDARD
 70
     0
  3

  4

  5

  6

  7

 40
1.0
 41
0.18
 42
0.0625
 43
0.38
 44
0.18
 45
0.0
 46
0.0
 47
0.0
 48
0.0
140
0.18
141
0.09
142
0.0
143
25.399999999999999
144
1.0
145
0.0
146
1.0
147
0.09
 71
     0
 72
     0
 73
     1
 74
     1
 75
     0
 76
     0
 77
     0
 78
     0
170
     0
171
     2
172
     0
173
     0
174
     0
175
     0
176
     0
177
     0
178
     0
  0
ENDTAB
  0
ENDSEC
  0
SECTION
  2
BLOCKS
  0
BLOCK
  8
0
  2
$MODEL_SPACE
 70
     0
 10
0.0
 20
0.0
 30
0.0
  3
$MODEL_SPACE
  1

  0
ENDBLK
  5
20
  8
0
  0
BLOCK
 67
     1
  8
0
  2
$PAPER_SPACE
 70
     0
 10
0.0
 20
0.0
 30
0.0
  3
$PAPER_SPACE
  1

  0
ENDBLK
  5
1C
 67
     1
  8
0
  0
ENDSEC
  0
SECTION
  2
ENTITIES
  0
LINE
  5
22
  8
0
 10
0.0
 20
0.9999999999999978
 30
0.0
 11
0.3
 21
0.299999999999998
 31
0.0
  0
LINE
  5
23
  8
0
 10
0.0
 20
0.9999999999999978
 30
0.0
 11
0.3
 21
0.299999999999998
 31
0.0
  0
LINE
  5
24
  8
0
 10
0.3
 20
0.299999999999998
 30
0.0
 11
1.0
 21
-0.0000000000000017
 31
0.0
  0
LINE
  5
25
  8
0
 10
0.0
 20
1.0
 30
0.0
 11
0.0
 21
119.0
 31
0.0
  0
LINE
  5
26
  8
0
 10
0.0
 20
119.0
 30
0.0
 11
0.3
 21
119.7
 31
0.0
  0
LINE
  5
27
  8
0
 10
0.0
 20
119.0
 30
0.0
 11
0.0
 21
1.0
 31
0.0
  0
LINE
  5
28
  8
0
 10
0.3
 20
0.299999999999998
 30
0.0
 11
1.0
 21
-0.0000000000000017
 31
0.0
  0
LINE
  5
29
  8
0
 10
0.3
 20
0.3
 30
0.0
 11
0.5
 21
0.3
 31
0.0
  0
LINE
  5
2A
  8
0
 10
0.5
 20
0.3
 30
0.0
 11
1.0
 21
0.3
 31
0.0
  0
LINE
  5
2B
  8
0
 10
0.3
 20
1.0
 30
0.0
 11
0.3
 21
119.0
 31
0.0
  0
LINE
  5
2C
  8
0
 10
0.3
 20
1.0
 30
0.0
 11
0.5
 21
0.3
 31
0.0
  0
LINE
  5
2D
  8
0
 10
0.3
 20
1.0
 30
0.0
 11
0.5
 21
0.3
 31
0.0
  0
LINE
  5
2E
  8
0
 10
0.3
 20
119.0
 30
0.0
 11
0.5
 21
119.7
 31
0.0
  0
LINE
  5
2F
  8
0
 10
0.3
 20
119.0
 30
0.0
 11
0.3
 21
1.0
 31
0.0
  0
LINE
  5
30
  8
0
 10
1.0
 20
-0.0000000000000017
 30
0.0
 11
119.0
 21
-0.0000000000000017
 31
0.0
  0
LINE
  5
31
  8
0
 10
0.999999999999996
 20
-0.0000000000000017
 30
0.0
 11
119.0
 21
-0.0000000000000017
 31
0.0
  0
LINE
  5
32
  8
0
 10
0.999999999999996
 20
0.3
 30
0.0
 11
119.0
 21
0.3
 31
0.0
  0
LINE
  5
33
  8
0
 10
13.048
 20
15.0
 30
0.0
 11
13.119999999999999
 21
14.496
 31
0.0
  0
LINE
  5
34
  8
0
 10
13.048
 20
15.0
 30
0.0
 11
13.119999999999999
 21
15.504
 31
0.0
  0
LINE
  5
35
  8
0
 10
13.0
 20
105.0
 30
0.0
 11
13.071999999999999
 21
104.488
 31
0.0
  0
LINE
  5
36
  8
0
 10
13.0
 20
105.0
 30
0.0
 11
13.071999999999999
 21
105.512
 31
0.0
  0
LINE
  5
37
  8
0
 10
13.0
 20
87.0
 30
0.0
 11
13.071999999999999
 21
86.487999999999985
 31
0.0
  0
LINE
  5
38
  8
0
 10
13.0
 20
87.0
 30
0.0
 11
13.071999999999999
 21
87.512
 31
0.0
  0
LINE
  5
39
  8
0
 10
13.0
 20
69.0
 30
0.0
 11
13.071999999999999
 21
68.488
 31
0.0
  0
LINE
  5
3A
  8
0
 10
13.0
 20
69.0
 30
0.0
 11
13.071999999999999
 21
69.512
 31
0.0
  0
LINE
  5
3B
  8
0
 10
13.0
 20
51.0
 30
0.0
 11
13.071999999999999
 21
50.487999999999992
 31
0.0
  0
LINE
  5
3C
  8
0
 10
13.0
 20
51.0
 30
0.0
 11
13.071999999999999
 21
51.512
 31
0.0
  0
LINE
  5
3D
  8
0
 10
13.048
 20
105.0
 30
0.0
 11
13.119999999999999
 21
104.496
 31
0.0
  0
LINE
  5
3E
  8
0
 10
13.048
 20
105.0
 30
0.0
 11
13.119999999999999
 21
105.50399999999991
 31
0.0
  0
LINE
  5
3F
  8
0
 10
13.048
 20
87.0
 30
0.0
 11
13.119999999999999
 21
86.496000000000009
 31
0.0
  0
LINE
  5
40
  8
0
 10
13.048
 20
87.0
 30
0.0
 11
13.119999999999999
 21
87.503999999999991
 31
0.0
  0
LINE
  5
41
  8
0
 10
13.048
 20
69.0
 30
0.0
 11
13.119999999999999
 21
68.496000000000009
 31
0.0
  0
LINE
  5
42
  8
0
 10
13.048
 20
69.0
 30
0.0
 11
13.119999999999999
 21
69.503999999999991
 31
0.0
  0
LINE
  5
43
  8
0
 10
13.071999999999999
 20
105.512
 30
0.0
 11
13.263999999999999
 21
105.9919999999999
 31
0.0
  0
LINE
  5
44
  8
0
 10
13.071999999999999
 20
104.488
 30
0.0
 11
13.263999999999999
 21
104.0079999999999
 31
0.0
  0
LINE
  5
45
  8
0
 10
13.071999999999999
 20
87.512
 30
0.0
 11
13.263999999999999
 21
87.992000000000004
 31
0.0
  0
LINE
  5
46
  8
0
 10
13.071999999999999
 20
86.487999999999985
 30
0.0
 11
13.263999999999999
 21
86.007999999999996
 31
0.0
  0
LINE
  5
47
  8
0
 10
13.071999999999999
 20
69.512
 30
0.0
 11
13.263999999999999
 21
69.992000000000004
 31
0.0
  0
LINE
  5
48
  8
0
 10
13.071999999999999
 20
68.488
 30
0.0
 11
13.263999999999999
 21
68.007999999999996
 31
0.0
  0
LINE
  5
49
  8
0
 10
13.071999999999999
 20
51.512
 30
0.0
 11
13.263999999999999
 21
51.991999999999997
 31
0.0
  0
LINE
  5
4A
  8
0
 10
13.048
 20
51.0
 30
0.0
 11
13.119999999999999
 21
50.496000000000002
 31
0.0
  0
LINE
  5
4B
  8
0
 10
13.048
 20
51.0
 30
0.0
 11
13.119999999999999
 21
51.503999999999998
 31
0.0
  0
LINE
  5
4C
  8
0
 10
13.071999999999999
 20
50.487999999999992
 30
0.0
 11
13.263999999999999
 21
50.008000000000003
 31
0.0
  0
LINE
  5
4D
  8
0
 10
13.071999999999999
 20
33.512
 30
0.0
 11
13.263999999999999
 21
33.99199999999999
 31
0.0
  0
LINE
  5
4E
  8
0
 10
13.048
 20
33.0
 30
0.0
 11
13.119999999999999
 21
32.496000000000002
 31
0.0
  0
LINE
  5
4F
  8
0
 10
13.048
 20
33.0
 30
0.0
 11
13.119999999999999
 21
33.503999999999998
 31
0.0
  0
LINE
  5
50
  8
0
 10
13.0
 20
33.0
 30
0.0
 11
13.071999999999999
 21
32.488
 31
0.0
  0
LINE
  5
51
  8
0
 10
13.0
 20
33.0
 30
0.0
 11
13.071999999999999
 21
33.512
 31
0.0
  0
LINE
  5
52
  8
0
 10
13.071999999999999
 20
32.488
 30
0.0
 11
13.263999999999999
 21
32.008000000000003
 31
0.0
  0
LINE
  5
53
  8
0
 10
13.071999999999999
 20
15.512
 30
0.0
 11
13.263999999999999
 21
15.992000000000001
 31
0.0
  0
LINE
  5
54
  8
0
 10
13.0
 20
15.0
 30
0.0
 11
13.071999999999999
 21
14.488
 31
0.0
  0
LINE
  5
55
  8
0
 10
13.0
 20
15.0
 30
0.0
 11
13.071999999999999
 21
15.512
 31
0.0
  0
LINE
  5
56
  8
0
 10
13.119999999999999
 20
105.50399999999991
 30
0.0
 11
13.311999999999999
 21
105.9679999999999
 31
0.0
  0
LINE
  5
57
  8
0
 10
13.119999999999999
 20
104.496
 30
0.0
 11
13.311999999999999
 21
104.032
 31
0.0
  0
LINE
  5
58
  8
0
 10
13.119999999999999
 20
87.503999999999991
 30
0.0
 11
13.311999999999999
 21
87.967999999999989
 31
0.0
  0
LINE
  5
59
  8
0
 10
13.119999999999999
 20
86.496000000000009
 30
0.0
 11
13.311999999999999
 21
86.032000000000011
 31
0.0
  0
LINE
  5
5A
  8
0
 10
13.119999999999999
 20
69.503999999999991
 30
0.0
 11
13.311999999999999
 21
69.968000000000004
 31
0.0
  0
LINE
  5
5B
  8
0
 10
13.119999999999999
 20
68.496000000000009
 30
0.0
 11
13.311999999999999
 21
68.031999999999996
 31
0.0
  0
LINE
  5
5C
  8
0
 10
13.119999999999999
 20
51.503999999999998
 30
0.0
 11
13.311999999999999
 21
51.968000000000004
 31
0.0
  0
LINE
  5
5D
  8
0
 10
13.119999999999999
 20
50.496000000000002
 30
0.0
 11
13.311999999999999
 21
50.031999999999989
 31
0.0
  0
LINE
  5
5E
  8
0
 10
13.119999999999999
 20
33.503999999999998
 30
0.0
 11
13.311999999999999
 21
33.968000000000004
 31
0.0
  0
LINE
  5
5F
  8
0
 10
13.119999999999999
 20
32.496000000000002
 30
0.0
 11
13.311999999999999
 21
32.031999999999989
 31
0.0
  0
LINE
  5
60
  8
0
 10
13.119999999999999
 20
15.504
 30
0.0
 11
13.311999999999999
 21
15.967999999999989
 31
0.0
  0
LINE
  5
61
  8
0
 10
13.311999999999999
 20
15.967999999999989
 30
0.0
 11
13.624000000000001
 21
16.375999999999991
 31
0.0
  0
LINE
  5
62
  8
0
 10
13.263999999999999
 20
15.992000000000001
 30
0.0
 11
13.584
 21
16.416
 31
0.0
  0
LINE
  5
63
  8
0
 10
13.311999999999999
 20
33.968000000000004
 30
0.0
 11
13.624000000000001
 21
34.375999999999991
 31
0.0
  0
LINE
  5
64
  8
0
 10
13.263999999999999
 20
105.9919999999999
 30
0.0
 11
13.584
 21
106.4159999999999
 31
0.0
  0
LINE
  5
65
  8
0
 10
13.263999999999999
 20
104.0079999999999
 30
0.0
 11
13.584
 21
103.584
 31
0.0
  0
LINE
  5
66
  8
0
 10
13.263999999999999
 20
87.992000000000004
 30
0.0
 11
13.584
 21
88.415999999999997
 31
0.0
  0
LINE
  5
67
  8
0
 10
13.263999999999999
 20
86.007999999999996
 30
0.0
 11
13.584
 21
85.584000000000003
 31
0.0
  0
LINE
  5
68
  8
0
 10
13.263999999999999
 20
69.992000000000004
 30
0.0
 11
13.584
 21
70.415999999999997
 31
0.0
  0
LINE
  5
69
  8
0
 10
13.263999999999999
 20
68.007999999999996
 30
0.0
 11
13.584
 21
67.584000000000003
 31
0.0
  0
LINE
  5
6A
  8
0
 10
13.263999999999999
 20
51.991999999999997
 30
0.0
 11
13.584
 21
52.415999999999997
 31
0.0
  0
LINE
  5
6B
  8
0
 10
13.311999999999999
 20
105.9679999999999
 30
0.0
 11
13.624000000000001
 21
106.376
 31
0.0
  0
LINE
  5
6C
  8
0
 10
13.311999999999999
 20
104.032
 30
0.0
 11
13.624000000000001
 21
103.624
 31
0.0
  0
LINE
  5
6D
  8
0
 10
13.311999999999999
 20
87.967999999999989
 30
0.0
 11
13.624000000000001
 21
88.376000000000005
 31
0.0
  0
LINE
  5
6E
  8
0
 10
13.311999999999999
 20
86.032000000000011
 30
0.0
 11
13.624000000000001
 21
85.623999999999995
 31
0.0
  0
LINE
  5
6F
  8
0
 10
13.311999999999999
 20
69.968000000000004
 30
0.0
 11
13.624000000000001
 21
70.376000000000005
 31
0.0
  0
LINE
  5
70
  8
0
 10
13.311999999999999
 20
68.031999999999996
 30
0.0
 11
13.624000000000001
 21
67.623999999999995
 31
0.0
  0
LINE
  5
71
  8
0
 10
13.311999999999999
 20
51.968000000000004
 30
0.0
 11
13.624000000000001
 21
52.375999999999998
 31
0.0
  0
LINE
  5
72
  8
0
 10
13.311999999999999
 20
50.031999999999989
 30
0.0
 11
13.624000000000001
 21
49.623999999999988
 31
0.0
  0
LINE
  5
73
  8
0
 10
13.263999999999999
 20
50.008000000000003
 30
0.0
 11
13.584
 21
49.584000000000003
 31
0.0
  0
LINE
  5
74
  8
0
 10
13.263999999999999
 20
33.99199999999999
 30
0.0
 11
13.584
 21
34.41599999999999
 31
0.0
  0
LINE
  5
75
  8
0
 10
13.584
 20
106.4159999999999
 30
0.0
 11
14.007999999999999
 21
106.736
 31
0.0
  0
LINE
  5
76
  8
0
 10
13.584
 20
103.584
 30
0.0
 11
14.007999999999999
 21
103.264
 31
0.0
  0
LINE
  5
77
  8
0
 10
13.584
 20
88.415999999999997
 30
0.0
 11
14.007999999999999
 21
88.736000000000004
 31
0.0
  0
LINE
  5
78
  8
0
 10
13.584
 20
85.584000000000003
 30
0.0
 11
14.007999999999999
 21
85.263999999999996
 31
0.0
  0
LINE
  5
79
  8
0
 10
13.584
 20
70.415999999999997
 30
0.0
 11
14.007999999999999
 21
70.736000000000004
 31
0.0
  0
LINE
  5
7A
  8
0
 10
13.584
 20
67.584000000000003
 30
0.0
 11
14.007999999999999
 21
67.263999999999996
 31
0.0
  0
LINE
  5
7B
  8
0
 10
13.584
 20
52.415999999999997
 30
0.0
 11
14.007999999999999
 21
52.735999999999997
 31
0.0
  0
LINE
  5
7C
  8
0
 10
13.584
 20
49.584000000000003
 30
0.0
 11
14.007999999999999
 21
49.264000000000003
 31
0.0
  0
LINE
  5
7D
  8
0
 10
13.584
 20
34.41599999999999
 30
0.0
 11
14.007999999999999
 21
34.73599999999999
 31
0.0
  0
LINE
  5
7E
  8
0
 10
13.311999999999999
 20
32.031999999999989
 30
0.0
 11
13.624000000000001
 21
31.623999999999999
 31
0.0
  0
LINE
  5
7F
  8
0
 10
13.263999999999999
 20
32.008000000000003
 30
0.0
 11
13.584
 21
31.584
 31
0.0
  0
LINE
  5
80
  8
0
 10
13.584
 20
31.584
 30
0.0
 11
14.007999999999999
 21
31.263999999999999
 31
0.0
  0
LINE
  5
81
  8
0
 10
13.584
 20
16.416
 30
0.0
 11
14.007999999999999
 21
16.736000000000001
 31
0.0
  0
LINE
  5
82
  8
0
 10
13.119999999999999
 20
14.496
 30
0.0
 11
13.311999999999999
 21
14.032
 31
0.0
  0
LINE
  5
83
  8
0
 10
13.311999999999999
 20
14.032
 30
0.0
 11
13.624000000000001
 21
13.624000000000001
 31
0.0
  0
LINE
  5
84
  8
0
 10
13.071999999999999
 20
14.488
 30
0.0
 11
13.263999999999999
 21
14.007999999999999
 31
0.0
  0
LINE
  5
85
  8
0
 10
13.263999999999999
 20
14.007999999999999
 30
0.0
 11
13.584
 21
13.584
 31
0.0
  0
LINE
  5
86
  8
0
 10
13.624000000000001
 20
106.376
 30
0.0
 11
14.032
 21
106.6879999999999
 31
0.0
  0
LINE
  5
87
  8
0
 10
13.624000000000001
 20
103.624
 30
0.0
 11
14.032
 21
103.312
 31
0.0
  0
LINE
  5
88
  8
0
 10
13.624000000000001
 20
88.376000000000005
 30
0.0
 11
14.032
 21
88.687999999999974
 31
0.0
  0
LINE
  5
89
  8
0
 10
13.624000000000001
 20
85.623999999999995
 30
0.0
 11
14.032
 21
85.312000000000012
 31
0.0
  0
LINE
  5
8A
  8
0
 10
13.624000000000001
 20
70.376000000000005
 30
0.0
 11
14.032
 21
70.688000000000002
 31
0.0
  0
LINE
  5
8B
  8
0
 10
13.624000000000001
 20
67.623999999999995
 30
0.0
 11
14.032
 21
67.311999999999998
 31
0.0
  0
LINE
  5
8C
  8
0
 10
13.624000000000001
 20
52.375999999999998
 30
0.0
 11
14.032
 21
52.688000000000002
 31
0.0
  0
LINE
  5
8D
  8
0
 10
13.624000000000001
 20
49.623999999999988
 30
0.0
 11
14.032
 21
49.311999999999998
 31
0.0
  0
LINE
  5
8E
  8
0
 10
13.624000000000001
 20
34.375999999999991
 30
0.0
 11
14.032
 21
34.688000000000002
 31
0.0
  0
LINE
  5
8F
  8
0
 10
13.624000000000001
 20
31.623999999999999
 30
0.0
 11
14.032
 21
31.311999999999991
 31
0.0
  0
LINE
  5
90
  8
0
 10
13.624000000000001
 20
16.375999999999991
 30
0.0
 11
14.032
 21
16.687999999999999
 31
0.0
  0
LINE
  5
91
  8
0
 10
14.032
 20
16.687999999999999
 30
0.0
 11
14.496
 21
16.879999999999988
 31
0.0
  0
LINE
  5
92
  8
0
 10
14.007999999999999
 20
16.736000000000001
 30
0.0
 11
14.488
 21
16.928000000000001
 31
0.0
  0
LINE
  5
93
  8
0
 10
14.032
 20
34.688000000000002
 30
0.0
 11
14.496
 21
34.880000000000003
 31
0.0
  0
LINE
  5
94
  8
0
 10
14.007999999999999
 20
106.736
 30
0.0
 11
14.488
 21
106.928
 31
0.0
  0
LINE
  5
95
  8
0
 10
14.007999999999999
 20
103.264
 30
0.0
 11
14.488
 21
103.072
 31
0.0
  0
LINE
  5
96
  8
0
 10
14.007999999999999
 20
88.736000000000004
 30
0.0
 11
14.488
 21
88.927999999999983
 31
0.0
  0
LINE
  5
97
  8
0
 10
14.007999999999999
 20
85.263999999999996
 30
0.0
 11
14.488
 21
85.072000000000003
 31
0.0
  0
LINE
  5
98
  8
0
 10
14.007999999999999
 20
70.736000000000004
 30
0.0
 11
14.488
 21
70.927999999999997
 31
0.0
  0
LINE
  5
99
  8
0
 10
14.007999999999999
 20
67.263999999999996
 30
0.0
 11
14.488
 21
67.072000000000003
 31
0.0
  0
LINE
  5
9A
  8
0
 10
14.007999999999999
 20
52.735999999999997
 30
0.0
 11
14.488
 21
52.927999999999997
 31
0.0
  0
LINE
  5
9B
  8
0
 10
14.032
 20
106.6879999999999
 30
0.0
 11
14.496
 21
106.8799999999999
 31
0.0
  0
LINE
  5
9C
  8
0
 10
14.032
 20
103.312
 30
0.0
 11
14.496
 21
103.12
 31
0.0
  0
LINE
  5
9D
  8
0
 10
14.032
 20
88.687999999999974
 30
0.0
 11
14.496
 21
88.879999999999995
 31
0.0
  0
LINE
  5
9E
  8
0
 10
14.032
 20
85.312000000000012
 30
0.0
 11
14.496
 21
85.120000000000005
 31
0.0
  0
LINE
  5
9F
  8
0
 10
14.032
 20
70.688000000000002
 30
0.0
 11
14.496
 21
70.879999999999995
 31
0.0
  0
LINE
  5
A0
  8
0
 10
14.032
 20
67.311999999999998
 30
0.0
 11
14.496
 21
67.120000000000005
 31
0.0
  0
LINE
  5
A1
  8
0
 10
14.032
 20
52.688000000000002
 30
0.0
 11
14.496
 21
52.880000000000003
 31
0.0
  0
LINE
  5
A2
  8
0
 10
14.032
 20
49.311999999999998
 30
0.0
 11
14.496
 21
49.11999999999999
 31
0.0
  0
LINE
  5
A3
  8
0
 10
14.007999999999999
 20
49.264000000000003
 30
0.0
 11
14.488
 21
49.071999999999989
 31
0.0
  0
LINE
  5
A4
  8
0
 10
14.007999999999999
 20
34.73599999999999
 30
0.0
 11
14.488
 21
34.927999999999997
 31
0.0
  0
LINE
  5
A5
  8
0
 10
14.488
 20
106.928
 30
0.0
 11
15.0
 21
107.0
 31
0.0
  0
LINE
  5
A6
  8
0
 10
14.488
 20
103.072
 30
0.0
 11
15.0
 21
103.0
 31
0.0
  0
LINE
  5
A7
  8
0
 10
14.488
 20
88.927999999999983
 30
0.0
 11
15.0
 21
89.0
 31
0.0
  0
LINE
  5
A8
  8
0
 10
14.488
 20
85.072000000000003
 30
0.0
 11
15.0
 21
85.0
 31
0.0
  0
LINE
  5
A9
  8
0
 10
14.488
 20
70.927999999999997
 30
0.0
 11
15.0
 21
71.0
 31
0.0
  0
LINE
  5
AA
  8
0
 10
14.488
 20
67.072000000000003
 30
0.0
 11
15.0
 21
67.0
 31
0.0
  0
LINE
  5
AB
  8
0
 10
14.488
 20
52.927999999999997
 30
0.0
 11
15.0
 21
53.0
 31
0.0
  0
LINE
  5
AC
  8
0
 10
14.488
 20
49.071999999999989
 30
0.0
 11
15.0
 21
49.0
 31
0.0
  0
LINE
  5
AD
  8
0
 10
14.488
 20
34.927999999999997
 30
0.0
 11
15.0
 21
35.0
 31
0.0
  0
LINE
  5
AE
  8
0
 10
14.032
 20
31.311999999999991
 30
0.0
 11
14.496
 21
31.120000000000001
 31
0.0
  0
LINE
  5
AF
  8
0
 10
14.007999999999999
 20
31.263999999999999
 30
0.0
 11
14.488
 21
31.071999999999999
 31
0.0
  0
LINE
  5
B0
  8
0
 10
14.488
 20
31.071999999999999
 30
0.0
 11
15.0
 21
31.0
 31
0.0
  0
LINE
  5
B1
  8
0
 10
14.488
 20
16.928000000000001
 30
0.0
 11
15.0
 21
17.0
 31
0.0
  0
LINE
  5
B2
  8
0
 10
13.624000000000001
 20
13.624000000000001
 30
0.0
 11
14.032
 21
13.311999999999999
 31
0.0
  0
LINE
  5
B3
  8
0
 10
14.032
 20
13.311999999999999
 30
0.0
 11
14.496
 21
13.119999999999999
 31
0.0
  0
LINE
  5
B4
  8
0
 10
13.584
 20
13.584
 30
0.0
 11
14.007999999999999
 21
13.263999999999999
 31
0.0
  0
LINE
  5
B5
  8
0
 10
14.007999999999999
 20
13.263999999999999
 30
0.0
 11
14.488
 21
13.071999999999999
 31
0.0
  0
LINE
  5
B6
  8
0
 10
15.0
 20
13.048
 30
0.0
 11
15.504
 21
13.119999999999999
 31
0.0
  0
LINE
  5
B7
  8
0
 10
105.0
 20
13.0
 30
0.0
 11
105.512
 21
13.071999999999999
 31
0.0
  0
LINE
  5
B8
  8
0
 10
87.0
 20
13.0
 30
0.0
 11
87.512
 21
13.071999999999999
 31
0.0
  0
LINE
  5
B9
  8
0
 10
69.0
 20
13.0
 30
0.0
 11
69.512
 21
13.071999999999999
 31
0.0
  0
LINE
  5
BA
  8
0
 10
51.0
 20
13.0
 30
0.0
 11
51.512
 21
13.071999999999999
 31
0.0
  0
LINE
  5
BB
  8
0
 10
33.0
 20
13.048
 30
0.0
 11
33.503999999999998
 21
13.119999999999999
 31
0.0
  0
LINE
  5
BC
  8
0
 10
51.0
 20
13.048
 30
0.0
 11
51.503999999999998
 21
13.119999999999999
 31
0.0
  0
LINE
  5
BD
  8
0
 10
69.0
 20
13.048
 30
0.0
 11
69.503999999999991
 21
13.119999999999999
 31
0.0
  0
LINE
  5
BE
  8
0
 10
87.0
 20
13.048
 30
0.0
 11
87.503999999999991
 21
13.119999999999999
 31
0.0
  0
LINE
  5
BF
  8
0
 10
105.0
 20
13.048
 30
0.0
 11
105.50399999999991
 21
13.119999999999999
 31
0.0
  0
LINE
  5
C0
  8
0
 10
105.512
 20
13.071999999999999
 30
0.0
 11
105.9919999999999
 21
13.263999999999999
 31
0.0
  0
LINE
  5
C1
  8
0
 10
104.488
 20
13.071999999999999
 30
0.0
 11
105.0
 21
13.0
 31
0.0
  0
LINE
  5
C2
  8
0
 10
87.512
 20
13.071999999999999
 30
0.0
 11
87.992000000000004
 21
13.263999999999999
 31
0.0
  0
LINE
  5
C3
  8
0
 10
86.487999999999985
 20
13.071999999999999
 30
0.0
 11
87.0
 21
13.0
 31
0.0
  0
LINE
  5
C4
  8
0
 10
69.512
 20
13.071999999999999
 30
0.0
 11
69.992000000000004
 21
13.263999999999999
 31
0.0
  0
LINE
  5
C5
  8
0
 10
68.488
 20
13.071999999999999
 30
0.0
 11
69.0
 21
13.0
 31
0.0
  0
LINE
  5
C6
  8
0
 10
51.512
 20
13.071999999999999
 30
0.0
 11
51.991999999999997
 21
13.263999999999999
 31
0.0
  0
LINE
  5
C7
  8
0
 10
50.487999999999992
 20
13.071999999999999
 30
0.0
 11
51.0
 21
13.0
 31
0.0
  0
LINE
  5
C8
  8
0
 10
33.512
 20
13.071999999999999
 30
0.0
 11
33.99199999999999
 21
13.263999999999999
 31
0.0
  0
LINE
  5
C9
  8
0
 10
33.0
 20
13.0
 30
0.0
 11
33.512
 21
13.071999999999999
 31
0.0
  0
LINE
  5
CA
  8
0
 10
32.488
 20
13.071999999999999
 30
0.0
 11
33.0
 21
13.0
 31
0.0
  0
LINE
  5
CB
  8
0
 10
105.50399999999991
 20
13.119999999999999
 30
0.0
 11
105.9679999999999
 21
13.311999999999999
 31
0.0
  0
LINE
  5
CC
  8
0
 10
104.496
 20
13.119999999999999
 30
0.0
 11
105.0
 21
13.048
 31
0.0
  0
LINE
  5
CD
  8
0
 10
87.503999999999991
 20
13.119999999999999
 30
0.0
 11
87.967999999999989
 21
13.311999999999999
 31
0.0
  0
LINE
  5
CE
  8
0
 10
86.496000000000009
 20
13.119999999999999
 30
0.0
 11
87.0
 21
13.048
 31
0.0
  0
LINE
  5
CF
  8
0
 10
69.503999999999991
 20
13.119999999999999
 30
0.0
 11
69.968000000000004
 21
13.311999999999999
 31
0.0
  0
LINE
  5
D0
  8
0
 10
68.496000000000009
 20
13.119999999999999
 30
0.0
 11
69.0
 21
13.048
 31
0.0
  0
LINE
  5
D1
  8
0
 10
51.503999999999998
 20
13.119999999999999
 30
0.0
 11
51.968000000000004
 21
13.311999999999999
 31
0.0
  0
LINE
  5
D2
  8
0
 10
50.496000000000002
 20
13.119999999999999
 30
0.0
 11
51.0
 21
13.048
 31
0.0
  0
LINE
  5
D3
  8
0
 10
33.503999999999998
 20
13.119999999999999
 30
0.0
 11
33.968000000000004
 21
13.311999999999999
 31
0.0
  0
LINE
  5
D4
  8
0
 10
32.496000000000002
 20
13.119999999999999
 30
0.0
 11
33.0
 21
13.048
 31
0.0
  0
LINE
  5
D5
  8
0
 10
15.504
 20
13.119999999999999
 30
0.0
 11
15.967999999999989
 21
13.311999999999999
 31
0.0
  0
LINE
  5
D6
  8
0
 10
15.512
 20
13.071999999999999
 30
0.0
 11
15.992000000000001
 21
13.263999999999999
 31
0.0
  0
LINE
  5
D7
  8
0
 10
15.0
 20
13.0
 30
0.0
 11
15.512
 21
13.071999999999999
 31
0.0
  0
LINE
  5
D8
  8
0
 10
14.496
 20
106.8799999999999
 30
0.0
 11
15.0
 21
106.952
 31
0.0
  0
LINE
  5
D9
  8
0
 10
14.496
 20
103.12
 30
0.0
 11
15.0
 21
103.0479999999999
 31
0.0
  0
LINE
  5
DA
  8
0
 10
14.496
 20
88.879999999999995
 30
0.0
 11
15.0
 21
88.951999999999998
 31
0.0
  0
LINE
  5
DB
  8
0
 10
14.496
 20
85.120000000000005
 30
0.0
 11
15.0
 21
85.047999999999988
 31
0.0
  0
LINE
  5
DC
  8
0
 10
14.496
 20
70.879999999999995
 30
0.0
 11
15.0
 21
70.951999999999998
 31
0.0
  0
LINE
  5
DD
  8
0
 10
14.496
 20
67.120000000000005
 30
0.0
 11
15.0
 21
67.048000000000002
 31
0.0
  0
LINE
  5
DE
  8
0
 10
14.496
 20
52.880000000000003
 30
0.0
 11
15.0
 21
52.951999999999998
 31
0.0
  0
LINE
  5
DF
  8
0
 10
14.496
 20
49.11999999999999
 30
0.0
 11
15.0
 21
49.048000000000002
 31
0.0
  0
LINE
  5
E0
  8
0
 10
14.496
 20
34.880000000000003
 30
0.0
 11
15.0
 21
34.951999999999998
 31
0.0
  0
LINE
  5
E1
  8
0
 10
14.496
 20
31.120000000000001
 30
0.0
 11
15.0
 21
31.047999999999998
 31
0.0
  0
LINE
  5
E2
  8
0
 10
15.504
 20
16.879999999999988
 30
0.0
 11
15.967999999999989
 21
16.687999999999999
 31
0.0
  0
LINE
  5
E3
  8
0
 10
15.0
 20
16.952000000000002
 30
0.0
 11
15.504
 21
16.879999999999988
 31
0.0
  0
LINE
  5
E4
  8
0
 10
16.375999999999991
 20
13.624000000000001
 30
0.0
 11
16.687999999999999
 21
14.032
 31
0.0
  0
LINE
  5
E5
  8
0
 10
15.967999999999989
 20
13.311999999999999
 30
0.0
 11
16.375999999999991
 21
13.624000000000001
 31
0.0
  0
LINE
  5
E6
  8
0
 10
15.992000000000001
 20
13.263999999999999
 30
0.0
 11
16.416
 21
13.584
 31
0.0
  0
LINE
  5
E7
  8
0
 10
16.416
 20
13.584
 30
0.0
 11
16.736000000000001
 21
14.007999999999999
 31
0.0
  0
LINE
  5
E8
  8
0
 10
16.375999999999991
 20
16.375999999999991
 30
0.0
 11
16.687999999999999
 21
15.967999999999989
 31
0.0
  0
LINE
  5
E9
  8
0
 10
15.967999999999989
 20
16.687999999999999
 30
0.0
 11
16.375999999999991
 21
16.375999999999991
 31
0.0
  0
LINE
  5
EA
  8
0
 10
16.879999999999988
 20
14.496
 30
0.0
 11
16.952000000000002
 21
15.0
 31
0.0
  0
LINE
  5
EB
  8
0
 10
16.687999999999999
 20
14.032
 30
0.0
 11
16.879999999999988
 21
14.496
 31
0.0
  0
LINE
  5
EC
  8
0
 10
16.736000000000001
 20
14.007999999999999
 30
0.0
 11
16.928000000000001
 21
14.488
 31
0.0
  0
LINE
  5
ED
  8
0
 10
16.928000000000001
 20
14.488
 30
0.0
 11
17.0
 21
15.0
 31
0.0
  0
LINE
  5
EE
  8
0
 10
16.879999999999988
 20
15.504
 30
0.0
 11
16.952000000000002
 21
15.0
 31
0.0
  0
LINE
  5
EF
  8
0
 10
16.687999999999999
 20
15.967999999999989
 30
0.0
 11
16.879999999999988
 21
15.504
 31
0.0
  0
LINE
  5
F0
  8
0
 10
105.9919999999999
 20
13.263999999999999
 30
0.0
 11
106.4159999999999
 21
13.584
 31
0.0
  0
LINE
  5
F1
  8
0
 10
104.0079999999999
 20
13.263999999999999
 30
0.0
 11
104.488
 21
13.071999999999999
 31
0.0
  0
LINE
  5
F2
  8
0
 10
87.992000000000004
 20
13.263999999999999
 30
0.0
 11
88.415999999999997
 21
13.584
 31
0.0
  0
LINE
  5
F3
  8
0
 10
86.007999999999996
 20
13.263999999999999
 30
0.0
 11
86.487999999999985
 21
13.071999999999999
 31
0.0
  0
LINE
  5
F4
  8
0
 10
69.992000000000004
 20
13.263999999999999
 30
0.0
 11
70.415999999999997
 21
13.584
 31
0.0
  0
LINE
  5
F5
  8
0
 10
68.007999999999996
 20
13.263999999999999
 30
0.0
 11
68.488
 21
13.071999999999999
 31
0.0
  0
LINE
  5
F6
  8
0
 10
51.991999999999997
 20
13.263999999999999
 30
0.0
 11
52.415999999999997
 21
13.584
 31
0.0
  0
LINE
  5
F7
  8
0
 10
50.008000000000003
 20
13.263999999999999
 30
0.0
 11
50.487999999999992
 21
13.071999999999999
 31
0.0
  0
LINE
  5
F8
  8
0
 10
33.99199999999999
 20
13.263999999999999
 30
0.0
 11
34.41599999999999
 21
13.584
 31
0.0
  0
LINE
  5
F9
  8
0
 10
31.047999999999998
 20
15.0
 30
0.0
 11
31.120000000000001
 21
14.496
 31
0.0
  0
LINE
  5
FA
  8
0
 10
31.047999999999998
 20
15.0
 30
0.0
 11
31.120000000000001
 21
15.504
 31
0.0
  0
LINE
  5
FB
  8
0
 10
31.071999999999999
 20
15.512
 30
0.0
 11
31.263999999999999
 21
15.992000000000001
 31
0.0
  0
LINE
  5
FC
  8
0
 10
31.0
 20
15.0
 30
0.0
 11
31.071999999999999
 21
14.488
 31
0.0
  0
LINE
  5
FD
  8
0
 10
31.0
 20
15.0
 30
0.0
 11
31.071999999999999
 21
15.512
 31
0.0
  0
LINE
  5
FE
  8
0
 10
31.120000000000001
 20
15.504
 30
0.0
 11
31.311999999999991
 21
15.967999999999989
 31
0.0
  0
LINE
  5
FF
  8
0
 10
31.311999999999991
 20
15.967999999999989
 30
0.0
 11
31.623999999999999
 21
16.375999999999991
 31
0.0
  0
LINE
  5
100
  8
0
 10
31.263999999999999
 20
15.992000000000001
 30
0.0
 11
31.584
 21
16.416
 31
0.0
  0
LINE
  5
101
  8
0
 10
31.120000000000001
 20
14.496
 30
0.0
 11
31.311999999999991
 21
14.032
 31
0.0
  0
LINE
  5
102
  8
0
 10
31.311999999999991
 20
14.032
 30
0.0
 11
31.623999999999999
 21
13.624000000000001
 31
0.0
  0
LINE
  5
103
  8
0
 10
31.071999999999999
 20
14.488
 30
0.0
 11
31.263999999999999
 21
14.007999999999999
 31
0.0
  0
LINE
  5
104
  8
0
 10
31.263999999999999
 20
14.007999999999999
 30
0.0
 11
31.584
 21
13.584
 31
0.0
  0
LINE
  5
105
  8
0
 10
105.9679999999999
 20
13.311999999999999
 30
0.0
 11
106.376
 21
13.624000000000001
 31
0.0
  0
LINE
  5
106
  8
0
 10
104.032
 20
13.311999999999999
 30
0.0
 11
104.496
 21
13.119999999999999
 31
0.0
  0
LINE
  5
107
  8
0
 10
87.967999999999989
 20
13.311999999999999
 30
0.0
 11
88.376000000000005
 21
13.624000000000001
 31
0.0
  0
LINE
  5
108
  8
0
 10
86.032000000000011
 20
13.311999999999999
 30
0.0
 11
86.496000000000009
 21
13.119999999999999
 31
0.0
  0
LINE
  5
109
  8
0
 10
69.968000000000004
 20
13.311999999999999
 30
0.0
 11
70.376000000000005
 21
13.624000000000001
 31
0.0
  0
LINE
  5
10A
  8
0
 10
68.031999999999996
 20
13.311999999999999
 30
0.0
 11
68.496000000000009
 21
13.119999999999999
 31
0.0
  0
LINE
  5
10B
  8
0
 10
51.968000000000004
 20
13.311999999999999
 30
0.0
 11
52.375999999999998
 21
13.624000000000001
 31
0.0
  0
LINE
  5
10C
  8
0
 10
50.031999999999989
 20
13.311999999999999
 30
0.0
 11
50.496000000000002
 21
13.119999999999999
 31
0.0
  0
LINE
  5
10D
  8
0
 10
33.968000000000004
 20
13.311999999999999
 30
0.0
 11
34.375999999999991
 21
13.624000000000001
 31
0.0
  0
LINE
  5
10E
  8
0
 10
34.688000000000002
 20
14.032
 30
0.0
 11
34.880000000000003
 21
14.496
 31
0.0
  0
LINE
  5
10F
  8
0
 10
34.375999999999991
 20
13.624000000000001
 30
0.0
 11
34.688000000000002
 21
14.032
 31
0.0
  0
LINE
  5
110
  8
0
 10
34.880000000000003
 20
14.496
 30
0.0
 11
34.951999999999998
 21
15.0
 31
0.0
  0
LINE
  5
111
  8
0
 10
34.73599999999999
 20
14.007999999999999
 30
0.0
 11
34.927999999999997
 21
14.488
 31
0.0
  0
LINE
  5
112
  8
0
 10
34.41599999999999
 20
13.584
 30
0.0
 11
34.73599999999999
 21
14.007999999999999
 31
0.0
  0
LINE
  5
113
  8
0
 10
34.927999999999997
 20
14.488
 30
0.0
 11
35.0
 21
15.0
 31
0.0
  0
LINE
  5
114
  8
0
 10
34.880000000000003
 20
15.504
 30
0.0
 11
34.951999999999998
 21
15.0
 31
0.0
  0
LINE
  5
115
  8
0
 10
34.688000000000002
 20
15.967999999999989
 30
0.0
 11
34.880000000000003
 21
15.504
 31
0.0
  0
LINE
  5
116
  8
0
 10
106.4159999999999
 20
13.584
 30
0.0
 11
106.736
 21
14.007999999999999
 31
0.0
  0
LINE
  5
117
  8
0
 10
103.584
 20
13.584
 30
0.0
 11
104.0079999999999
 21
13.263999999999999
 31
0.0
  0
LINE
  5
118
  8
0
 10
88.415999999999997
 20
13.584
 30
0.0
 11
88.736000000000004
 21
14.007999999999999
 31
0.0
  0
LINE
  5
119
  8
0
 10
85.584000000000003
 20
13.584
 30
0.0
 11
86.007999999999996
 21
13.263999999999999
 31
0.0
  0
LINE
  5
11A
  8
0
 10
70.415999999999997
 20
13.584
 30
0.0
 11
70.736000000000004
 21
14.007999999999999
 31
0.0
  0
LINE
  5
11B
  8
0
 10
67.584000000000003
 20
13.584
 30
0.0
 11
68.007999999999996
 21
13.263999999999999
 31
0.0
  0
LINE
  5
11C
  8
0
 10
52.415999999999997
 20
13.584
 30
0.0
 11
52.735999999999997
 21
14.007999999999999
 31
0.0
  0
LINE
  5
11D
  8
0
 10
49.11999999999999
 20
15.504
 30
0.0
 11
49.311999999999998
 21
15.967999999999989
 31
0.0
  0
LINE
  5
11E
  8
0
 10
49.071999999999989
 20
15.512
 30
0.0
 11
49.264000000000003
 21
15.992000000000001
 31
0.0
  0
LINE
  5
11F
  8
0
 10
49.264000000000003
 20
15.992000000000001
 30
0.0
 11
49.584000000000003
 21
16.416
 31
0.0
  0
LINE
  5
120
  8
0
 10
49.048000000000002
 20
15.0
 30
0.0
 11
49.11999999999999
 21
14.496
 31
0.0
  0
LINE
  5
121
  8
0
 10
49.048000000000002
 20
15.0
 30
0.0
 11
49.11999999999999
 21
15.504
 31
0.0
  0
LINE
  5
122
  8
0
 10
49.11999999999999
 20
14.496
 30
0.0
 11
49.311999999999998
 21
14.032
 31
0.0
  0
LINE
  5
123
  8
0
 10
49.0
 20
15.0
 30
0.0
 11
49.071999999999989
 21
14.488
 31
0.0
  0
LINE
  5
124
  8
0
 10
49.0
 20
15.0
 30
0.0
 11
49.071999999999989
 21
15.512
 31
0.0
  0
LINE
  5
125
  8
0
 10
49.071999999999989
 20
14.488
 30
0.0
 11
49.264000000000003
 21
14.007999999999999
 31
0.0
  0
LINE
  5
126
  8
0
 10
106.376
 20
13.624000000000001
 30
0.0
 11
106.6879999999999
 21
14.032
 31
0.0
  0
LINE
  5
127
  8
0
 10
103.624
 20
13.624000000000001
 30
0.0
 11
104.032
 21
13.311999999999999
 31
0.0
  0
LINE
  5
128
  8
0
 10
88.376000000000005
 20
13.624000000000001
 30
0.0
 11
88.687999999999974
 21
14.032
 31
0.0
  0
LINE
  5
129
  8
0
 10
85.623999999999995
 20
13.624000000000001
 30
0.0
 11
86.032000000000011
 21
13.311999999999999
 31
0.0
  0
LINE
  5
12A
  8
0
 10
70.376000000000005
 20
13.624000000000001
 30
0.0
 11
70.688000000000002
 21
14.032
 31
0.0
  0
LINE
  5
12B
  8
0
 10
67.623999999999995
 20
13.624000000000001
 30
0.0
 11
68.031999999999996
 21
13.311999999999999
 31
0.0
  0
LINE
  5
12C
  8
0
 10
52.375999999999998
 20
13.624000000000001
 30
0.0
 11
52.688000000000002
 21
14.032
 31
0.0
  0
LINE
  5
12D
  8
0
 10
49.311999999999998
 20
15.967999999999989
 30
0.0
 11
49.623999999999988
 21
16.375999999999991
 31
0.0
  0
LINE
  5
12E
  8
0
 10
52.880000000000003
 20
14.496
 30
0.0
 11
52.951999999999998
 21
15.0
 31
0.0
  0
LINE
  5
12F
  8
0
 10
52.688000000000002
 20
14.032
 30
0.0
 11
52.880000000000003
 21
14.496
 31
0.0
  0
LINE
  5
130
  8
0
 10
52.735999999999997
 20
14.007999999999999
 30
0.0
 11
52.927999999999997
 21
14.488
 31
0.0
  0
LINE
  5
131
  8
0
 10
52.927999999999997
 20
14.488
 30
0.0
 11
53.0
 21
15.0
 31
0.0
  0
LINE
  5
132
  8
0
 10
52.880000000000003
 20
15.504
 30
0.0
 11
52.951999999999998
 21
15.0
 31
0.0
  0
LINE
  5
133
  8
0
 10
52.688000000000002
 20
15.967999999999989
 30
0.0
 11
52.880000000000003
 21
15.504
 31
0.0
  0
LINE
  5
134
  8
0
 10
106.736
 20
14.007999999999999
 30
0.0
 11
106.928
 21
14.488
 31
0.0
  0
LINE
  5
135
  8
0
 10
103.264
 20
14.007999999999999
 30
0.0
 11
103.584
 21
13.584
 31
0.0
  0
LINE
  5
136
  8
0
 10
88.736000000000004
 20
14.007999999999999
 30
0.0
 11
88.927999999999983
 21
14.488
 31
0.0
  0
LINE
  5
137
  8
0
 10
85.263999999999996
 20
14.007999999999999
 30
0.0
 11
85.584000000000003
 21
13.584
 31
0.0
  0
LINE
  5
138
  8
0
 10
70.736000000000004
 20
14.007999999999999
 30
0.0
 11
70.927999999999997
 21
14.488
 31
0.0
  0
LINE
  5
139
  8
0
 10
67.048000000000002
 20
15.0
 30
0.0
 11
67.120000000000005
 21
14.496
 31
0.0
  0
LINE
  5
13A
  8
0
 10
67.048000000000002
 20
15.0
 30
0.0
 11
67.120000000000005
 21
15.504
 31
0.0
  0
LINE
  5
13B
  8
0
 10
67.072000000000003
 20
15.512
 30
0.0
 11
67.263999999999996
 21
15.992000000000001
 31
0.0
  0
LINE
  5
13C
  8
0
 10
67.0
 20
15.0
 30
0.0
 11
67.072000000000003
 21
14.488
 31
0.0
  0
LINE
  5
13D
  8
0
 10
67.0
 20
15.0
 30
0.0
 11
67.072000000000003
 21
15.512
 31
0.0
  0
LINE
  5
13E
  8
0
 10
106.6879999999999
 20
14.032
 30
0.0
 11
106.8799999999999
 21
14.496
 31
0.0
  0
LINE
  5
13F
  8
0
 10
103.312
 20
14.032
 30
0.0
 11
103.624
 21
13.624000000000001
 31
0.0
  0
LINE
  5
140
  8
0
 10
88.687999999999974
 20
14.032
 30
0.0
 11
88.879999999999995
 21
14.496
 31
0.0
  0
LINE
  5
141
  8
0
 10
85.312000000000012
 20
14.032
 30
0.0
 11
85.623999999999995
 21
13.624000000000001
 31
0.0
  0
LINE
  5
142
  8
0
 10
70.688000000000002
 20
14.032
 30
0.0
 11
70.879999999999995
 21
14.496
 31
0.0
  0
LINE
  5
143
  8
0
 10
67.120000000000005
 20
15.504
 30
0.0
 11
67.311999999999998
 21
15.967999999999989
 31
0.0
  0
LINE
  5
144
  8
0
 10
70.879999999999995
 20
14.496
 30
0.0
 11
70.951999999999998
 21
15.0
 31
0.0
  0
LINE
  5
145
  8
0
 10
70.927999999999997
 20
14.488
 30
0.0
 11
71.0
 21
15.0
 31
0.0
  0
LINE
  5
146
  8
0
 10
70.879999999999995
 20
15.504
 30
0.0
 11
70.951999999999998
 21
15.0
 31
0.0
  0
LINE
  5
147
  8
0
 10
70.688000000000002
 20
15.967999999999989
 30
0.0
 11
70.879999999999995
 21
15.504
 31
0.0
  0
LINE
  5
148
  8
0
 10
106.928
 20
14.488
 30
0.0
 11
107.0
 21
15.0
 31
0.0
  0
LINE
  5
149
  8
0
 10
103.072
 20
14.488
 30
0.0
 11
103.264
 21
14.007999999999999
 31
0.0
  0
LINE
  5
14A
  8
0
 10
88.927999999999983
 20
14.488
 30
0.0
 11
89.0
 21
15.0
 31
0.0
  0
LINE
  5
14B
  8
0
 10
106.8799999999999
 20
14.496
 30
0.0
 11
106.952
 21
15.0
 31
0.0
  0
LINE
  5
14C
  8
0
 10
103.12
 20
14.496
 30
0.0
 11
103.312
 21
14.032
 31
0.0
  0
LINE
  5
14D
  8
0
 10
88.879999999999995
 20
14.496
 30
0.0
 11
88.951999999999998
 21
15.0
 31
0.0
  0
LINE
  5
14E
  8
0
 10
103.0479999999999
 20
15.0
 30
0.0
 11
103.12
 21
14.496
 31
0.0
  0
LINE
  5
14F
  8
0
 10
103.0479999999999
 20
15.0
 30
0.0
 11
103.12
 21
15.504
 31
0.0
  0
LINE
  5
150
  8
0
 10
106.8799999999999
 20
15.504
 30
0.0
 11
106.952
 21
15.0
 31
0.0
  0
LINE
  5
151
  8
0
 10
106.928
 20
15.512
 30
0.0
 11
107.0
 21
15.0
 31
0.0
  0
LINE
  5
152
  8
0
 10
103.12
 20
15.504
 30
0.0
 11
103.312
 21
15.967999999999989
 31
0.0
  0
LINE
  5
153
  8
0
 10
103.072
 20
15.512
 30
0.0
 11
103.264
 21
15.992000000000001
 31
0.0
  0
LINE
  5
154
  8
0
 10
103.0
 20
15.0
 30
0.0
 11
103.072
 21
14.488
 31
0.0
  0
LINE
  5
155
  8
0
 10
103.0
 20
15.0
 30
0.0
 11
103.072
 21
15.512
 31
0.0
  0
LINE
  5
156
  8
0
 10
88.879999999999995
 20
15.504
 30
0.0
 11
88.951999999999998
 21
15.0
 31
0.0
  0
LINE
  5
157
  8
0
 10
106.6879999999999
 20
15.967999999999989
 30
0.0
 11
106.8799999999999
 21
15.504
 31
0.0
  0
LINE
  5
158
  8
0
 10
103.312
 20
15.967999999999989
 30
0.0
 11
103.624
 21
16.375999999999991
 31
0.0
  0
LINE
  5
159
  8
0
 10
88.687999999999974
 20
15.967999999999989
 30
0.0
 11
88.879999999999995
 21
15.504
 31
0.0
  0
LINE
  5
15A
  8
0
 10
88.927999999999983
 20
15.512
 30
0.0
 11
89.0
 21
15.0
 31
0.0
  0
LINE
  5
15B
  8
0
 10
85.120000000000005
 20
15.504
 30
0.0
 11
85.312000000000012
 21
15.967999999999989
 31
0.0
  0
LINE
  5
15C
  8
0
 10
106.736
 20
15.992000000000001
 30
0.0
 11
106.928
 21
15.512
 31
0.0
  0
LINE
  5
15D
  8
0
 10
103.264
 20
15.992000000000001
 30
0.0
 11
103.584
 21
16.416
 31
0.0
  0
LINE
  5
15E
  8
0
 10
88.736000000000004
 20
15.992000000000001
 30
0.0
 11
88.927999999999983
 21
15.512
 31
0.0
  0
LINE
  5
15F
  8
0
 10
85.312000000000012
 20
15.967999999999989
 30
0.0
 11
85.623999999999995
 21
16.375999999999991
 31
0.0
  0
LINE
  5
160
  8
0
 10
85.072000000000003
 20
15.512
 30
0.0
 11
85.263999999999996
 21
15.992000000000001
 31
0.0
  0
LINE
  5
161
  8
0
 10
85.263999999999996
 20
15.992000000000001
 30
0.0
 11
85.584000000000003
 21
16.416
 31
0.0
  0
LINE
  5
162
  8
0
 10
85.047999999999988
 20
15.0
 30
0.0
 11
85.120000000000005
 21
14.496
 31
0.0
  0
LINE
  5
163
  8
0
 10
85.047999999999988
 20
15.0
 30
0.0
 11
85.120000000000005
 21
15.504
 31
0.0
  0
LINE
  5
164
  8
0
 10
85.120000000000005
 20
14.496
 30
0.0
 11
85.312000000000012
 21
14.032
 31
0.0
  0
LINE
  5
165
  8
0
 10
85.0
 20
15.0
 30
0.0
 11
85.072000000000003
 21
14.488
 31
0.0
  0
LINE
  5
166
  8
0
 10
85.0
 20
15.0
 30
0.0
 11
85.072000000000003
 21
15.512
 31
0.0
  0
LINE
  5
167
  8
0
 10
85.072000000000003
 20
14.488
 30
0.0
 11
85.263999999999996
 21
14.007999999999999
 31
0.0
  0
LINE
  5
168
  8
0
 10
70.927999999999997
 20
15.512
 30
0.0
 11
71.0
 21
15.0
 31
0.0
  0
LINE
  5
169
  8
0
 10
70.736000000000004
 20
15.992000000000001
 30
0.0
 11
70.927999999999997
 21
15.512
 31
0.0
  0
LINE
  5
16A
  8
0
 10
67.311999999999998
 20
15.967999999999989
 30
0.0
 11
67.623999999999995
 21
16.375999999999991
 31
0.0
  0
LINE
  5
16B
  8
0
 10
67.263999999999996
 20
15.992000000000001
 30
0.0
 11
67.584000000000003
 21
16.416
 31
0.0
  0
LINE
  5
16C
  8
0
 10
67.120000000000005
 20
14.496
 30
0.0
 11
67.311999999999998
 21
14.032
 31
0.0
  0
LINE
  5
16D
  8
0
 10
67.311999999999998
 20
14.032
 30
0.0
 11
67.623999999999995
 21
13.624000000000001
 31
0.0
  0
LINE
  5
16E
  8
0
 10
67.072000000000003
 20
14.488
 30
0.0
 11
67.263999999999996
 21
14.007999999999999
 31
0.0
  0
LINE
  5
16F
  8
0
 10
67.263999999999996
 20
14.007999999999999
 30
0.0
 11
67.584000000000003
 21
13.584
 31
0.0
  0
LINE
  5
170
  8
0
 10
52.927999999999997
 20
15.512
 30
0.0
 11
53.0
 21
15.0
 31
0.0
  0
LINE
  5
171
  8
0
 10
52.735999999999997
 20
15.992000000000001
 30
0.0
 11
52.927999999999997
 21
15.512
 31
0.0
  0
LINE
  5
172
  8
0
 10
49.311999999999998
 20
14.032
 30
0.0
 11
49.623999999999988
 21
13.624000000000001
 31
0.0
  0
LINE
  5
173
  8
0
 10
49.623999999999988
 20
13.624000000000001
 30
0.0
 11
50.031999999999989
 21
13.311999999999999
 31
0.0
  0
LINE
  5
174
  8
0
 10
49.264000000000003
 20
14.007999999999999
 30
0.0
 11
49.584000000000003
 21
13.584
 31
0.0
  0
LINE
  5
175
  8
0
 10
49.584000000000003
 20
13.584
 30
0.0
 11
50.008000000000003
 21
13.263999999999999
 31
0.0
  0
LINE
  5
176
  8
0
 10
34.927999999999997
 20
15.512
 30
0.0
 11
35.0
 21
15.0
 31
0.0
  0
LINE
  5
177
  8
0
 10
34.73599999999999
 20
15.992000000000001
 30
0.0
 11
34.927999999999997
 21
15.512
 31
0.0
  0
LINE
  5
178
  8
0
 10
31.623999999999999
 20
13.624000000000001
 30
0.0
 11
32.031999999999989
 21
13.311999999999999
 31
0.0
  0
LINE
  5
179
  8
0
 10
32.031999999999989
 20
13.311999999999999
 30
0.0
 11
32.496000000000002
 21
13.119999999999999
 31
0.0
  0
LINE
  5
17A
  8
0
 10
31.584
 20
13.584
 30
0.0
 11
32.008000000000003
 21
13.263999999999999
 31
0.0
  0
LINE
  5
17B
  8
0
 10
32.008000000000003
 20
13.263999999999999
 30
0.0
 11
32.488
 21
13.071999999999999
 31
0.0
  0
LINE
  5
17C
  8
0
 10
16.928000000000001
 20
15.512
 30
0.0
 11
17.0
 21
15.0
 31
0.0
  0
LINE
  5
17D
  8
0
 10
31.623999999999999
 20
16.375999999999991
 30
0.0
 11
32.031999999999989
 21
16.687999999999999
 31
0.0
  0
LINE
  5
17E
  8
0
 10
31.584
 20
16.416
 30
0.0
 11
32.008000000000003
 21
16.736000000000001
 31
0.0
  0
LINE
  5
17F
  8
0
 10
34.375999999999991
 20
16.375999999999991
 30
0.0
 11
34.688000000000002
 21
15.967999999999989
 31
0.0
  0
LINE
  5
180
  8
0
 10
33.968000000000004
 20
16.687999999999999
 30
0.0
 11
34.375999999999991
 21
16.375999999999991
 31
0.0
  0
LINE
  5
181
  8
0
 10
106.376
 20
16.375999999999991
 30
0.0
 11
106.6879999999999
 21
15.967999999999989
 31
0.0
  0
LINE
  5
182
  8
0
 10
106.4159999999999
 20
16.416
 30
0.0
 11
106.736
 21
15.992000000000001
 31
0.0
  0
LINE
  5
183
  8
0
 10
103.624
 20
16.375999999999991
 30
0.0
 11
104.032
 21
16.687999999999999
 31
0.0
  0
LINE
  5
184
  8
0
 10
103.584
 20
16.416
 30
0.0
 11
104.0079999999999
 21
16.736000000000001
 31
0.0
  0
LINE
  5
185
  8
0
 10
88.376000000000005
 20
16.375999999999991
 30
0.0
 11
88.687999999999974
 21
15.967999999999989
 31
0.0
  0
LINE
  5
186
  8
0
 10
88.415999999999997
 20
16.416
 30
0.0
 11
88.736000000000004
 21
15.992000000000001
 31
0.0
  0
LINE
  5
187
  8
0
 10
85.623999999999995
 20
16.375999999999991
 30
0.0
 11
86.032000000000011
 21
16.687999999999999
 31
0.0
  0
LINE
  5
188
  8
0
 10
85.584000000000003
 20
16.416
 30
0.0
 11
86.007999999999996
 21
16.736000000000001
 31
0.0
  0
LINE
  5
189
  8
0
 10
70.376000000000005
 20
16.375999999999991
 30
0.0
 11
70.688000000000002
 21
15.967999999999989
 31
0.0
  0
LINE
  5
18A
  8
0
 10
70.415999999999997
 20
16.416
 30
0.0
 11
70.736000000000004
 21
15.992000000000001
 31
0.0
  0
LINE
  5
18B
  8
0
 10
67.623999999999995
 20
16.375999999999991
 30
0.0
 11
68.031999999999996
 21
16.687999999999999
 31
0.0
  0
LINE
  5
18C
  8
0
 10
67.584000000000003
 20
16.416
 30
0.0
 11
68.007999999999996
 21
16.736000000000001
 31
0.0
  0
LINE
  5
18D
  8
0
 10
52.375999999999998
 20
16.375999999999991
 30
0.0
 11
52.688000000000002
 21
15.967999999999989
 31
0.0
  0
LINE
  5
18E
  8
0
 10
52.415999999999997
 20
16.416
 30
0.0
 11
52.735999999999997
 21
15.992000000000001
 31
0.0
  0
LINE
  5
18F
  8
0
 10
49.623999999999988
 20
16.375999999999991
 30
0.0
 11
50.031999999999989
 21
16.687999999999999
 31
0.0
  0
LINE
  5
190
  8
0
 10
105.9679999999999
 20
16.687999999999999
 30
0.0
 11
106.376
 21
16.375999999999991
 31
0.0
  0
LINE
  5
191
  8
0
 10
104.032
 20
16.687999999999999
 30
0.0
 11
104.496
 21
16.879999999999988
 31
0.0
  0
LINE
  5
192
  8
0
 10
87.967999999999989
 20
16.687999999999999
 30
0.0
 11
88.376000000000005
 21
16.375999999999991
 31
0.0
  0
LINE
  5
193
  8
0
 10
86.032000000000011
 20
16.687999999999999
 30
0.0
 11
86.496000000000009
 21
16.879999999999988
 31
0.0
  0
LINE
  5
194
  8
0
 10
69.968000000000004
 20
16.687999999999999
 30
0.0
 11
70.376000000000005
 21
16.375999999999991
 31
0.0
  0
LINE
  5
195
  8
0
 10
68.031999999999996
 20
16.687999999999999
 30
0.0
 11
68.496000000000009
 21
16.879999999999988
 31
0.0
  0
LINE
  5
196
  8
0
 10
51.968000000000004
 20
16.687999999999999
 30
0.0
 11
52.375999999999998
 21
16.375999999999991
 31
0.0
  0
LINE
  5
197
  8
0
 10
50.031999999999989
 20
16.687999999999999
 30
0.0
 11
50.496000000000002
 21
16.879999999999988
 31
0.0
  0
LINE
  5
198
  8
0
 10
49.584000000000003
 20
16.416
 30
0.0
 11
50.008000000000003
 21
16.736000000000001
 31
0.0
  0
LINE
  5
199
  8
0
 10
34.41599999999999
 20
16.416
 30
0.0
 11
34.73599999999999
 21
15.992000000000001
 31
0.0
  0
LINE
  5
19A
  8
0
 10
105.9919999999999
 20
16.736000000000001
 30
0.0
 11
106.4159999999999
 21
16.416
 31
0.0
  0
LINE
  5
19B
  8
0
 10
104.0079999999999
 20
16.736000000000001
 30
0.0
 11
104.488
 21
16.928000000000001
 31
0.0
  0
LINE
  5
19C
  8
0
 10
87.992000000000004
 20
16.736000000000001
 30
0.0
 11
88.415999999999997
 21
16.416
 31
0.0
  0
LINE
  5
19D
  8
0
 10
86.007999999999996
 20
16.736000000000001
 30
0.0
 11
86.487999999999985
 21
16.928000000000001
 31
0.0
  0
LINE
  5
19E
  8
0
 10
69.992000000000004
 20
16.736000000000001
 30
0.0
 11
70.415999999999997
 21
16.416
 31
0.0
  0
LINE
  5
19F
  8
0
 10
68.007999999999996
 20
16.736000000000001
 30
0.0
 11
68.488
 21
16.928000000000001
 31
0.0
  0
LINE
  5
1A0
  8
0
 10
51.991999999999997
 20
16.736000000000001
 30
0.0
 11
52.415999999999997
 21
16.416
 31
0.0
  0
LINE
  5
1A1
  8
0
 10
50.008000000000003
 20
16.736000000000001
 30
0.0
 11
50.487999999999992
 21
16.928000000000001
 31
0.0
  0
LINE
  5
1A2
  8
0
 10
33.99199999999999
 20
16.736000000000001
 30
0.0
 11
34.41599999999999
 21
16.416
 31
0.0
  0
LINE
  5
1A3
  8
0
 10
32.031999999999989
 20
16.687999999999999
 30
0.0
 11
32.496000000000002
 21
16.879999999999988
 31
0.0
  0
LINE
  5
1A4
  8
0
 10
32.008000000000003
 20
16.736000000000001
 30
0.0
 11
32.488
 21
16.928000000000001
 31
0.0
  0
LINE
  5
1A5
  8
0
 10
16.736000000000001
 20
15.992000000000001
 30
0.0
 11
16.928000000000001
 21
15.512
 31
0.0
  0
LINE
  5
1A6
  8
0
 10
16.416
 20
16.416
 30
0.0
 11
16.736000000000001
 21
15.992000000000001
 31
0.0
  0
LINE
  5
1A7
  8
0
 10
105.50399999999991
 20
16.879999999999988
 30
0.0
 11
105.9679999999999
 21
16.687999999999999
 31
0.0
  0
LINE
  5
1A8
  8
0
 10
104.496
 20
16.879999999999988
 30
0.0
 11
105.0
 21
16.952000000000002
 31
0.0
  0
LINE
  5
1A9
  8
0
 10
87.503999999999991
 20
16.879999999999988
 30
0.0
 11
87.967999999999989
 21
16.687999999999999
 31
0.0
  0
LINE
  5
1AA
  8
0
 10
86.496000000000009
 20
16.879999999999988
 30
0.0
 11
87.0
 21
16.952000000000002
 31
0.0
  0
LINE
  5
1AB
  8
0
 10
69.503999999999991
 20
16.879999999999988
 30
0.0
 11
69.968000000000004
 21
16.687999999999999
 31
0.0
  0
LINE
  5
1AC
  8
0
 10
68.496000000000009
 20
16.879999999999988
 30
0.0
 11
69.0
 21
16.952000000000002
 31
0.0
  0
LINE
  5
1AD
  8
0
 10
51.503999999999998
 20
16.879999999999988
 30
0.0
 11
51.968000000000004
 21
16.687999999999999
 31
0.0
  0
LINE
  5
1AE
  8
0
 10
50.496000000000002
 20
16.879999999999988
 30
0.0
 11
51.0
 21
16.952000000000002
 31
0.0
  0
LINE
  5
1AF
  8
0
 10
33.503999999999998
 20
16.879999999999988
 30
0.0
 11
33.968000000000004
 21
16.687999999999999
 31
0.0
  0
LINE
  5
1B0
  8
0
 10
33.0
 20
16.952000000000002
 30
0.0
 11
33.503999999999998
 21
16.879999999999988
 31
0.0
  0
LINE
  5
1B1
  8
0
 10
105.512
 20
16.928000000000001
 30
0.0
 11
105.9919999999999
 21
16.736000000000001
 31
0.0
  0
LINE
  5
1B2
  8
0
 10
104.488
 20
16.928000000000001
 30
0.0
 11
105.0
 21
17.0
 31
0.0
  0
LINE
  5
1B3
  8
0
 10
87.512
 20
16.928000000000001
 30
0.0
 11
87.992000000000004
 21
16.736000000000001
 31
0.0
  0
LINE
  5
1B4
  8
0
 10
86.487999999999985
 20
16.928000000000001
 30
0.0
 11
87.0
 21
17.0
 31
0.0
  0
LINE
  5
1B5
  8
0
 10
69.512
 20
16.928000000000001
 30
0.0
 11
69.992000000000004
 21
16.736000000000001
 31
0.0
  0
LINE
  5
1B6
  8
0
 10
68.488
 20
16.928000000000001
 30
0.0
 11
69.0
 21
17.0
 31
0.0
  0
LINE
  5
1B7
  8
0
 10
51.512
 20
16.928000000000001
 30
0.0
 11
51.991999999999997
 21
16.736000000000001
 31
0.0
  0
LINE
  5
1B8
  8
0
 10
50.487999999999992
 20
16.928000000000001
 30
0.0
 11
51.0
 21
17.0
 31
0.0
  0
LINE
  5
1B9
  8
0
 10
51.0
 20
16.952000000000002
 30
0.0
 11
51.503999999999998
 21
16.879999999999988
 31
0.0
  0
LINE
  5
1BA
  8
0
 10
105.0
 20
16.952000000000002
 30
0.0
 11
105.50399999999991
 21
16.879999999999988
 31
0.0
  0
LINE
  5
1BB
  8
0
 10
105.0
 20
17.0
 30
0.0
 11
105.512
 21
16.928000000000001
 31
0.0
  0
LINE
  5
1BC
  8
0
 10
87.0
 20
16.952000000000002
 30
0.0
 11
87.503999999999991
 21
16.879999999999988
 31
0.0
  0
LINE
  5
1BD
  8
0
 10
87.0
 20
17.0
 30
0.0
 11
87.512
 21
16.928000000000001
 31
0.0
  0
LINE
  5
1BE
  8
0
 10
69.0
 20
16.952000000000002
 30
0.0
 11
69.503999999999991
 21
16.879999999999988
 31
0.0
  0
LINE
  5
1BF
  8
0
 10
69.0
 20
17.0
 30
0.0
 11
69.512
 21
16.928000000000001
 31
0.0
  0
LINE
  5
1C0
  8
0
 10
51.0
 20
17.0
 30
0.0
 11
51.512
 21
16.928000000000001
 31
0.0
  0
LINE
  5
1C1
  8
0
 10
33.512
 20
16.928000000000001
 30
0.0
 11
33.99199999999999
 21
16.736000000000001
 31
0.0
  0
LINE
  5
1C2
  8
0
 10
33.0
 20
17.0
 30
0.0
 11
33.512
 21
16.928000000000001
 31
0.0
  0
LINE
  5
1C3
  8
0
 10
32.496000000000002
 20
16.879999999999988
 30
0.0
 11
33.0
 21
16.952000000000002
 31
0.0
  0
LINE
  5
1C4
  8
0
 10
32.488
 20
16.928000000000001
 30
0.0
 11
33.0
 21
17.0
 31
0.0
  0
LINE
  5
1C5
  8
0
 10
15.992000000000001
 20
16.736000000000001
 30
0.0
 11
16.416
 21
16.416
 31
0.0
  0
LINE
  5
1C6
  8
0
 10
15.512
 20
16.928000000000001
 30
0.0
 11
15.992000000000001
 21
16.736000000000001
 31
0.0
  0
LINE
  5
1C7
  8
0
 10
15.0
 20
31.047999999999998
 30
0.0
 11
15.504
 21
31.120000000000001
 31
0.0
  0
LINE
  5
1C8
  8
0
 10
15.0
 20
31.0
 30
0.0
 11
15.512
 21
31.071999999999999
 31
0.0
  0
LINE
  5
1C9
  8
0
 10
15.0
 20
49.048000000000002
 30
0.0
 11
15.504
 21
49.11999999999999
 31
0.0
  0
LINE
  5
1CA
  8
0
 10
15.0
 20
49.0
 30
0.0
 11
15.512
 21
49.071999999999989
 31
0.0
  0
LINE
  5
1CB
  8
0
 10
15.0
 20
67.048000000000002
 30
0.0
 11
15.504
 21
67.120000000000005
 31
0.0
  0
LINE
  5
1CC
  8
0
 10
15.0
 20
67.0
 30
0.0
 11
15.512
 21
67.072000000000003
 31
0.0
  0
LINE
  5
1CD
  8
0
 10
15.0
 20
85.047999999999988
 30
0.0
 11
15.504
 21
85.120000000000005
 31
0.0
  0
LINE
  5
1CE
  8
0
 10
15.0
 20
85.0
 30
0.0
 11
15.512
 21
85.072000000000003
 31
0.0
  0
LINE
  5
1CF
  8
0
 10
15.0
 20
103.0479999999999
 30
0.0
 11
15.504
 21
103.12
 31
0.0
  0
LINE
  5
1D0
  8
0
 10
15.0
 20
103.0
 30
0.0
 11
15.512
 21
103.072
 31
0.0
  0
LINE
  5
1D1
  8
0
 10
15.0
 20
106.952
 30
0.0
 11
15.504
 21
106.8799999999999
 31
0.0
  0
LINE
  5
1D2
  8
0
 10
15.0
 20
107.0
 30
0.0
 11
15.512
 21
106.928
 31
0.0
  0
LINE
  5
1D3
  8
0
 10
15.0
 20
88.951999999999998
 30
0.0
 11
15.504
 21
88.879999999999995
 31
0.0
  0
LINE
  5
1D4
  8
0
 10
15.0
 20
89.0
 30
0.0
 11
15.512
 21
88.927999999999983
 31
0.0
  0
LINE
  5
1D5
  8
0
 10
15.0
 20
70.951999999999998
 30
0.0
 11
15.504
 21
70.879999999999995
 31
0.0
  0
LINE
  5
1D6
  8
0
 10
15.0
 20
71.0
 30
0.0
 11
15.512
 21
70.927999999999997
 31
0.0
  0
LINE
  5
1D7
  8
0
 10
15.0
 20
52.951999999999998
 30
0.0
 11
15.504
 21
52.880000000000003
 31
0.0
  0
LINE
  5
1D8
  8
0
 10
15.0
 20
53.0
 30
0.0
 11
15.512
 21
52.927999999999997
 31
0.0
  0
LINE
  5
1D9
  8
0
 10
15.0
 20
34.951999999999998
 30
0.0
 11
15.504
 21
34.880000000000003
 31
0.0
  0
LINE
  5
1DA
  8
0
 10
15.967999999999989
 20
31.311999999999991
 30
0.0
 11
16.375999999999991
 21
31.623999999999999
 31
0.0
  0
LINE
  5
1DB
  8
0
 10
15.504
 20
31.120000000000001
 30
0.0
 11
15.967999999999989
 21
31.311999999999991
 31
0.0
  0
LINE
  5
1DC
  8
0
 10
15.512
 20
31.071999999999999
 30
0.0
 11
15.992000000000001
 21
31.263999999999999
 31
0.0
  0
LINE
  5
1DD
  8
0
 10
15.992000000000001
 20
31.263999999999999
 30
0.0
 11
16.416
 21
31.584
 31
0.0
  0
LINE
  5
1DE
  8
0
 10
15.967999999999989
 20
34.688000000000002
 30
0.0
 11
16.375999999999991
 21
34.375999999999991
 31
0.0
  0
LINE
  5
1DF
  8
0
 10
15.504
 20
34.880000000000003
 30
0.0
 11
15.967999999999989
 21
34.688000000000002
 31
0.0
  0
LINE
  5
1E0
  8
0
 10
16.687999999999999
 20
32.031999999999989
 30
0.0
 11
16.879999999999988
 21
32.496000000000002
 31
0.0
  0
LINE
  5
1E1
  8
0
 10
16.375999999999991
 20
31.623999999999999
 30
0.0
 11
16.687999999999999
 21
32.031999999999989
 31
0.0
  0
LINE
  5
1E2
  8
0
 10
16.416
 20
31.584
 30
0.0
 11
16.736000000000001
 21
32.008000000000003
 31
0.0
  0
LINE
  5
1E3
  8
0
 10
16.736000000000001
 20
32.008000000000003
 30
0.0
 11
16.928000000000001
 21
32.488
 31
0.0
  0
LINE
  5
1E4
  8
0
 10
16.687999999999999
 20
33.968000000000004
 30
0.0
 11
16.879999999999988
 21
33.503999999999998
 31
0.0
  0
LINE
  5
1E5
  8
0
 10
16.375999999999991
 20
34.375999999999991
 30
0.0
 11
16.687999999999999
 21
33.968000000000004
 31
0.0
  0
LINE
  5
1E6
  8
0
 10
16.879999999999988
 20
32.496000000000002
 30
0.0
 11
16.952000000000002
 21
33.0
 31
0.0
  0
LINE
  5
1E7
  8
0
 10
31.311999999999991
 20
32.031999999999989
 30
0.0
 11
31.623999999999999
 21
31.623999999999999
 31
0.0
  0
LINE
  5
1E8
  8
0
 10
31.071999999999999
 20
32.488
 30
0.0
 11
31.263999999999999
 21
32.008000000000003
 31
0.0
  0
LINE
  5
1E9
  8
0
 10
31.263999999999999
 20
32.008000000000003
 30
0.0
 11
31.584
 21
31.584
 31
0.0
  0
LINE
  5
1EA
  8
0
 10
31.623999999999999
 20
31.623999999999999
 30
0.0
 11
32.031999999999989
 21
31.311999999999991
 31
0.0
  0
LINE
  5
1EB
  8
0
 10
32.031999999999989
 20
31.311999999999991
 30
0.0
 11
32.496000000000002
 21
31.120000000000001
 31
0.0
  0
LINE
  5
1EC
  8
0
 10
31.584
 20
31.584
 30
0.0
 11
32.008000000000003
 21
31.263999999999999
 31
0.0
  0
LINE
  5
1ED
  8
0
 10
32.008000000000003
 20
31.263999999999999
 30
0.0
 11
32.488
 21
31.071999999999999
 31
0.0
  0
LINE
  5
1EE
  8
0
 10
33.0
 20
31.047999999999998
 30
0.0
 11
33.503999999999998
 21
31.120000000000001
 31
0.0
  0
LINE
  5
1EF
  8
0
 10
105.0
 20
31.0
 30
0.0
 11
105.512
 21
31.071999999999999
 31
0.0
  0
LINE
  5
1F0
  8
0
 10
87.0
 20
31.0
 30
0.0
 11
87.512
 21
31.071999999999999
 31
0.0
  0
LINE
  5
1F1
  8
0
 10
69.0
 20
31.0
 30
0.0
 11
69.512
 21
31.071999999999999
 31
0.0
  0
LINE
  5
1F2
  8
0
 10
51.0
 20
31.047999999999998
 30
0.0
 11
51.503999999999998
 21
31.120000000000001
 31
0.0
  0
LINE
  5
1F3
  8
0
 10
69.0
 20
31.047999999999998
 30
0.0
 11
69.503999999999991
 21
31.120000000000001
 31
0.0
  0
LINE
  5
1F4
  8
0
 10
87.0
 20
31.047999999999998
 30
0.0
 11
87.503999999999991
 21
31.120000000000001
 31
0.0
  0
LINE
  5
1F5
  8
0
 10
105.0
 20
31.047999999999998
 30
0.0
 11
105.50399999999991
 21
31.120000000000001
 31
0.0
  0
LINE
  5
1F6
  8
0
 10
105.512
 20
31.071999999999999
 30
0.0
 11
105.9919999999999
 21
31.263999999999999
 31
0.0
  0
LINE
  5
1F7
  8
0
 10
104.488
 20
31.071999999999999
 30
0.0
 11
105.0
 21
31.0
 31
0.0
  0
LINE
  5
1F8
  8
0
 10
87.512
 20
31.071999999999999
 30
0.0
 11
87.992000000000004
 21
31.263999999999999
 31
0.0
  0
LINE
  5
1F9
  8
0
 10
86.487999999999985
 20
31.071999999999999
 30
0.0
 11
87.0
 21
31.0
 31
0.0
  0
LINE
  5
1FA
  8
0
 10
69.512
 20
31.071999999999999
 30
0.0
 11
69.992000000000004
 21
31.263999999999999
 31
0.0
  0
LINE
  5
1FB
  8
0
 10
68.488
 20
31.071999999999999
 30
0.0
 11
69.0
 21
31.0
 31
0.0
  0
LINE
  5
1FC
  8
0
 10
51.512
 20
31.071999999999999
 30
0.0
 11
51.991999999999997
 21
31.263999999999999
 31
0.0
  0
LINE
  5
1FD
  8
0
 10
51.0
 20
31.0
 30
0.0
 11
51.512
 21
31.071999999999999
 31
0.0
  0
LINE
  5
1FE
  8
0
 10
50.487999999999992
 20
31.071999999999999
 30
0.0
 11
51.0
 21
31.0
 31
0.0
  0
LINE
  5
1FF
  8
0
 10
105.50399999999991
 20
31.120000000000001
 30
0.0
 11
105.9679999999999
 21
31.311999999999991
 31
0.0
  0
LINE
  5
200
  8
0
 10
104.496
 20
31.120000000000001
 30
0.0
 11
105.0
 21
31.047999999999998
 31
0.0
  0
LINE
  5
201
  8
0
 10
87.503999999999991
 20
31.120000000000001
 30
0.0
 11
87.967999999999989
 21
31.311999999999991
 31
0.0
  0
LINE
  5
202
  8
0
 10
86.496000000000009
 20
31.120000000000001
 30
0.0
 11
87.0
 21
31.047999999999998
 31
0.0
  0
LINE
  5
203
  8
0
 10
69.503999999999991
 20
31.120000000000001
 30
0.0
 11
69.968000000000004
 21
31.311999999999991
 31
0.0
  0
LINE
  5
204
  8
0
 10
68.496000000000009
 20
31.120000000000001
 30
0.0
 11
69.0
 21
31.047999999999998
 31
0.0
  0
LINE
  5
205
  8
0
 10
51.503999999999998
 20
31.120000000000001
 30
0.0
 11
51.968000000000004
 21
31.311999999999991
 31
0.0
  0
LINE
  5
206
  8
0
 10
50.496000000000002
 20
31.120000000000001
 30
0.0
 11
51.0
 21
31.047999999999998
 31
0.0
  0
LINE
  5
207
  8
0
 10
33.503999999999998
 20
31.120000000000001
 30
0.0
 11
33.968000000000004
 21
31.311999999999991
 31
0.0
  0
LINE
  5
208
  8
0
 10
33.512
 20
31.071999999999999
 30
0.0
 11
33.99199999999999
 21
31.263999999999999
 31
0.0
  0
LINE
  5
209
  8
0
 10
33.0
 20
31.0
 30
0.0
 11
33.512
 21
31.071999999999999
 31
0.0
  0
LINE
  5
20A
  8
0
 10
33.968000000000004
 20
31.311999999999991
 30
0.0
 11
34.375999999999991
 21
31.623999999999999
 31
0.0
  0
LINE
  5
20B
  8
0
 10
49.584000000000003
 20
31.584
 30
0.0
 11
50.008000000000003
 21
31.263999999999999
 31
0.0
  0
LINE
  5
20C
  8
0
 10
51.968000000000004
 20
31.311999999999991
 30
0.0
 11
52.375999999999998
 21
31.623999999999999
 31
0.0
  0
LINE
  5
20D
  8
0
 10
105.9919999999999
 20
31.263999999999999
 30
0.0
 11
106.4159999999999
 21
31.584
 31
0.0
  0
LINE
  5
20E
  8
0
 10
104.0079999999999
 20
31.263999999999999
 30
0.0
 11
104.488
 21
31.071999999999999
 31
0.0
  0
LINE
  5
20F
  8
0
 10
87.992000000000004
 20
31.263999999999999
 30
0.0
 11
88.415999999999997
 21
31.584
 31
0.0
  0
LINE
  5
210
  8
0
 10
86.007999999999996
 20
31.263999999999999
 30
0.0
 11
86.487999999999985
 21
31.071999999999999
 31
0.0
  0
LINE
  5
211
  8
0
 10
69.992000000000004
 20
31.263999999999999
 30
0.0
 11
70.415999999999997
 21
31.584
 31
0.0
  0
LINE
  5
212
  8
0
 10
105.9679999999999
 20
31.311999999999991
 30
0.0
 11
106.376
 21
31.623999999999999
 31
0.0
  0
LINE
  5
213
  8
0
 10
104.032
 20
31.311999999999991
 30
0.0
 11
104.496
 21
31.120000000000001
 31
0.0
  0
LINE
  5
214
  8
0
 10
87.967999999999989
 20
31.311999999999991
 30
0.0
 11
88.376000000000005
 21
31.623999999999999
 31
0.0
  0
LINE
  5
215
  8
0
 10
86.032000000000011
 20
31.311999999999991
 30
0.0
 11
86.496000000000009
 21
31.120000000000001
 31
0.0
  0
LINE
  5
216
  8
0
 10
69.968000000000004
 20
31.311999999999991
 30
0.0
 11
70.376000000000005
 21
31.623999999999999
 31
0.0
  0
LINE
  5
217
  8
0
 10
68.031999999999996
 20
31.311999999999991
 30
0.0
 11
68.496000000000009
 21
31.120000000000001
 31
0.0
  0
LINE
  5
218
  8
0
 10
68.007999999999996
 20
31.263999999999999
 30
0.0
 11
68.488
 21
31.071999999999999
 31
0.0
  0
LINE
  5
219
  8
0
 10
51.991999999999997
 20
31.263999999999999
 30
0.0
 11
52.415999999999997
 21
31.584
 31
0.0
  0
LINE
  5
21A
  8
0
 10
106.4159999999999
 20
31.584
 30
0.0
 11
106.736
 21
32.008000000000003
 31
0.0
  0
LINE
  5
21B
  8
0
 10
103.584
 20
31.584
 30
0.0
 11
104.0079999999999
 21
31.263999999999999
 31
0.0
  0
LINE
  5
21C
  8
0
 10
88.415999999999997
 20
31.584
 30
0.0
 11
88.736000000000004
 21
32.008000000000003
 31
0.0
  0
LINE
  5
21D
  8
0
 10
85.584000000000003
 20
31.584
 30
0.0
 11
86.007999999999996
 21
31.263999999999999
 31
0.0
  0
LINE
  5
21E
  8
0
 10
70.415999999999997
 20
31.584
 30
0.0
 11
70.736000000000004
 21
32.008000000000003
 31
0.0
  0
LINE
  5
21F
  8
0
 10
67.584000000000003
 20
31.584
 30
0.0
 11
68.007999999999996
 21
31.263999999999999
 31
0.0
  0
LINE
  5
220
  8
0
 10
52.415999999999997
 20
31.584
 30
0.0
 11
52.735999999999997
 21
32.008000000000003
 31
0.0
  0
LINE
  5
221
  8
0
 10
50.031999999999989
 20
31.311999999999991
 30
0.0
 11
50.496000000000002
 21
31.120000000000001
 31
0.0
  0
LINE
  5
222
  8
0
 10
50.008000000000003
 20
31.263999999999999
 30
0.0
 11
50.487999999999992
 21
31.071999999999999
 31
0.0
  0
LINE
  5
223
  8
0
 10
34.688000000000002
 20
32.031999999999989
 30
0.0
 11
34.880000000000003
 21
32.496000000000002
 31
0.0
  0
LINE
  5
224
  8
0
 10
34.375999999999991
 20
31.623999999999999
 30
0.0
 11
34.688000000000002
 21
32.031999999999989
 31
0.0
  0
LINE
  5
225
  8
0
 10
49.071999999999989
 20
32.488
 30
0.0
 11
49.264000000000003
 21
32.008000000000003
 31
0.0
  0
LINE
  5
226
  8
0
 10
106.376
 20
31.623999999999999
 30
0.0
 11
106.6879999999999
 21
32.031999999999989
 31
0.0
  0
LINE
  5
227
  8
0
 10
103.624
 20
31.623999999999999
 30
0.0
 11
104.032
 21
31.311999999999991
 31
0.0
  0
LINE
  5
228
  8
0
 10
88.376000000000005
 20
31.623999999999999
 30
0.0
 11
88.687999999999974
 21
32.031999999999989
 31
0.0
  0
LINE
  5
229
  8
0
 10
85.623999999999995
 20
31.623999999999999
 30
0.0
 11
86.032000000000011
 21
31.311999999999991
 31
0.0
  0
LINE
  5
22A
  8
0
 10
70.376000000000005
 20
31.623999999999999
 30
0.0
 11
70.688000000000002
 21
32.031999999999989
 31
0.0
  0
LINE
  5
22B
  8
0
 10
67.623999999999995
 20
31.623999999999999
 30
0.0
 11
68.031999999999996
 21
31.311999999999991
 31
0.0
  0
LINE
  5
22C
  8
0
 10
52.375999999999998
 20
31.623999999999999
 30
0.0
 11
52.688000000000002
 21
32.031999999999989
 31
0.0
  0
LINE
  5
22D
  8
0
 10
106.736
 20
32.008000000000003
 30
0.0
 11
106.928
 21
32.488
 31
0.0
  0
LINE
  5
22E
  8
0
 10
103.264
 20
32.008000000000003
 30
0.0
 11
103.584
 21
31.584
 31
0.0
  0
LINE
  5
22F
  8
0
 10
88.736000000000004
 20
32.008000000000003
 30
0.0
 11
88.927999999999983
 21
32.488
 31
0.0
  0
LINE
  5
230
  8
0
 10
85.263999999999996
 20
32.008000000000003
 30
0.0
 11
85.584000000000003
 21
31.584
 31
0.0
  0
LINE
  5
231
  8
0
 10
70.736000000000004
 20
32.008000000000003
 30
0.0
 11
70.927999999999997
 21
32.488
 31
0.0
  0
LINE
  5
232
  8
0
 10
67.263999999999996
 20
32.008000000000003
 30
0.0
 11
67.584000000000003
 21
31.584
 31
0.0
  0
LINE
  5
233
  8
0
 10
52.688000000000002
 20
32.031999999999989
 30
0.0
 11
52.880000000000003
 21
32.496000000000002
 31
0.0
  0
LINE
  5
234
  8
0
 10
106.6879999999999
 20
32.031999999999989
 30
0.0
 11
106.8799999999999
 21
32.496000000000002
 31
0.0
  0
LINE
  5
235
  8
0
 10
106.928
 20
32.488
 30
0.0
 11
107.0
 21
33.0
 31
0.0
  0
LINE
  5
236
  8
0
 10
103.312
 20
32.031999999999989
 30
0.0
 11
103.624
 21
31.623999999999999
 31
0.0
  0
LINE
  5
237
  8
0
 10
103.072
 20
32.488
 30
0.0
 11
103.264
 21
32.008000000000003
 31
0.0
  0
LINE
  5
238
  8
0
 10
88.687999999999974
 20
32.031999999999989
 30
0.0
 11
88.879999999999995
 21
32.496000000000002
 31
0.0
  0
LINE
  5
239
  8
0
 10
88.927999999999983
 20
32.488
 30
0.0
 11
89.0
 21
33.0
 31
0.0
  0
LINE
  5
23A
  8
0
 10
85.312000000000012
 20
32.031999999999989
 30
0.0
 11
85.623999999999995
 21
31.623999999999999
 31
0.0
  0
LINE
  5
23B
  8
0
 10
85.072000000000003
 20
32.488
 30
0.0
 11
85.263999999999996
 21
32.008000000000003
 31
0.0
  0
LINE
  5
23C
  8
0
 10
70.688000000000002
 20
32.031999999999989
 30
0.0
 11
70.879999999999995
 21
32.496000000000002
 31
0.0
  0
LINE
  5
23D
  8
0
 10
70.927999999999997
 20
32.488
 30
0.0
 11
71.0
 21
33.0
 31
0.0
  0
LINE
  5
23E
  8
0
 10
67.311999999999998
 20
32.031999999999989
 30
0.0
 11
67.623999999999995
 21
31.623999999999999
 31
0.0
  0
LINE
  5
23F
  8
0
 10
67.072000000000003
 20
32.488
 30
0.0
 11
67.263999999999996
 21
32.008000000000003
 31
0.0
  0
LINE
  5
240
  8
0
 10
52.927999999999997
 20
32.488
 30
0.0
 11
53.0
 21
33.0
 31
0.0
  0
LINE
  5
241
  8
0
 10
52.735999999999997
 20
32.008000000000003
 30
0.0
 11
52.927999999999997
 21
32.488
 31
0.0
  0
LINE
  5
242
  8
0
 10
49.311999999999998
 20
32.031999999999989
 30
0.0
 11
49.623999999999988
 21
31.623999999999999
 31
0.0
  0
LINE
  5
243
  8
0
 10
49.623999999999988
 20
31.623999999999999
 30
0.0
 11
50.031999999999989
 21
31.311999999999991
 31
0.0
  0
LINE
  5
244
  8
0
 10
49.264000000000003
 20
32.008000000000003
 30
0.0
 11
49.584000000000003
 21
31.584
 31
0.0
  0
LINE
  5
245
  8
0
 10
34.927999999999997
 20
32.488
 30
0.0
 11
35.0
 21
33.0
 31
0.0
  0
LINE
  5
246
  8
0
 10
34.73599999999999
 20
32.008000000000003
 30
0.0
 11
34.927999999999997
 21
32.488
 31
0.0
  0
LINE
  5
247
  8
0
 10
34.41599999999999
 20
31.584
 30
0.0
 11
34.73599999999999
 21
32.008000000000003
 31
0.0
  0
LINE
  5
248
  8
0
 10
33.99199999999999
 20
31.263999999999999
 30
0.0
 11
34.41599999999999
 21
31.584
 31
0.0
  0
LINE
  5
249
  8
0
 10
32.496000000000002
 20
31.120000000000001
 30
0.0
 11
33.0
 21
31.047999999999998
 31
0.0
  0
LINE
  5
24A
  8
0
 10
32.488
 20
31.071999999999999
 30
0.0
 11
33.0
 21
31.0
 31
0.0
  0
LINE
  5
24B
  8
0
 10
106.8799999999999
 20
32.496000000000002
 30
0.0
 11
106.952
 21
33.0
 31
0.0
  0
LINE
  5
24C
  8
0
 10
103.12
 20
32.496000000000002
 30
0.0
 11
103.312
 21
32.031999999999989
 31
0.0
  0
LINE
  5
24D
  8
0
 10
88.879999999999995
 20
32.496000000000002
 30
0.0
 11
88.951999999999998
 21
33.0
 31
0.0
  0
LINE
  5
24E
  8
0
 10
85.120000000000005
 20
32.496000000000002
 30
0.0
 11
85.312000000000012
 21
32.031999999999989
 31
0.0
  0
LINE
  5
24F
  8
0
 10
70.879999999999995
 20
32.496000000000002
 30
0.0
 11
70.951999999999998
 21
33.0
 31
0.0
  0
LINE
  5
250
  8
0
 10
67.120000000000005
 20
32.496000000000002
 30
0.0
 11
67.311999999999998
 21
32.031999999999989
 31
0.0
  0
LINE
  5
251
  8
0
 10
52.880000000000003
 20
32.496000000000002
 30
0.0
 11
52.951999999999998
 21
33.0
 31
0.0
  0
LINE
  5
252
  8
0
 10
49.11999999999999
 20
32.496000000000002
 30
0.0
 11
49.311999999999998
 21
32.031999999999989
 31
0.0
  0
LINE
  5
253
  8
0
 10
34.880000000000003
 20
32.496000000000002
 30
0.0
 11
34.951999999999998
 21
33.0
 31
0.0
  0
LINE
  5
254
  8
0
 10
103.0479999999999
 20
33.0
 30
0.0
 11
103.12
 21
32.496000000000002
 31
0.0
  0
LINE
  5
255
  8
0
 10
103.0479999999999
 20
33.0
 30
0.0
 11
103.12
 21
33.503999999999998
 31
0.0
  0
LINE
  5
256
  8
0
 10
103.0
 20
33.0
 30
0.0
 11
103.072
 21
32.488
 31
0.0
  0
LINE
  5
257
  8
0
 10
103.0
 20
33.0
 30
0.0
 11
103.072
 21
33.512
 31
0.0
  0
LINE
  5
258
  8
0
 10
85.047999999999988
 20
33.0
 30
0.0
 11
85.120000000000005
 21
32.496000000000002
 31
0.0
  0
LINE
  5
259
  8
0
 10
85.047999999999988
 20
33.0
 30
0.0
 11
85.120000000000005
 21
33.503999999999998
 31
0.0
  0
LINE
  5
25A
  8
0
 10
85.0
 20
33.0
 30
0.0
 11
85.072000000000003
 21
32.488
 31
0.0
  0
LINE
  5
25B
  8
0
 10
85.0
 20
33.0
 30
0.0
 11
85.072000000000003
 21
33.512
 31
0.0
  0
LINE
  5
25C
  8
0
 10
67.048000000000002
 20
33.0
 30
0.0
 11
67.120000000000005
 21
32.496000000000002
 31
0.0
  0
LINE
  5
25D
  8
0
 10
67.048000000000002
 20
33.0
 30
0.0
 11
67.120000000000005
 21
33.503999999999998
 31
0.0
  0
LINE
  5
25E
  8
0
 10
67.0
 20
33.0
 30
0.0
 11
67.072000000000003
 21
32.488
 31
0.0
  0
LINE
  5
25F
  8
0
 10
67.0
 20
33.0
 30
0.0
 11
67.072000000000003
 21
33.512
 31
0.0
  0
LINE
  5
260
  8
0
 10
49.048000000000002
 20
33.0
 30
0.0
 11
49.11999999999999
 21
32.496000000000002
 31
0.0
  0
LINE
  5
261
  8
0
 10
49.048000000000002
 20
33.0
 30
0.0
 11
49.11999999999999
 21
33.503999999999998
 31
0.0
  0
LINE
  5
262
  8
0
 10
106.8799999999999
 20
33.503999999999998
 30
0.0
 11
106.952
 21
33.0
 31
0.0
  0
LINE
  5
263
  8
0
 10
103.12
 20
33.503999999999998
 30
0.0
 11
103.312
 21
33.968000000000004
 31
0.0
  0
LINE
  5
264
  8
0
 10
88.879999999999995
 20
33.503999999999998
 30
0.0
 11
88.951999999999998
 21
33.0
 31
0.0
  0
LINE
  5
265
  8
0
 10
85.120000000000005
 20
33.503999999999998
 30
0.0
 11
85.312000000000012
 21
33.968000000000004
 31
0.0
  0
LINE
  5
266
  8
0
 10
70.879999999999995
 20
33.503999999999998
 30
0.0
 11
70.951999999999998
 21
33.0
 31
0.0
  0
LINE
  5
267
  8
0
 10
67.120000000000005
 20
33.503999999999998
 30
0.0
 11
67.311999999999998
 21
33.968000000000004
 31
0.0
  0
LINE
  5
268
  8
0
 10
52.880000000000003
 20
33.503999999999998
 30
0.0
 11
52.951999999999998
 21
33.0
 31
0.0
  0
LINE
  5
269
  8
0
 10
106.928
 20
33.512
 30
0.0
 11
107.0
 21
33.0
 31
0.0
  0
LINE
  5
26A
  8
0
 10
103.072
 20
33.512
 30
0.0
 11
103.264
 21
33.99199999999999
 31
0.0
  0
LINE
  5
26B
  8
0
 10
88.927999999999983
 20
33.512
 30
0.0
 11
89.0
 21
33.0
 31
0.0
  0
LINE
  5
26C
  8
0
 10
85.072000000000003
 20
33.512
 30
0.0
 11
85.263999999999996
 21
33.99199999999999
 31
0.0
  0
LINE
  5
26D
  8
0
 10
70.927999999999997
 20
33.512
 30
0.0
 11
71.0
 21
33.0
 31
0.0
  0
LINE
  5
26E
  8
0
 10
67.072000000000003
 20
33.512
 30
0.0
 11
67.263999999999996
 21
33.99199999999999
 31
0.0
  0
LINE
  5
26F
  8
0
 10
52.927999999999997
 20
33.512
 30
0.0
 11
53.0
 21
33.0
 31
0.0
  0
LINE
  5
270
  8
0
 10
49.11999999999999
 20
33.503999999999998
 30
0.0
 11
49.311999999999998
 21
33.968000000000004
 31
0.0
  0
LINE
  5
271
  8
0
 10
49.071999999999989
 20
33.512
 30
0.0
 11
49.264000000000003
 21
33.99199999999999
 31
0.0
  0
LINE
  5
272
  8
0
 10
49.0
 20
33.0
 30
0.0
 11
49.071999999999989
 21
32.488
 31
0.0
  0
LINE
  5
273
  8
0
 10
49.0
 20
33.0
 30
0.0
 11
49.071999999999989
 21
33.512
 31
0.0
  0
LINE
  5
274
  8
0
 10
34.880000000000003
 20
33.503999999999998
 30
0.0
 11
34.951999999999998
 21
33.0
 31
0.0
  0
LINE
  5
275
  8
0
 10
34.927999999999997
 20
33.512
 30
0.0
 11
35.0
 21
33.0
 31
0.0
  0
LINE
  5
276
  8
0
 10
31.120000000000001
 20
33.503999999999998
 30
0.0
 11
31.311999999999991
 21
33.968000000000004
 31
0.0
  0
LINE
  5
277
  8
0
 10
31.071999999999999
 20
33.512
 30
0.0
 11
31.263999999999999
 21
33.99199999999999
 31
0.0
  0
LINE
  5
278
  8
0
 10
31.047999999999998
 20
33.0
 30
0.0
 11
31.120000000000001
 21
32.496000000000002
 31
0.0
  0
LINE
  5
279
  8
0
 10
31.047999999999998
 20
33.0
 30
0.0
 11
31.120000000000001
 21
33.503999999999998
 31
0.0
  0
LINE
  5
27A
  8
0
 10
31.120000000000001
 20
32.496000000000002
 30
0.0
 11
31.311999999999991
 21
32.031999999999989
 31
0.0
  0
LINE
  5
27B
  8
0
 10
31.0
 20
33.0
 30
0.0
 11
31.071999999999999
 21
32.488
 31
0.0
  0
LINE
  5
27C
  8
0
 10
31.0
 20
33.0
 30
0.0
 11
31.071999999999999
 21
33.512
 31
0.0
  0
LINE
  5
27D
  8
0
 10
16.928000000000001
 20
32.488
 30
0.0
 11
17.0
 21
33.0
 31
0.0
  0
LINE
  5
27E
  8
0
 10
16.879999999999988
 20
33.503999999999998
 30
0.0
 11
16.952000000000002
 21
33.0
 31
0.0
  0
LINE
  5
27F
  8
0
 10
31.311999999999991
 20
33.968000000000004
 30
0.0
 11
31.623999999999999
 21
34.375999999999991
 31
0.0
  0
LINE
  5
280
  8
0
 10
31.263999999999999
 20
33.99199999999999
 30
0.0
 11
31.584
 21
34.41599999999999
 31
0.0
  0
LINE
  5
281
  8
0
 10
34.688000000000002
 20
33.968000000000004
 30
0.0
 11
34.880000000000003
 21
33.503999999999998
 31
0.0
  0
LINE
  5
282
  8
0
 10
34.375999999999991
 20
34.375999999999991
 30
0.0
 11
34.688000000000002
 21
33.968000000000004
 31
0.0
  0
LINE
  5
283
  8
0
 10
106.6879999999999
 20
33.968000000000004
 30
0.0
 11
106.8799999999999
 21
33.503999999999998
 31
0.0
  0
LINE
  5
284
  8
0
 10
106.736
 20
33.99199999999999
 30
0.0
 11
106.928
 21
33.512
 31
0.0
  0
LINE
  5
285
  8
0
 10
103.312
 20
33.968000000000004
 30
0.0
 11
103.624
 21
34.375999999999991
 31
0.0
  0
LINE
  5
286
  8
0
 10
103.264
 20
33.99199999999999
 30
0.0
 11
103.584
 21
34.41599999999999
 31
0.0
  0
LINE
  5
287
  8
0
 10
88.687999999999974
 20
33.968000000000004
 30
0.0
 11
88.879999999999995
 21
33.503999999999998
 31
0.0
  0
LINE
  5
288
  8
0
 10
88.736000000000004
 20
33.99199999999999
 30
0.0
 11
88.927999999999983
 21
33.512
 31
0.0
  0
LINE
  5
289
  8
0
 10
85.312000000000012
 20
33.968000000000004
 30
0.0
 11
85.623999999999995
 21
34.375999999999991
 31
0.0
  0
LINE
  5
28A
  8
0
 10
85.263999999999996
 20
33.99199999999999
 30
0.0
 11
85.584000000000003
 21
34.41599999999999
 31
0.0
  0
LINE
  5
28B
  8
0
 10
70.688000000000002
 20
33.968000000000004
 30
0.0
 11
70.879999999999995
 21
33.503999999999998
 31
0.0
  0
LINE
  5
28C
  8
0
 10
70.736000000000004
 20
33.99199999999999
 30
0.0
 11
70.927999999999997
 21
33.512
 31
0.0
  0
LINE
  5
28D
  8
0
 10
67.311999999999998
 20
33.968000000000004
 30
0.0
 11
67.623999999999995
 21
34.375999999999991
 31
0.0
  0
LINE
  5
28E
  8
0
 10
67.263999999999996
 20
33.99199999999999
 30
0.0
 11
67.584000000000003
 21
34.41599999999999
 31
0.0
  0
LINE
  5
28F
  8
0
 10
52.688000000000002
 20
33.968000000000004
 30
0.0
 11
52.880000000000003
 21
33.503999999999998
 31
0.0
  0
LINE
  5
290
  8
0
 10
52.735999999999997
 20
33.99199999999999
 30
0.0
 11
52.927999999999997
 21
33.512
 31
0.0
  0
LINE
  5
291
  8
0
 10
49.311999999999998
 20
33.968000000000004
 30
0.0
 11
49.623999999999988
 21
34.375999999999991
 31
0.0
  0
LINE
  5
292
  8
0
 10
106.376
 20
34.375999999999991
 30
0.0
 11
106.6879999999999
 21
33.968000000000004
 31
0.0
  0
LINE
  5
293
  8
0
 10
103.624
 20
34.375999999999991
 30
0.0
 11
104.032
 21
34.688000000000002
 31
0.0
  0
LINE
  5
294
  8
0
 10
88.376000000000005
 20
34.375999999999991
 30
0.0
 11
88.687999999999974
 21
33.968000000000004
 31
0.0
  0
LINE
  5
295
  8
0
 10
85.623999999999995
 20
34.375999999999991
 30
0.0
 11
86.032000000000011
 21
34.688000000000002
 31
0.0
  0
LINE
  5
296
  8
0
 10
70.376000000000005
 20
34.375999999999991
 30
0.0
 11
70.688000000000002
 21
33.968000000000004
 31
0.0
  0
LINE
  5
297
  8
0
 10
67.623999999999995
 20
34.375999999999991
 30
0.0
 11
68.031999999999996
 21
34.688000000000002
 31
0.0
  0
LINE
  5
298
  8
0
 10
52.375999999999998
 20
34.375999999999991
 30
0.0
 11
52.688000000000002
 21
33.968000000000004
 31
0.0
  0
LINE
  5
299
  8
0
 10
49.623999999999988
 20
34.375999999999991
 30
0.0
 11
50.031999999999989
 21
34.688000000000002
 31
0.0
  0
LINE
  5
29A
  8
0
 10
49.264000000000003
 20
33.99199999999999
 30
0.0
 11
49.584000000000003
 21
34.41599999999999
 31
0.0
  0
LINE
  5
29B
  8
0
 10
34.73599999999999
 20
33.99199999999999
 30
0.0
 11
34.927999999999997
 21
33.512
 31
0.0
  0
LINE
  5
29C
  8
0
 10
106.4159999999999
 20
34.41599999999999
 30
0.0
 11
106.736
 21
33.99199999999999
 31
0.0
  0
LINE
  5
29D
  8
0
 10
103.584
 20
34.41599999999999
 30
0.0
 11
104.0079999999999
 21
34.73599999999999
 31
0.0
  0
LINE
  5
29E
  8
0
 10
88.415999999999997
 20
34.41599999999999
 30
0.0
 11
88.736000000000004
 21
33.99199999999999
 31
0.0
  0
LINE
  5
29F
  8
0
 10
85.584000000000003
 20
34.41599999999999
 30
0.0
 11
86.007999999999996
 21
34.73599999999999
 31
0.0
  0
LINE
  5
2A0
  8
0
 10
70.415999999999997
 20
34.41599999999999
 30
0.0
 11
70.736000000000004
 21
33.99199999999999
 31
0.0
  0
LINE
  5
2A1
  8
0
 10
67.584000000000003
 20
34.41599999999999
 30
0.0
 11
68.007999999999996
 21
34.73599999999999
 31
0.0
  0
LINE
  5
2A2
  8
0
 10
52.415999999999997
 20
34.41599999999999
 30
0.0
 11
52.735999999999997
 21
33.99199999999999
 31
0.0
  0
LINE
  5
2A3
  8
0
 10
49.584000000000003
 20
34.41599999999999
 30
0.0
 11
50.008000000000003
 21
34.73599999999999
 31
0.0
  0
LINE
  5
2A4
  8
0
 10
34.41599999999999
 20
34.41599999999999
 30
0.0
 11
34.73599999999999
 21
33.99199999999999
 31
0.0
  0
LINE
  5
2A5
  8
0
 10
31.623999999999999
 20
34.375999999999991
 30
0.0
 11
32.031999999999989
 21
34.688000000000002
 31
0.0
  0
LINE
  5
2A6
  8
0
 10
31.584
 20
34.41599999999999
 30
0.0
 11
32.008000000000003
 21
34.73599999999999
 31
0.0
  0
LINE
  5
2A7
  8
0
 10
16.928000000000001
 20
33.512
 30
0.0
 11
17.0
 21
33.0
 31
0.0
  0
LINE
  5
2A8
  8
0
 10
16.736000000000001
 20
33.99199999999999
 30
0.0
 11
16.928000000000001
 21
33.512
 31
0.0
  0
LINE
  5
2A9
  8
0
 10
32.031999999999989
 20
34.688000000000002
 30
0.0
 11
32.496000000000002
 21
34.880000000000003
 31
0.0
  0
LINE
  5
2AA
  8
0
 10
32.008000000000003
 20
34.73599999999999
 30
0.0
 11
32.488
 21
34.927999999999997
 31
0.0
  0
LINE
  5
2AB
  8
0
 10
33.968000000000004
 20
34.688000000000002
 30
0.0
 11
34.375999999999991
 21
34.375999999999991
 31
0.0
  0
LINE
  5
2AC
  8
0
 10
33.503999999999998
 20
34.880000000000003
 30
0.0
 11
33.968000000000004
 21
34.688000000000002
 31
0.0
  0
LINE
  5
2AD
  8
0
 10
105.9679999999999
 20
34.688000000000002
 30
0.0
 11
106.376
 21
34.375999999999991
 31
0.0
  0
LINE
  5
2AE
  8
0
 10
105.9919999999999
 20
34.73599999999999
 30
0.0
 11
106.4159999999999
 21
34.41599999999999
 31
0.0
  0
LINE
  5
2AF
  8
0
 10
104.032
 20
34.688000000000002
 30
0.0
 11
104.496
 21
34.880000000000003
 31
0.0
  0
LINE
  5
2B0
  8
0
 10
104.0079999999999
 20
34.73599999999999
 30
0.0
 11
104.488
 21
34.927999999999997
 31
0.0
  0
LINE
  5
2B1
  8
0
 10
87.967999999999989
 20
34.688000000000002
 30
0.0
 11
88.376000000000005
 21
34.375999999999991
 31
0.0
  0
LINE
  5
2B2
  8
0
 10
87.992000000000004
 20
34.73599999999999
 30
0.0
 11
88.415999999999997
 21
34.41599999999999
 31
0.0
  0
LINE
  5
2B3
  8
0
 10
86.032000000000011
 20
34.688000000000002
 30
0.0
 11
86.496000000000009
 21
34.880000000000003
 31
0.0
  0
LINE
  5
2B4
  8
0
 10
86.007999999999996
 20
34.73599999999999
 30
0.0
 11
86.487999999999985
 21
34.927999999999997
 31
0.0
  0
LINE
  5
2B5
  8
0
 10
69.968000000000004
 20
34.688000000000002
 30
0.0
 11
70.376000000000005
 21
34.375999999999991
 31
0.0
  0
LINE
  5
2B6
  8
0
 10
69.992000000000004
 20
34.73599999999999
 30
0.0
 11
70.415999999999997
 21
34.41599999999999
 31
0.0
  0
LINE
  5
2B7
  8
0
 10
68.031999999999996
 20
34.688000000000002
 30
0.0
 11
68.496000000000009
 21
34.880000000000003
 31
0.0
  0
LINE
  5
2B8
  8
0
 10
68.007999999999996
 20
34.73599999999999
 30
0.0
 11
68.488
 21
34.927999999999997
 31
0.0
  0
LINE
  5
2B9
  8
0
 10
51.968000000000004
 20
34.688000000000002
 30
0.0
 11
52.375999999999998
 21
34.375999999999991
 31
0.0
  0
LINE
  5
2BA
  8
0
 10
51.991999999999997
 20
34.73599999999999
 30
0.0
 11
52.415999999999997
 21
34.41599999999999
 31
0.0
  0
LINE
  5
2BB
  8
0
 10
50.031999999999989
 20
34.688000000000002
 30
0.0
 11
50.496000000000002
 21
34.880000000000003
 31
0.0
  0
LINE
  5
2BC
  8
0
 10
105.50399999999991
 20
34.880000000000003
 30
0.0
 11
105.9679999999999
 21
34.688000000000002
 31
0.0
  0
LINE
  5
2BD
  8
0
 10
104.496
 20
34.880000000000003
 30
0.0
 11
105.0
 21
34.951999999999998
 31
0.0
  0
LINE
  5
2BE
  8
0
 10
87.503999999999991
 20
34.880000000000003
 30
0.0
 11
87.967999999999989
 21
34.688000000000002
 31
0.0
  0
LINE
  5
2BF
  8
0
 10
86.496000000000009
 20
34.880000000000003
 30
0.0
 11
87.0
 21
34.951999999999998
 31
0.0
  0
LINE
  5
2C0
  8
0
 10
69.503999999999991
 20
34.880000000000003
 30
0.0
 11
69.968000000000004
 21
34.688000000000002
 31
0.0
  0
LINE
  5
2C1
  8
0
 10
68.496000000000009
 20
34.880000000000003
 30
0.0
 11
69.0
 21
34.951999999999998
 31
0.0
  0
LINE
  5
2C2
  8
0
 10
51.503999999999998
 20
34.880000000000003
 30
0.0
 11
51.968000000000004
 21
34.688000000000002
 31
0.0
  0
LINE
  5
2C3
  8
0
 10
50.496000000000002
 20
34.880000000000003
 30
0.0
 11
51.0
 21
34.951999999999998
 31
0.0
  0
LINE
  5
2C4
  8
0
 10
50.008000000000003
 20
34.73599999999999
 30
0.0
 11
50.487999999999992
 21
34.927999999999997
 31
0.0
  0
LINE
  5
2C5
  8
0
 10
33.99199999999999
 20
34.73599999999999
 30
0.0
 11
34.41599999999999
 21
34.41599999999999
 31
0.0
  0
LINE
  5
2C6
  8
0
 10
105.512
 20
34.927999999999997
 30
0.0
 11
105.9919999999999
 21
34.73599999999999
 31
0.0
  0
LINE
  5
2C7
  8
0
 10
104.488
 20
34.927999999999997
 30
0.0
 11
105.0
 21
35.0
 31
0.0
  0
LINE
  5
2C8
  8
0
 10
87.512
 20
34.927999999999997
 30
0.0
 11
87.992000000000004
 21
34.73599999999999
 31
0.0
  0
LINE
  5
2C9
  8
0
 10
86.487999999999985
 20
34.927999999999997
 30
0.0
 11
87.0
 21
35.0
 31
0.0
  0
LINE
  5
2CA
  8
0
 10
69.512
 20
34.927999999999997
 30
0.0
 11
69.992000000000004
 21
34.73599999999999
 31
0.0
  0
LINE
  5
2CB
  8
0
 10
68.488
 20
34.927999999999997
 30
0.0
 11
69.0
 21
35.0
 31
0.0
  0
LINE
  5
2CC
  8
0
 10
51.512
 20
34.927999999999997
 30
0.0
 11
51.991999999999997
 21
34.73599999999999
 31
0.0
  0
LINE
  5
2CD
  8
0
 10
50.487999999999992
 20
34.927999999999997
 30
0.0
 11
51.0
 21
35.0
 31
0.0
  0
LINE
  5
2CE
  8
0
 10
33.512
 20
34.927999999999997
 30
0.0
 11
33.99199999999999
 21
34.73599999999999
 31
0.0
  0
LINE
  5
2CF
  8
0
 10
32.496000000000002
 20
34.880000000000003
 30
0.0
 11
33.0
 21
34.951999999999998
 31
0.0
  0
LINE
  5
2D0
  8
0
 10
32.488
 20
34.927999999999997
 30
0.0
 11
33.0
 21
35.0
 31
0.0
  0
LINE
  5
2D1
  8
0
 10
16.416
 20
34.41599999999999
 30
0.0
 11
16.736000000000001
 21
33.99199999999999
 31
0.0
  0
LINE
  5
2D2
  8
0
 10
15.992000000000001
 20
34.73599999999999
 30
0.0
 11
16.416
 21
34.41599999999999
 31
0.0
  0
LINE
  5
2D3
  8
0
 10
15.504
 20
49.11999999999999
 30
0.0
 11
15.967999999999989
 21
49.311999999999998
 31
0.0
  0
LINE
  5
2D4
  8
0
 10
15.512
 20
49.071999999999989
 30
0.0
 11
15.992000000000001
 21
49.264000000000003
 31
0.0
  0
LINE
  5
2D5
  8
0
 10
15.504
 20
67.120000000000005
 30
0.0
 11
15.967999999999989
 21
67.311999999999998
 31
0.0
  0
LINE
  5
2D6
  8
0
 10
15.512
 20
67.072000000000003
 30
0.0
 11
15.992000000000001
 21
67.263999999999996
 31
0.0
  0
LINE
  5
2D7
  8
0
 10
15.504
 20
85.120000000000005
 30
0.0
 11
15.967999999999989
 21
85.312000000000012
 31
0.0
  0
LINE
  5
2D8
  8
0
 10
15.512
 20
85.072000000000003
 30
0.0
 11
15.992000000000001
 21
85.263999999999996
 31
0.0
  0
LINE
  5
2D9
  8
0
 10
15.504
 20
103.12
 30
0.0
 11
15.967999999999989
 21
103.312
 31
0.0
  0
LINE
  5
2DA
  8
0
 10
15.512
 20
103.072
 30
0.0
 11
15.992000000000001
 21
103.264
 31
0.0
  0
LINE
  5
2DB
  8
0
 10
15.504
 20
106.8799999999999
 30
0.0
 11
15.967999999999989
 21
106.6879999999999
 31
0.0
  0
LINE
  5
2DC
  8
0
 10
15.512
 20
106.928
 30
0.0
 11
15.992000000000001
 21
106.736
 31
0.0
  0
LINE
  5
2DD
  8
0
 10
15.504
 20
88.879999999999995
 30
0.0
 11
15.967999999999989
 21
88.687999999999974
 31
0.0
  0
LINE
  5
2DE
  8
0
 10
15.512
 20
88.927999999999983
 30
0.0
 11
15.992000000000001
 21
88.736000000000004
 31
0.0
  0
LINE
  5
2DF
  8
0
 10
15.504
 20
70.879999999999995
 30
0.0
 11
15.967999999999989
 21
70.688000000000002
 31
0.0
  0
LINE
  5
2E0
  8
0
 10
15.512
 20
70.927999999999997
 30
0.0
 11
15.992000000000001
 21
70.736000000000004
 31
0.0
  0
LINE
  5
2E1
  8
0
 10
15.504
 20
52.880000000000003
 30
0.0
 11
15.967999999999989
 21
52.688000000000002
 31
0.0
  0
LINE
  5
2E2
  8
0
 10
16.375999999999991
 20
49.623999999999988
 30
0.0
 11
16.687999999999999
 21
50.031999999999989
 31
0.0
  0
LINE
  5
2E3
  8
0
 10
15.967999999999989
 20
49.311999999999998
 30
0.0
 11
16.375999999999991
 21
49.623999999999988
 31
0.0
  0
LINE
  5
2E4
  8
0
 10
15.992000000000001
 20
49.264000000000003
 30
0.0
 11
16.416
 21
49.584000000000003
 31
0.0
  0
LINE
  5
2E5
  8
0
 10
16.416
 20
49.584000000000003
 30
0.0
 11
16.736000000000001
 21
50.008000000000003
 31
0.0
  0
LINE
  5
2E6
  8
0
 10
16.375999999999991
 20
52.375999999999998
 30
0.0
 11
16.687999999999999
 21
51.968000000000004
 31
0.0
  0
LINE
  5
2E7
  8
0
 10
15.967999999999989
 20
52.688000000000002
 30
0.0
 11
16.375999999999991
 21
52.375999999999998
 31
0.0
  0
LINE
  5
2E8
  8
0
 10
16.879999999999988
 20
50.496000000000002
 30
0.0
 11
16.952000000000002
 21
51.0
 31
0.0
  0
LINE
  5
2E9
  8
0
 10
16.687999999999999
 20
50.031999999999989
 30
0.0
 11
16.879999999999988
 21
50.496000000000002
 31
0.0
  0
LINE
  5
2EA
  8
0
 10
16.736000000000001
 20
50.008000000000003
 30
0.0
 11
16.928000000000001
 21
50.487999999999992
 31
0.0
  0
LINE
  5
2EB
  8
0
 10
16.928000000000001
 20
50.487999999999992
 30
0.0
 11
17.0
 21
51.0
 31
0.0
  0
LINE
  5
2EC
  8
0
 10
16.879999999999988
 20
51.503999999999998
 30
0.0
 11
16.952000000000002
 21
51.0
 31
0.0
  0
LINE
  5
2ED
  8
0
 10
16.687999999999999
 20
51.968000000000004
 30
0.0
 11
16.879999999999988
 21
51.503999999999998
 31
0.0
  0
LINE
  5
2EE
  8
0
 10
33.0
 20
49.048000000000002
 30
0.0
 11
33.503999999999998
 21
49.11999999999999
 31
0.0
  0
LINE
  5
2EF
  8
0
 10
33.0
 20
49.0
 30
0.0
 11
33.512
 21
49.071999999999989
 31
0.0
  0
LINE
  5
2F0
  8
0
 10
31.120000000000001
 20
51.503999999999998
 30
0.0
 11
31.311999999999991
 21
51.968000000000004
 31
0.0
  0
LINE
  5
2F1
  8
0
 10
31.071999999999999
 20
51.512
 30
0.0
 11
31.263999999999999
 21
51.991999999999997
 31
0.0
  0
LINE
  5
2F2
  8
0
 10
31.263999999999999
 20
51.991999999999997
 30
0.0
 11
31.584
 21
52.415999999999997
 31
0.0
  0
LINE
  5
2F3
  8
0
 10
31.047999999999998
 20
51.0
 30
0.0
 11
31.120000000000001
 21
50.496000000000002
 31
0.0
  0
LINE
  5
2F4
  8
0
 10
31.047999999999998
 20
51.0
 30
0.0
 11
31.120000000000001
 21
51.503999999999998
 31
0.0
  0
LINE
  5
2F5
  8
0
 10
31.120000000000001
 20
50.496000000000002
 30
0.0
 11
31.311999999999991
 21
50.031999999999989
 31
0.0
  0
LINE
  5
2F6
  8
0
 10
31.0
 20
51.0
 30
0.0
 11
31.071999999999999
 21
50.487999999999992
 31
0.0
  0
LINE
  5
2F7
  8
0
 10
31.0
 20
51.0
 30
0.0
 11
31.071999999999999
 21
51.512
 31
0.0
  0
LINE
  5
2F8
  8
0
 10
31.071999999999999
 20
50.487999999999992
 30
0.0
 11
31.263999999999999
 21
50.008000000000003
 31
0.0
  0
LINE
  5
2F9
  8
0
 10
31.311999999999991
 20
51.968000000000004
 30
0.0
 11
31.623999999999999
 21
52.375999999999998
 31
0.0
  0
LINE
  5
2FA
  8
0
 10
31.311999999999991
 20
50.031999999999989
 30
0.0
 11
31.623999999999999
 21
49.623999999999988
 31
0.0
  0
LINE
  5
2FB
  8
0
 10
31.623999999999999
 20
49.623999999999988
 30
0.0
 11
32.031999999999989
 21
49.311999999999998
 31
0.0
  0
LINE
  5
2FC
  8
0
 10
31.263999999999999
 20
50.008000000000003
 30
0.0
 11
31.584
 21
49.584000000000003
 31
0.0
  0
LINE
  5
2FD
  8
0
 10
31.584
 20
49.584000000000003
 30
0.0
 11
32.008000000000003
 21
49.264000000000003
 31
0.0
  0
LINE
  5
2FE
  8
0
 10
32.031999999999989
 20
49.311999999999998
 30
0.0
 11
32.496000000000002
 21
49.11999999999999
 31
0.0
  0
LINE
  5
2FF
  8
0
 10
32.496000000000002
 20
49.11999999999999
 30
0.0
 11
33.0
 21
49.048000000000002
 31
0.0
  0
LINE
  5
300
  8
0
 10
32.008000000000003
 20
49.264000000000003
 30
0.0
 11
32.488
 21
49.071999999999989
 31
0.0
  0
LINE
  5
301
  8
0
 10
32.488
 20
49.071999999999989
 30
0.0
 11
33.0
 21
49.0
 31
0.0
  0
LINE
  5
302
  8
0
 10
16.928000000000001
 20
51.512
 30
0.0
 11
17.0
 21
51.0
 31
0.0
  0
LINE
  5
303
  8
0
 10
31.623999999999999
 20
52.375999999999998
 30
0.0
 11
32.031999999999989
 21
52.688000000000002
 31
0.0
  0
LINE
  5
304
  8
0
 10
31.584
 20
52.415999999999997
 30
0.0
 11
32.008000000000003
 21
52.735999999999997
 31
0.0
  0
LINE
  5
305
  8
0
 10
32.031999999999989
 20
52.688000000000002
 30
0.0
 11
32.496000000000002
 21
52.880000000000003
 31
0.0
  0
LINE
  5
306
  8
0
 10
32.008000000000003
 20
52.735999999999997
 30
0.0
 11
32.488
 21
52.927999999999997
 31
0.0
  0
LINE
  5
307
  8
0
 10
16.736000000000001
 20
51.991999999999997
 30
0.0
 11
16.928000000000001
 21
51.512
 31
0.0
  0
LINE
  5
308
  8
0
 10
16.416
 20
52.415999999999997
 30
0.0
 11
16.736000000000001
 21
51.991999999999997
 31
0.0
  0
LINE
  5
309
  8
0
 10
15.967999999999989
 20
67.311999999999998
 30
0.0
 11
16.375999999999991
 21
67.623999999999995
 31
0.0
  0
LINE
  5
30A
  8
0
 10
15.992000000000001
 20
67.263999999999996
 30
0.0
 11
16.416
 21
67.584000000000003
 31
0.0
  0
LINE
  5
30B
  8
0
 10
15.967999999999989
 20
85.312000000000012
 30
0.0
 11
16.375999999999991
 21
85.623999999999995
 31
0.0
  0
LINE
  5
30C
  8
0
 10
15.992000000000001
 20
85.263999999999996
 30
0.0
 11
16.416
 21
85.584000000000003
 31
0.0
  0
LINE
  5
30D
  8
0
 10
15.967999999999989
 20
103.312
 30
0.0
 11
16.375999999999991
 21
103.624
 31
0.0
  0
LINE
  5
30E
  8
0
 10
15.992000000000001
 20
103.264
 30
0.0
 11
16.416
 21
103.584
 31
0.0
  0
LINE
  5
30F
  8
0
 10
15.967999999999989
 20
106.6879999999999
 30
0.0
 11
16.375999999999991
 21
106.376
 31
0.0
  0
LINE
  5
310
  8
0
 10
15.992000000000001
 20
106.736
 30
0.0
 11
16.416
 21
106.4159999999999
 31
0.0
  0
LINE
  5
311
  8
0
 10
15.967999999999989
 20
88.687999999999974
 30
0.0
 11
16.375999999999991
 21
88.376000000000005
 31
0.0
  0
LINE
  5
312
  8
0
 10
15.992000000000001
 20
88.736000000000004
 30
0.0
 11
16.416
 21
88.415999999999997
 31
0.0
  0
LINE
  5
313
  8
0
 10
15.967999999999989
 20
70.688000000000002
 30
0.0
 11
16.375999999999991
 21
70.376000000000005
 31
0.0
  0
LINE
  5
314
  8
0
 10
16.687999999999999
 20
68.031999999999996
 30
0.0
 11
16.879999999999988
 21
68.496000000000009
 31
0.0
  0
LINE
  5
315
  8
0
 10
16.375999999999991
 20
67.623999999999995
 30
0.0
 11
16.687999999999999
 21
68.031999999999996
 31
0.0
  0
LINE
  5
316
  8
0
 10
16.416
 20
67.584000000000003
 30
0.0
 11
16.736000000000001
 21
68.007999999999996
 31
0.0
  0
LINE
  5
317
  8
0
 10
16.736000000000001
 20
68.007999999999996
 30
0.0
 11
16.928000000000001
 21
68.488
 31
0.0
  0
LINE
  5
318
  8
0
 10
16.687999999999999
 20
69.968000000000004
 30
0.0
 11
16.879999999999988
 21
69.503999999999991
 31
0.0
  0
LINE
  5
319
  8
0
 10
16.375999999999991
 20
70.376000000000005
 30
0.0
 11
16.687999999999999
 21
69.968000000000004
 31
0.0
  0
LINE
  5
31A
  8
0
 10
16.879999999999988
 20
68.496000000000009
 30
0.0
 11
16.952000000000002
 21
69.0
 31
0.0
  0
LINE
  5
31B
  8
0
 10
31.071999999999999
 20
68.488
 30
0.0
 11
31.263999999999999
 21
68.007999999999996
 31
0.0
  0
LINE
  5
31C
  8
0
 10
31.311999999999991
 20
68.031999999999996
 30
0.0
 11
31.623999999999999
 21
67.623999999999995
 31
0.0
  0
LINE
  5
31D
  8
0
 10
31.623999999999999
 20
67.623999999999995
 30
0.0
 11
32.031999999999989
 21
67.311999999999998
 31
0.0
  0
LINE
  5
31E
  8
0
 10
31.263999999999999
 20
68.007999999999996
 30
0.0
 11
31.584
 21
67.584000000000003
 31
0.0
  0
LINE
  5
31F
  8
0
 10
31.584
 20
67.584000000000003
 30
0.0
 11
32.008000000000003
 21
67.263999999999996
 31
0.0
  0
LINE
  5
320
  8
0
 10
32.031999999999989
 20
67.311999999999998
 30
0.0
 11
32.496000000000002
 21
67.120000000000005
 31
0.0
  0
LINE
  5
321
  8
0
 10
32.008000000000003
 20
67.263999999999996
 30
0.0
 11
32.488
 21
67.072000000000003
 31
0.0
  0
LINE
  5
322
  8
0
 10
32.488
 20
67.072000000000003
 30
0.0
 11
33.0
 21
67.0
 31
0.0
  0
LINE
  5
323
  8
0
 10
33.0
 20
67.048000000000002
 30
0.0
 11
33.503999999999998
 21
67.120000000000005
 31
0.0
  0
LINE
  5
324
  8
0
 10
33.0
 20
67.0
 30
0.0
 11
33.512
 21
67.072000000000003
 31
0.0
  0
LINE
  5
325
  8
0
 10
32.496000000000002
 20
67.120000000000005
 30
0.0
 11
33.0
 21
67.048000000000002
 31
0.0
  0
LINE
  5
326
  8
0
 10
33.0
 20
52.951999999999998
 30
0.0
 11
33.503999999999998
 21
52.880000000000003
 31
0.0
  0
LINE
  5
327
  8
0
 10
33.0
 20
53.0
 30
0.0
 11
33.512
 21
52.927999999999997
 31
0.0
  0
LINE
  5
328
  8
0
 10
32.496000000000002
 20
52.880000000000003
 30
0.0
 11
33.0
 21
52.951999999999998
 31
0.0
  0
LINE
  5
329
  8
0
 10
32.488
 20
52.927999999999997
 30
0.0
 11
33.0
 21
53.0
 31
0.0
  0
LINE
  5
32A
  8
0
 10
31.120000000000001
 20
69.503999999999991
 30
0.0
 11
31.311999999999991
 21
69.968000000000004
 31
0.0
  0
LINE
  5
32B
  8
0
 10
31.071999999999999
 20
69.512
 30
0.0
 11
31.263999999999999
 21
69.992000000000004
 31
0.0
  0
LINE
  5
32C
  8
0
 10
31.047999999999998
 20
69.0
 30
0.0
 11
31.120000000000001
 21
68.496000000000009
 31
0.0
  0
LINE
  5
32D
  8
0
 10
31.047999999999998
 20
69.0
 30
0.0
 11
31.120000000000001
 21
69.503999999999991
 31
0.0
  0
LINE
  5
32E
  8
0
 10
31.120000000000001
 20
68.496000000000009
 30
0.0
 11
31.311999999999991
 21
68.031999999999996
 31
0.0
  0
LINE
  5
32F
  8
0
 10
31.0
 20
69.0
 30
0.0
 11
31.071999999999999
 21
68.488
 31
0.0
  0
LINE
  5
330
  8
0
 10
31.0
 20
69.0
 30
0.0
 11
31.071999999999999
 21
69.512
 31
0.0
  0
LINE
  5
331
  8
0
 10
16.928000000000001
 20
68.488
 30
0.0
 11
17.0
 21
69.0
 31
0.0
  0
LINE
  5
332
  8
0
 10
16.879999999999988
 20
69.503999999999991
 30
0.0
 11
16.952000000000002
 21
69.0
 31
0.0
  0
LINE
  5
333
  8
0
 10
31.311999999999991
 20
69.968000000000004
 30
0.0
 11
31.623999999999999
 21
70.376000000000005
 31
0.0
  0
LINE
  5
334
  8
0
 10
31.263999999999999
 20
69.992000000000004
 30
0.0
 11
31.584
 21
70.415999999999997
 31
0.0
  0
LINE
  5
335
  8
0
 10
31.623999999999999
 20
70.376000000000005
 30
0.0
 11
32.031999999999989
 21
70.688000000000002
 31
0.0
  0
LINE
  5
336
  8
0
 10
31.584
 20
70.415999999999997
 30
0.0
 11
32.008000000000003
 21
70.736000000000004
 31
0.0
  0
LINE
  5
337
  8
0
 10
16.928000000000001
 20
69.512
 30
0.0
 11
17.0
 21
69.0
 31
0.0
  0
LINE
  5
338
  8
0
 10
16.736000000000001
 20
69.992000000000004
 30
0.0
 11
16.928000000000001
 21
69.512
 31
0.0
  0
LINE
  5
339
  8
0
 10
32.031999999999989
 20
70.688000000000002
 30
0.0
 11
32.496000000000002
 21
70.879999999999995
 31
0.0
  0
LINE
  5
33A
  8
0
 10
16.375999999999991
 20
85.623999999999995
 30
0.0
 11
16.687999999999999
 21
86.032000000000011
 31
0.0
  0
LINE
  5
33B
  8
0
 10
16.416
 20
85.584000000000003
 30
0.0
 11
16.736000000000001
 21
86.007999999999996
 31
0.0
  0
LINE
  5
33C
  8
0
 10
16.375999999999991
 20
103.624
 30
0.0
 11
16.687999999999999
 21
104.032
 31
0.0
  0
LINE
  5
33D
  8
0
 10
16.416
 20
103.584
 30
0.0
 11
16.736000000000001
 21
104.0079999999999
 31
0.0
  0
LINE
  5
33E
  8
0
 10
16.375999999999991
 20
106.376
 30
0.0
 11
16.687999999999999
 21
105.9679999999999
 31
0.0
  0
LINE
  5
33F
  8
0
 10
16.416
 20
106.4159999999999
 30
0.0
 11
16.736000000000001
 21
105.9919999999999
 31
0.0
  0
LINE
  5
340
  8
0
 10
16.375999999999991
 20
88.376000000000005
 30
0.0
 11
16.687999999999999
 21
87.967999999999989
 31
0.0
  0
LINE
  5
341
  8
0
 10
16.879999999999988
 20
86.496000000000009
 30
0.0
 11
16.952000000000002
 21
87.0
 31
0.0
  0
LINE
  5
342
  8
0
 10
16.687999999999999
 20
86.032000000000011
 30
0.0
 11
16.879999999999988
 21
86.496000000000009
 31
0.0
  0
LINE
  5
343
  8
0
 10
16.736000000000001
 20
86.007999999999996
 30
0.0
 11
16.928000000000001
 21
86.487999999999985
 31
0.0
  0
LINE
  5
344
  8
0
 10
16.928000000000001
 20
86.487999999999985
 30
0.0
 11
17.0
 21
87.0
 31
0.0
  0
LINE
  5
345
  8
0
 10
16.879999999999988
 20
87.503999999999991
 30
0.0
 11
16.952000000000002
 21
87.0
 31
0.0
  0
LINE
  5
346
  8
0
 10
16.687999999999999
 20
87.967999999999989
 30
0.0
 11
16.879999999999988
 21
87.503999999999991
 31
0.0
  0
LINE
  5
347
  8
0
 10
31.120000000000001
 20
87.503999999999991
 30
0.0
 11
31.311999999999991
 21
87.967999999999989
 31
0.0
  0
LINE
  5
348
  8
0
 10
31.071999999999999
 20
87.512
 30
0.0
 11
31.263999999999999
 21
87.992000000000004
 31
0.0
  0
LINE
  5
349
  8
0
 10
31.263999999999999
 20
87.992000000000004
 30
0.0
 11
31.584
 21
88.415999999999997
 31
0.0
  0
LINE
  5
34A
  8
0
 10
31.047999999999998
 20
87.0
 30
0.0
 11
31.120000000000001
 21
86.496000000000009
 31
0.0
  0
LINE
  5
34B
  8
0
 10
31.047999999999998
 20
87.0
 30
0.0
 11
31.120000000000001
 21
87.503999999999991
 31
0.0
  0
LINE
  5
34C
  8
0
 10
31.120000000000001
 20
86.496000000000009
 30
0.0
 11
31.311999999999991
 21
86.032000000000011
 31
0.0
  0
LINE
  5
34D
  8
0
 10
31.0
 20
87.0
 30
0.0
 11
31.071999999999999
 21
86.487999999999985
 31
0.0
  0
LINE
  5
34E
  8
0
 10
31.0
 20
87.0
 30
0.0
 11
31.071999999999999
 21
87.512
 31
0.0
  0
LINE
  5
34F
  8
0
 10
31.071999999999999
 20
86.487999999999985
 30
0.0
 11
31.263999999999999
 21
86.007999999999996
 31
0.0
  0
LINE
  5
350
  8
0
 10
31.311999999999991
 20
87.967999999999989
 30
0.0
 11
31.623999999999999
 21
88.376000000000005
 31
0.0
  0
LINE
  5
351
  8
0
 10
31.311999999999991
 20
86.032000000000011
 30
0.0
 11
31.623999999999999
 21
85.623999999999995
 31
0.0
  0
LINE
  5
352
  8
0
 10
31.623999999999999
 20
85.623999999999995
 30
0.0
 11
32.031999999999989
 21
85.312000000000012
 31
0.0
  0
LINE
  5
353
  8
0
 10
31.263999999999999
 20
86.007999999999996
 30
0.0
 11
31.584
 21
85.584000000000003
 31
0.0
  0
LINE
  5
354
  8
0
 10
31.584
 20
85.584000000000003
 30
0.0
 11
32.008000000000003
 21
85.263999999999996
 31
0.0
  0
LINE
  5
355
  8
0
 10
32.031999999999989
 20
85.312000000000012
 30
0.0
 11
32.496000000000002
 21
85.120000000000005
 31
0.0
  0
LINE
  5
356
  8
0
 10
32.008000000000003
 20
85.263999999999996
 30
0.0
 11
32.488
 21
85.072000000000003
 31
0.0
  0
LINE
  5
357
  8
0
 10
32.488
 20
85.072000000000003
 30
0.0
 11
33.0
 21
85.0
 31
0.0
  0
LINE
  5
358
  8
0
 10
16.928000000000001
 20
87.512
 30
0.0
 11
17.0
 21
87.0
 31
0.0
  0
LINE
  5
359
  8
0
 10
31.623999999999999
 20
88.376000000000005
 30
0.0
 11
32.031999999999989
 21
88.687999999999974
 31
0.0
  0
LINE
  5
35A
  8
0
 10
32.031999999999989
 20
88.687999999999974
 30
0.0
 11
32.496000000000002
 21
88.879999999999995
 31
0.0
  0
LINE
  5
35B
  8
0
 10
31.584
 20
88.415999999999997
 30
0.0
 11
32.008000000000003
 21
88.736000000000004
 31
0.0
  0
LINE
  5
35C
  8
0
 10
16.687999999999999
 20
104.032
 30
0.0
 11
16.879999999999988
 21
104.496
 31
0.0
  0
LINE
  5
35D
  8
0
 10
16.736000000000001
 20
104.0079999999999
 30
0.0
 11
16.928000000000001
 21
104.488
 31
0.0
  0
LINE
  5
35E
  8
0
 10
16.687999999999999
 20
105.9679999999999
 30
0.0
 11
16.879999999999988
 21
105.50399999999991
 31
0.0
  0
LINE
  5
35F
  8
0
 10
16.879999999999988
 20
104.496
 30
0.0
 11
16.952000000000002
 21
105.0
 31
0.0
  0
LINE
  5
360
  8
0
 10
31.311999999999991
 20
104.032
 30
0.0
 11
31.623999999999999
 21
103.624
 31
0.0
  0
LINE
  5
361
  8
0
 10
31.071999999999999
 20
104.488
 30
0.0
 11
31.263999999999999
 21
104.0079999999999
 31
0.0
  0
LINE
  5
362
  8
0
 10
31.263999999999999
 20
104.0079999999999
 30
0.0
 11
31.584
 21
103.584
 31
0.0
  0
LINE
  5
363
  8
0
 10
31.623999999999999
 20
103.624
 30
0.0
 11
32.031999999999989
 21
103.312
 31
0.0
  0
LINE
  5
364
  8
0
 10
32.031999999999989
 20
103.312
 30
0.0
 11
32.496000000000002
 21
103.12
 31
0.0
  0
LINE
  5
365
  8
0
 10
31.584
 20
103.584
 30
0.0
 11
32.008000000000003
 21
103.264
 31
0.0
  0
LINE
  5
366
  8
0
 10
32.008000000000003
 20
103.264
 30
0.0
 11
32.488
 21
103.072
 31
0.0
  0
LINE
  5
367
  8
0
 10
32.488
 20
103.072
 30
0.0
 11
33.0
 21
103.0
 31
0.0
  0
LINE
  5
368
  8
0
 10
31.120000000000001
 20
105.50399999999991
 30
0.0
 11
31.311999999999991
 21
105.9679999999999
 31
0.0
  0
LINE
  5
369
  8
0
 10
31.071999999999999
 20
105.512
 30
0.0
 11
31.263999999999999
 21
105.9919999999999
 31
0.0
  0
LINE
  5
36A
  8
0
 10
31.047999999999998
 20
105.0
 30
0.0
 11
31.120000000000001
 21
104.496
 31
0.0
  0
LINE
  5
36B
  8
0
 10
31.047999999999998
 20
105.0
 30
0.0
 11
31.120000000000001
 21
105.50399999999991
 31
0.0
  0
LINE
  5
36C
  8
0
 10
31.120000000000001
 20
104.496
 30
0.0
 11
31.311999999999991
 21
104.032
 31
0.0
  0
LINE
  5
36D
  8
0
 10
31.0
 20
105.0
 30
0.0
 11
31.071999999999999
 21
104.488
 31
0.0
  0
LINE
  5
36E
  8
0
 10
31.0
 20
105.0
 30
0.0
 11
31.071999999999999
 21
105.512
 31
0.0
  0
LINE
  5
36F
  8
0
 10
16.928000000000001
 20
104.488
 30
0.0
 11
17.0
 21
105.0
 31
0.0
  0
LINE
  5
370
  8
0
 10
16.879999999999988
 20
105.50399999999991
 30
0.0
 11
16.952000000000002
 21
105.0
 31
0.0
  0
LINE
  5
371
  8
0
 10
31.311999999999991
 20
105.9679999999999
 30
0.0
 11
31.623999999999999
 21
106.376
 31
0.0
  0
LINE
  5
372
  8
0
 10
31.263999999999999
 20
105.9919999999999
 30
0.0
 11
31.584
 21
106.4159999999999
 31
0.0
  0
LINE
  5
373
  8
0
 10
31.623999999999999
 20
106.376
 30
0.0
 11
32.031999999999989
 21
106.6879999999999
 31
0.0
  0
LINE
  5
374
  8
0
 10
32.031999999999989
 20
106.6879999999999
 30
0.0
 11
32.496000000000002
 21
106.8799999999999
 31
0.0
  0
LINE
  5
375
  8
0
 10
31.584
 20
106.4159999999999
 30
0.0
 11
32.008000000000003
 21
106.736
 31
0.0
  0
LINE
  5
376
  8
0
 10
32.008000000000003
 20
106.736
 30
0.0
 11
32.488
 21
106.928
 31
0.0
  0
LINE
  5
377
  8
0
 10
32.488
 20
106.928
 30
0.0
 11
33.0
 21
107.0
 31
0.0
  0
LINE
  5
378
  8
0
 10
16.928000000000001
 20
105.512
 30
0.0
 11
17.0
 21
105.0
 31
0.0
  0
LINE
  5
379
  8
0
 10
16.736000000000001
 20
105.9919999999999
 30
0.0
 11
16.928000000000001
 21
105.512
 31
0.0
  0
LINE
  5
37A
  8
0
 10
32.008000000000003
 20
88.736000000000004
 30
0.0
 11
32.488
 21
88.927999999999983
 31
0.0
  0
LINE
  5
37B
  8
0
 10
32.488
 20
88.927999999999983
 30
0.0
 11
33.0
 21
89.0
 31
0.0
  0
LINE
  5
37C
  8
0
 10
16.736000000000001
 20
87.992000000000004
 30
0.0
 11
16.928000000000001
 21
87.512
 31
0.0
  0
LINE
  5
37D
  8
0
 10
16.416
 20
88.415999999999997
 30
0.0
 11
16.736000000000001
 21
87.992000000000004
 31
0.0
  0
LINE
  5
37E
  8
0
 10
32.008000000000003
 20
70.736000000000004
 30
0.0
 11
32.488
 21
70.927999999999997
 31
0.0
  0
LINE
  5
37F
  8
0
 10
32.496000000000002
 20
106.8799999999999
 30
0.0
 11
33.0
 21
106.952
 31
0.0
  0
LINE
  5
380
  8
0
 10
32.496000000000002
 20
103.12
 30
0.0
 11
33.0
 21
103.0479999999999
 31
0.0
  0
LINE
  5
381
  8
0
 10
32.496000000000002
 20
88.879999999999995
 30
0.0
 11
33.0
 21
88.951999999999998
 31
0.0
  0
LINE
  5
382
  8
0
 10
33.0
 20
85.047999999999988
 30
0.0
 11
33.503999999999998
 21
85.120000000000005
 31
0.0
  0
LINE
  5
383
  8
0
 10
33.0
 20
85.0
 30
0.0
 11
33.512
 21
85.072000000000003
 31
0.0
  0
LINE
  5
384
  8
0
 10
33.0
 20
88.951999999999998
 30
0.0
 11
33.503999999999998
 21
88.879999999999995
 31
0.0
  0
LINE
  5
385
  8
0
 10
33.0
 20
103.0479999999999
 30
0.0
 11
33.503999999999998
 21
103.12
 31
0.0
  0
LINE
  5
386
  8
0
 10
33.0
 20
103.0
 30
0.0
 11
33.512
 21
103.072
 31
0.0
  0
LINE
  5
387
  8
0
 10
33.0
 20
106.952
 30
0.0
 11
33.503999999999998
 21
106.8799999999999
 31
0.0
  0
LINE
  5
388
  8
0
 10
33.0
 20
107.0
 30
0.0
 11
33.512
 21
106.928
 31
0.0
  0
LINE
  5
389
  8
0
 10
33.0
 20
89.0
 30
0.0
 11
33.512
 21
88.927999999999983
 31
0.0
  0
LINE
  5
38A
  8
0
 10
32.496000000000002
 20
85.120000000000005
 30
0.0
 11
33.0
 21
85.047999999999988
 31
0.0
  0
LINE
  5
38B
  8
0
 10
33.0
 20
70.951999999999998
 30
0.0
 11
33.503999999999998
 21
70.879999999999995
 31
0.0
  0
LINE
  5
38C
  8
0
 10
33.0
 20
71.0
 30
0.0
 11
33.512
 21
70.927999999999997
 31
0.0
  0
LINE
  5
38D
  8
0
 10
32.496000000000002
 20
70.879999999999995
 30
0.0
 11
33.0
 21
70.951999999999998
 31
0.0
  0
LINE
  5
38E
  8
0
 10
32.488
 20
70.927999999999997
 30
0.0
 11
33.0
 21
71.0
 31
0.0
  0
LINE
  5
38F
  8
0
 10
16.416
 20
70.415999999999997
 30
0.0
 11
16.736000000000001
 21
69.992000000000004
 31
0.0
  0
LINE
  5
390
  8
0
 10
15.992000000000001
 20
70.736000000000004
 30
0.0
 11
16.416
 21
70.415999999999997
 31
0.0
  0
LINE
  5
391
  8
0
 10
15.992000000000001
 20
52.735999999999997
 30
0.0
 11
16.416
 21
52.415999999999997
 31
0.0
  0
LINE
  5
392
  8
0
 10
15.512
 20
52.927999999999997
 30
0.0
 11
15.992000000000001
 21
52.735999999999997
 31
0.0
  0
LINE
  5
393
  8
0
 10
33.0
 20
34.951999999999998
 30
0.0
 11
33.503999999999998
 21
34.880000000000003
 31
0.0
  0
LINE
  5
394
  8
0
 10
105.0
 20
34.951999999999998
 30
0.0
 11
105.50399999999991
 21
34.880000000000003
 31
0.0
  0
LINE
  5
395
  8
0
 10
105.0
 20
35.0
 30
0.0
 11
105.512
 21
34.927999999999997
 31
0.0
  0
LINE
  5
396
  8
0
 10
87.0
 20
34.951999999999998
 30
0.0
 11
87.503999999999991
 21
34.880000000000003
 31
0.0
  0
LINE
  5
397
  8
0
 10
87.0
 20
35.0
 30
0.0
 11
87.512
 21
34.927999999999997
 31
0.0
  0
LINE
  5
398
  8
0
 10
69.0
 20
34.951999999999998
 30
0.0
 11
69.503999999999991
 21
34.880000000000003
 31
0.0
  0
LINE
  5
399
  8
0
 10
69.0
 20
35.0
 30
0.0
 11
69.512
 21
34.927999999999997
 31
0.0
  0
LINE
  5
39A
  8
0
 10
51.0
 20
34.951999999999998
 30
0.0
 11
51.503999999999998
 21
34.880000000000003
 31
0.0
  0
LINE
  5
39B
  8
0
 10
33.503999999999998
 20
49.11999999999999
 30
0.0
 11
33.968000000000004
 21
49.311999999999998
 31
0.0
  0
LINE
  5
39C
  8
0
 10
33.512
 20
49.071999999999989
 30
0.0
 11
33.99199999999999
 21
49.264000000000003
 31
0.0
  0
LINE
  5
39D
  8
0
 10
33.503999999999998
 20
67.120000000000005
 30
0.0
 11
33.968000000000004
 21
67.311999999999998
 31
0.0
  0
LINE
  5
39E
  8
0
 10
33.512
 20
67.072000000000003
 30
0.0
 11
33.99199999999999
 21
67.263999999999996
 31
0.0
  0
LINE
  5
39F
  8
0
 10
33.503999999999998
 20
85.120000000000005
 30
0.0
 11
33.968000000000004
 21
85.312000000000012
 31
0.0
  0
LINE
  5
3A0
  8
0
 10
33.512
 20
85.072000000000003
 30
0.0
 11
33.99199999999999
 21
85.263999999999996
 31
0.0
  0
LINE
  5
3A1
  8
0
 10
33.503999999999998
 20
103.12
 30
0.0
 11
33.968000000000004
 21
103.312
 31
0.0
  0
LINE
  5
3A2
  8
0
 10
33.512
 20
103.072
 30
0.0
 11
33.99199999999999
 21
103.264
 31
0.0
  0
LINE
  5
3A3
  8
0
 10
33.503999999999998
 20
106.8799999999999
 30
0.0
 11
33.968000000000004
 21
106.6879999999999
 31
0.0
  0
LINE
  5
3A4
  8
0
 10
33.512
 20
106.928
 30
0.0
 11
33.99199999999999
 21
106.736
 31
0.0
  0
LINE
  5
3A5
  8
0
 10
33.503999999999998
 20
88.879999999999995
 30
0.0
 11
33.968000000000004
 21
88.687999999999974
 31
0.0
  0
LINE
  5
3A6
  8
0
 10
33.512
 20
88.927999999999983
 30
0.0
 11
33.99199999999999
 21
88.736000000000004
 31
0.0
  0
LINE
  5
3A7
  8
0
 10
33.503999999999998
 20
70.879999999999995
 30
0.0
 11
33.968000000000004
 21
70.688000000000002
 31
0.0
  0
LINE
  5
3A8
  8
0
 10
33.512
 20
70.927999999999997
 30
0.0
 11
33.99199999999999
 21
70.736000000000004
 31
0.0
  0
LINE
  5
3A9
  8
0
 10
33.503999999999998
 20
52.880000000000003
 30
0.0
 11
33.968000000000004
 21
52.688000000000002
 31
0.0
  0
LINE
  5
3AA
  8
0
 10
34.375999999999991
 20
49.623999999999988
 30
0.0
 11
34.688000000000002
 21
50.031999999999989
 31
0.0
  0
LINE
  5
3AB
  8
0
 10
33.968000000000004
 20
49.311999999999998
 30
0.0
 11
34.375999999999991
 21
49.623999999999988
 31
0.0
  0
LINE
  5
3AC
  8
0
 10
33.99199999999999
 20
49.264000000000003
 30
0.0
 11
34.41599999999999
 21
49.584000000000003
 31
0.0
  0
LINE
  5
3AD
  8
0
 10
34.41599999999999
 20
49.584000000000003
 30
0.0
 11
34.73599999999999
 21
50.008000000000003
 31
0.0
  0
LINE
  5
3AE
  8
0
 10
34.375999999999991
 20
52.375999999999998
 30
0.0
 11
34.688000000000002
 21
51.968000000000004
 31
0.0
  0
LINE
  5
3AF
  8
0
 10
33.968000000000004
 20
52.688000000000002
 30
0.0
 11
34.375999999999991
 21
52.375999999999998
 31
0.0
  0
LINE
  5
3B0
  8
0
 10
34.880000000000003
 20
50.496000000000002
 30
0.0
 11
34.951999999999998
 21
51.0
 31
0.0
  0
LINE
  5
3B1
  8
0
 10
34.688000000000002
 20
50.031999999999989
 30
0.0
 11
34.880000000000003
 21
50.496000000000002
 31
0.0
  0
LINE
  5
3B2
  8
0
 10
34.73599999999999
 20
50.008000000000003
 30
0.0
 11
34.927999999999997
 21
50.487999999999992
 31
0.0
  0
LINE
  5
3B3
  8
0
 10
34.927999999999997
 20
50.487999999999992
 30
0.0
 11
35.0
 21
51.0
 31
0.0
  0
LINE
  5
3B4
  8
0
 10
34.880000000000003
 20
51.503999999999998
 30
0.0
 11
34.951999999999998
 21
51.0
 31
0.0
  0
LINE
  5
3B5
  8
0
 10
34.688000000000002
 20
51.968000000000004
 30
0.0
 11
34.880000000000003
 21
51.503999999999998
 31
0.0
  0
LINE
  5
3B6
  8
0
 10
51.0
 20
49.048000000000002
 30
0.0
 11
51.503999999999998
 21
49.11999999999999
 31
0.0
  0
LINE
  5
3B7
  8
0
 10
105.0
 20
49.0
 30
0.0
 11
105.512
 21
49.071999999999989
 31
0.0
  0
LINE
  5
3B8
  8
0
 10
87.0
 20
49.0
 30
0.0
 11
87.512
 21
49.071999999999989
 31
0.0
  0
LINE
  5
3B9
  8
0
 10
69.0
 20
49.048000000000002
 30
0.0
 11
69.503999999999991
 21
49.11999999999999
 31
0.0
  0
LINE
  5
3BA
  8
0
 10
87.0
 20
49.048000000000002
 30
0.0
 11
87.503999999999991
 21
49.11999999999999
 31
0.0
  0
LINE
  5
3BB
  8
0
 10
105.0
 20
49.048000000000002
 30
0.0
 11
105.50399999999991
 21
49.11999999999999
 31
0.0
  0
LINE
  5
3BC
  8
0
 10
105.512
 20
49.071999999999989
 30
0.0
 11
105.9919999999999
 21
49.264000000000003
 31
0.0
  0
LINE
  5
3BD
  8
0
 10
104.488
 20
49.071999999999989
 30
0.0
 11
105.0
 21
49.0
 31
0.0
  0
LINE
  5
3BE
  8
0
 10
87.512
 20
49.071999999999989
 30
0.0
 11
87.992000000000004
 21
49.264000000000003
 31
0.0
  0
LINE
  5
3BF
  8
0
 10
86.487999999999985
 20
49.071999999999989
 30
0.0
 11
87.0
 21
49.0
 31
0.0
  0
LINE
  5
3C0
  8
0
 10
69.512
 20
49.071999999999989
 30
0.0
 11
69.992000000000004
 21
49.264000000000003
 31
0.0
  0
LINE
  5
3C1
  8
0
 10
69.0
 20
49.0
 30
0.0
 11
69.512
 21
49.071999999999989
 31
0.0
  0
LINE
  5
3C2
  8
0
 10
68.488
 20
49.071999999999989
 30
0.0
 11
69.0
 21
49.0
 31
0.0
  0
LINE
  5
3C3
  8
0
 10
51.512
 20
49.071999999999989
 30
0.0
 11
51.991999999999997
 21
49.264000000000003
 31
0.0
  0
LINE
  5
3C4
  8
0
 10
51.0
 20
49.0
 30
0.0
 11
51.512
 21
49.071999999999989
 31
0.0
  0
LINE
  5
3C5
  8
0
 10
49.11999999999999
 20
51.503999999999998
 30
0.0
 11
49.311999999999998
 21
51.968000000000004
 31
0.0
  0
LINE
  5
3C6
  8
0
 10
49.071999999999989
 20
51.512
 30
0.0
 11
49.264000000000003
 21
51.991999999999997
 31
0.0
  0
LINE
  5
3C7
  8
0
 10
49.264000000000003
 20
51.991999999999997
 30
0.0
 11
49.584000000000003
 21
52.415999999999997
 31
0.0
  0
LINE
  5
3C8
  8
0
 10
49.048000000000002
 20
51.0
 30
0.0
 11
49.11999999999999
 21
50.496000000000002
 31
0.0
  0
LINE
  5
3C9
  8
0
 10
49.048000000000002
 20
51.0
 30
0.0
 11
49.11999999999999
 21
51.503999999999998
 31
0.0
  0
LINE
  5
3CA
  8
0
 10
49.11999999999999
 20
50.496000000000002
 30
0.0
 11
49.311999999999998
 21
50.031999999999989
 31
0.0
  0
LINE
  5
3CB
  8
0
 10
49.0
 20
51.0
 30
0.0
 11
49.071999999999989
 21
50.487999999999992
 31
0.0
  0
LINE
  5
3CC
  8
0
 10
49.0
 20
51.0
 30
0.0
 11
49.071999999999989
 21
51.512
 31
0.0
  0
LINE
  5
3CD
  8
0
 10
49.071999999999989
 20
50.487999999999992
 30
0.0
 11
49.264000000000003
 21
50.008000000000003
 31
0.0
  0
LINE
  5
3CE
  8
0
 10
49.311999999999998
 20
51.968000000000004
 30
0.0
 11
49.623999999999988
 21
52.375999999999998
 31
0.0
  0
LINE
  5
3CF
  8
0
 10
49.311999999999998
 20
50.031999999999989
 30
0.0
 11
49.623999999999988
 21
49.623999999999988
 31
0.0
  0
LINE
  5
3D0
  8
0
 10
49.623999999999988
 20
49.623999999999988
 30
0.0
 11
50.031999999999989
 21
49.311999999999998
 31
0.0
  0
LINE
  5
3D1
  8
0
 10
49.264000000000003
 20
50.008000000000003
 30
0.0
 11
49.584000000000003
 21
49.584000000000003
 31
0.0
  0
LINE
  5
3D2
  8
0
 10
49.584000000000003
 20
49.584000000000003
 30
0.0
 11
50.008000000000003
 21
49.264000000000003
 31
0.0
  0
LINE
  5
3D3
  8
0
 10
105.50399999999991
 20
49.11999999999999
 30
0.0
 11
105.9679999999999
 21
49.311999999999998
 31
0.0
  0
LINE
  5
3D4
  8
0
 10
104.496
 20
49.11999999999999
 30
0.0
 11
105.0
 21
49.048000000000002
 31
0.0
  0
LINE
  5
3D5
  8
0
 10
87.503999999999991
 20
49.11999999999999
 30
0.0
 11
87.967999999999989
 21
49.311999999999998
 31
0.0
  0
LINE
  5
3D6
  8
0
 10
86.496000000000009
 20
49.11999999999999
 30
0.0
 11
87.0
 21
49.048000000000002
 31
0.0
  0
LINE
  5
3D7
  8
0
 10
69.503999999999991
 20
49.11999999999999
 30
0.0
 11
69.968000000000004
 21
49.311999999999998
 31
0.0
  0
LINE
  5
3D8
  8
0
 10
68.496000000000009
 20
49.11999999999999
 30
0.0
 11
69.0
 21
49.048000000000002
 31
0.0
  0
LINE
  5
3D9
  8
0
 10
51.503999999999998
 20
49.11999999999999
 30
0.0
 11
51.968000000000004
 21
49.311999999999998
 31
0.0
  0
LINE
  5
3DA
  8
0
 10
52.375999999999998
 20
49.623999999999988
 30
0.0
 11
52.688000000000002
 21
50.031999999999989
 31
0.0
  0
LINE
  5
3DB
  8
0
 10
51.968000000000004
 20
49.311999999999998
 30
0.0
 11
52.375999999999998
 21
49.623999999999988
 31
0.0
  0
LINE
  5
3DC
  8
0
 10
52.880000000000003
 20
50.496000000000002
 30
0.0
 11
52.951999999999998
 21
51.0
 31
0.0
  0
LINE
  5
3DD
  8
0
 10
52.688000000000002
 20
50.031999999999989
 30
0.0
 11
52.880000000000003
 21
50.496000000000002
 31
0.0
  0
LINE
  5
3DE
  8
0
 10
52.735999999999997
 20
50.008000000000003
 30
0.0
 11
52.927999999999997
 21
50.487999999999992
 31
0.0
  0
LINE
  5
3DF
  8
0
 10
52.415999999999997
 20
49.584000000000003
 30
0.0
 11
52.735999999999997
 21
50.008000000000003
 31
0.0
  0
LINE
  5
3E0
  8
0
 10
51.991999999999997
 20
49.264000000000003
 30
0.0
 11
52.415999999999997
 21
49.584000000000003
 31
0.0
  0
LINE
  5
3E1
  8
0
 10
52.927999999999997
 20
50.487999999999992
 30
0.0
 11
53.0
 21
51.0
 31
0.0
  0
LINE
  5
3E2
  8
0
 10
52.880000000000003
 20
51.503999999999998
 30
0.0
 11
52.951999999999998
 21
51.0
 31
0.0
  0
LINE
  5
3E3
  8
0
 10
52.688000000000002
 20
51.968000000000004
 30
0.0
 11
52.880000000000003
 21
51.503999999999998
 31
0.0
  0
LINE
  5
3E4
  8
0
 10
105.9919999999999
 20
49.264000000000003
 30
0.0
 11
106.4159999999999
 21
49.584000000000003
 31
0.0
  0
LINE
  5
3E5
  8
0
 10
104.0079999999999
 20
49.264000000000003
 30
0.0
 11
104.488
 21
49.071999999999989
 31
0.0
  0
LINE
  5
3E6
  8
0
 10
87.992000000000004
 20
49.264000000000003
 30
0.0
 11
88.415999999999997
 21
49.584000000000003
 31
0.0
  0
LINE
  5
3E7
  8
0
 10
86.007999999999996
 20
49.264000000000003
 30
0.0
 11
86.487999999999985
 21
49.071999999999989
 31
0.0
  0
LINE
  5
3E8
  8
0
 10
69.992000000000004
 20
49.264000000000003
 30
0.0
 11
70.415999999999997
 21
49.584000000000003
 31
0.0
  0
LINE
  5
3E9
  8
0
 10
67.048000000000002
 20
51.0
 30
0.0
 11
67.120000000000005
 21
50.496000000000002
 31
0.0
  0
LINE
  5
3EA
  8
0
 10
67.048000000000002
 20
51.0
 30
0.0
 11
67.120000000000005
 21
51.503999999999998
 31
0.0
  0
LINE
  5
3EB
  8
0
 10
67.072000000000003
 20
51.512
 30
0.0
 11
67.263999999999996
 21
51.991999999999997
 31
0.0
  0
LINE
  5
3EC
  8
0
 10
67.0
 20
51.0
 30
0.0
 11
67.072000000000003
 21
50.487999999999992
 31
0.0
  0
LINE
  5
3ED
  8
0
 10
67.0
 20
51.0
 30
0.0
 11
67.072000000000003
 21
51.512
 31
0.0
  0
LINE
  5
3EE
  8
0
 10
67.120000000000005
 20
51.503999999999998
 30
0.0
 11
67.311999999999998
 21
51.968000000000004
 31
0.0
  0
LINE
  5
3EF
  8
0
 10
67.311999999999998
 20
51.968000000000004
 30
0.0
 11
67.623999999999995
 21
52.375999999999998
 31
0.0
  0
LINE
  5
3F0
  8
0
 10
67.263999999999996
 20
51.991999999999997
 30
0.0
 11
67.584000000000003
 21
52.415999999999997
 31
0.0
  0
LINE
  5
3F1
  8
0
 10
67.120000000000005
 20
50.496000000000002
 30
0.0
 11
67.311999999999998
 21
50.031999999999989
 31
0.0
  0
LINE
  5
3F2
  8
0
 10
67.311999999999998
 20
50.031999999999989
 30
0.0
 11
67.623999999999995
 21
49.623999999999988
 31
0.0
  0
LINE
  5
3F3
  8
0
 10
67.072000000000003
 20
50.487999999999992
 30
0.0
 11
67.263999999999996
 21
50.008000000000003
 31
0.0
  0
LINE
  5
3F4
  8
0
 10
67.263999999999996
 20
50.008000000000003
 30
0.0
 11
67.584000000000003
 21
49.584000000000003
 31
0.0
  0
LINE
  5
3F5
  8
0
 10
105.9679999999999
 20
49.311999999999998
 30
0.0
 11
106.376
 21
49.623999999999988
 31
0.0
  0
LINE
  5
3F6
  8
0
 10
104.032
 20
49.311999999999998
 30
0.0
 11
104.496
 21
49.11999999999999
 31
0.0
  0
LINE
  5
3F7
  8
0
 10
87.967999999999989
 20
49.311999999999998
 30
0.0
 11
88.376000000000005
 21
49.623999999999988
 31
0.0
  0
LINE
  5
3F8
  8
0
 10
86.032000000000011
 20
49.311999999999998
 30
0.0
 11
86.496000000000009
 21
49.11999999999999
 31
0.0
  0
LINE
  5
3F9
  8
0
 10
69.968000000000004
 20
49.311999999999998
 30
0.0
 11
70.376000000000005
 21
49.623999999999988
 31
0.0
  0
LINE
  5
3FA
  8
0
 10
70.688000000000002
 20
50.031999999999989
 30
0.0
 11
70.879999999999995
 21
50.496000000000002
 31
0.0
  0
LINE
  5
3FB
  8
0
 10
70.376000000000005
 20
49.623999999999988
 30
0.0
 11
70.688000000000002
 21
50.031999999999989
 31
0.0
  0
LINE
  5
3FC
  8
0
 10
70.879999999999995
 20
50.496000000000002
 30
0.0
 11
70.951999999999998
 21
51.0
 31
0.0
  0
LINE
  5
3FD
  8
0
 10
70.736000000000004
 20
50.008000000000003
 30
0.0
 11
70.927999999999997
 21
50.487999999999992
 31
0.0
  0
LINE
  5
3FE
  8
0
 10
70.415999999999997
 20
49.584000000000003
 30
0.0
 11
70.736000000000004
 21
50.008000000000003
 31
0.0
  0
LINE
  5
3FF
  8
0
 10
70.927999999999997
 20
50.487999999999992
 30
0.0
 11
71.0
 21
51.0
 31
0.0
  0
LINE
  5
400
  8
0
 10
70.879999999999995
 20
51.503999999999998
 30
0.0
 11
70.951999999999998
 21
51.0
 31
0.0
  0
LINE
  5
401
  8
0
 10
70.688000000000002
 20
51.968000000000004
 30
0.0
 11
70.879999999999995
 21
51.503999999999998
 31
0.0
  0
LINE
  5
402
  8
0
 10
106.4159999999999
 20
49.584000000000003
 30
0.0
 11
106.736
 21
50.008000000000003
 31
0.0
  0
LINE
  5
403
  8
0
 10
103.584
 20
49.584000000000003
 30
0.0
 11
104.0079999999999
 21
49.264000000000003
 31
0.0
  0
LINE
  5
404
  8
0
 10
88.415999999999997
 20
49.584000000000003
 30
0.0
 11
88.736000000000004
 21
50.008000000000003
 31
0.0
  0
LINE
  5
405
  8
0
 10
85.120000000000005
 20
51.503999999999998
 30
0.0
 11
85.312000000000012
 21
51.968000000000004
 31
0.0
  0
LINE
  5
406
  8
0
 10
85.072000000000003
 20
51.512
 30
0.0
 11
85.263999999999996
 21
51.991999999999997
 31
0.0
  0
LINE
  5
407
  8
0
 10
85.263999999999996
 20
51.991999999999997
 30
0.0
 11
85.584000000000003
 21
52.415999999999997
 31
0.0
  0
LINE
  5
408
  8
0
 10
85.047999999999988
 20
51.0
 30
0.0
 11
85.120000000000005
 21
50.496000000000002
 31
0.0
  0
LINE
  5
409
  8
0
 10
85.047999999999988
 20
51.0
 30
0.0
 11
85.120000000000005
 21
51.503999999999998
 31
0.0
  0
LINE
  5
40A
  8
0
 10
85.120000000000005
 20
50.496000000000002
 30
0.0
 11
85.312000000000012
 21
50.031999999999989
 31
0.0
  0
LINE
  5
40B
  8
0
 10
85.0
 20
51.0
 30
0.0
 11
85.072000000000003
 21
50.487999999999992
 31
0.0
  0
LINE
  5
40C
  8
0
 10
85.0
 20
51.0
 30
0.0
 11
85.072000000000003
 21
51.512
 31
0.0
  0
LINE
  5
40D
  8
0
 10
85.072000000000003
 20
50.487999999999992
 30
0.0
 11
85.263999999999996
 21
50.008000000000003
 31
0.0
  0
LINE
  5
40E
  8
0
 10
106.376
 20
49.623999999999988
 30
0.0
 11
106.6879999999999
 21
50.031999999999989
 31
0.0
  0
LINE
  5
40F
  8
0
 10
103.624
 20
49.623999999999988
 30
0.0
 11
104.032
 21
49.311999999999998
 31
0.0
  0
LINE
  5
410
  8
0
 10
88.376000000000005
 20
49.623999999999988
 30
0.0
 11
88.687999999999974
 21
50.031999999999989
 31
0.0
  0
LINE
  5
411
  8
0
 10
85.312000000000012
 20
51.968000000000004
 30
0.0
 11
85.623999999999995
 21
52.375999999999998
 31
0.0
  0
LINE
  5
412
  8
0
 10
88.879999999999995
 20
50.496000000000002
 30
0.0
 11
88.951999999999998
 21
51.0
 31
0.0
  0
LINE
  5
413
  8
0
 10
88.687999999999974
 20
50.031999999999989
 30
0.0
 11
88.879999999999995
 21
50.496000000000002
 31
0.0
  0
LINE
  5
414
  8
0
 10
88.736000000000004
 20
50.008000000000003
 30
0.0
 11
88.927999999999983
 21
50.487999999999992
 31
0.0
  0
LINE
  5
415
  8
0
 10
88.927999999999983
 20
50.487999999999992
 30
0.0
 11
89.0
 21
51.0
 31
0.0
  0
LINE
  5
416
  8
0
 10
88.879999999999995
 20
51.503999999999998
 30
0.0
 11
88.951999999999998
 21
51.0
 31
0.0
  0
LINE
  5
417
  8
0
 10
88.687999999999974
 20
51.968000000000004
 30
0.0
 11
88.879999999999995
 21
51.503999999999998
 31
0.0
  0
LINE
  5
418
  8
0
 10
106.736
 20
50.008000000000003
 30
0.0
 11
106.928
 21
50.487999999999992
 31
0.0
  0
LINE
  5
419
  8
0
 10
103.0479999999999
 20
51.0
 30
0.0
 11
103.12
 21
50.496000000000002
 31
0.0
  0
LINE
  5
41A
  8
0
 10
103.0479999999999
 20
51.0
 30
0.0
 11
103.12
 21
51.503999999999998
 31
0.0
  0
LINE
  5
41B
  8
0
 10
103.072
 20
51.512
 30
0.0
 11
103.264
 21
51.991999999999997
 31
0.0
  0
LINE
  5
41C
  8
0
 10
103.0
 20
51.0
 30
0.0
 11
103.072
 21
50.487999999999992
 31
0.0
  0
LINE
  5
41D
  8
0
 10
103.0
 20
51.0
 30
0.0
 11
103.072
 21
51.512
 31
0.0
  0
LINE
  5
41E
  8
0
 10
106.6879999999999
 20
50.031999999999989
 30
0.0
 11
106.8799999999999
 21
50.496000000000002
 31
0.0
  0
LINE
  5
41F
  8
0
 10
103.12
 20
51.503999999999998
 30
0.0
 11
103.312
 21
51.968000000000004
 31
0.0
  0
LINE
  5
420
  8
0
 10
106.8799999999999
 20
50.496000000000002
 30
0.0
 11
106.952
 21
51.0
 31
0.0
  0
LINE
  5
421
  8
0
 10
106.928
 20
50.487999999999992
 30
0.0
 11
107.0
 21
51.0
 31
0.0
  0
LINE
  5
422
  8
0
 10
106.8799999999999
 20
51.503999999999998
 30
0.0
 11
106.952
 21
51.0
 31
0.0
  0
LINE
  5
423
  8
0
 10
106.6879999999999
 20
51.968000000000004
 30
0.0
 11
106.8799999999999
 21
51.503999999999998
 31
0.0
  0
LINE
  5
424
  8
0
 10
106.928
 20
51.512
 30
0.0
 11
107.0
 21
51.0
 31
0.0
  0
LINE
  5
425
  8
0
 10
106.736
 20
51.991999999999997
 30
0.0
 11
106.928
 21
51.512
 31
0.0
  0
LINE
  5
426
  8
0
 10
103.312
 20
51.968000000000004
 30
0.0
 11
103.624
 21
52.375999999999998
 31
0.0
  0
LINE
  5
427
  8
0
 10
103.264
 20
51.991999999999997
 30
0.0
 11
103.584
 21
52.415999999999997
 31
0.0
  0
LINE
  5
428
  8
0
 10
103.12
 20
50.496000000000002
 30
0.0
 11
103.312
 21
50.031999999999989
 31
0.0
  0
LINE
  5
429
  8
0
 10
103.312
 20
50.031999999999989
 30
0.0
 11
103.624
 21
49.623999999999988
 31
0.0
  0
LINE
  5
42A
  8
0
 10
103.072
 20
50.487999999999992
 30
0.0
 11
103.264
 21
50.008000000000003
 31
0.0
  0
LINE
  5
42B
  8
0
 10
103.264
 20
50.008000000000003
 30
0.0
 11
103.584
 21
49.584000000000003
 31
0.0
  0
LINE
  5
42C
  8
0
 10
88.927999999999983
 20
51.512
 30
0.0
 11
89.0
 21
51.0
 31
0.0
  0
LINE
  5
42D
  8
0
 10
88.736000000000004
 20
51.991999999999997
 30
0.0
 11
88.927999999999983
 21
51.512
 31
0.0
  0
LINE
  5
42E
  8
0
 10
85.312000000000012
 20
50.031999999999989
 30
0.0
 11
85.623999999999995
 21
49.623999999999988
 31
0.0
  0
LINE
  5
42F
  8
0
 10
85.623999999999995
 20
49.623999999999988
 30
0.0
 11
86.032000000000011
 21
49.311999999999998
 31
0.0
  0
LINE
  5
430
  8
0
 10
85.263999999999996
 20
50.008000000000003
 30
0.0
 11
85.584000000000003
 21
49.584000000000003
 31
0.0
  0
LINE
  5
431
  8
0
 10
85.584000000000003
 20
49.584000000000003
 30
0.0
 11
86.007999999999996
 21
49.264000000000003
 31
0.0
  0
LINE
  5
432
  8
0
 10
70.927999999999997
 20
51.512
 30
0.0
 11
71.0
 21
51.0
 31
0.0
  0
LINE
  5
433
  8
0
 10
70.736000000000004
 20
51.991999999999997
 30
0.0
 11
70.927999999999997
 21
51.512
 31
0.0
  0
LINE
  5
434
  8
0
 10
67.623999999999995
 20
49.623999999999988
 30
0.0
 11
68.031999999999996
 21
49.311999999999998
 31
0.0
  0
LINE
  5
435
  8
0
 10
68.031999999999996
 20
49.311999999999998
 30
0.0
 11
68.496000000000009
 21
49.11999999999999
 31
0.0
  0
LINE
  5
436
  8
0
 10
67.584000000000003
 20
49.584000000000003
 30
0.0
 11
68.007999999999996
 21
49.264000000000003
 31
0.0
  0
LINE
  5
437
  8
0
 10
68.007999999999996
 20
49.264000000000003
 30
0.0
 11
68.488
 21
49.071999999999989
 31
0.0
  0
LINE
  5
438
  8
0
 10
52.927999999999997
 20
51.512
 30
0.0
 11
53.0
 21
51.0
 31
0.0
  0
LINE
  5
439
  8
0
 10
52.735999999999997
 20
51.991999999999997
 30
0.0
 11
52.927999999999997
 21
51.512
 31
0.0
  0
LINE
  5
43A
  8
0
 10
50.031999999999989
 20
49.311999999999998
 30
0.0
 11
50.496000000000002
 21
49.11999999999999
 31
0.0
  0
LINE
  5
43B
  8
0
 10
50.496000000000002
 20
49.11999999999999
 30
0.0
 11
51.0
 21
49.048000000000002
 31
0.0
  0
LINE
  5
43C
  8
0
 10
50.008000000000003
 20
49.264000000000003
 30
0.0
 11
50.487999999999992
 21
49.071999999999989
 31
0.0
  0
LINE
  5
43D
  8
0
 10
50.487999999999992
 20
49.071999999999989
 30
0.0
 11
51.0
 21
49.0
 31
0.0
  0
LINE
  5
43E
  8
0
 10
34.927999999999997
 20
51.512
 30
0.0
 11
35.0
 21
51.0
 31
0.0
  0
LINE
  5
43F
  8
0
 10
49.623999999999988
 20
52.375999999999998
 30
0.0
 11
50.031999999999989
 21
52.688000000000002
 31
0.0
  0
LINE
  5
440
  8
0
 10
49.584000000000003
 20
52.415999999999997
 30
0.0
 11
50.008000000000003
 21
52.735999999999997
 31
0.0
  0
LINE
  5
441
  8
0
 10
52.375999999999998
 20
52.375999999999998
 30
0.0
 11
52.688000000000002
 21
51.968000000000004
 31
0.0
  0
LINE
  5
442
  8
0
 10
51.968000000000004
 20
52.688000000000002
 30
0.0
 11
52.375999999999998
 21
52.375999999999998
 31
0.0
  0
LINE
  5
443
  8
0
 10
106.376
 20
52.375999999999998
 30
0.0
 11
106.6879999999999
 21
51.968000000000004
 31
0.0
  0
LINE
  5
444
  8
0
 10
106.4159999999999
 20
52.415999999999997
 30
0.0
 11
106.736
 21
51.991999999999997
 31
0.0
  0
LINE
  5
445
  8
0
 10
103.624
 20
52.375999999999998
 30
0.0
 11
104.032
 21
52.688000000000002
 31
0.0
  0
LINE
  5
446
  8
0
 10
103.584
 20
52.415999999999997
 30
0.0
 11
104.0079999999999
 21
52.735999999999997
 31
0.0
  0
LINE
  5
447
  8
0
 10
88.376000000000005
 20
52.375999999999998
 30
0.0
 11
88.687999999999974
 21
51.968000000000004
 31
0.0
  0
LINE
  5
448
  8
0
 10
88.415999999999997
 20
52.415999999999997
 30
0.0
 11
88.736000000000004
 21
51.991999999999997
 31
0.0
  0
LINE
  5
449
  8
0
 10
85.623999999999995
 20
52.375999999999998
 30
0.0
 11
86.032000000000011
 21
52.688000000000002
 31
0.0
  0
LINE
  5
44A
  8
0
 10
85.584000000000003
 20
52.415999999999997
 30
0.0
 11
86.007999999999996
 21
52.735999999999997
 31
0.0
  0
LINE
  5
44B
  8
0
 10
70.376000000000005
 20
52.375999999999998
 30
0.0
 11
70.688000000000002
 21
51.968000000000004
 31
0.0
  0
LINE
  5
44C
  8
0
 10
70.415999999999997
 20
52.415999999999997
 30
0.0
 11
70.736000000000004
 21
51.991999999999997
 31
0.0
  0
LINE
  5
44D
  8
0
 10
67.623999999999995
 20
52.375999999999998
 30
0.0
 11
68.031999999999996
 21
52.688000000000002
 31
0.0
  0
LINE
  5
44E
  8
0
 10
105.9679999999999
 20
52.688000000000002
 30
0.0
 11
106.376
 21
52.375999999999998
 31
0.0
  0
LINE
  5
44F
  8
0
 10
104.032
 20
52.688000000000002
 30
0.0
 11
104.496
 21
52.880000000000003
 31
0.0
  0
LINE
  5
450
  8
0
 10
87.967999999999989
 20
52.688000000000002
 30
0.0
 11
88.376000000000005
 21
52.375999999999998
 31
0.0
  0
LINE
  5
451
  8
0
 10
86.032000000000011
 20
52.688000000000002
 30
0.0
 11
86.496000000000009
 21
52.880000000000003
 31
0.0
  0
LINE
  5
452
  8
0
 10
69.968000000000004
 20
52.688000000000002
 30
0.0
 11
70.376000000000005
 21
52.375999999999998
 31
0.0
  0
LINE
  5
453
  8
0
 10
68.031999999999996
 20
52.688000000000002
 30
0.0
 11
68.496000000000009
 21
52.880000000000003
 31
0.0
  0
LINE
  5
454
  8
0
 10
67.584000000000003
 20
52.415999999999997
 30
0.0
 11
68.007999999999996
 21
52.735999999999997
 31
0.0
  0
LINE
  5
455
  8
0
 10
52.415999999999997
 20
52.415999999999997
 30
0.0
 11
52.735999999999997
 21
51.991999999999997
 31
0.0
  0
LINE
  5
456
  8
0
 10
105.9919999999999
 20
52.735999999999997
 30
0.0
 11
106.4159999999999
 21
52.415999999999997
 31
0.0
  0
LINE
  5
457
  8
0
 10
104.0079999999999
 20
52.735999999999997
 30
0.0
 11
104.488
 21
52.927999999999997
 31
0.0
  0
LINE
  5
458
  8
0
 10
87.992000000000004
 20
52.735999999999997
 30
0.0
 11
88.415999999999997
 21
52.415999999999997
 31
0.0
  0
LINE
  5
459
  8
0
 10
86.007999999999996
 20
52.735999999999997
 30
0.0
 11
86.487999999999985
 21
52.927999999999997
 31
0.0
  0
LINE
  5
45A
  8
0
 10
69.992000000000004
 20
52.735999999999997
 30
0.0
 11
70.415999999999997
 21
52.415999999999997
 31
0.0
  0
LINE
  5
45B
  8
0
 10
68.007999999999996
 20
52.735999999999997
 30
0.0
 11
68.488
 21
52.927999999999997
 31
0.0
  0
LINE
  5
45C
  8
0
 10
51.991999999999997
 20
52.735999999999997
 30
0.0
 11
52.415999999999997
 21
52.415999999999997
 31
0.0
  0
LINE
  5
45D
  8
0
 10
50.031999999999989
 20
52.688000000000002
 30
0.0
 11
50.496000000000002
 21
52.880000000000003
 31
0.0
  0
LINE
  5
45E
  8
0
 10
50.008000000000003
 20
52.735999999999997
 30
0.0
 11
50.487999999999992
 21
52.927999999999997
 31
0.0
  0
LINE
  5
45F
  8
0
 10
34.73599999999999
 20
51.991999999999997
 30
0.0
 11
34.927999999999997
 21
51.512
 31
0.0
  0
LINE
  5
460
  8
0
 10
34.41599999999999
 20
52.415999999999997
 30
0.0
 11
34.73599999999999
 21
51.991999999999997
 31
0.0
  0
LINE
  5
461
  8
0
 10
34.375999999999991
 20
67.623999999999995
 30
0.0
 11
34.688000000000002
 21
68.031999999999996
 31
0.0
  0
LINE
  5
462
  8
0
 10
33.968000000000004
 20
67.311999999999998
 30
0.0
 11
34.375999999999991
 21
67.623999999999995
 31
0.0
  0
LINE
  5
463
  8
0
 10
33.99199999999999
 20
67.263999999999996
 30
0.0
 11
34.41599999999999
 21
67.584000000000003
 31
0.0
  0
LINE
  5
464
  8
0
 10
34.41599999999999
 20
67.584000000000003
 30
0.0
 11
34.73599999999999
 21
68.007999999999996
 31
0.0
  0
LINE
  5
465
  8
0
 10
34.375999999999991
 20
70.376000000000005
 30
0.0
 11
34.688000000000002
 21
69.968000000000004
 31
0.0
  0
LINE
  5
466
  8
0
 10
33.968000000000004
 20
70.688000000000002
 30
0.0
 11
34.375999999999991
 21
70.376000000000005
 31
0.0
  0
LINE
  5
467
  8
0
 10
34.880000000000003
 20
68.496000000000009
 30
0.0
 11
34.951999999999998
 21
69.0
 31
0.0
  0
LINE
  5
468
  8
0
 10
34.688000000000002
 20
68.031999999999996
 30
0.0
 11
34.880000000000003
 21
68.496000000000009
 31
0.0
  0
LINE
  5
469
  8
0
 10
34.73599999999999
 20
68.007999999999996
 30
0.0
 11
34.927999999999997
 21
68.488
 31
0.0
  0
LINE
  5
46A
  8
0
 10
34.927999999999997
 20
68.488
 30
0.0
 11
35.0
 21
69.0
 31
0.0
  0
LINE
  5
46B
  8
0
 10
34.880000000000003
 20
69.503999999999991
 30
0.0
 11
34.951999999999998
 21
69.0
 31
0.0
  0
LINE
  5
46C
  8
0
 10
34.688000000000002
 20
69.968000000000004
 30
0.0
 11
34.880000000000003
 21
69.503999999999991
 31
0.0
  0
LINE
  5
46D
  8
0
 10
49.11999999999999
 20
69.503999999999991
 30
0.0
 11
49.311999999999998
 21
69.968000000000004
 31
0.0
  0
LINE
  5
46E
  8
0
 10
49.071999999999989
 20
69.512
 30
0.0
 11
49.264000000000003
 21
69.992000000000004
 31
0.0
  0
LINE
  5
46F
  8
0
 10
49.264000000000003
 20
69.992000000000004
 30
0.0
 11
49.584000000000003
 21
70.415999999999997
 31
0.0
  0
LINE
  5
470
  8
0
 10
49.048000000000002
 20
69.0
 30
0.0
 11
49.11999999999999
 21
68.496000000000009
 31
0.0
  0
LINE
  5
471
  8
0
 10
49.048000000000002
 20
69.0
 30
0.0
 11
49.11999999999999
 21
69.503999999999991
 31
0.0
  0
LINE
  5
472
  8
0
 10
49.11999999999999
 20
68.496000000000009
 30
0.0
 11
49.311999999999998
 21
68.031999999999996
 31
0.0
  0
LINE
  5
473
  8
0
 10
49.0
 20
69.0
 30
0.0
 11
49.071999999999989
 21
68.488
 31
0.0
  0
LINE
  5
474
  8
0
 10
49.0
 20
69.0
 30
0.0
 11
49.071999999999989
 21
69.512
 31
0.0
  0
LINE
  5
475
  8
0
 10
49.071999999999989
 20
68.488
 30
0.0
 11
49.264000000000003
 21
68.007999999999996
 31
0.0
  0
LINE
  5
476
  8
0
 10
49.311999999999998
 20
69.968000000000004
 30
0.0
 11
49.623999999999988
 21
70.376000000000005
 31
0.0
  0
LINE
  5
477
  8
0
 10
49.311999999999998
 20
68.031999999999996
 30
0.0
 11
49.623999999999988
 21
67.623999999999995
 31
0.0
  0
LINE
  5
478
  8
0
 10
49.623999999999988
 20
67.623999999999995
 30
0.0
 11
50.031999999999989
 21
67.311999999999998
 31
0.0
  0
LINE
  5
479
  8
0
 10
49.264000000000003
 20
68.007999999999996
 30
0.0
 11
49.584000000000003
 21
67.584000000000003
 31
0.0
  0
LINE
  5
47A
  8
0
 10
49.584000000000003
 20
67.584000000000003
 30
0.0
 11
50.008000000000003
 21
67.263999999999996
 31
0.0
  0
LINE
  5
47B
  8
0
 10
50.031999999999989
 20
67.311999999999998
 30
0.0
 11
50.496000000000002
 21
67.120000000000005
 31
0.0
  0
LINE
  5
47C
  8
0
 10
50.008000000000003
 20
67.263999999999996
 30
0.0
 11
50.487999999999992
 21
67.072000000000003
 31
0.0
  0
LINE
  5
47D
  8
0
 10
50.487999999999992
 20
67.072000000000003
 30
0.0
 11
51.0
 21
67.0
 31
0.0
  0
LINE
  5
47E
  8
0
 10
34.927999999999997
 20
69.512
 30
0.0
 11
35.0
 21
69.0
 31
0.0
  0
LINE
  5
47F
  8
0
 10
49.623999999999988
 20
70.376000000000005
 30
0.0
 11
50.031999999999989
 21
70.688000000000002
 31
0.0
  0
LINE
  5
480
  8
0
 10
49.584000000000003
 20
70.415999999999997
 30
0.0
 11
50.008000000000003
 21
70.736000000000004
 31
0.0
  0
LINE
  5
481
  8
0
 10
50.031999999999989
 20
70.688000000000002
 30
0.0
 11
50.496000000000002
 21
70.879999999999995
 31
0.0
  0
LINE
  5
482
  8
0
 10
50.008000000000003
 20
70.736000000000004
 30
0.0
 11
50.487999999999992
 21
70.927999999999997
 31
0.0
  0
LINE
  5
483
  8
0
 10
34.73599999999999
 20
69.992000000000004
 30
0.0
 11
34.927999999999997
 21
69.512
 31
0.0
  0
LINE
  5
484
  8
0
 10
34.41599999999999
 20
70.415999999999997
 30
0.0
 11
34.73599999999999
 21
69.992000000000004
 31
0.0
  0
LINE
  5
485
  8
0
 10
34.375999999999991
 20
85.623999999999995
 30
0.0
 11
34.688000000000002
 21
86.032000000000011
 31
0.0
  0
LINE
  5
486
  8
0
 10
33.968000000000004
 20
85.312000000000012
 30
0.0
 11
34.375999999999991
 21
85.623999999999995
 31
0.0
  0
LINE
  5
487
  8
0
 10
33.99199999999999
 20
85.263999999999996
 30
0.0
 11
34.41599999999999
 21
85.584000000000003
 31
0.0
  0
LINE
  5
488
  8
0
 10
34.41599999999999
 20
85.584000000000003
 30
0.0
 11
34.73599999999999
 21
86.007999999999996
 31
0.0
  0
LINE
  5
489
  8
0
 10
34.375999999999991
 20
88.376000000000005
 30
0.0
 11
34.688000000000002
 21
87.967999999999989
 31
0.0
  0
LINE
  5
48A
  8
0
 10
33.968000000000004
 20
88.687999999999974
 30
0.0
 11
34.375999999999991
 21
88.376000000000005
 31
0.0
  0
LINE
  5
48B
  8
0
 10
34.880000000000003
 20
86.496000000000009
 30
0.0
 11
34.951999999999998
 21
87.0
 31
0.0
  0
LINE
  5
48C
  8
0
 10
34.688000000000002
 20
86.032000000000011
 30
0.0
 11
34.880000000000003
 21
86.496000000000009
 31
0.0
  0
LINE
  5
48D
  8
0
 10
34.73599999999999
 20
86.007999999999996
 30
0.0
 11
34.927999999999997
 21
86.487999999999985
 31
0.0
  0
LINE
  5
48E
  8
0
 10
34.927999999999997
 20
86.487999999999985
 30
0.0
 11
35.0
 21
87.0
 31
0.0
  0
LINE
  5
48F
  8
0
 10
34.880000000000003
 20
87.503999999999991
 30
0.0
 11
34.951999999999998
 21
87.0
 31
0.0
  0
LINE
  5
490
  8
0
 10
34.688000000000002
 20
87.967999999999989
 30
0.0
 11
34.880000000000003
 21
87.503999999999991
 31
0.0
  0
LINE
  5
491
  8
0
 10
49.11999999999999
 20
87.503999999999991
 30
0.0
 11
49.311999999999998
 21
87.967999999999989
 31
0.0
  0
LINE
  5
492
  8
0
 10
49.071999999999989
 20
87.512
 30
0.0
 11
49.264000000000003
 21
87.992000000000004
 31
0.0
  0
LINE
  5
493
  8
0
 10
49.264000000000003
 20
87.992000000000004
 30
0.0
 11
49.584000000000003
 21
88.415999999999997
 31
0.0
  0
LINE
  5
494
  8
0
 10
49.048000000000002
 20
87.0
 30
0.0
 11
49.11999999999999
 21
86.496000000000009
 31
0.0
  0
LINE
  5
495
  8
0
 10
49.048000000000002
 20
87.0
 30
0.0
 11
49.11999999999999
 21
87.503999999999991
 31
0.0
  0
LINE
  5
496
  8
0
 10
49.11999999999999
 20
86.496000000000009
 30
0.0
 11
49.311999999999998
 21
86.032000000000011
 31
0.0
  0
LINE
  5
497
  8
0
 10
49.0
 20
87.0
 30
0.0
 11
49.071999999999989
 21
86.487999999999985
 31
0.0
  0
LINE
  5
498
  8
0
 10
49.0
 20
87.0
 30
0.0
 11
49.071999999999989
 21
87.512
 31
0.0
  0
LINE
  5
499
  8
0
 10
49.071999999999989
 20
86.487999999999985
 30
0.0
 11
49.264000000000003
 21
86.007999999999996
 31
0.0
  0
LINE
  5
49A
  8
0
 10
49.311999999999998
 20
87.967999999999989
 30
0.0
 11
49.623999999999988
 21
88.376000000000005
 31
0.0
  0
LINE
  5
49B
  8
0
 10
49.311999999999998
 20
86.032000000000011
 30
0.0
 11
49.623999999999988
 21
85.623999999999995
 31
0.0
  0
LINE
  5
49C
  8
0
 10
49.623999999999988
 20
85.623999999999995
 30
0.0
 11
50.031999999999989
 21
85.312000000000012
 31
0.0
  0
LINE
  5
49D
  8
0
 10
49.264000000000003
 20
86.007999999999996
 30
0.0
 11
49.584000000000003
 21
85.584000000000003
 31
0.0
  0
LINE
  5
49E
  8
0
 10
49.584000000000003
 20
85.584000000000003
 30
0.0
 11
50.008000000000003
 21
85.263999999999996
 31
0.0
  0
LINE
  5
49F
  8
0
 10
50.031999999999989
 20
85.312000000000012
 30
0.0
 11
50.496000000000002
 21
85.120000000000005
 31
0.0
  0
LINE
  5
4A0
  8
0
 10
50.008000000000003
 20
85.263999999999996
 30
0.0
 11
50.487999999999992
 21
85.072000000000003
 31
0.0
  0
LINE
  5
4A1
  8
0
 10
50.487999999999992
 20
85.072000000000003
 30
0.0
 11
51.0
 21
85.0
 31
0.0
  0
LINE
  5
4A2
  8
0
 10
34.927999999999997
 20
87.512
 30
0.0
 11
35.0
 21
87.0
 31
0.0
  0
LINE
  5
4A3
  8
0
 10
49.623999999999988
 20
88.376000000000005
 30
0.0
 11
50.031999999999989
 21
88.687999999999974
 31
0.0
  0
LINE
  5
4A4
  8
0
 10
49.584000000000003
 20
88.415999999999997
 30
0.0
 11
50.008000000000003
 21
88.736000000000004
 31
0.0
  0
LINE
  5
4A5
  8
0
 10
50.031999999999989
 20
88.687999999999974
 30
0.0
 11
50.496000000000002
 21
88.879999999999995
 31
0.0
  0
LINE
  5
4A6
  8
0
 10
50.008000000000003
 20
88.736000000000004
 30
0.0
 11
50.487999999999992
 21
88.927999999999983
 31
0.0
  0
LINE
  5
4A7
  8
0
 10
34.73599999999999
 20
87.992000000000004
 30
0.0
 11
34.927999999999997
 21
87.512
 31
0.0
  0
LINE
  5
4A8
  8
0
 10
34.41599999999999
 20
88.415999999999997
 30
0.0
 11
34.73599999999999
 21
87.992000000000004
 31
0.0
  0
LINE
  5
4A9
  8
0
 10
34.375999999999991
 20
103.624
 30
0.0
 11
34.688000000000002
 21
104.032
 31
0.0
  0
LINE
  5
4AA
  8
0
 10
33.968000000000004
 20
103.312
 30
0.0
 11
34.375999999999991
 21
103.624
 31
0.0
  0
LINE
  5
4AB
  8
0
 10
33.99199999999999
 20
103.264
 30
0.0
 11
34.41599999999999
 21
103.584
 31
0.0
  0
LINE
  5
4AC
  8
0
 10
34.41599999999999
 20
103.584
 30
0.0
 11
34.73599999999999
 21
104.0079999999999
 31
0.0
  0
LINE
  5
4AD
  8
0
 10
34.375999999999991
 20
106.376
 30
0.0
 11
34.688000000000002
 21
105.9679999999999
 31
0.0
  0
LINE
  5
4AE
  8
0
 10
33.968000000000004
 20
106.6879999999999
 30
0.0
 11
34.375999999999991
 21
106.376
 31
0.0
  0
LINE
  5
4AF
  8
0
 10
34.880000000000003
 20
104.496
 30
0.0
 11
34.951999999999998
 21
105.0
 31
0.0
  0
LINE
  5
4B0
  8
0
 10
34.688000000000002
 20
104.032
 30
0.0
 11
34.880000000000003
 21
104.496
 31
0.0
  0
LINE
  5
4B1
  8
0
 10
34.73599999999999
 20
104.0079999999999
 30
0.0
 11
34.927999999999997
 21
104.488
 31
0.0
  0
LINE
  5
4B2
  8
0
 10
34.927999999999997
 20
104.488
 30
0.0
 11
35.0
 21
105.0
 31
0.0
  0
LINE
  5
4B3
  8
0
 10
34.880000000000003
 20
105.50399999999991
 30
0.0
 11
34.951999999999998
 21
105.0
 31
0.0
  0
LINE
  5
4B4
  8
0
 10
34.688000000000002
 20
105.9679999999999
 30
0.0
 11
34.880000000000003
 21
105.50399999999991
 31
0.0
  0
LINE
  5
4B5
  8
0
 10
49.11999999999999
 20
105.50399999999991
 30
0.0
 11
49.311999999999998
 21
105.9679999999999
 31
0.0
  0
LINE
  5
4B6
  8
0
 10
49.071999999999989
 20
105.512
 30
0.0
 11
49.264000000000003
 21
105.9919999999999
 31
0.0
  0
LINE
  5
4B7
  8
0
 10
49.264000000000003
 20
105.9919999999999
 30
0.0
 11
49.584000000000003
 21
106.4159999999999
 31
0.0
  0
LINE
  5
4B8
  8
0
 10
49.048000000000002
 20
105.0
 30
0.0
 11
49.11999999999999
 21
104.496
 31
0.0
  0
LINE
  5
4B9
  8
0
 10
49.048000000000002
 20
105.0
 30
0.0
 11
49.11999999999999
 21
105.50399999999991
 31
0.0
  0
LINE
  5
4BA
  8
0
 10
49.11999999999999
 20
104.496
 30
0.0
 11
49.311999999999998
 21
104.032
 31
0.0
  0
LINE
  5
4BB
  8
0
 10
49.0
 20
105.0
 30
0.0
 11
49.071999999999989
 21
104.488
 31
0.0
  0
LINE
  5
4BC
  8
0
 10
49.0
 20
105.0
 30
0.0
 11
49.071999999999989
 21
105.512
 31
0.0
  0
LINE
  5
4BD
  8
0
 10
49.071999999999989
 20
104.488
 30
0.0
 11
49.264000000000003
 21
104.0079999999999
 31
0.0
  0
LINE
  5
4BE
  8
0
 10
49.311999999999998
 20
105.9679999999999
 30
0.0
 11
49.623999999999988
 21
106.376
 31
0.0
  0
LINE
  5
4BF
  8
0
 10
49.311999999999998
 20
104.032
 30
0.0
 11
49.623999999999988
 21
103.624
 31
0.0
  0
LINE
  5
4C0
  8
0
 10
49.623999999999988
 20
103.624
 30
0.0
 11
50.031999999999989
 21
103.312
 31
0.0
  0
LINE
  5
4C1
  8
0
 10
49.264000000000003
 20
104.0079999999999
 30
0.0
 11
49.584000000000003
 21
103.584
 31
0.0
  0
LINE
  5
4C2
  8
0
 10
49.584000000000003
 20
103.584
 30
0.0
 11
50.008000000000003
 21
103.264
 31
0.0
  0
LINE
  5
4C3
  8
0
 10
50.031999999999989
 20
103.312
 30
0.0
 11
50.496000000000002
 21
103.12
 31
0.0
  0
LINE
  5
4C4
  8
0
 10
50.008000000000003
 20
103.264
 30
0.0
 11
50.487999999999992
 21
103.072
 31
0.0
  0
LINE
  5
4C5
  8
0
 10
50.487999999999992
 20
103.072
 30
0.0
 11
51.0
 21
103.0
 31
0.0
  0
LINE
  5
4C6
  8
0
 10
34.927999999999997
 20
105.512
 30
0.0
 11
35.0
 21
105.0
 31
0.0
  0
LINE
  5
4C7
  8
0
 10
49.623999999999988
 20
106.376
 30
0.0
 11
50.031999999999989
 21
106.6879999999999
 31
0.0
  0
LINE
  5
4C8
  8
0
 10
49.584000000000003
 20
106.4159999999999
 30
0.0
 11
50.008000000000003
 21
106.736
 31
0.0
  0
LINE
  5
4C9
  8
0
 10
50.031999999999989
 20
106.6879999999999
 30
0.0
 11
50.496000000000002
 21
106.8799999999999
 31
0.0
  0
LINE
  5
4CA
  8
0
 10
50.008000000000003
 20
106.736
 30
0.0
 11
50.487999999999992
 21
106.928
 31
0.0
  0
LINE
  5
4CB
  8
0
 10
34.73599999999999
 20
105.9919999999999
 30
0.0
 11
34.927999999999997
 21
105.512
 31
0.0
  0
LINE
  5
4CC
  8
0
 10
34.41599999999999
 20
106.4159999999999
 30
0.0
 11
34.73599999999999
 21
105.9919999999999
 31
0.0
  0
LINE
  5
4CD
  8
0
 10
50.487999999999992
 20
106.928
 30
0.0
 11
51.0
 21
107.0
 31
0.0
  0
LINE
  5
4CE
  8
0
 10
33.99199999999999
 20
106.736
 30
0.0
 11
34.41599999999999
 21
106.4159999999999
 31
0.0
  0
LINE
  5
4CF
  8
0
 10
50.487999999999992
 20
88.927999999999983
 30
0.0
 11
51.0
 21
89.0
 31
0.0
  0
LINE
  5
4D0
  8
0
 10
33.99199999999999
 20
88.736000000000004
 30
0.0
 11
34.41599999999999
 21
88.415999999999997
 31
0.0
  0
LINE
  5
4D1
  8
0
 10
50.487999999999992
 20
70.927999999999997
 30
0.0
 11
51.0
 21
71.0
 31
0.0
  0
LINE
  5
4D2
  8
0
 10
33.99199999999999
 20
70.736000000000004
 30
0.0
 11
34.41599999999999
 21
70.415999999999997
 31
0.0
  0
LINE
  5
4D3
  8
0
 10
105.50399999999991
 20
52.880000000000003
 30
0.0
 11
105.9679999999999
 21
52.688000000000002
 31
0.0
  0
LINE
  5
4D4
  8
0
 10
104.496
 20
52.880000000000003
 30
0.0
 11
105.0
 21
52.951999999999998
 31
0.0
  0
LINE
  5
4D5
  8
0
 10
87.503999999999991
 20
52.880000000000003
 30
0.0
 11
87.967999999999989
 21
52.688000000000002
 31
0.0
  0
LINE
  5
4D6
  8
0
 10
86.496000000000009
 20
52.880000000000003
 30
0.0
 11
87.0
 21
52.951999999999998
 31
0.0
  0
LINE
  5
4D7
  8
0
 10
69.503999999999991
 20
52.880000000000003
 30
0.0
 11
69.968000000000004
 21
52.688000000000002
 31
0.0
  0
LINE
  5
4D8
  8
0
 10
68.496000000000009
 20
52.880000000000003
 30
0.0
 11
69.0
 21
52.951999999999998
 31
0.0
  0
LINE
  5
4D9
  8
0
 10
51.503999999999998
 20
52.880000000000003
 30
0.0
 11
51.968000000000004
 21
52.688000000000002
 31
0.0
  0
LINE
  5
4DA
  8
0
 10
50.496000000000002
 20
106.8799999999999
 30
0.0
 11
51.0
 21
106.952
 31
0.0
  0
LINE
  5
4DB
  8
0
 10
50.496000000000002
 20
103.12
 30
0.0
 11
51.0
 21
103.0479999999999
 31
0.0
  0
LINE
  5
4DC
  8
0
 10
50.496000000000002
 20
88.879999999999995
 30
0.0
 11
51.0
 21
88.951999999999998
 31
0.0
  0
LINE
  5
4DD
  8
0
 10
50.496000000000002
 20
85.120000000000005
 30
0.0
 11
51.0
 21
85.047999999999988
 31
0.0
  0
LINE
  5
4DE
  8
0
 10
50.496000000000002
 20
70.879999999999995
 30
0.0
 11
51.0
 21
70.951999999999998
 31
0.0
  0
LINE
  5
4DF
  8
0
 10
51.0
 20
67.048000000000002
 30
0.0
 11
51.503999999999998
 21
67.120000000000005
 31
0.0
  0
LINE
  5
4E0
  8
0
 10
51.0
 20
67.0
 30
0.0
 11
51.512
 21
67.072000000000003
 31
0.0
  0
LINE
  5
4E1
  8
0
 10
51.0
 20
70.951999999999998
 30
0.0
 11
51.503999999999998
 21
70.879999999999995
 31
0.0
  0
LINE
  5
4E2
  8
0
 10
51.0
 20
85.047999999999988
 30
0.0
 11
51.503999999999998
 21
85.120000000000005
 31
0.0
  0
LINE
  5
4E3
  8
0
 10
51.0
 20
85.0
 30
0.0
 11
51.512
 21
85.072000000000003
 31
0.0
  0
LINE
  5
4E4
  8
0
 10
51.0
 20
103.0479999999999
 30
0.0
 11
51.503999999999998
 21
103.12
 31
0.0
  0
LINE
  5
4E5
  8
0
 10
51.0
 20
103.0
 30
0.0
 11
51.512
 21
103.072
 31
0.0
  0
LINE
  5
4E6
  8
0
 10
51.0
 20
106.952
 30
0.0
 11
51.503999999999998
 21
106.8799999999999
 31
0.0
  0
LINE
  5
4E7
  8
0
 10
51.0
 20
107.0
 30
0.0
 11
51.512
 21
106.928
 31
0.0
  0
LINE
  5
4E8
  8
0
 10
51.0
 20
88.951999999999998
 30
0.0
 11
51.503999999999998
 21
88.879999999999995
 31
0.0
  0
LINE
  5
4E9
  8
0
 10
51.0
 20
89.0
 30
0.0
 11
51.512
 21
88.927999999999983
 31
0.0
  0
LINE
  5
4EA
  8
0
 10
51.0
 20
71.0
 30
0.0
 11
51.512
 21
70.927999999999997
 31
0.0
  0
LINE
  5
4EB
  8
0
 10
50.496000000000002
 20
67.120000000000005
 30
0.0
 11
51.0
 21
67.048000000000002
 31
0.0
  0
LINE
  5
4EC
  8
0
 10
51.0
 20
52.951999999999998
 30
0.0
 11
51.503999999999998
 21
52.880000000000003
 31
0.0
  0
LINE
  5
4ED
  8
0
 10
105.512
 20
52.927999999999997
 30
0.0
 11
105.9919999999999
 21
52.735999999999997
 31
0.0
  0
LINE
  5
4EE
  8
0
 10
104.488
 20
52.927999999999997
 30
0.0
 11
105.0
 21
53.0
 31
0.0
  0
LINE
  5
4EF
  8
0
 10
87.512
 20
52.927999999999997
 30
0.0
 11
87.992000000000004
 21
52.735999999999997
 31
0.0
  0
LINE
  5
4F0
  8
0
 10
86.487999999999985
 20
52.927999999999997
 30
0.0
 11
87.0
 21
53.0
 31
0.0
  0
LINE
  5
4F1
  8
0
 10
69.512
 20
52.927999999999997
 30
0.0
 11
69.992000000000004
 21
52.735999999999997
 31
0.0
  0
LINE
  5
4F2
  8
0
 10
68.488
 20
52.927999999999997
 30
0.0
 11
69.0
 21
53.0
 31
0.0
  0
LINE
  5
4F3
  8
0
 10
51.503999999999998
 20
67.120000000000005
 30
0.0
 11
51.968000000000004
 21
67.311999999999998
 31
0.0
  0
LINE
  5
4F4
  8
0
 10
51.512
 20
67.072000000000003
 30
0.0
 11
51.991999999999997
 21
67.263999999999996
 31
0.0
  0
LINE
  5
4F5
  8
0
 10
51.503999999999998
 20
85.120000000000005
 30
0.0
 11
51.968000000000004
 21
85.312000000000012
 31
0.0
  0
LINE
  5
4F6
  8
0
 10
51.512
 20
85.072000000000003
 30
0.0
 11
51.991999999999997
 21
85.263999999999996
 31
0.0
  0
LINE
  5
4F7
  8
0
 10
51.503999999999998
 20
103.12
 30
0.0
 11
51.968000000000004
 21
103.312
 31
0.0
  0
LINE
  5
4F8
  8
0
 10
51.512
 20
103.072
 30
0.0
 11
51.991999999999997
 21
103.264
 31
0.0
  0
LINE
  5
4F9
  8
0
 10
51.503999999999998
 20
106.8799999999999
 30
0.0
 11
51.968000000000004
 21
106.6879999999999
 31
0.0
  0
LINE
  5
4FA
  8
0
 10
51.512
 20
106.928
 30
0.0
 11
51.991999999999997
 21
106.736
 31
0.0
  0
LINE
  5
4FB
  8
0
 10
51.503999999999998
 20
88.879999999999995
 30
0.0
 11
51.968000000000004
 21
88.687999999999974
 31
0.0
  0
LINE
  5
4FC
  8
0
 10
51.512
 20
88.927999999999983
 30
0.0
 11
51.991999999999997
 21
88.736000000000004
 31
0.0
  0
LINE
  5
4FD
  8
0
 10
51.503999999999998
 20
70.879999999999995
 30
0.0
 11
51.968000000000004
 21
70.688000000000002
 31
0.0
  0
LINE
  5
4FE
  8
0
 10
52.375999999999998
 20
67.623999999999995
 30
0.0
 11
52.688000000000002
 21
68.031999999999996
 31
0.0
  0
LINE
  5
4FF
  8
0
 10
51.968000000000004
 20
67.311999999999998
 30
0.0
 11
52.375999999999998
 21
67.623999999999995
 31
0.0
  0
LINE
  5
500
  8
0
 10
51.991999999999997
 20
67.263999999999996
 30
0.0
 11
52.415999999999997
 21
67.584000000000003
 31
0.0
  0
LINE
  5
501
  8
0
 10
52.415999999999997
 20
67.584000000000003
 30
0.0
 11
52.735999999999997
 21
68.007999999999996
 31
0.0
  0
LINE
  5
502
  8
0
 10
52.375999999999998
 20
70.376000000000005
 30
0.0
 11
52.688000000000002
 21
69.968000000000004
 31
0.0
  0
LINE
  5
503
  8
0
 10
51.968000000000004
 20
70.688000000000002
 30
0.0
 11
52.375999999999998
 21
70.376000000000005
 31
0.0
  0
LINE
  5
504
  8
0
 10
52.880000000000003
 20
68.496000000000009
 30
0.0
 11
52.951999999999998
 21
69.0
 31
0.0
  0
LINE
  5
505
  8
0
 10
52.688000000000002
 20
68.031999999999996
 30
0.0
 11
52.880000000000003
 21
68.496000000000009
 31
0.0
  0
LINE
  5
506
  8
0
 10
52.735999999999997
 20
68.007999999999996
 30
0.0
 11
52.927999999999997
 21
68.488
 31
0.0
  0
LINE
  5
507
  8
0
 10
52.927999999999997
 20
68.488
 30
0.0
 11
53.0
 21
69.0
 31
0.0
  0
LINE
  5
508
  8
0
 10
52.880000000000003
 20
69.503999999999991
 30
0.0
 11
52.951999999999998
 21
69.0
 31
0.0
  0
LINE
  5
509
  8
0
 10
52.688000000000002
 20
69.968000000000004
 30
0.0
 11
52.880000000000003
 21
69.503999999999991
 31
0.0
  0
LINE
  5
50A
  8
0
 10
105.0
 20
52.951999999999998
 30
0.0
 11
105.50399999999991
 21
52.880000000000003
 31
0.0
  0
LINE
  5
50B
  8
0
 10
105.0
 20
53.0
 30
0.0
 11
105.512
 21
52.927999999999997
 31
0.0
  0
LINE
  5
50C
  8
0
 10
87.0
 20
52.951999999999998
 30
0.0
 11
87.503999999999991
 21
52.880000000000003
 31
0.0
  0
LINE
  5
50D
  8
0
 10
87.0
 20
53.0
 30
0.0
 11
87.512
 21
52.927999999999997
 31
0.0
  0
LINE
  5
50E
  8
0
 10
69.0
 20
52.951999999999998
 30
0.0
 11
69.503999999999991
 21
52.880000000000003
 31
0.0
  0
LINE
  5
50F
  8
0
 10
67.048000000000002
 20
69.0
 30
0.0
 11
67.120000000000005
 21
68.496000000000009
 31
0.0
  0
LINE
  5
510
  8
0
 10
67.048000000000002
 20
69.0
 30
0.0
 11
67.120000000000005
 21
69.503999999999991
 31
0.0
  0
LINE
  5
511
  8
0
 10
67.072000000000003
 20
69.512
 30
0.0
 11
67.263999999999996
 21
69.992000000000004
 31
0.0
  0
LINE
  5
512
  8
0
 10
67.0
 20
69.0
 30
0.0
 11
67.072000000000003
 21
68.488
 31
0.0
  0
LINE
  5
513
  8
0
 10
67.0
 20
69.0
 30
0.0
 11
67.072000000000003
 21
69.512
 31
0.0
  0
LINE
  5
514
  8
0
 10
67.120000000000005
 20
69.503999999999991
 30
0.0
 11
67.311999999999998
 21
69.968000000000004
 31
0.0
  0
LINE
  5
515
  8
0
 10
67.311999999999998
 20
69.968000000000004
 30
0.0
 11
67.623999999999995
 21
70.376000000000005
 31
0.0
  0
LINE
  5
516
  8
0
 10
67.263999999999996
 20
69.992000000000004
 30
0.0
 11
67.584000000000003
 21
70.415999999999997
 31
0.0
  0
LINE
  5
517
  8
0
 10
67.120000000000005
 20
68.496000000000009
 30
0.0
 11
67.311999999999998
 21
68.031999999999996
 31
0.0
  0
LINE
  5
518
  8
0
 10
67.311999999999998
 20
68.031999999999996
 30
0.0
 11
67.623999999999995
 21
67.623999999999995
 31
0.0
  0
LINE
  5
519
  8
0
 10
67.072000000000003
 20
68.488
 30
0.0
 11
67.263999999999996
 21
68.007999999999996
 31
0.0
  0
LINE
  5
51A
  8
0
 10
67.263999999999996
 20
68.007999999999996
 30
0.0
 11
67.584000000000003
 21
67.584000000000003
 31
0.0
  0
LINE
  5
51B
  8
0
 10
67.623999999999995
 20
67.623999999999995
 30
0.0
 11
68.031999999999996
 21
67.311999999999998
 31
0.0
  0
LINE
  5
51C
  8
0
 10
68.031999999999996
 20
67.311999999999998
 30
0.0
 11
68.496000000000009
 21
67.120000000000005
 31
0.0
  0
LINE
  5
51D
  8
0
 10
67.584000000000003
 20
67.584000000000003
 30
0.0
 11
68.007999999999996
 21
67.263999999999996
 31
0.0
  0
LINE
  5
51E
  8
0
 10
68.007999999999996
 20
67.263999999999996
 30
0.0
 11
68.488
 21
67.072000000000003
 31
0.0
  0
LINE
  5
51F
  8
0
 10
69.0
 20
67.048000000000002
 30
0.0
 11
69.503999999999991
 21
67.120000000000005
 31
0.0
  0
LINE
  5
520
  8
0
 10
105.0
 20
67.0
 30
0.0
 11
105.512
 21
67.072000000000003
 31
0.0
  0
LINE
  5
521
  8
0
 10
87.0
 20
67.048000000000002
 30
0.0
 11
87.503999999999991
 21
67.120000000000005
 31
0.0
  0
LINE
  5
522
  8
0
 10
105.0
 20
67.048000000000002
 30
0.0
 11
105.50399999999991
 21
67.120000000000005
 31
0.0
  0
LINE
  5
523
  8
0
 10
105.512
 20
67.072000000000003
 30
0.0
 11
105.9919999999999
 21
67.263999999999996
 31
0.0
  0
LINE
  5
524
  8
0
 10
104.488
 20
67.072000000000003
 30
0.0
 11
105.0
 21
67.0
 31
0.0
  0
LINE
  5
525
  8
0
 10
87.512
 20
67.072000000000003
 30
0.0
 11
87.992000000000004
 21
67.263999999999996
 31
0.0
  0
LINE
  5
526
  8
0
 10
87.0
 20
67.0
 30
0.0
 11
87.512
 21
67.072000000000003
 31
0.0
  0
LINE
  5
527
  8
0
 10
86.487999999999985
 20
67.072000000000003
 30
0.0
 11
87.0
 21
67.0
 31
0.0
  0
LINE
  5
528
  8
0
 10
105.50399999999991
 20
67.120000000000005
 30
0.0
 11
105.9679999999999
 21
67.311999999999998
 31
0.0
  0
LINE
  5
529
  8
0
 10
104.496
 20
67.120000000000005
 30
0.0
 11
105.0
 21
67.048000000000002
 31
0.0
  0
LINE
  5
52A
  8
0
 10
87.503999999999991
 20
67.120000000000005
 30
0.0
 11
87.967999999999989
 21
67.311999999999998
 31
0.0
  0
LINE
  5
52B
  8
0
 10
86.496000000000009
 20
67.120000000000005
 30
0.0
 11
87.0
 21
67.048000000000002
 31
0.0
  0
LINE
  5
52C
  8
0
 10
69.503999999999991
 20
67.120000000000005
 30
0.0
 11
69.968000000000004
 21
67.311999999999998
 31
0.0
  0
LINE
  5
52D
  8
0
 10
69.512
 20
67.072000000000003
 30
0.0
 11
69.992000000000004
 21
67.263999999999996
 31
0.0
  0
LINE
  5
52E
  8
0
 10
69.0
 20
67.0
 30
0.0
 11
69.512
 21
67.072000000000003
 31
0.0
  0
LINE
  5
52F
  8
0
 10
69.968000000000004
 20
67.311999999999998
 30
0.0
 11
70.376000000000005
 21
67.623999999999995
 31
0.0
  0
LINE
  5
530
  8
0
 10
70.688000000000002
 20
68.031999999999996
 30
0.0
 11
70.879999999999995
 21
68.496000000000009
 31
0.0
  0
LINE
  5
531
  8
0
 10
70.376000000000005
 20
67.623999999999995
 30
0.0
 11
70.688000000000002
 21
68.031999999999996
 31
0.0
  0
LINE
  5
532
  8
0
 10
70.736000000000004
 20
68.007999999999996
 30
0.0
 11
70.927999999999997
 21
68.488
 31
0.0
  0
LINE
  5
533
  8
0
 10
70.415999999999997
 20
67.584000000000003
 30
0.0
 11
70.736000000000004
 21
68.007999999999996
 31
0.0
  0
LINE
  5
534
  8
0
 10
69.992000000000004
 20
67.263999999999996
 30
0.0
 11
70.415999999999997
 21
67.584000000000003
 31
0.0
  0
LINE
  5
535
  8
0
 10
70.688000000000002
 20
69.968000000000004
 30
0.0
 11
70.879999999999995
 21
69.503999999999991
 31
0.0
  0
LINE
  5
536
  8
0
 10
70.879999999999995
 20
68.496000000000009
 30
0.0
 11
70.951999999999998
 21
69.0
 31
0.0
  0
LINE
  5
537
  8
0
 10
85.072000000000003
 20
68.488
 30
0.0
 11
85.263999999999996
 21
68.007999999999996
 31
0.0
  0
LINE
  5
538
  8
0
 10
85.312000000000012
 20
68.031999999999996
 30
0.0
 11
85.623999999999995
 21
67.623999999999995
 31
0.0
  0
LINE
  5
539
  8
0
 10
85.623999999999995
 20
67.623999999999995
 30
0.0
 11
86.032000000000011
 21
67.311999999999998
 31
0.0
  0
LINE
  5
53A
  8
0
 10
85.263999999999996
 20
68.007999999999996
 30
0.0
 11
85.584000000000003
 21
67.584000000000003
 31
0.0
  0
LINE
  5
53B
  8
0
 10
85.584000000000003
 20
67.584000000000003
 30
0.0
 11
86.007999999999996
 21
67.263999999999996
 31
0.0
  0
LINE
  5
53C
  8
0
 10
87.967999999999989
 20
67.311999999999998
 30
0.0
 11
88.376000000000005
 21
67.623999999999995
 31
0.0
  0
LINE
  5
53D
  8
0
 10
105.9919999999999
 20
67.263999999999996
 30
0.0
 11
106.4159999999999
 21
67.584000000000003
 31
0.0
  0
LINE
  5
53E
  8
0
 10
105.9679999999999
 20
67.311999999999998
 30
0.0
 11
106.376
 21
67.623999999999995
 31
0.0
  0
LINE
  5
53F
  8
0
 10
104.032
 20
67.311999999999998
 30
0.0
 11
104.496
 21
67.120000000000005
 31
0.0
  0
LINE
  5
540
  8
0
 10
104.0079999999999
 20
67.263999999999996
 30
0.0
 11
104.488
 21
67.072000000000003
 31
0.0
  0
LINE
  5
541
  8
0
 10
87.992000000000004
 20
67.263999999999996
 30
0.0
 11
88.415999999999997
 21
67.584000000000003
 31
0.0
  0
LINE
  5
542
  8
0
 10
88.376000000000005
 20
67.623999999999995
 30
0.0
 11
88.687999999999974
 21
68.031999999999996
 31
0.0
  0
LINE
  5
543
  8
0
 10
103.264
 20
68.007999999999996
 30
0.0
 11
103.584
 21
67.584000000000003
 31
0.0
  0
LINE
  5
544
  8
0
 10
106.376
 20
67.623999999999995
 30
0.0
 11
106.6879999999999
 21
68.031999999999996
 31
0.0
  0
LINE
  5
545
  8
0
 10
106.4159999999999
 20
67.584000000000003
 30
0.0
 11
106.736
 21
68.007999999999996
 31
0.0
  0
LINE
  5
546
  8
0
 10
106.736
 20
68.007999999999996
 30
0.0
 11
106.928
 21
68.488
 31
0.0
  0
LINE
  5
547
  8
0
 10
103.624
 20
67.623999999999995
 30
0.0
 11
104.032
 21
67.311999999999998
 31
0.0
  0
LINE
  5
548
  8
0
 10
103.584
 20
67.584000000000003
 30
0.0
 11
104.0079999999999
 21
67.263999999999996
 31
0.0
  0
LINE
  5
549
  8
0
 10
88.687999999999974
 20
68.031999999999996
 30
0.0
 11
88.879999999999995
 21
68.496000000000009
 31
0.0
  0
LINE
  5
54A
  8
0
 10
106.6879999999999
 20
68.031999999999996
 30
0.0
 11
106.8799999999999
 21
68.496000000000009
 31
0.0
  0
LINE
  5
54B
  8
0
 10
106.928
 20
68.488
 30
0.0
 11
107.0
 21
69.0
 31
0.0
  0
LINE
  5
54C
  8
0
 10
103.312
 20
68.031999999999996
 30
0.0
 11
103.624
 21
67.623999999999995
 31
0.0
  0
LINE
  5
54D
  8
0
 10
103.072
 20
68.488
 30
0.0
 11
103.264
 21
68.007999999999996
 31
0.0
  0
LINE
  5
54E
  8
0
 10
88.927999999999983
 20
68.488
 30
0.0
 11
89.0
 21
69.0
 31
0.0
  0
LINE
  5
54F
  8
0
 10
88.736000000000004
 20
68.007999999999996
 30
0.0
 11
88.927999999999983
 21
68.488
 31
0.0
  0
LINE
  5
550
  8
0
 10
88.415999999999997
 20
67.584000000000003
 30
0.0
 11
88.736000000000004
 21
68.007999999999996
 31
0.0
  0
LINE
  5
551
  8
0
 10
86.032000000000011
 20
67.311999999999998
 30
0.0
 11
86.496000000000009
 21
67.120000000000005
 31
0.0
  0
LINE
  5
552
  8
0
 10
86.007999999999996
 20
67.263999999999996
 30
0.0
 11
86.487999999999985
 21
67.072000000000003
 31
0.0
  0
LINE
  5
553
  8
0
 10
106.8799999999999
 20
68.496000000000009
 30
0.0
 11
106.952
 21
69.0
 31
0.0
  0
LINE
  5
554
  8
0
 10
103.12
 20
68.496000000000009
 30
0.0
 11
103.312
 21
68.031999999999996
 31
0.0
  0
LINE
  5
555
  8
0
 10
88.879999999999995
 20
68.496000000000009
 30
0.0
 11
88.951999999999998
 21
69.0
 31
0.0
  0
LINE
  5
556
  8
0
 10
103.0479999999999
 20
69.0
 30
0.0
 11
103.12
 21
68.496000000000009
 31
0.0
  0
LINE
  5
557
  8
0
 10
103.0479999999999
 20
69.0
 30
0.0
 11
103.12
 21
69.503999999999991
 31
0.0
  0
LINE
  5
558
  8
0
 10
106.8799999999999
 20
69.503999999999991
 30
0.0
 11
106.952
 21
69.0
 31
0.0
  0
LINE
  5
559
  8
0
 10
106.928
 20
69.512
 30
0.0
 11
107.0
 21
69.0
 31
0.0
  0
LINE
  5
55A
  8
0
 10
103.12
 20
69.503999999999991
 30
0.0
 11
103.312
 21
69.968000000000004
 31
0.0
  0
LINE
  5
55B
  8
0
 10
103.072
 20
69.512
 30
0.0
 11
103.264
 21
69.992000000000004
 31
0.0
  0
LINE
  5
55C
  8
0
 10
103.0
 20
69.0
 30
0.0
 11
103.072
 21
68.488
 31
0.0
  0
LINE
  5
55D
  8
0
 10
103.0
 20
69.0
 30
0.0
 11
103.072
 21
69.512
 31
0.0
  0
LINE
  5
55E
  8
0
 10
88.879999999999995
 20
69.503999999999991
 30
0.0
 11
88.951999999999998
 21
69.0
 31
0.0
  0
LINE
  5
55F
  8
0
 10
88.927999999999983
 20
69.512
 30
0.0
 11
89.0
 21
69.0
 31
0.0
  0
LINE
  5
560
  8
0
 10
85.120000000000005
 20
69.503999999999991
 30
0.0
 11
85.312000000000012
 21
69.968000000000004
 31
0.0
  0
LINE
  5
561
  8
0
 10
85.072000000000003
 20
69.512
 30
0.0
 11
85.263999999999996
 21
69.992000000000004
 31
0.0
  0
LINE
  5
562
  8
0
 10
85.047999999999988
 20
69.0
 30
0.0
 11
85.120000000000005
 21
68.496000000000009
 31
0.0
  0
LINE
  5
563
  8
0
 10
85.047999999999988
 20
69.0
 30
0.0
 11
85.120000000000005
 21
69.503999999999991
 31
0.0
  0
LINE
  5
564
  8
0
 10
85.120000000000005
 20
68.496000000000009
 30
0.0
 11
85.312000000000012
 21
68.031999999999996
 31
0.0
  0
LINE
  5
565
  8
0
 10
85.0
 20
69.0
 30
0.0
 11
85.072000000000003
 21
68.488
 31
0.0
  0
LINE
  5
566
  8
0
 10
85.0
 20
69.0
 30
0.0
 11
85.072000000000003
 21
69.512
 31
0.0
  0
LINE
  5
567
  8
0
 10
70.927999999999997
 20
68.488
 30
0.0
 11
71.0
 21
69.0
 31
0.0
  0
LINE
  5
568
  8
0
 10
70.879999999999995
 20
69.503999999999991
 30
0.0
 11
70.951999999999998
 21
69.0
 31
0.0
  0
LINE
  5
569
  8
0
 10
106.6879999999999
 20
69.968000000000004
 30
0.0
 11
106.8799999999999
 21
69.503999999999991
 31
0.0
  0
LINE
  5
56A
  8
0
 10
103.312
 20
69.968000000000004
 30
0.0
 11
103.624
 21
70.376000000000005
 31
0.0
  0
LINE
  5
56B
  8
0
 10
88.687999999999974
 20
69.968000000000004
 30
0.0
 11
88.879999999999995
 21
69.503999999999991
 31
0.0
  0
LINE
  5
56C
  8
0
 10
106.736
 20
69.992000000000004
 30
0.0
 11
106.928
 21
69.512
 31
0.0
  0
LINE
  5
56D
  8
0
 10
103.264
 20
69.992000000000004
 30
0.0
 11
103.584
 21
70.415999999999997
 31
0.0
  0
LINE
  5
56E
  8
0
 10
88.736000000000004
 20
69.992000000000004
 30
0.0
 11
88.927999999999983
 21
69.512
 31
0.0
  0
LINE
  5
56F
  8
0
 10
85.312000000000012
 20
69.968000000000004
 30
0.0
 11
85.623999999999995
 21
70.376000000000005
 31
0.0
  0
LINE
  5
570
  8
0
 10
85.263999999999996
 20
69.992000000000004
 30
0.0
 11
85.584000000000003
 21
70.415999999999997
 31
0.0
  0
LINE
  5
571
  8
0
 10
70.927999999999997
 20
69.512
 30
0.0
 11
71.0
 21
69.0
 31
0.0
  0
LINE
  5
572
  8
0
 10
70.736000000000004
 20
69.992000000000004
 30
0.0
 11
70.927999999999997
 21
69.512
 31
0.0
  0
LINE
  5
573
  8
0
 10
68.496000000000009
 20
67.120000000000005
 30
0.0
 11
69.0
 21
67.048000000000002
 31
0.0
  0
LINE
  5
574
  8
0
 10
68.488
 20
67.072000000000003
 30
0.0
 11
69.0
 21
67.0
 31
0.0
  0
LINE
  5
575
  8
0
 10
69.0
 20
53.0
 30
0.0
 11
69.512
 21
52.927999999999997
 31
0.0
  0
LINE
  5
576
  8
0
 10
52.927999999999997
 20
69.512
 30
0.0
 11
53.0
 21
69.0
 31
0.0
  0
LINE
  5
577
  8
0
 10
67.623999999999995
 20
70.376000000000005
 30
0.0
 11
68.031999999999996
 21
70.688000000000002
 31
0.0
  0
LINE
  5
578
  8
0
 10
67.584000000000003
 20
70.415999999999997
 30
0.0
 11
68.007999999999996
 21
70.736000000000004
 31
0.0
  0
LINE
  5
579
  8
0
 10
70.376000000000005
 20
70.376000000000005
 30
0.0
 11
70.688000000000002
 21
69.968000000000004
 31
0.0
  0
LINE
  5
57A
  8
0
 10
69.968000000000004
 20
70.688000000000002
 30
0.0
 11
70.376000000000005
 21
70.376000000000005
 31
0.0
  0
LINE
  5
57B
  8
0
 10
106.376
 20
70.376000000000005
 30
0.0
 11
106.6879999999999
 21
69.968000000000004
 31
0.0
  0
LINE
  5
57C
  8
0
 10
106.4159999999999
 20
70.415999999999997
 30
0.0
 11
106.736
 21
69.992000000000004
 31
0.0
  0
LINE
  5
57D
  8
0
 10
103.624
 20
70.376000000000005
 30
0.0
 11
104.032
 21
70.688000000000002
 31
0.0
  0
LINE
  5
57E
  8
0
 10
103.584
 20
70.415999999999997
 30
0.0
 11
104.0079999999999
 21
70.736000000000004
 31
0.0
  0
LINE
  5
57F
  8
0
 10
88.376000000000005
 20
70.376000000000005
 30
0.0
 11
88.687999999999974
 21
69.968000000000004
 31
0.0
  0
LINE
  5
580
  8
0
 10
88.415999999999997
 20
70.415999999999997
 30
0.0
 11
88.736000000000004
 21
69.992000000000004
 31
0.0
  0
LINE
  5
581
  8
0
 10
85.623999999999995
 20
70.376000000000005
 30
0.0
 11
86.032000000000011
 21
70.688000000000002
 31
0.0
  0
LINE
  5
582
  8
0
 10
105.9679999999999
 20
70.688000000000002
 30
0.0
 11
106.376
 21
70.376000000000005
 31
0.0
  0
LINE
  5
583
  8
0
 10
104.032
 20
70.688000000000002
 30
0.0
 11
104.496
 21
70.879999999999995
 31
0.0
  0
LINE
  5
584
  8
0
 10
87.967999999999989
 20
70.688000000000002
 30
0.0
 11
88.376000000000005
 21
70.376000000000005
 31
0.0
  0
LINE
  5
585
  8
0
 10
86.032000000000011
 20
70.688000000000002
 30
0.0
 11
86.496000000000009
 21
70.879999999999995
 31
0.0
  0
LINE
  5
586
  8
0
 10
85.584000000000003
 20
70.415999999999997
 30
0.0
 11
86.007999999999996
 21
70.736000000000004
 31
0.0
  0
LINE
  5
587
  8
0
 10
70.415999999999997
 20
70.415999999999997
 30
0.0
 11
70.736000000000004
 21
69.992000000000004
 31
0.0
  0
LINE
  5
588
  8
0
 10
105.9919999999999
 20
70.736000000000004
 30
0.0
 11
106.4159999999999
 21
70.415999999999997
 31
0.0
  0
LINE
  5
589
  8
0
 10
104.0079999999999
 20
70.736000000000004
 30
0.0
 11
104.488
 21
70.927999999999997
 31
0.0
  0
LINE
  5
58A
  8
0
 10
87.992000000000004
 20
70.736000000000004
 30
0.0
 11
88.415999999999997
 21
70.415999999999997
 31
0.0
  0
LINE
  5
58B
  8
0
 10
86.007999999999996
 20
70.736000000000004
 30
0.0
 11
86.487999999999985
 21
70.927999999999997
 31
0.0
  0
LINE
  5
58C
  8
0
 10
69.992000000000004
 20
70.736000000000004
 30
0.0
 11
70.415999999999997
 21
70.415999999999997
 31
0.0
  0
LINE
  5
58D
  8
0
 10
68.031999999999996
 20
70.688000000000002
 30
0.0
 11
68.496000000000009
 21
70.879999999999995
 31
0.0
  0
LINE
  5
58E
  8
0
 10
68.007999999999996
 20
70.736000000000004
 30
0.0
 11
68.488
 21
70.927999999999997
 31
0.0
  0
LINE
  5
58F
  8
0
 10
52.735999999999997
 20
69.992000000000004
 30
0.0
 11
52.927999999999997
 21
69.512
 31
0.0
  0
LINE
  5
590
  8
0
 10
52.415999999999997
 20
70.415999999999997
 30
0.0
 11
52.735999999999997
 21
69.992000000000004
 31
0.0
  0
LINE
  5
591
  8
0
 10
52.375999999999998
 20
85.623999999999995
 30
0.0
 11
52.688000000000002
 21
86.032000000000011
 31
0.0
  0
LINE
  5
592
  8
0
 10
51.968000000000004
 20
85.312000000000012
 30
0.0
 11
52.375999999999998
 21
85.623999999999995
 31
0.0
  0
LINE
  5
593
  8
0
 10
51.991999999999997
 20
85.263999999999996
 30
0.0
 11
52.415999999999997
 21
85.584000000000003
 31
0.0
  0
LINE
  5
594
  8
0
 10
52.415999999999997
 20
85.584000000000003
 30
0.0
 11
52.735999999999997
 21
86.007999999999996
 31
0.0
  0
LINE
  5
595
  8
0
 10
52.375999999999998
 20
88.376000000000005
 30
0.0
 11
52.688000000000002
 21
87.967999999999989
 31
0.0
  0
LINE
  5
596
  8
0
 10
51.968000000000004
 20
88.687999999999974
 30
0.0
 11
52.375999999999998
 21
88.376000000000005
 31
0.0
  0
LINE
  5
597
  8
0
 10
52.880000000000003
 20
86.496000000000009
 30
0.0
 11
52.951999999999998
 21
87.0
 31
0.0
  0
LINE
  5
598
  8
0
 10
52.688000000000002
 20
86.032000000000011
 30
0.0
 11
52.880000000000003
 21
86.496000000000009
 31
0.0
  0
LINE
  5
599
  8
0
 10
52.735999999999997
 20
86.007999999999996
 30
0.0
 11
52.927999999999997
 21
86.487999999999985
 31
0.0
  0
LINE
  5
59A
  8
0
 10
52.927999999999997
 20
86.487999999999985
 30
0.0
 11
53.0
 21
87.0
 31
0.0
  0
LINE
  5
59B
  8
0
 10
52.880000000000003
 20
87.503999999999991
 30
0.0
 11
52.951999999999998
 21
87.0
 31
0.0
  0
LINE
  5
59C
  8
0
 10
52.688000000000002
 20
87.967999999999989
 30
0.0
 11
52.880000000000003
 21
87.503999999999991
 31
0.0
  0
LINE
  5
59D
  8
0
 10
67.120000000000005
 20
87.503999999999991
 30
0.0
 11
67.311999999999998
 21
87.967999999999989
 31
0.0
  0
LINE
  5
59E
  8
0
 10
67.072000000000003
 20
87.512
 30
0.0
 11
67.263999999999996
 21
87.992000000000004
 31
0.0
  0
LINE
  5
59F
  8
0
 10
67.263999999999996
 20
87.992000000000004
 30
0.0
 11
67.584000000000003
 21
88.415999999999997
 31
0.0
  0
LINE
  5
5A0
  8
0
 10
67.048000000000002
 20
87.0
 30
0.0
 11
67.120000000000005
 21
86.496000000000009
 31
0.0
  0
LINE
  5
5A1
  8
0
 10
67.048000000000002
 20
87.0
 30
0.0
 11
67.120000000000005
 21
87.503999999999991
 31
0.0
  0
LINE
  5
5A2
  8
0
 10
67.120000000000005
 20
86.496000000000009
 30
0.0
 11
67.311999999999998
 21
86.032000000000011
 31
0.0
  0
LINE
  5
5A3
  8
0
 10
67.0
 20
87.0
 30
0.0
 11
67.072000000000003
 21
86.487999999999985
 31
0.0
  0
LINE
  5
5A4
  8
0
 10
67.0
 20
87.0
 30
0.0
 11
67.072000000000003
 21
87.512
 31
0.0
  0
LINE
  5
5A5
  8
0
 10
67.072000000000003
 20
86.487999999999985
 30
0.0
 11
67.263999999999996
 21
86.007999999999996
 31
0.0
  0
LINE
  5
5A6
  8
0
 10
67.311999999999998
 20
87.967999999999989
 30
0.0
 11
67.623999999999995
 21
88.376000000000005
 31
0.0
  0
LINE
  5
5A7
  8
0
 10
67.311999999999998
 20
86.032000000000011
 30
0.0
 11
67.623999999999995
 21
85.623999999999995
 31
0.0
  0
LINE
  5
5A8
  8
0
 10
67.623999999999995
 20
85.623999999999995
 30
0.0
 11
68.031999999999996
 21
85.312000000000012
 31
0.0
  0
LINE
  5
5A9
  8
0
 10
67.263999999999996
 20
86.007999999999996
 30
0.0
 11
67.584000000000003
 21
85.584000000000003
 31
0.0
  0
LINE
  5
5AA
  8
0
 10
67.584000000000003
 20
85.584000000000003
 30
0.0
 11
68.007999999999996
 21
85.263999999999996
 31
0.0
  0
LINE
  5
5AB
  8
0
 10
68.031999999999996
 20
85.312000000000012
 30
0.0
 11
68.496000000000009
 21
85.120000000000005
 31
0.0
  0
LINE
  5
5AC
  8
0
 10
68.007999999999996
 20
85.263999999999996
 30
0.0
 11
68.488
 21
85.072000000000003
 31
0.0
  0
LINE
  5
5AD
  8
0
 10
68.488
 20
85.072000000000003
 30
0.0
 11
69.0
 21
85.0
 31
0.0
  0
LINE
  5
5AE
  8
0
 10
52.927999999999997
 20
87.512
 30
0.0
 11
53.0
 21
87.0
 31
0.0
  0
LINE
  5
5AF
  8
0
 10
67.623999999999995
 20
88.376000000000005
 30
0.0
 11
68.031999999999996
 21
88.687999999999974
 31
0.0
  0
LINE
  5
5B0
  8
0
 10
67.584000000000003
 20
88.415999999999997
 30
0.0
 11
68.007999999999996
 21
88.736000000000004
 31
0.0
  0
LINE
  5
5B1
  8
0
 10
68.031999999999996
 20
88.687999999999974
 30
0.0
 11
68.496000000000009
 21
88.879999999999995
 31
0.0
  0
LINE
  5
5B2
  8
0
 10
68.007999999999996
 20
88.736000000000004
 30
0.0
 11
68.488
 21
88.927999999999983
 31
0.0
  0
LINE
  5
5B3
  8
0
 10
52.735999999999997
 20
87.992000000000004
 30
0.0
 11
52.927999999999997
 21
87.512
 31
0.0
  0
LINE
  5
5B4
  8
0
 10
52.415999999999997
 20
88.415999999999997
 30
0.0
 11
52.735999999999997
 21
87.992000000000004
 31
0.0
  0
LINE
  5
5B5
  8
0
 10
51.968000000000004
 20
103.312
 30
0.0
 11
52.375999999999998
 21
103.624
 31
0.0
  0
LINE
  5
5B6
  8
0
 10
51.991999999999997
 20
103.264
 30
0.0
 11
52.415999999999997
 21
103.584
 31
0.0
  0
LINE
  5
5B7
  8
0
 10
51.968000000000004
 20
106.6879999999999
 30
0.0
 11
52.375999999999998
 21
106.376
 31
0.0
  0
LINE
  5
5B8
  8
0
 10
52.688000000000002
 20
104.032
 30
0.0
 11
52.880000000000003
 21
104.496
 31
0.0
  0
LINE
  5
5B9
  8
0
 10
52.375999999999998
 20
103.624
 30
0.0
 11
52.688000000000002
 21
104.032
 31
0.0
  0
LINE
  5
5BA
  8
0
 10
52.415999999999997
 20
103.584
 30
0.0
 11
52.735999999999997
 21
104.0079999999999
 31
0.0
  0
LINE
  5
5BB
  8
0
 10
52.735999999999997
 20
104.0079999999999
 30
0.0
 11
52.927999999999997
 21
104.488
 31
0.0
  0
LINE
  5
5BC
  8
0
 10
52.688000000000002
 20
105.9679999999999
 30
0.0
 11
52.880000000000003
 21
105.50399999999991
 31
0.0
  0
LINE
  5
5BD
  8
0
 10
52.375999999999998
 20
106.376
 30
0.0
 11
52.688000000000002
 21
105.9679999999999
 31
0.0
  0
LINE
  5
5BE
  8
0
 10
52.880000000000003
 20
104.496
 30
0.0
 11
52.951999999999998
 21
105.0
 31
0.0
  0
LINE
  5
5BF
  8
0
 10
67.072000000000003
 20
104.488
 30
0.0
 11
67.263999999999996
 21
104.0079999999999
 31
0.0
  0
LINE
  5
5C0
  8
0
 10
67.311999999999998
 20
104.032
 30
0.0
 11
67.623999999999995
 21
103.624
 31
0.0
  0
LINE
  5
5C1
  8
0
 10
67.623999999999995
 20
103.624
 30
0.0
 11
68.031999999999996
 21
103.312
 31
0.0
  0
LINE
  5
5C2
  8
0
 10
67.263999999999996
 20
104.0079999999999
 30
0.0
 11
67.584000000000003
 21
103.584
 31
0.0
  0
LINE
  5
5C3
  8
0
 10
67.584000000000003
 20
103.584
 30
0.0
 11
68.007999999999996
 21
103.264
 31
0.0
  0
LINE
  5
5C4
  8
0
 10
68.031999999999996
 20
103.312
 30
0.0
 11
68.496000000000009
 21
103.12
 31
0.0
  0
LINE
  5
5C5
  8
0
 10
68.007999999999996
 20
103.264
 30
0.0
 11
68.488
 21
103.072
 31
0.0
  0
LINE
  5
5C6
  8
0
 10
68.488
 20
103.072
 30
0.0
 11
69.0
 21
103.0
 31
0.0
  0
LINE
  5
5C7
  8
0
 10
68.488
 20
88.927999999999983
 30
0.0
 11
69.0
 21
89.0
 31
0.0
  0
LINE
  5
5C8
  8
0
 10
67.120000000000005
 20
105.50399999999991
 30
0.0
 11
67.311999999999998
 21
105.9679999999999
 31
0.0
  0
LINE
  5
5C9
  8
0
 10
67.072000000000003
 20
105.512
 30
0.0
 11
67.263999999999996
 21
105.9919999999999
 31
0.0
  0
LINE
  5
5CA
  8
0
 10
67.048000000000002
 20
105.0
 30
0.0
 11
67.120000000000005
 21
104.496
 31
0.0
  0
LINE
  5
5CB
  8
0
 10
67.048000000000002
 20
105.0
 30
0.0
 11
67.120000000000005
 21
105.50399999999991
 31
0.0
  0
LINE
  5
5CC
  8
0
 10
67.120000000000005
 20
104.496
 30
0.0
 11
67.311999999999998
 21
104.032
 31
0.0
  0
LINE
  5
5CD
  8
0
 10
67.0
 20
105.0
 30
0.0
 11
67.072000000000003
 21
104.488
 31
0.0
  0
LINE
  5
5CE
  8
0
 10
67.0
 20
105.0
 30
0.0
 11
67.072000000000003
 21
105.512
 31
0.0
  0
LINE
  5
5CF
  8
0
 10
52.927999999999997
 20
104.488
 30
0.0
 11
53.0
 21
105.0
 31
0.0
  0
LINE
  5
5D0
  8
0
 10
52.880000000000003
 20
105.50399999999991
 30
0.0
 11
52.951999999999998
 21
105.0
 31
0.0
  0
LINE
  5
5D1
  8
0
 10
67.311999999999998
 20
105.9679999999999
 30
0.0
 11
67.623999999999995
 21
106.376
 31
0.0
  0
LINE
  5
5D2
  8
0
 10
67.263999999999996
 20
105.9919999999999
 30
0.0
 11
67.584000000000003
 21
106.4159999999999
 31
0.0
  0
LINE
  5
5D3
  8
0
 10
67.623999999999995
 20
106.376
 30
0.0
 11
68.031999999999996
 21
106.6879999999999
 31
0.0
  0
LINE
  5
5D4
  8
0
 10
67.584000000000003
 20
106.4159999999999
 30
0.0
 11
68.007999999999996
 21
106.736
 31
0.0
  0
LINE
  5
5D5
  8
0
 10
52.927999999999997
 20
105.512
 30
0.0
 11
53.0
 21
105.0
 31
0.0
  0
LINE
  5
5D6
  8
0
 10
52.735999999999997
 20
105.9919999999999
 30
0.0
 11
52.927999999999997
 21
105.512
 31
0.0
  0
LINE
  5
5D7
  8
0
 10
68.031999999999996
 20
106.6879999999999
 30
0.0
 11
68.496000000000009
 21
106.8799999999999
 31
0.0
  0
LINE
  5
5D8
  8
0
 10
68.007999999999996
 20
106.736
 30
0.0
 11
68.488
 21
106.928
 31
0.0
  0
LINE
  5
5D9
  8
0
 10
68.488
 20
106.928
 30
0.0
 11
69.0
 21
107.0
 31
0.0
  0
LINE
  5
5DA
  8
0
 10
52.415999999999997
 20
106.4159999999999
 30
0.0
 11
52.735999999999997
 21
105.9919999999999
 31
0.0
  0
LINE
  5
5DB
  8
0
 10
51.991999999999997
 20
106.736
 30
0.0
 11
52.415999999999997
 21
106.4159999999999
 31
0.0
  0
LINE
  5
5DC
  8
0
 10
51.991999999999997
 20
88.736000000000004
 30
0.0
 11
52.415999999999997
 21
88.415999999999997
 31
0.0
  0
LINE
  5
5DD
  8
0
 10
105.50399999999991
 20
70.879999999999995
 30
0.0
 11
105.9679999999999
 21
70.688000000000002
 31
0.0
  0
LINE
  5
5DE
  8
0
 10
104.496
 20
70.879999999999995
 30
0.0
 11
105.0
 21
70.951999999999998
 31
0.0
  0
LINE
  5
5DF
  8
0
 10
87.503999999999991
 20
70.879999999999995
 30
0.0
 11
87.967999999999989
 21
70.688000000000002
 31
0.0
  0
LINE
  5
5E0
  8
0
 10
86.496000000000009
 20
70.879999999999995
 30
0.0
 11
87.0
 21
70.951999999999998
 31
0.0
  0
LINE
  5
5E1
  8
0
 10
69.503999999999991
 20
70.879999999999995
 30
0.0
 11
69.968000000000004
 21
70.688000000000002
 31
0.0
  0
LINE
  5
5E2
  8
0
 10
68.496000000000009
 20
106.8799999999999
 30
0.0
 11
69.0
 21
106.952
 31
0.0
  0
LINE
  5
5E3
  8
0
 10
68.496000000000009
 20
103.12
 30
0.0
 11
69.0
 21
103.0479999999999
 31
0.0
  0
LINE
  5
5E4
  8
0
 10
68.496000000000009
 20
88.879999999999995
 30
0.0
 11
69.0
 21
88.951999999999998
 31
0.0
  0
LINE
  5
5E5
  8
0
 10
69.0
 20
85.047999999999988
 30
0.0
 11
69.503999999999991
 21
85.120000000000005
 31
0.0
  0
LINE
  5
5E6
  8
0
 10
69.0
 20
85.0
 30
0.0
 11
69.512
 21
85.072000000000003
 31
0.0
  0
LINE
  5
5E7
  8
0
 10
69.0
 20
88.951999999999998
 30
0.0
 11
69.503999999999991
 21
88.879999999999995
 31
0.0
  0
LINE
  5
5E8
  8
0
 10
69.0
 20
103.0479999999999
 30
0.0
 11
69.503999999999991
 21
103.12
 31
0.0
  0
LINE
  5
5E9
  8
0
 10
69.0
 20
103.0
 30
0.0
 11
69.512
 21
103.072
 31
0.0
  0
LINE
  5
5EA
  8
0
 10
69.0
 20
106.952
 30
0.0
 11
69.503999999999991
 21
106.8799999999999
 31
0.0
  0
LINE
  5
5EB
  8
0
 10
69.0
 20
107.0
 30
0.0
 11
69.512
 21
106.928
 31
0.0
  0
LINE
  5
5EC
  8
0
 10
69.0
 20
89.0
 30
0.0
 11
69.512
 21
88.927999999999983
 31
0.0
  0
LINE
  5
5ED
  8
0
 10
68.496000000000009
 20
85.120000000000005
 30
0.0
 11
69.0
 21
85.047999999999988
 31
0.0
  0
LINE
  5
5EE
  8
0
 10
69.0
 20
70.951999999999998
 30
0.0
 11
69.503999999999991
 21
70.879999999999995
 31
0.0
  0
LINE
  5
5EF
  8
0
 10
105.512
 20
70.927999999999997
 30
0.0
 11
105.9919999999999
 21
70.736000000000004
 31
0.0
  0
LINE
  5
5F0
  8
0
 10
104.488
 20
70.927999999999997
 30
0.0
 11
105.0
 21
71.0
 31
0.0
  0
LINE
  5
5F1
  8
0
 10
87.512
 20
70.927999999999997
 30
0.0
 11
87.992000000000004
 21
70.736000000000004
 31
0.0
  0
LINE
  5
5F2
  8
0
 10
86.487999999999985
 20
70.927999999999997
 30
0.0
 11
87.0
 21
71.0
 31
0.0
  0
LINE
  5
5F3
  8
0
 10
69.503999999999991
 20
85.120000000000005
 30
0.0
 11
69.968000000000004
 21
85.312000000000012
 31
0.0
  0
LINE
  5
5F4
  8
0
 10
69.512
 20
85.072000000000003
 30
0.0
 11
69.992000000000004
 21
85.263999999999996
 31
0.0
  0
LINE
  5
5F5
  8
0
 10
69.503999999999991
 20
103.12
 30
0.0
 11
69.968000000000004
 21
103.312
 31
0.0
  0
LINE
  5
5F6
  8
0
 10
69.512
 20
103.072
 30
0.0
 11
69.992000000000004
 21
103.264
 31
0.0
  0
LINE
  5
5F7
  8
0
 10
69.503999999999991
 20
106.8799999999999
 30
0.0
 11
69.968000000000004
 21
106.6879999999999
 31
0.0
  0
LINE
  5
5F8
  8
0
 10
69.512
 20
106.928
 30
0.0
 11
69.992000000000004
 21
106.736
 31
0.0
  0
LINE
  5
5F9
  8
0
 10
69.503999999999991
 20
88.879999999999995
 30
0.0
 11
69.968000000000004
 21
88.687999999999974
 31
0.0
  0
LINE
  5
5FA
  8
0
 10
70.376000000000005
 20
85.623999999999995
 30
0.0
 11
70.688000000000002
 21
86.032000000000011
 31
0.0
  0
LINE
  5
5FB
  8
0
 10
69.968000000000004
 20
85.312000000000012
 30
0.0
 11
70.376000000000005
 21
85.623999999999995
 31
0.0
  0
LINE
  5
5FC
  8
0
 10
69.992000000000004
 20
85.263999999999996
 30
0.0
 11
70.415999999999997
 21
85.584000000000003
 31
0.0
  0
LINE
  5
5FD
  8
0
 10
70.415999999999997
 20
85.584000000000003
 30
0.0
 11
70.736000000000004
 21
86.007999999999996
 31
0.0
  0
LINE
  5
5FE
  8
0
 10
70.376000000000005
 20
88.376000000000005
 30
0.0
 11
70.688000000000002
 21
87.967999999999989
 31
0.0
  0
LINE
  5
5FF
  8
0
 10
69.968000000000004
 20
88.687999999999974
 30
0.0
 11
70.376000000000005
 21
88.376000000000005
 31
0.0
  0
LINE
  5
600
  8
0
 10
70.879999999999995
 20
86.496000000000009
 30
0.0
 11
70.951999999999998
 21
87.0
 31
0.0
  0
LINE
  5
601
  8
0
 10
70.688000000000002
 20
86.032000000000011
 30
0.0
 11
70.879999999999995
 21
86.496000000000009
 31
0.0
  0
LINE
  5
602
  8
0
 10
70.736000000000004
 20
86.007999999999996
 30
0.0
 11
70.927999999999997
 21
86.487999999999985
 31
0.0
  0
LINE
  5
603
  8
0
 10
70.927999999999997
 20
86.487999999999985
 30
0.0
 11
71.0
 21
87.0
 31
0.0
  0
LINE
  5
604
  8
0
 10
70.879999999999995
 20
87.503999999999991
 30
0.0
 11
70.951999999999998
 21
87.0
 31
0.0
  0
LINE
  5
605
  8
0
 10
70.688000000000002
 20
87.967999999999989
 30
0.0
 11
70.879999999999995
 21
87.503999999999991
 31
0.0
  0
LINE
  5
606
  8
0
 10
87.0
 20
85.047999999999988
 30
0.0
 11
87.503999999999991
 21
85.120000000000005
 31
0.0
  0
LINE
  5
607
  8
0
 10
87.0
 20
85.0
 30
0.0
 11
87.512
 21
85.072000000000003
 31
0.0
  0
LINE
  5
608
  8
0
 10
85.120000000000005
 20
87.503999999999991
 30
0.0
 11
85.312000000000012
 21
87.967999999999989
 31
0.0
  0
LINE
  5
609
  8
0
 10
85.072000000000003
 20
87.512
 30
0.0
 11
85.263999999999996
 21
87.992000000000004
 31
0.0
  0
LINE
  5
60A
  8
0
 10
85.263999999999996
 20
87.992000000000004
 30
0.0
 11
85.584000000000003
 21
88.415999999999997
 31
0.0
  0
LINE
  5
60B
  8
0
 10
85.047999999999988
 20
87.0
 30
0.0
 11
85.120000000000005
 21
86.496000000000009
 31
0.0
  0
LINE
  5
60C
  8
0
 10
85.047999999999988
 20
87.0
 30
0.0
 11
85.120000000000005
 21
87.503999999999991
 31
0.0
  0
LINE
  5
60D
  8
0
 10
85.120000000000005
 20
86.496000000000009
 30
0.0
 11
85.312000000000012
 21
86.032000000000011
 31
0.0
  0
LINE
  5
60E
  8
0
 10
85.0
 20
87.0
 30
0.0
 11
85.072000000000003
 21
86.487999999999985
 31
0.0
  0
LINE
  5
60F
  8
0
 10
85.0
 20
87.0
 30
0.0
 11
85.072000000000003
 21
87.512
 31
0.0
  0
LINE
  5
610
  8
0
 10
85.072000000000003
 20
86.487999999999985
 30
0.0
 11
85.263999999999996
 21
86.007999999999996
 31
0.0
  0
LINE
  5
611
  8
0
 10
85.312000000000012
 20
87.967999999999989
 30
0.0
 11
85.623999999999995
 21
88.376000000000005
 31
0.0
  0
LINE
  5
612
  8
0
 10
85.312000000000012
 20
86.032000000000011
 30
0.0
 11
85.623999999999995
 21
85.623999999999995
 31
0.0
  0
LINE
  5
613
  8
0
 10
85.623999999999995
 20
85.623999999999995
 30
0.0
 11
86.032000000000011
 21
85.312000000000012
 31
0.0
  0
LINE
  5
614
  8
0
 10
85.263999999999996
 20
86.007999999999996
 30
0.0
 11
85.584000000000003
 21
85.584000000000003
 31
0.0
  0
LINE
  5
615
  8
0
 10
85.584000000000003
 20
85.584000000000003
 30
0.0
 11
86.007999999999996
 21
85.263999999999996
 31
0.0
  0
LINE
  5
616
  8
0
 10
86.032000000000011
 20
85.312000000000012
 30
0.0
 11
86.496000000000009
 21
85.120000000000005
 31
0.0
  0
LINE
  5
617
  8
0
 10
86.496000000000009
 20
85.120000000000005
 30
0.0
 11
87.0
 21
85.047999999999988
 31
0.0
  0
LINE
  5
618
  8
0
 10
86.007999999999996
 20
85.263999999999996
 30
0.0
 11
86.487999999999985
 21
85.072000000000003
 31
0.0
  0
LINE
  5
619
  8
0
 10
86.487999999999985
 20
85.072000000000003
 30
0.0
 11
87.0
 21
85.0
 31
0.0
  0
LINE
  5
61A
  8
0
 10
70.927999999999997
 20
87.512
 30
0.0
 11
71.0
 21
87.0
 31
0.0
  0
LINE
  5
61B
  8
0
 10
85.623999999999995
 20
88.376000000000005
 30
0.0
 11
86.032000000000011
 21
88.687999999999974
 31
0.0
  0
LINE
  5
61C
  8
0
 10
85.584000000000003
 20
88.415999999999997
 30
0.0
 11
86.007999999999996
 21
88.736000000000004
 31
0.0
  0
LINE
  5
61D
  8
0
 10
86.032000000000011
 20
88.687999999999974
 30
0.0
 11
86.496000000000009
 21
88.879999999999995
 31
0.0
  0
LINE
  5
61E
  8
0
 10
86.007999999999996
 20
88.736000000000004
 30
0.0
 11
86.487999999999985
 21
88.927999999999983
 31
0.0
  0
LINE
  5
61F
  8
0
 10
70.736000000000004
 20
87.992000000000004
 30
0.0
 11
70.927999999999997
 21
87.512
 31
0.0
  0
LINE
  5
620
  8
0
 10
70.415999999999997
 20
88.415999999999997
 30
0.0
 11
70.736000000000004
 21
87.992000000000004
 31
0.0
  0
LINE
  5
621
  8
0
 10
70.376000000000005
 20
103.624
 30
0.0
 11
70.688000000000002
 21
104.032
 31
0.0
  0
LINE
  5
622
  8
0
 10
69.968000000000004
 20
103.312
 30
0.0
 11
70.376000000000005
 21
103.624
 31
0.0
  0
LINE
  5
623
  8
0
 10
69.992000000000004
 20
103.264
 30
0.0
 11
70.415999999999997
 21
103.584
 31
0.0
  0
LINE
  5
624
  8
0
 10
70.415999999999997
 20
103.584
 30
0.0
 11
70.736000000000004
 21
104.0079999999999
 31
0.0
  0
LINE
  5
625
  8
0
 10
70.376000000000005
 20
106.376
 30
0.0
 11
70.688000000000002
 21
105.9679999999999
 31
0.0
  0
LINE
  5
626
  8
0
 10
69.968000000000004
 20
106.6879999999999
 30
0.0
 11
70.376000000000005
 21
106.376
 31
0.0
  0
LINE
  5
627
  8
0
 10
70.879999999999995
 20
104.496
 30
0.0
 11
70.951999999999998
 21
105.0
 31
0.0
  0
LINE
  5
628
  8
0
 10
70.688000000000002
 20
104.032
 30
0.0
 11
70.879999999999995
 21
104.496
 31
0.0
  0
LINE
  5
629
  8
0
 10
70.736000000000004
 20
104.0079999999999
 30
0.0
 11
70.927999999999997
 21
104.488
 31
0.0
  0
LINE
  5
62A
  8
0
 10
70.927999999999997
 20
104.488
 30
0.0
 11
71.0
 21
105.0
 31
0.0
  0
LINE
  5
62B
  8
0
 10
70.879999999999995
 20
105.50399999999991
 30
0.0
 11
70.951999999999998
 21
105.0
 31
0.0
  0
LINE
  5
62C
  8
0
 10
70.688000000000002
 20
105.9679999999999
 30
0.0
 11
70.879999999999995
 21
105.50399999999991
 31
0.0
  0
LINE
  5
62D
  8
0
 10
85.120000000000005
 20
105.50399999999991
 30
0.0
 11
85.312000000000012
 21
105.9679999999999
 31
0.0
  0
LINE
  5
62E
  8
0
 10
85.072000000000003
 20
105.512
 30
0.0
 11
85.263999999999996
 21
105.9919999999999
 31
0.0
  0
LINE
  5
62F
  8
0
 10
85.263999999999996
 20
105.9919999999999
 30
0.0
 11
85.584000000000003
 21
106.4159999999999
 31
0.0
  0
LINE
  5
630
  8
0
 10
85.047999999999988
 20
105.0
 30
0.0
 11
85.120000000000005
 21
104.496
 31
0.0
  0
LINE
  5
631
  8
0
 10
85.047999999999988
 20
105.0
 30
0.0
 11
85.120000000000005
 21
105.50399999999991
 31
0.0
  0
LINE
  5
632
  8
0
 10
85.120000000000005
 20
104.496
 30
0.0
 11
85.312000000000012
 21
104.032
 31
0.0
  0
LINE
  5
633
  8
0
 10
85.0
 20
105.0
 30
0.0
 11
85.072000000000003
 21
104.488
 31
0.0
  0
LINE
  5
634
  8
0
 10
85.0
 20
105.0
 30
0.0
 11
85.072000000000003
 21
105.512
 31
0.0
  0
LINE
  5
635
  8
0
 10
85.072000000000003
 20
104.488
 30
0.0
 11
85.263999999999996
 21
104.0079999999999
 31
0.0
  0
LINE
  5
636
  8
0
 10
85.312000000000012
 20
105.9679999999999
 30
0.0
 11
85.623999999999995
 21
106.376
 31
0.0
  0
LINE
  5
637
  8
0
 10
85.312000000000012
 20
104.032
 30
0.0
 11
85.623999999999995
 21
103.624
 31
0.0
  0
LINE
  5
638
  8
0
 10
85.623999999999995
 20
103.624
 30
0.0
 11
86.032000000000011
 21
103.312
 31
0.0
  0
LINE
  5
639
  8
0
 10
85.263999999999996
 20
104.0079999999999
 30
0.0
 11
85.584000000000003
 21
103.584
 31
0.0
  0
LINE
  5
63A
  8
0
 10
85.584000000000003
 20
103.584
 30
0.0
 11
86.007999999999996
 21
103.264
 31
0.0
  0
LINE
  5
63B
  8
0
 10
86.032000000000011
 20
103.312
 30
0.0
 11
86.496000000000009
 21
103.12
 31
0.0
  0
LINE
  5
63C
  8
0
 10
86.007999999999996
 20
103.264
 30
0.0
 11
86.487999999999985
 21
103.072
 31
0.0
  0
LINE
  5
63D
  8
0
 10
86.487999999999985
 20
103.072
 30
0.0
 11
87.0
 21
103.0
 31
0.0
  0
LINE
  5
63E
  8
0
 10
70.927999999999997
 20
105.512
 30
0.0
 11
71.0
 21
105.0
 31
0.0
  0
LINE
  5
63F
  8
0
 10
85.623999999999995
 20
106.376
 30
0.0
 11
86.032000000000011
 21
106.6879999999999
 31
0.0
  0
LINE
  5
640
  8
0
 10
85.584000000000003
 20
106.4159999999999
 30
0.0
 11
86.007999999999996
 21
106.736
 31
0.0
  0
LINE
  5
641
  8
0
 10
86.032000000000011
 20
106.6879999999999
 30
0.0
 11
86.496000000000009
 21
106.8799999999999
 31
0.0
  0
LINE
  5
642
  8
0
 10
86.007999999999996
 20
106.736
 30
0.0
 11
86.487999999999985
 21
106.928
 31
0.0
  0
LINE
  5
643
  8
0
 10
70.736000000000004
 20
105.9919999999999
 30
0.0
 11
70.927999999999997
 21
105.512
 31
0.0
  0
LINE
  5
644
  8
0
 10
70.415999999999997
 20
106.4159999999999
 30
0.0
 11
70.736000000000004
 21
105.9919999999999
 31
0.0
  0
LINE
  5
645
  8
0
 10
86.487999999999985
 20
106.928
 30
0.0
 11
87.0
 21
107.0
 31
0.0
  0
LINE
  5
646
  8
0
 10
69.992000000000004
 20
106.736
 30
0.0
 11
70.415999999999997
 21
106.4159999999999
 31
0.0
  0
LINE
  5
647
  8
0
 10
86.496000000000009
 20
106.8799999999999
 30
0.0
 11
87.0
 21
106.952
 31
0.0
  0
LINE
  5
648
  8
0
 10
87.0
 20
103.0479999999999
 30
0.0
 11
87.503999999999991
 21
103.12
 31
0.0
  0
LINE
  5
649
  8
0
 10
87.0
 20
103.0
 30
0.0
 11
87.512
 21
103.072
 31
0.0
  0
LINE
  5
64A
  8
0
 10
87.0
 20
106.952
 30
0.0
 11
87.503999999999991
 21
106.8799999999999
 31
0.0
  0
LINE
  5
64B
  8
0
 10
87.0
 20
107.0
 30
0.0
 11
87.512
 21
106.928
 31
0.0
  0
LINE
  5
64C
  8
0
 10
86.496000000000009
 20
103.12
 30
0.0
 11
87.0
 21
103.0479999999999
 31
0.0
  0
LINE
  5
64D
  8
0
 10
87.0
 20
88.951999999999998
 30
0.0
 11
87.503999999999991
 21
88.879999999999995
 31
0.0
  0
LINE
  5
64E
  8
0
 10
87.0
 20
89.0
 30
0.0
 11
87.512
 21
88.927999999999983
 31
0.0
  0
LINE
  5
64F
  8
0
 10
86.496000000000009
 20
88.879999999999995
 30
0.0
 11
87.0
 21
88.951999999999998
 31
0.0
  0
LINE
  5
650
  8
0
 10
86.487999999999985
 20
88.927999999999983
 30
0.0
 11
87.0
 21
89.0
 31
0.0
  0
LINE
  5
651
  8
0
 10
69.992000000000004
 20
88.736000000000004
 30
0.0
 11
70.415999999999997
 21
88.415999999999997
 31
0.0
  0
LINE
  5
652
  8
0
 10
69.512
 20
88.927999999999983
 30
0.0
 11
69.992000000000004
 21
88.736000000000004
 31
0.0
  0
LINE
  5
653
  8
0
 10
87.0
 20
70.951999999999998
 30
0.0
 11
87.503999999999991
 21
70.879999999999995
 31
0.0
  0
LINE
  5
654
  8
0
 10
105.0
 20
70.951999999999998
 30
0.0
 11
105.50399999999991
 21
70.879999999999995
 31
0.0
  0
LINE
  5
655
  8
0
 10
87.503999999999991
 20
85.120000000000005
 30
0.0
 11
87.967999999999989
 21
85.312000000000012
 31
0.0
  0
LINE
  5
656
  8
0
 10
87.512
 20
85.072000000000003
 30
0.0
 11
87.992000000000004
 21
85.263999999999996
 31
0.0
  0
LINE
  5
657
  8
0
 10
87.503999999999991
 20
103.12
 30
0.0
 11
87.967999999999989
 21
103.312
 31
0.0
  0
LINE
  5
658
  8
0
 10
87.512
 20
103.072
 30
0.0
 11
87.992000000000004
 21
103.264
 31
0.0
  0
LINE
  5
659
  8
0
 10
87.503999999999991
 20
106.8799999999999
 30
0.0
 11
87.967999999999989
 21
106.6879999999999
 31
0.0
  0
LINE
  5
65A
  8
0
 10
87.512
 20
106.928
 30
0.0
 11
87.992000000000004
 21
106.736
 31
0.0
  0
LINE
  5
65B
  8
0
 10
87.503999999999991
 20
88.879999999999995
 30
0.0
 11
87.967999999999989
 21
88.687999999999974
 31
0.0
  0
LINE
  5
65C
  8
0
 10
88.376000000000005
 20
85.623999999999995
 30
0.0
 11
88.687999999999974
 21
86.032000000000011
 31
0.0
  0
LINE
  5
65D
  8
0
 10
87.967999999999989
 20
85.312000000000012
 30
0.0
 11
88.376000000000005
 21
85.623999999999995
 31
0.0
  0
LINE
  5
65E
  8
0
 10
87.992000000000004
 20
85.263999999999996
 30
0.0
 11
88.415999999999997
 21
85.584000000000003
 31
0.0
  0
LINE
  5
65F
  8
0
 10
88.415999999999997
 20
85.584000000000003
 30
0.0
 11
88.736000000000004
 21
86.007999999999996
 31
0.0
  0
LINE
  5
660
  8
0
 10
88.376000000000005
 20
88.376000000000005
 30
0.0
 11
88.687999999999974
 21
87.967999999999989
 31
0.0
  0
LINE
  5
661
  8
0
 10
87.967999999999989
 20
88.687999999999974
 30
0.0
 11
88.376000000000005
 21
88.376000000000005
 31
0.0
  0
LINE
  5
662
  8
0
 10
88.879999999999995
 20
86.496000000000009
 30
0.0
 11
88.951999999999998
 21
87.0
 31
0.0
  0
LINE
  5
663
  8
0
 10
88.687999999999974
 20
86.032000000000011
 30
0.0
 11
88.879999999999995
 21
86.496000000000009
 31
0.0
  0
LINE
  5
664
  8
0
 10
88.736000000000004
 20
86.007999999999996
 30
0.0
 11
88.927999999999983
 21
86.487999999999985
 31
0.0
  0
LINE
  5
665
  8
0
 10
88.927999999999983
 20
86.487999999999985
 30
0.0
 11
89.0
 21
87.0
 31
0.0
  0
LINE
  5
666
  8
0
 10
88.879999999999995
 20
87.503999999999991
 30
0.0
 11
88.951999999999998
 21
87.0
 31
0.0
  0
LINE
  5
667
  8
0
 10
88.687999999999974
 20
87.967999999999989
 30
0.0
 11
88.879999999999995
 21
87.503999999999991
 31
0.0
  0
LINE
  5
668
  8
0
 10
105.0
 20
85.047999999999988
 30
0.0
 11
105.50399999999991
 21
85.120000000000005
 31
0.0
  0
LINE
  5
669
  8
0
 10
105.512
 20
85.072000000000003
 30
0.0
 11
105.9919999999999
 21
85.263999999999996
 31
0.0
  0
LINE
  5
66A
  8
0
 10
105.0
 20
85.0
 30
0.0
 11
105.512
 21
85.072000000000003
 31
0.0
  0
LINE
  5
66B
  8
0
 10
103.12
 20
87.503999999999991
 30
0.0
 11
103.312
 21
87.967999999999989
 31
0.0
  0
LINE
  5
66C
  8
0
 10
103.072
 20
87.512
 30
0.0
 11
103.264
 21
87.992000000000004
 31
0.0
  0
LINE
  5
66D
  8
0
 10
103.264
 20
87.992000000000004
 30
0.0
 11
103.584
 21
88.415999999999997
 31
0.0
  0
LINE
  5
66E
  8
0
 10
103.0479999999999
 20
87.0
 30
0.0
 11
103.12
 21
86.496000000000009
 31
0.0
  0
LINE
  5
66F
  8
0
 10
103.0479999999999
 20
87.0
 30
0.0
 11
103.12
 21
87.503999999999991
 31
0.0
  0
LINE
  5
670
  8
0
 10
103.12
 20
86.496000000000009
 30
0.0
 11
103.312
 21
86.032000000000011
 31
0.0
  0
LINE
  5
671
  8
0
 10
103.0
 20
87.0
 30
0.0
 11
103.072
 21
86.487999999999985
 31
0.0
  0
LINE
  5
672
  8
0
 10
103.0
 20
87.0
 30
0.0
 11
103.072
 21
87.512
 31
0.0
  0
LINE
  5
673
  8
0
 10
103.072
 20
86.487999999999985
 30
0.0
 11
103.264
 21
86.007999999999996
 31
0.0
  0
LINE
  5
674
  8
0
 10
103.312
 20
87.967999999999989
 30
0.0
 11
103.624
 21
88.376000000000005
 31
0.0
  0
LINE
  5
675
  8
0
 10
103.312
 20
86.032000000000011
 30
0.0
 11
103.624
 21
85.623999999999995
 31
0.0
  0
LINE
  5
676
  8
0
 10
103.624
 20
85.623999999999995
 30
0.0
 11
104.032
 21
85.312000000000012
 31
0.0
  0
LINE
  5
677
  8
0
 10
103.264
 20
86.007999999999996
 30
0.0
 11
103.584
 21
85.584000000000003
 31
0.0
  0
LINE
  5
678
  8
0
 10
103.584
 20
85.584000000000003
 30
0.0
 11
104.0079999999999
 21
85.263999999999996
 31
0.0
  0
LINE
  5
679
  8
0
 10
105.50399999999991
 20
85.120000000000005
 30
0.0
 11
105.9679999999999
 21
85.312000000000012
 31
0.0
  0
LINE
  5
67A
  8
0
 10
106.376
 20
85.623999999999995
 30
0.0
 11
106.6879999999999
 21
86.032000000000011
 31
0.0
  0
LINE
  5
67B
  8
0
 10
105.9679999999999
 20
85.312000000000012
 30
0.0
 11
106.376
 21
85.623999999999995
 31
0.0
  0
LINE
  5
67C
  8
0
 10
106.8799999999999
 20
86.496000000000009
 30
0.0
 11
106.952
 21
87.0
 31
0.0
  0
LINE
  5
67D
  8
0
 10
106.6879999999999
 20
86.032000000000011
 30
0.0
 11
106.8799999999999
 21
86.496000000000009
 31
0.0
  0
LINE
  5
67E
  8
0
 10
106.736
 20
86.007999999999996
 30
0.0
 11
106.928
 21
86.487999999999985
 31
0.0
  0
LINE
  5
67F
  8
0
 10
106.4159999999999
 20
85.584000000000003
 30
0.0
 11
106.736
 21
86.007999999999996
 31
0.0
  0
LINE
  5
680
  8
0
 10
105.9919999999999
 20
85.263999999999996
 30
0.0
 11
106.4159999999999
 21
85.584000000000003
 31
0.0
  0
LINE
  5
681
  8
0
 10
106.928
 20
86.487999999999985
 30
0.0
 11
107.0
 21
87.0
 31
0.0
  0
LINE
  5
682
  8
0
 10
106.8799999999999
 20
87.503999999999991
 30
0.0
 11
106.952
 21
87.0
 31
0.0
  0
LINE
  5
683
  8
0
 10
106.6879999999999
 20
87.967999999999989
 30
0.0
 11
106.8799999999999
 21
87.503999999999991
 31
0.0
  0
LINE
  5
684
  8
0
 10
106.928
 20
87.512
 30
0.0
 11
107.0
 21
87.0
 31
0.0
  0
LINE
  5
685
  8
0
 10
106.736
 20
87.992000000000004
 30
0.0
 11
106.928
 21
87.512
 31
0.0
  0
LINE
  5
686
  8
0
 10
104.032
 20
85.312000000000012
 30
0.0
 11
104.496
 21
85.120000000000005
 31
0.0
  0
LINE
  5
687
  8
0
 10
104.496
 20
85.120000000000005
 30
0.0
 11
105.0
 21
85.047999999999988
 31
0.0
  0
LINE
  5
688
  8
0
 10
104.0079999999999
 20
85.263999999999996
 30
0.0
 11
104.488
 21
85.072000000000003
 31
0.0
  0
LINE
  5
689
  8
0
 10
104.488
 20
85.072000000000003
 30
0.0
 11
105.0
 21
85.0
 31
0.0
  0
LINE
  5
68A
  8
0
 10
88.927999999999983
 20
87.512
 30
0.0
 11
89.0
 21
87.0
 31
0.0
  0
LINE
  5
68B
  8
0
 10
103.624
 20
88.376000000000005
 30
0.0
 11
104.032
 21
88.687999999999974
 31
0.0
  0
LINE
  5
68C
  8
0
 10
103.584
 20
88.415999999999997
 30
0.0
 11
104.0079999999999
 21
88.736000000000004
 31
0.0
  0
LINE
  5
68D
  8
0
 10
106.376
 20
88.376000000000005
 30
0.0
 11
106.6879999999999
 21
87.967999999999989
 31
0.0
  0
LINE
  5
68E
  8
0
 10
105.9679999999999
 20
88.687999999999974
 30
0.0
 11
106.376
 21
88.376000000000005
 31
0.0
  0
LINE
  5
68F
  8
0
 10
106.4159999999999
 20
88.415999999999997
 30
0.0
 11
106.736
 21
87.992000000000004
 31
0.0
  0
LINE
  5
690
  8
0
 10
105.9919999999999
 20
88.736000000000004
 30
0.0
 11
106.4159999999999
 21
88.415999999999997
 31
0.0
  0
LINE
  5
691
  8
0
 10
104.032
 20
88.687999999999974
 30
0.0
 11
104.496
 21
88.879999999999995
 31
0.0
  0
LINE
  5
692
  8
0
 10
104.0079999999999
 20
88.736000000000004
 30
0.0
 11
104.488
 21
88.927999999999983
 31
0.0
  0
LINE
  5
693
  8
0
 10
88.736000000000004
 20
87.992000000000004
 30
0.0
 11
88.927999999999983
 21
87.512
 31
0.0
  0
LINE
  5
694
  8
0
 10
88.415999999999997
 20
88.415999999999997
 30
0.0
 11
88.736000000000004
 21
87.992000000000004
 31
0.0
  0
LINE
  5
695
  8
0
 10
88.376000000000005
 20
103.624
 30
0.0
 11
88.687999999999974
 21
104.032
 31
0.0
  0
LINE
  5
696
  8
0
 10
87.967999999999989
 20
103.312
 30
0.0
 11
88.376000000000005
 21
103.624
 31
0.0
  0
LINE
  5
697
  8
0
 10
87.992000000000004
 20
103.264
 30
0.0
 11
88.415999999999997
 21
103.584
 31
0.0
  0
LINE
  5
698
  8
0
 10
88.415999999999997
 20
103.584
 30
0.0
 11
88.736000000000004
 21
104.0079999999999
 31
0.0
  0
LINE
  5
699
  8
0
 10
88.376000000000005
 20
106.376
 30
0.0
 11
88.687999999999974
 21
105.9679999999999
 31
0.0
  0
LINE
  5
69A
  8
0
 10
87.967999999999989
 20
106.6879999999999
 30
0.0
 11
88.376000000000005
 21
106.376
 31
0.0
  0
LINE
  5
69B
  8
0
 10
88.879999999999995
 20
104.496
 30
0.0
 11
88.951999999999998
 21
105.0
 31
0.0
  0
LINE
  5
69C
  8
0
 10
88.687999999999974
 20
104.032
 30
0.0
 11
88.879999999999995
 21
104.496
 31
0.0
  0
LINE
  5
69D
  8
0
 10
88.736000000000004
 20
104.0079999999999
 30
0.0
 11
88.927999999999983
 21
104.488
 31
0.0
  0
LINE
  5
69E
  8
0
 10
88.927999999999983
 20
104.488
 30
0.0
 11
89.0
 21
105.0
 31
0.0
  0
LINE
  5
69F
  8
0
 10
88.879999999999995
 20
105.50399999999991
 30
0.0
 11
88.951999999999998
 21
105.0
 31
0.0
  0
LINE
  5
6A0
  8
0
 10
88.687999999999974
 20
105.9679999999999
 30
0.0
 11
88.879999999999995
 21
105.50399999999991
 31
0.0
  0
LINE
  5
6A1
  8
0
 10
103.12
 20
105.50399999999991
 30
0.0
 11
103.312
 21
105.9679999999999
 31
0.0
  0
LINE
  5
6A2
  8
0
 10
103.072
 20
105.512
 30
0.0
 11
103.264
 21
105.9919999999999
 31
0.0
  0
LINE
  5
6A3
  8
0
 10
103.264
 20
105.9919999999999
 30
0.0
 11
103.584
 21
106.4159999999999
 31
0.0
  0
LINE
  5
6A4
  8
0
 10
103.0479999999999
 20
105.0
 30
0.0
 11
103.12
 21
104.496
 31
0.0
  0
LINE
  5
6A5
  8
0
 10
103.0479999999999
 20
105.0
 30
0.0
 11
103.12
 21
105.50399999999991
 31
0.0
  0
LINE
  5
6A6
  8
0
 10
103.12
 20
104.496
 30
0.0
 11
103.312
 21
104.032
 31
0.0
  0
LINE
  5
6A7
  8
0
 10
103.0
 20
105.0
 30
0.0
 11
103.072
 21
104.488
 31
0.0
  0
LINE
  5
6A8
  8
0
 10
103.0
 20
105.0
 30
0.0
 11
103.072
 21
105.512
 31
0.0
  0
LINE
  5
6A9
  8
0
 10
103.072
 20
104.488
 30
0.0
 11
103.264
 21
104.0079999999999
 31
0.0
  0
LINE
  5
6AA
  8
0
 10
103.312
 20
105.9679999999999
 30
0.0
 11
103.624
 21
106.376
 31
0.0
  0
LINE
  5
6AB
  8
0
 10
103.312
 20
104.032
 30
0.0
 11
103.624
 21
103.624
 31
0.0
  0
LINE
  5
6AC
  8
0
 10
103.624
 20
103.624
 30
0.0
 11
104.032
 21
103.312
 31
0.0
  0
LINE
  5
6AD
  8
0
 10
103.264
 20
104.0079999999999
 30
0.0
 11
103.584
 21
103.584
 31
0.0
  0
LINE
  5
6AE
  8
0
 10
103.584
 20
103.584
 30
0.0
 11
104.0079999999999
 21
103.264
 31
0.0
  0
LINE
  5
6AF
  8
0
 10
104.032
 20
103.312
 30
0.0
 11
104.496
 21
103.12
 31
0.0
  0
LINE
  5
6B0
  8
0
 10
104.0079999999999
 20
103.264
 30
0.0
 11
104.488
 21
103.072
 31
0.0
  0
LINE
  5
6B1
  8
0
 10
104.488
 20
103.072
 30
0.0
 11
105.0
 21
103.0
 31
0.0
  0
LINE
  5
6B2
  8
0
 10
88.927999999999983
 20
105.512
 30
0.0
 11
89.0
 21
105.0
 31
0.0
  0
LINE
  5
6B3
  8
0
 10
103.624
 20
106.376
 30
0.0
 11
104.032
 21
106.6879999999999
 31
0.0
  0
LINE
  5
6B4
  8
0
 10
103.584
 20
106.4159999999999
 30
0.0
 11
104.0079999999999
 21
106.736
 31
0.0
  0
LINE
  5
6B5
  8
0
 10
104.032
 20
106.6879999999999
 30
0.0
 11
104.496
 21
106.8799999999999
 31
0.0
  0
LINE
  5
6B6
  8
0
 10
104.0079999999999
 20
106.736
 30
0.0
 11
104.488
 21
106.928
 31
0.0
  0
LINE
  5
6B7
  8
0
 10
88.736000000000004
 20
105.9919999999999
 30
0.0
 11
88.927999999999983
 21
105.512
 31
0.0
  0
LINE
  5
6B8
  8
0
 10
88.415999999999997
 20
106.4159999999999
 30
0.0
 11
88.736000000000004
 21
105.9919999999999
 31
0.0
  0
LINE
  5
6B9
  8
0
 10
104.488
 20
106.928
 30
0.0
 11
105.0
 21
107.0
 31
0.0
  0
LINE
  5
6BA
  8
0
 10
87.992000000000004
 20
106.736
 30
0.0
 11
88.415999999999997
 21
106.4159999999999
 31
0.0
  0
LINE
  5
6BB
  8
0
 10
105.50399999999991
 20
88.879999999999995
 30
0.0
 11
105.9679999999999
 21
88.687999999999974
 31
0.0
  0
LINE
  5
6BC
  8
0
 10
104.496
 20
106.8799999999999
 30
0.0
 11
105.0
 21
106.952
 31
0.0
  0
LINE
  5
6BD
  8
0
 10
105.0
 20
103.0479999999999
 30
0.0
 11
105.50399999999991
 21
103.12
 31
0.0
  0
LINE
  5
6BE
  8
0
 10
105.0
 20
103.0
 30
0.0
 11
105.512
 21
103.072
 31
0.0
  0
LINE
  5
6BF
  8
0
 10
105.0
 20
106.952
 30
0.0
 11
105.50399999999991
 21
106.8799999999999
 31
0.0
  0
LINE
  5
6C0
  8
0
 10
105.0
 20
107.0
 30
0.0
 11
105.512
 21
106.928
 31
0.0
  0
LINE
  5
6C1
  8
0
 10
104.496
 20
103.12
 30
0.0
 11
105.0
 21
103.0479999999999
 31
0.0
  0
LINE
  5
6C2
  8
0
 10
105.0
 20
88.951999999999998
 30
0.0
 11
105.50399999999991
 21
88.879999999999995
 31
0.0
  0
LINE
  5
6C3
  8
0
 10
105.50399999999991
 20
103.12
 30
0.0
 11
105.9679999999999
 21
103.312
 31
0.0
  0
LINE
  5
6C4
  8
0
 10
105.512
 20
103.072
 30
0.0
 11
105.9919999999999
 21
103.264
 31
0.0
  0
LINE
  5
6C5
  8
0
 10
105.50399999999991
 20
106.8799999999999
 30
0.0
 11
105.9679999999999
 21
106.6879999999999
 31
0.0
  0
LINE
  5
6C6
  8
0
 10
106.376
 20
103.624
 30
0.0
 11
106.6879999999999
 21
104.032
 31
0.0
  0
LINE
  5
6C7
  8
0
 10
105.9679999999999
 20
103.312
 30
0.0
 11
106.376
 21
103.624
 31
0.0
  0
LINE
  5
6C8
  8
0
 10
105.9919999999999
 20
103.264
 30
0.0
 11
106.4159999999999
 21
103.584
 31
0.0
  0
LINE
  5
6C9
  8
0
 10
106.4159999999999
 20
103.584
 30
0.0
 11
106.736
 21
104.0079999999999
 31
0.0
  0
LINE
  5
6CA
  8
0
 10
106.376
 20
106.376
 30
0.0
 11
106.6879999999999
 21
105.9679999999999
 31
0.0
  0
LINE
  5
6CB
  8
0
 10
105.9679999999999
 20
106.6879999999999
 30
0.0
 11
106.376
 21
106.376
 31
0.0
  0
LINE
  5
6CC
  8
0
 10
106.8799999999999
 20
104.496
 30
0.0
 11
106.952
 21
105.0
 31
0.0
  0
LINE
  5
6CD
  8
0
 10
106.6879999999999
 20
104.032
 30
0.0
 11
106.8799999999999
 21
104.496
 31
0.0
  0
LINE
  5
6CE
  8
0
 10
106.736
 20
104.0079999999999
 30
0.0
 11
106.928
 21
104.488
 31
0.0
  0
LINE
  5
6CF
  8
0
 10
106.928
 20
104.488
 30
0.0
 11
107.0
 21
105.0
 31
0.0
  0
LINE
  5
6D0
  8
0
 10
106.8799999999999
 20
105.50399999999991
 30
0.0
 11
106.952
 21
105.0
 31
0.0
  0
LINE
  5
6D1
  8
0
 10
106.6879999999999
 20
105.9679999999999
 30
0.0
 11
106.8799999999999
 21
105.50399999999991
 31
0.0
  0
LINE
  5
6D2
  8
0
 10
106.928
 20
105.512
 30
0.0
 11
107.0
 21
105.0
 31
0.0
  0
LINE
  5
6D3
  8
0
 10
106.736
 20
105.9919999999999
 30
0.0
 11
106.928
 21
105.512
 31
0.0
  0
LINE
  5
6D4
  8
0
 10
106.4159999999999
 20
106.4159999999999
 30
0.0
 11
106.736
 21
105.9919999999999
 31
0.0
  0
LINE
  5
6D5
  8
0
 10
105.9919999999999
 20
106.736
 30
0.0
 11
106.4159999999999
 21
106.4159999999999
 31
0.0
  0
LINE
  5
6D6
  8
0
 10
105.512
 20
106.928
 30
0.0
 11
105.9919999999999
 21
106.736
 31
0.0
  0
LINE
  5
6D7
  8
0
 10
105.512
 20
88.927999999999983
 30
0.0
 11
105.9919999999999
 21
88.736000000000004
 31
0.0
  0
LINE
  5
6D8
  8
0
 10
105.0
 20
89.0
 30
0.0
 11
105.512
 21
88.927999999999983
 31
0.0
  0
LINE
  5
6D9
  8
0
 10
104.496
 20
88.879999999999995
 30
0.0
 11
105.0
 21
88.951999999999998
 31
0.0
  0
LINE
  5
6DA
  8
0
 10
104.488
 20
88.927999999999983
 30
0.0
 11
105.0
 21
89.0
 31
0.0
  0
LINE
  5
6DB
  8
0
 10
87.992000000000004
 20
88.736000000000004
 30
0.0
 11
88.415999999999997
 21
88.415999999999997
 31
0.0
  0
LINE
  5
6DC
  8
0
 10
87.512
 20
88.927999999999983
 30
0.0
 11
87.992000000000004
 21
88.736000000000004
 31
0.0
  0
LINE
  5
6DD
  8
0
 10
105.0
 20
71.0
 30
0.0
 11
105.512
 21
70.927999999999997
 31
0.0
  0
LINE
  5
6DE
  8
0
 10
87.0
 20
71.0
 30
0.0
 11
87.512
 21
70.927999999999997
 31
0.0
  0
LINE
  5
6DF
  8
0
 10
69.512
 20
70.927999999999997
 30
0.0
 11
69.992000000000004
 21
70.736000000000004
 31
0.0
  0
LINE
  5
6E0
  8
0
 10
69.0
 20
71.0
 30
0.0
 11
69.512
 21
70.927999999999997
 31
0.0
  0
LINE
  5
6E1
  8
0
 10
68.496000000000009
 20
70.879999999999995
 30
0.0
 11
69.0
 21
70.951999999999998
 31
0.0
  0
LINE
  5
6E2
  8
0
 10
68.488
 20
70.927999999999997
 30
0.0
 11
69.0
 21
71.0
 31
0.0
  0
LINE
  5
6E3
  8
0
 10
51.991999999999997
 20
70.736000000000004
 30
0.0
 11
52.415999999999997
 21
70.415999999999997
 31
0.0
  0
LINE
  5
6E4
  8
0
 10
51.512
 20
70.927999999999997
 30
0.0
 11
51.991999999999997
 21
70.736000000000004
 31
0.0
  0
LINE
  5
6E5
  8
0
 10
51.512
 20
52.927999999999997
 30
0.0
 11
51.991999999999997
 21
52.735999999999997
 31
0.0
  0
LINE
  5
6E6
  8
0
 10
51.0
 20
53.0
 30
0.0
 11
51.512
 21
52.927999999999997
 31
0.0
  0
LINE
  5
6E7
  8
0
 10
50.496000000000002
 20
52.880000000000003
 30
0.0
 11
51.0
 21
52.951999999999998
 31
0.0
  0
LINE
  5
6E8
  8
0
 10
50.487999999999992
 20
52.927999999999997
 30
0.0
 11
51.0
 21
53.0
 31
0.0
  0
LINE
  5
6E9
  8
0
 10
33.99199999999999
 20
52.735999999999997
 30
0.0
 11
34.41599999999999
 21
52.415999999999997
 31
0.0
  0
LINE
  5
6EA
  8
0
 10
33.512
 20
52.927999999999997
 30
0.0
 11
33.99199999999999
 21
52.735999999999997
 31
0.0
  0
LINE
  5
6EB
  8
0
 10
51.0
 20
35.0
 30
0.0
 11
51.512
 21
34.927999999999997
 31
0.0
  0
LINE
  5
6EC
  8
0
 10
33.0
 20
35.0
 30
0.0
 11
33.512
 21
34.927999999999997
 31
0.0
  0
LINE
  5
6ED
  8
0
 10
15.512
 20
34.927999999999997
 30
0.0
 11
15.992000000000001
 21
34.73599999999999
 31
0.0
  0
LINE
  5
6EE
  8
0
 10
15.0
 20
35.0
 30
0.0
 11
15.512
 21
34.927999999999997
 31
0.0
  0
LINE
  5
6EF
  8
0
 10
15.0
 20
17.0
 30
0.0
 11
15.512
 21
16.928000000000001
 31
0.0
  0
LINE
  5
6F0
  8
0
 10
14.496
 20
16.879999999999988
 30
0.0
 11
15.0
 21
16.952000000000002
 31
0.0
  0
LINE
  5
6F1
  8
0
 10
14.496
 20
13.119999999999999
 30
0.0
 11
15.0
 21
13.048
 31
0.0
  0
LINE
  5
6F2
  8
0
 10
14.488
 20
13.071999999999999
 30
0.0
 11
15.0
 21
13.0
 31
0.0
  0
LINE
  5
6F3
  8
0
 10
119.0
 20
0.3
 30
0.0
 11
119.5
 21
0.3
 31
0.0
  0
LINE
  5
6F4
  8
0
 10
1.0
 20
0.3
 30
0.0
 11
119.0
 21
0.3
 31
0.0
  0
LINE
  5
6F5
  8
0
 10
0.999999999999996
 20
119.7
 30
0.0
 11
119.0
 21
119.7
 31
0.0
  0
LINE
  5
6F6
  8
0
 10
119.5
 20
0.3
 30
0.0
 11
119.7
 21
1.0
 31
0.0
  0
LINE
  5
6F7
  8
0
 10
119.7
 20
0.299999999999998
 30
0.0
 11
120.0
 21
0.9999999999999978
 31
0.0
  0
LINE
  5
6F8
  8
0
 10
119.7
 20
0.299999999999998
 30
0.0
 11
120.0
 21
0.9999999999999978
 31
0.0
  0
LINE
  5
6F9
  8
0
 10
119.5
 20
0.3
 30
0.0
 11
119.7
 21
1.0
 31
0.0
  0
LINE
  5
6FA
  8
0
 10
119.5
 20
0.3
 30
0.0
 11
119.7
 21
0.3
 31
0.0
  0
LINE
  5
6FB
  8
0
 10
119.7
 20
119.0
 30
0.0
 11
119.7
 21
1.0
 31
0.0
  0
LINE
  5
6FC
  8
0
 10
119.7
 20
1.0
 30
0.0
 11
119.7
 21
119.0
 31
0.0
  0
LINE
  5
6FD
  8
0
 10
120.0
 20
119.0
 30
0.0
 11
120.0
 21
1.0
 31
0.0
  0
LINE
  5
6FE
  8
0
 10
120.0
 20
1.0
 30
0.0
 11
120.0
 21
119.0
 31
0.0
  0
LINE
  5
6FF
  8
0
 10
119.7
 20
119.7
 30
0.0
 11
120.0
 21
119.0
 31
0.0
  0
LINE
  5
700
  8
0
 10
119.5
 20
119.7
 30
0.0
 11
119.7
 21
119.7
 31
0.0
  0
LINE
  5
701
  8
0
 10
119.5
 20
119.7
 30
0.0
 11
119.7
 21
119.0
 31
0.0
  0
LINE
  5
702
  8
0
 10
119.0
 20
119.7
 30
0.0
 11
119.5
 21
119.7
 31
0.0
  0
LINE
  5
703
  8
0
 10
1.0
 20
119.7
 30
0.0
 11
119.0
 21
119.7
 31
0.0
  0
LINE
  5
704
  8
0
 10
0.5
 20
119.7
 30
0.0
 11
1.0
 21
119.7
 31
0.0
  0
LINE
  5
705
  8
0
 10
77.0
 20
120.0
 30
0.0
 11
77.0
 21
133.50314825415001
 31
0.0
  0
LINE
  5
706
  8
0
 10
45.0
 20
120.0
 30
0.0
 11
45.0
 21
130.0
 31
0.0
  0
LINE
  5
707
  8
0
 10
45.0
 20
120.0
 30
0.0
 11
45.0
 21
133.50314825415001
 31
0.0
  0
LINE
  5
708
  8
0
 10
1.0
 20
120.0
 30
0.0
 11
119.0
 21
120.0
 31
0.0
  0
LINE
  5
709
  8
0
 10
22.10294
 20
120.0
 30
0.0
 11
22.350000000000001
 21
121.771
 31
0.0
  0
LINE
  5
70A
  8
0
 10
22.0
 20
120.0
 30
0.0
 11
22.247060000000001
 21
121.791
 31
0.0
  0
LINE
  5
70B
  8
0
 10
22.350000000000001
 20
121.771
 30
0.0
 11
23.029409999999999
 21
123.4379999999999
 31
0.0
  0
LINE
  5
70C
  8
0
 10
23.029409999999999
 20
123.4379999999999
 30
0.0
 11
24.12059
 21
124.87899999999991
 31
0.0
  0
LINE
  5
70D
  8
0
 10
22.94706
 20
123.479
 30
0.0
 11
24.058820000000001
 21
124.941
 31
0.0
  0
LINE
  5
70E
  8
0
 10
22.247060000000001
 20
121.791
 30
0.0
 11
22.94706
 21
123.479
 31
0.0
  0
LINE
  5
70F
  8
0
 10
24.12059
 20
124.87899999999991
 30
0.0
 11
25.56176
 21
125.971
 31
0.0
  0
LINE
  5
710
  8
0
 10
24.058820000000001
 20
124.941
 30
0.0
 11
25.520589999999991
 21
126.0529999999999
 31
0.0
  0
LINE
  5
711
  8
0
 10
25.56176
 20
125.971
 30
0.0
 11
27.229410000000001
 21
126.65000000000001
 31
0.0
  0
LINE
  5
712
  8
0
 10
27.229410000000001
 20
126.65000000000001
 30
0.0
 11
29.0
 21
126.89700000000001
 31
0.0
  0
LINE
  5
713
  8
0
 10
25.520589999999991
 20
126.0529999999999
 30
0.0
 11
27.208819999999999
 21
126.7529999999999
 31
0.0
  0
LINE
  5
714
  8
0
 10
27.208819999999999
 20
126.7529999999999
 30
0.0
 11
29.0
 21
127.0
 31
0.0
  0
LINE
  5
715
  8
0
 10
30.770600000000002
 20
126.65000000000001
 30
0.0
 11
32.438200000000002
 21
125.971
 31
0.0
  0
LINE
  5
716
  8
0
 10
29.0
 20
126.89700000000001
 30
0.0
 11
30.770600000000002
 21
126.65000000000001
 31
0.0
  0
LINE
  5
717
  8
0
 10
35.649999999999991
 20
121.771
 30
0.0
 11
35.897100000000002
 21
120.0
 31
0.0
  0
LINE
  5
718
  8
0
 10
33.87939999999999
 20
124.87899999999991
 30
0.0
 11
34.97059999999999
 21
123.4379999999999
 31
0.0
  0
LINE
  5
719
  8
0
 10
34.97059999999999
 20
123.4379999999999
 30
0.0
 11
35.649999999999991
 21
121.771
 31
0.0
  0
LINE
  5
71A
  8
0
 10
33.941200000000002
 20
124.941
 30
0.0
 11
35.052900000000001
 21
123.479
 31
0.0
  0
LINE
  5
71B
  8
0
 10
35.052900000000001
 20
123.479
 30
0.0
 11
35.75289999999999
 21
121.791
 31
0.0
  0
LINE
  5
71C
  8
0
 10
35.75289999999999
 20
121.791
 30
0.0
 11
36.0
 21
120.0
 31
0.0
  0
LINE
  5
71D
  8
0
 10
32.438200000000002
 20
125.971
 30
0.0
 11
33.87939999999999
 21
124.87899999999991
 31
0.0
  0
LINE
  5
71E
  8
0
 10
32.479399999999991
 20
126.0529999999999
 30
0.0
 11
33.941200000000002
 21
124.941
 31
0.0
  0
LINE
  5
71F
  8
0
 10
30.7912
 20
126.7529999999999
 30
0.0
 11
32.479399999999991
 21
126.0529999999999
 31
0.0
  0
LINE
  5
720
  8
0
 10
29.0
 20
127.0
 30
0.0
 11
30.7912
 21
126.7529999999999
 31
0.0
  0
LINE
  5
721
  8
0
 10
20.32
 20
124.95999999999999
 30
0.0
 11
21.920000000000002
 21
127.0799999999999
 31
0.0
  0
LINE
  5
722
  8
0
 10
45.0
 20
133.50314825415001
 30
0.0
 11
45.0
 21
120.0
 31
0.0
  0
LINE
  5
723
  8
0
 10
34.751999999999988
 20
140.75200000000001
 30
0.0
 11
36.024000000000001
 21
139.792
 31
0.0
  0
LINE
  5
724
  8
0
 10
36.024000000000001
 20
139.792
 30
0.0
 11
45.0
 21
133.50314825415001
 31
0.0
  0
LINE
  5
725
  8
0
 10
36.024000000000001
 20
139.792
 30
0.0
 11
45.575999999999993
 21
133.09958557527199
 31
0.0
  0
LINE
  5
726
  8
0
 10
33.792000000000002
 20
142.02399999999989
 30
0.0
 11
34.751999999999988
 21
140.75200000000001
 31
0.0
  0
LINE
  5
728
  8
0
 10
41.975999999999999
 20
150.208
 30
0.0
 11
43.396599999999999
 21
149.66499999999991
 31
0.0
  0
LINE
  5
729
  8
0
 10
45.575999999999993
 20
150.0
 30
0.0
 11
47.111999999999988
 21
150.0
 31
0.0
  0
LINE
  5
72A
  8
0
 10
45.0
 20
150.0
 30
0.0
 11
45.575999999999993
 21
150.0
 31
0.0
  0
LINE
  5
72B
  8
0
 10
45.0
 20
150.0
 30
0.0
 11
45.0
 21
149.5
 31
0.0
  0
LINE
  5
72C
  8
0
 10
43.396599999999999
 20
149.66499999999991
 30
0.0
 11
45.0
 21
149.5
 31
0.0
  0
LINE
  5
72D
  8
0
 10
45.0
 20
149.5
 30
0.0
 11
45.0
 21
149.5
 31
0.0
  0
LINE
  5
72E
  8
0
 10
45.0
 20
149.5
 30
0.0
 11
45.0
 21
150.0
 31
0.0
  0
LINE
  5
730
  8
0
 10
46.539999999999992
 20
153.0
 30
0.0
 11
47.979999999999997
 21
153.0
 31
0.0
  0
LINE
  5
731
  8
0
 10
46.539999999999992
 20
153.0
 30
0.0
 11
47.0
 21
153.0
 31
0.0
  0
LINE
  5
732
  8
0
 10
46.0
 20
153.0
 30
0.0
 11
46.539999999999992
 21
153.0
 31
0.0
  0
LINE
  5
733
  8
0
 10
46.0
 20
153.0
 30
0.0
 11
46.0
 21
155.0
 31
0.0
  0
LINE
  5
734
  8
0
 10
39.0
 20
151.0
 30
0.0
 11
40.536000000000001
 21
150.78399999999991
 31
0.0
  0
LINE
  5
735
  8
0
 10
40.536000000000001
 20
150.78399999999991
 30
0.0
 11
41.975999999999999
 21
150.208
 31
0.0
  0
LINE
  5
736
  8
0
 10
37.463999999999992
 20
150.78399999999991
 30
0.0
 11
39.0
 21
151.0
 31
0.0
  0
LINE
  5
737
  8
0
 10
36.024000000000001
 20
150.208
 30
0.0
 11
37.463999999999992
 21
150.78399999999991
 31
0.0
  0
LINE
  5
738
  8
0
 10
34.751999999999988
 20
149.24799999999999
 30
0.0
 11
36.024000000000001
 21
150.208
 31
0.0
  0
LINE
  5
739
  8
0
 10
33.792000000000002
 20
147.97599999999991
 30
0.0
 11
34.751999999999988
 21
149.24799999999999
 31
0.0
  0
LINE
  5
73A
  8
0
 10
33.216000000000001
 20
146.53599999999989
 30
0.0
 11
33.792000000000002
 21
147.97599999999991
 31
0.0
  0
LINE
  5
73B
  8
0
 10
33.216000000000001
 20
143.46399999999991
 30
0.0
 11
33.792000000000002
 21
142.02399999999989
 31
0.0
  0
LINE
  5
73C
  8
0
 10
33.0
 20
145.0
 30
0.0
 11
33.216000000000001
 21
143.46399999999991
 31
0.0
  0
LINE
  5
73D
  8
0
 10
33.0
 20
145.0
 30
0.0
 11
33.216000000000001
 21
146.53599999999989
 31
0.0
  0
LINE
  5
73E
  8
0
 10
29.0
 20
130.0
 30
0.0
 11
45.0
 21
130.0
 31
0.0
  0
LINE
  5
73F
  8
0
 10
29.0
 20
130.0
 30
0.0
 11
45.0
 21
130.0
 31
0.0
  0
LINE
  5
740
  8
0
 10
26.440000000000001
 20
129.63999999999999
 30
0.0
 11
29.0
 21
130.0
 31
0.0
  0
LINE
  5
741
  8
0
 10
24.039999999999988
 20
128.68000000000001
 30
0.0
 11
26.440000000000001
 21
129.63999999999999
 31
0.0
  0
LINE
  5
742
  8
0
 10
21.920000000000002
 20
127.0799999999999
 30
0.0
 11
24.039999999999988
 21
128.68000000000001
 31
0.0
  0
LINE
  5
743
  8
0
 10
19.359999999999989
 20
122.56
 30
0.0
 11
20.32
 21
124.95999999999999
 31
0.0
  0
LINE
  5
744
  8
0
 10
19.0
 20
120.0
 30
0.0
 11
19.359999999999989
 21
122.56
 31
0.0
  0
LINE
  5
745
  8
0
 10
47.0
 20
150.0
 30
0.0
 11
47.0
 21
153.0
 31
0.0
  0
LINE
  5
746
  8
0
 10
46.539999999999992
 20
155.0
 30
0.0
 11
47.979999999999997
 21
155.0
 31
0.0
  0
LINE
  5
747
  8
0
 10
46.0
 20
155.0
 30
0.0
 11
46.539999999999992
 21
155.0
 31
0.0
  0
LINE
  5
748
  8
0
 10
46.0
 20
155.0
 30
0.0
 11
46.0
 21
153.0
 31
0.0
  0
LINE
  5
749
  8
0
 10
46.0
 20
159.0
 30
0.0
 11
46.539999999999992
 21
159.0
 31
0.0
  0
LINE
  5
74A
  8
0
 10
46.0
 20
159.0
 30
0.0
 11
46.0
 21
157.0
 31
0.0
  0
LINE
  5
74B
  8
0
 10
46.539999999999992
 20
159.0
 30
0.0
 11
47.979999999999997
 21
159.0
 31
0.0
  0
LINE
  5
74C
  8
0
 10
46.539999999999992
 20
157.0
 30
0.0
 11
47.979999999999997
 21
157.0
 31
0.0
  0
LINE
  5
74D
  8
0
 10
46.539999999999992
 20
157.0
 30
0.0
 11
47.0
 21
157.0
 31
0.0
  0
LINE
  5
74E
  8
0
 10
46.0
 20
157.0
 30
0.0
 11
46.539999999999992
 21
157.0
 31
0.0
  0
LINE
  5
74F
  8
0
 10
46.0
 20
157.0
 30
0.0
 11
46.0
 21
159.0
 31
0.0
  0
LINE
  5
750
  8
0
 10
47.0
 20
155.0
 30
0.0
 11
47.0
 21
157.0
 31
0.0
  0
LINE
  5
751
  8
0
 10
47.0
 20
159.0
 30
0.0
 11
47.0
 21
161.0
 31
0.0
  0
LINE
  5
752
  8
0
 10
47.0
 20
153.0
 30
0.0
 11
47.0
 21
150.0
 31
0.0
  0
LINE
  5
753
  8
0
 10
47.0
 20
157.0
 30
0.0
 11
47.0
 21
155.0
 31
0.0
  0
LINE
  5
754
  8
0
 10
47.0
 20
161.0
 30
0.0
 11
47.503999999999991
 21
161.0
 31
0.0
  0
LINE
  5
755
  8
0
 10
47.0
 20
161.0
 30
0.0
 11
47.0
 21
159.0
 31
0.0
  0
LINE
  5
756
  8
0
 10
47.979999999999997
 20
155.0
 30
0.0
 11
50.380000000000003
 21
155.0
 31
0.0
  0
LINE
  5
757
  8
0
 10
47.979999999999997
 20
153.0
 30
0.0
 11
50.380000000000003
 21
153.0
 31
0.0
  0
LINE
  5
758
  8
0
 10
47.979999999999997
 20
159.0
 30
0.0
 11
50.380000000000003
 21
159.0
 31
0.0
  0
LINE
  5
759
  8
0
 10
47.979999999999997
 20
157.0
 30
0.0
 11
50.380000000000003
 21
157.0
 31
0.0
  0
LINE
  5
75A
  8
0
 10
53.064
 20
150.0
 30
0.0
 11
56.904000000000003
 21
150.0
 31
0.0
  0
LINE
  5
75B
  8
0
 10
50.380000000000003
 20
155.0
 30
0.0
 11
53.560000000000002
 21
155.0
 31
0.0
  0
LINE
  5
75C
  8
0
 10
50.380000000000003
 20
153.0
 30
0.0
 11
53.560000000000002
 21
153.0
 31
0.0
  0
LINE
  5
75D
  8
0
 10
50.380000000000003
 20
159.0
 30
0.0
 11
53.560000000000002
 21
159.0
 31
0.0
  0
LINE
  5
75E
  8
0
 10
53.560000000000002
 20
155.0
 30
0.0
 11
57.159999999999997
 21
155.0
 31
0.0
  0
LINE
  5
75F
  8
0
 10
53.560000000000002
 20
153.0
 30
0.0
 11
57.159999999999997
 21
153.0
 31
0.0
  0
LINE
  5
760
  8
0
 10
53.560000000000002
 20
159.0
 30
0.0
 11
57.159999999999997
 21
159.0
 31
0.0
  0
LINE
  5
761
  8
0
 10
53.560000000000002
 20
157.0
 30
0.0
 11
57.159999999999997
 21
157.0
 31
0.0
  0
LINE
  5
762
  8
0
 10
50.380000000000003
 20
157.0
 30
0.0
 11
53.560000000000002
 21
157.0
 31
0.0
  0
LINE
  5
763
  8
0
 10
49.671999999999997
 20
150.0
 30
0.0
 11
53.064
 21
150.0
 31
0.0
  0
LINE
  5
764
  8
0
 10
57.159999999999997
 20
155.0
 30
0.0
 11
61.0
 21
155.0
 31
0.0
  0
LINE
  5
765
  8
0
 10
57.159999999999997
 20
153.0
 30
0.0
 11
61.0
 21
153.0
 31
0.0
  0
LINE
  5
766
  8
0
 10
57.159999999999997
 20
159.0
 30
0.0
 11
61.0
 21
159.0
 31
0.0
  0
LINE
  5
767
  8
0
 10
61.0
 20
155.0
 30
0.0
 11
64.840000000000003
 21
155.0
 31
0.0
  0
LINE
  5
768
  8
0
 10
61.0
 20
153.0
 30
0.0
 11
64.840000000000003
 21
153.0
 31
0.0
  0
LINE
  5
769
  8
0
 10
61.0
 20
159.0
 30
0.0
 11
64.840000000000003
 21
159.0
 31
0.0
  0
LINE
  5
76A
  8
0
 10
61.0
 20
157.0
 30
0.0
 11
64.840000000000003
 21
157.0
 31
0.0
  0
LINE
  5
76B
  8
0
 10
57.159999999999997
 20
157.0
 30
0.0
 11
61.0
 21
157.0
 31
0.0
  0
LINE
  5
76C
  8
0
 10
61.0
 20
150.0
 30
0.0
 11
65.096000000000004
 21
150.0
 31
0.0
  0
LINE
  5
76D
  8
0
 10
56.904000000000003
 20
150.0
 30
0.0
 11
61.0
 21
150.0
 31
0.0
  0
LINE
  5
76E
  8
0
 10
61.0
 20
149.5
 30
0.0
 11
61.0
 21
139.5
 31
0.0
  0
LINE
  5
76F
  8
0
 10
61.0
 20
149.5
 30
0.0
 11
71.0
 21
149.5
 31
0.0
  0
LINE
  5
770
  8
0
 10
61.0
 20
139.5
 30
0.0
 11
61.0
 21
125.5
 31
0.0
  0
LINE
  5
771
  8
0
 10
61.0
 20
139.5
 30
0.0
 11
71.0
 21
139.5
 31
0.0
  0
LINE
  5
772
  8
0
 10
61.0
 20
139.5
 30
0.0
 11
61.0
 21
149.5
 31
0.0
  0
LINE
  5
773
  8
0
 10
61.0
 20
125.5
 30
0.0
 11
71.0
 21
125.5
 31
0.0
  0
LINE
  5
774
  8
0
 10
61.0
 20
125.5
 30
0.0
 11
61.0
 21
139.5
 31
0.0
  0
LINE
  5
775
  8
0
 10
64.840000000000003
 20
155.0
 30
0.0
 11
68.439999999999998
 21
155.0
 31
0.0
  0
LINE
  5
776
  8
0
 10
64.840000000000003
 20
153.0
 30
0.0
 11
68.439999999999998
 21
153.0
 31
0.0
  0
LINE
  5
777
  8
0
 10
64.840000000000003
 20
159.0
 30
0.0
 11
68.439999999999998
 21
159.0
 31
0.0
  0
LINE
  5
778
  8
0
 10
64.840000000000003
 20
157.0
 30
0.0
 11
68.439999999999998
 21
157.0
 31
0.0
  0
LINE
  5
779
  8
0
 10
65.096000000000004
 20
150.0
 30
0.0
 11
68.936000000000007
 21
150.0
 31
0.0
  0
LINE
  5
77A
  8
0
 10
61.0
 20
161.0
 30
0.0
 11
64.584000000000003
 21
161.0
 31
0.0
  0
LINE
  5
77B
  8
0
 10
64.584000000000003
 20
161.0
 30
0.0
 11
67.944000000000003
 21
161.0
 31
0.0
  0
LINE
  5
77C
  8
0
 10
68.439999999999998
 20
155.0
 30
0.0
 11
71.620000000000005
 21
155.0
 31
0.0
  0
LINE
  5
77D
  8
0
 10
68.439999999999998
 20
153.0
 30
0.0
 11
71.620000000000005
 21
153.0
 31
0.0
  0
LINE
  5
77E
  8
0
 10
68.439999999999998
 20
159.0
 30
0.0
 11
71.620000000000005
 21
159.0
 31
0.0
  0
LINE
  5
77F
  8
0
 10
68.439999999999998
 20
157.0
 30
0.0
 11
71.620000000000005
 21
157.0
 31
0.0
  0
LINE
  5
780
  8
0
 10
68.936000000000007
 20
150.0
 30
0.0
 11
72.328000000000003
 21
150.0
 31
0.0
  0
LINE
  5
781
  8
0
 10
71.0
 20
149.5
 30
0.0
 11
71.0
 21
139.5
 31
0.0
  0
LINE
  5
782
  8
0
 10
71.620000000000005
 20
155.0
 30
0.0
 11
74.019999999999996
 21
155.0
 31
0.0
  0
LINE
  5
783
  8
0
 10
71.620000000000005
 20
153.0
 30
0.0
 11
74.019999999999996
 21
153.0
 31
0.0
  0
LINE
  5
784
  8
0
 10
71.620000000000005
 20
159.0
 30
0.0
 11
74.019999999999996
 21
159.0
 31
0.0
  0
LINE
  5
785
  8
0
 10
71.620000000000005
 20
157.0
 30
0.0
 11
74.019999999999996
 21
157.0
 31
0.0
  0
LINE
  5
786
  8
0
 10
71.0
 20
139.5
 30
0.0
 11
71.0
 21
149.5
 31
0.0
  0
LINE
  5
787
  8
0
 10
71.0
 20
139.5
 30
0.0
 11
71.0
 21
125.5
 31
0.0
  0
LINE
  5
788
  8
0
 10
71.0
 20
125.5
 30
0.0
 11
71.0
 21
139.5
 31
0.0
  0
LINE
  5
789
  8
0
 10
67.944000000000003
 20
161.0
 30
0.0
 11
70.911999999999992
 21
161.0
 31
0.0
  0
LINE
  5
78A
  8
0
 10
70.911999999999992
 20
161.0
 30
0.0
 11
73.152000000000001
 21
161.0
 31
0.0
  0
LINE
  5
78B
  8
0
 10
76.423999999999992
 20
133.09958557527199
 30
0.0
 11
85.975999999999985
 21
139.792
 31
0.0
  0
LINE
  5
78C
  8
0
 10
77.0
 20
133.50314825415001
 30
0.0
 11
85.975999999999985
 21
139.792
 31
0.0
  0
LINE
  5
78D
  8
0
 10
77.0
 20
133.50314825415001
 30
0.0
 11
77.0
 21
120.0
 31
0.0
  0
LINE
  5
78F
  8
0
 10
74.888000000000005
 20
150.0
 30
0.0
 11
76.423999999999992
 21
150.0
 31
0.0
  0
LINE
  5
790
  8
0
 10
77.0
 20
150.0
 30
0.0
 11
77.0
 21
149.5
 31
0.0
  0
LINE
  5
791
  8
0
 10
76.423999999999992
 20
150.0
 30
0.0
 11
77.0
 21
150.0
 31
0.0
  0
LINE
  5
793
  8
0
 10
77.0
 20
149.5
 30
0.0
 11
78.603399999999993
 21
149.66499999999991
 31
0.0
  0
LINE
  5
794
  8
0
 10
77.0
 20
149.5
 30
0.0
 11
77.0
 21
150.0
 31
0.0
  0
LINE
  5
795
  8
0
 10
86.102900000000005
 20
120.0
 30
0.0
 11
86.349999999999994
 21
121.771
 31
0.0
  0
LINE
  5
796
  8
0
 10
86.349999999999994
 20
121.771
 30
0.0
 11
87.029399999999995
 21
123.4379999999999
 31
0.0
  0
LINE
  5
797
  8
0
 10
87.029399999999995
 20
123.4379999999999
 30
0.0
 11
88.120599999999996
 21
124.87899999999991
 31
0.0
  0
LINE
  5
798
  8
0
 10
86.947100000000006
 20
123.479
 30
0.0
 11
88.058800000000005
 21
124.941
 31
0.0
  0
LINE
  5
799
  8
0
 10
86.247100000000003
 20
121.791
 30
0.0
 11
86.947100000000006
 21
123.479
 31
0.0
  0
LINE
  5
79A
  8
0
 10
88.120599999999996
 20
124.87899999999991
 30
0.0
 11
89.561800000000005
 21
125.971
 31
0.0
  0
LINE
  5
79B
  8
0
 10
88.058800000000005
 20
124.941
 30
0.0
 11
89.520600000000016
 21
126.0529999999999
 31
0.0
  0
LINE
  5
79C
  8
0
 10
86.0
 20
120.0
 30
0.0
 11
86.247100000000003
 21
121.791
 31
0.0
  0
LINE
  5
79D
  8
0
 10
85.975999999999985
 20
139.792
 30
0.0
 11
87.248000000000005
 21
140.75200000000001
 31
0.0
  0
LINE
  5
79E
  8
0
 10
87.248000000000005
 20
140.75200000000001
 30
0.0
 11
88.207999999999998
 21
142.02399999999989
 31
0.0
  0
LINE
  5
79F
  8
0
 10
99.650000000000006
 20
121.771
 30
0.0
 11
99.897099999999995
 21
120.0
 31
0.0
  0
LINE
  5
7A0
  8
0
 10
99.752900000000011
 20
121.791
 30
0.0
 11
100.0
 21
120.0
 31
0.0
  0
LINE
  5
7A1
  8
0
 10
89.561800000000005
 20
125.971
 30
0.0
 11
91.229399999999984
 21
126.65000000000001
 31
0.0
  0
LINE
  5
7A2
  8
0
 10
89.520600000000016
 20
126.0529999999999
 30
0.0
 11
91.208799999999997
 21
126.7529999999999
 31
0.0
  0
LINE
  5
7A3
  8
0
 10
96.438199999999995
 20
125.971
 30
0.0
 11
97.879400000000004
 21
124.87899999999991
 31
0.0
  0
LINE
  5
7A4
  8
0
 10
94.770599999999988
 20
126.65000000000001
 30
0.0
 11
96.438199999999995
 21
125.971
 31
0.0
  0
LINE
  5
7A5
  8
0
 10
98.970600000000005
 20
123.4379999999999
 30
0.0
 11
99.650000000000006
 21
121.771
 31
0.0
  0
LINE
  5
7A6
  8
0
 10
97.879400000000004
 20
124.87899999999991
 30
0.0
 11
98.970600000000005
 21
123.4379999999999
 31
0.0
  0
LINE
  5
7A7
  8
0
 10
97.941199999999995
 20
124.941
 30
0.0
 11
99.052899999999994
 21
123.479
 31
0.0
  0
LINE
  5
7A8
  8
0
 10
99.052899999999994
 20
123.479
 30
0.0
 11
99.752900000000011
 21
121.791
 31
0.0
  0
LINE
  5
7A9
  8
0
 10
96.479399999999998
 20
126.0529999999999
 30
0.0
 11
97.941199999999995
 21
124.941
 31
0.0
  0
LINE
  5
7AA
  8
0
 10
93.0
 20
126.89700000000001
 30
0.0
 11
94.770599999999988
 21
126.65000000000001
 31
0.0
  0
LINE
  5
7AB
  8
0
 10
94.791199999999989
 20
126.7529999999999
 30
0.0
 11
96.479399999999998
 21
126.0529999999999
 31
0.0
  0
LINE
  5
7AC
  8
0
 10
93.0
 20
127.0
 30
0.0
 11
94.791199999999989
 21
126.7529999999999
 31
0.0
  0
LINE
  5
7AD
  8
0
 10
91.229399999999984
 20
126.65000000000001
 30
0.0
 11
93.0
 21
126.89700000000001
 31
0.0
  0
LINE
  5
7AE
  8
0
 10
91.208799999999997
 20
126.7529999999999
 30
0.0
 11
93.0
 21
127.0
 31
0.0
  0
LINE
  5
7AF
  8
0
 10
93.0
 20
130.0
 30
0.0
 11
95.560000000000002
 21
129.63999999999999
 31
0.0
  0
LINE
  5
7B0
  8
0
 10
95.560000000000002
 20
129.63999999999999
 30
0.0
 11
97.959999999999994
 21
128.68000000000001
 31
0.0
  0
LINE
  5
7B1
  8
0
 10
97.959999999999994
 20
128.68000000000001
 30
0.0
 11
100.0799999999999
 21
127.0799999999999
 31
0.0
  0
LINE
  5
7B2
  8
0
 10
100.0799999999999
 20
127.0799999999999
 30
0.0
 11
101.68000000000001
 21
124.95999999999999
 31
0.0
  0
LINE
  5
7B3
  8
0
 10
101.68000000000001
 20
124.95999999999999
 30
0.0
 11
102.6399999999999
 21
122.56
 31
0.0
  0
LINE
  5
7B4
  8
0
 10
102.6399999999999
 20
122.56
 30
0.0
 11
103.0
 21
120.0
 31
0.0
  0
LINE
  5
7B5
  8
0
 10
88.207999999999998
 20
142.02399999999989
 30
0.0
 11
88.783999999999992
 21
143.46399999999991
 31
0.0
  0
LINE
  5
7B6
  8
0
 10
87.248000000000005
 20
149.24799999999999
 30
0.0
 11
88.207999999999998
 21
147.97599999999991
 31
0.0
  0
LINE
  5
7B7
  8
0
 10
88.207999999999998
 20
147.97599999999991
 30
0.0
 11
88.783999999999992
 21
146.53599999999989
 31
0.0
  0
LINE
  5
7B8
  8
0
 10
88.783999999999992
 20
146.53599999999989
 30
0.0
 11
89.0
 21
145.0
 31
0.0
  0
LINE
  5
7B9
  8
0
 10
88.783999999999992
 20
143.46399999999991
 30
0.0
 11
89.0
 21
145.0
 31
0.0
  0
LINE
  5
7BA
  8
0
 10
78.603399999999993
 20
149.66499999999991
 30
0.0
 11
80.023999999999987
 21
150.208
 31
0.0
  0
LINE
  5
7BC
  8
0
 10
77.0
 20
130.0
 30
0.0
 11
77.0
 21
120.0
 31
0.0
  0
LINE
  5
7BD
  8
0
 10
77.0
 20
130.0
 30
0.0
 11
93.0
 21
130.0
 31
0.0
  0
LINE
  5
7BE
  8
0
 10
74.019999999999996
 20
155.0
 30
0.0
 11
75.459999999999994
 21
155.0
 31
0.0
  0
LINE
  5
7BF
  8
0
 10
74.019999999999996
 20
153.0
 30
0.0
 11
75.459999999999994
 21
153.0
 31
0.0
  0
LINE
  5
7C0
  8
0
 10
75.0
 20
153.0
 30
0.0
 11
75.0
 21
150.0
 31
0.0
  0
LINE
  5
7C1
  8
0
 10
75.0
 20
153.0
 30
0.0
 11
75.459999999999994
 21
153.0
 31
0.0
  0
LINE
  5
7C2
  8
0
 10
74.019999999999996
 20
157.0
 30
0.0
 11
75.459999999999994
 21
157.0
 31
0.0
  0
LINE
  5
7C3
  8
0
 10
74.019999999999996
 20
159.0
 30
0.0
 11
75.459999999999994
 21
159.0
 31
0.0
  0
LINE
  5
7C4
  8
0
 10
75.0
 20
157.0
 30
0.0
 11
75.0
 21
155.0
 31
0.0
  0
LINE
  5
7C5
  8
0
 10
75.0
 20
157.0
 30
0.0
 11
75.459999999999994
 21
157.0
 31
0.0
  0
LINE
  5
7C6
  8
0
 10
75.0
 20
161.0
 30
0.0
 11
75.0
 21
159.0
 31
0.0
  0
LINE
  5
7C7
  8
0
 10
75.0
 20
155.0
 30
0.0
 11
75.0
 21
157.0
 31
0.0
  0
LINE
  5
7C8
  8
0
 10
85.975999999999985
 20
150.208
 30
0.0
 11
87.248000000000005
 21
149.24799999999999
 31
0.0
  0
LINE
  5
7C9
  8
0
 10
76.0
 20
153.0
 30
0.0
 11
76.0
 21
155.0
 31
0.0
  0
LINE
  5
7CA
  8
0
 10
76.0
 20
155.0
 30
0.0
 11
76.0
 21
153.0
 31
0.0
  0
LINE
  5
7CB
  8
0
 10
75.459999999999994
 20
155.0
 30
0.0
 11
76.0
 21
155.0
 31
0.0
  0
LINE
  5
7CC
  8
0
 10
75.459999999999994
 20
153.0
 30
0.0
 11
76.0
 21
153.0
 31
0.0
  0
LINE
  5
7CD
  8
0
 10
76.0
 20
157.0
 30
0.0
 11
76.0
 21
159.0
 31
0.0
  0
LINE
  5
7CE
  8
0
 10
76.0
 20
159.0
 30
0.0
 11
76.0
 21
157.0
 31
0.0
  0
LINE
  5
7CF
  8
0
 10
75.459999999999994
 20
159.0
 30
0.0
 11
76.0
 21
159.0
 31
0.0
  0
LINE
  5
7D0
  8
0
 10
75.459999999999994
 20
157.0
 30
0.0
 11
76.0
 21
157.0
 31
0.0
  0
LINE
  5
7D1
  8
0
 10
83.0
 20
151.0
 30
0.0
 11
84.535999999999987
 21
150.78399999999991
 31
0.0
  0
LINE
  5
7D2
  8
0
 10
84.535999999999987
 20
150.78399999999991
 30
0.0
 11
85.975999999999985
 21
150.208
 31
0.0
  0
LINE
  5
7D3
  8
0
 10
81.463999999999984
 20
150.78399999999991
 30
0.0
 11
83.0
 21
151.0
 31
0.0
  0
LINE
  5
7D4
  8
0
 10
80.023999999999987
 20
150.208
 30
0.0
 11
81.463999999999984
 21
150.78399999999991
 31
0.0
  0
LINE
  5
7D5
  8
0
 10
75.0
 20
159.0
 30
0.0
 11
75.0
 21
161.0
 31
0.0
  0
LINE
  5
7D6
  8
0
 10
75.0
 20
150.0
 30
0.0
 11
75.0
 21
153.0
 31
0.0
  0
LINE
  5
7D7
  8
0
 10
73.152000000000001
 20
161.0
 30
0.0
 11
74.496000000000009
 21
161.0
 31
0.0
  0
LINE
  5
7D8
  8
0
 10
74.496000000000009
 20
161.0
 30
0.0
 11
75.0
 21
161.0
 31
0.0
  0
LINE
  5
7D9
  8
0
 10
72.328000000000003
 20
150.0
 30
0.0
 11
74.888000000000005
 21
150.0
 31
0.0
  0
LINE
  5
7DA
  8
0
 10
57.415999999999997
 20
161.0
 30
0.0
 11
61.0
 21
161.0
 31
0.0
  0
LINE
  5
7DB
  8
0
 10
54.055999999999997
 20
161.0
 30
0.0
 11
57.415999999999997
 21
161.0
 31
0.0
  0
LINE
  5
7DC
  8
0
 10
51.088000000000001
 20
161.0
 30
0.0
 11
54.055999999999997
 21
161.0
 31
0.0
  0
LINE
  5
7DD
  8
0
 10
48.847999999999999
 20
161.0
 30
0.0
 11
51.088000000000001
 21
161.0
 31
0.0
  0
LINE
  5
7DE
  8
0
 10
47.503999999999991
 20
161.0
 30
0.0
 11
48.847999999999999
 21
161.0
 31
0.0
  0
LINE
  5
7DF
  8
0
 10
47.111999999999988
 20
150.0
 30
0.0
 11
49.671999999999997
 21
150.0
 31
0.0
  0
LINE
  5
7E0
  8
0
 10
119.0
 20
120.0
 30
0.0
 11
119.7
 21
119.7
 31
0.0
  0
LINE
  5
7E1
  8
0
 10
0.999999999999996
 20
120.0
 30
0.0
 11
119.0
 21
120.0
 31
0.0
  0
LINE
  5
7E2
  8
0
 10
0.3
 20
119.7
 30
0.0
 11
0.5
 21
119.7
 31
0.0
  0
LINE
  5
7E3
  8
0
 10
0.3
 20
119.7
 30
0.0
 11
1.0
 21
120.0
 31
0.0
  0
LINE
  5
7E4
  8
0
 10
0.3
 20
119.7
 30
0.0
 11
1.0
 21
120.0
 31
0.0
  0
ENDSEC
  0
EOF
