  0
SECTION
  2
HEADER
  9
$ACADVER
  1
AC1009
  9
$INSBASE
 10
0.0
 20
0.0
 30
0.0
  9
$EXTMIN
 10
0.0
 20
-0.0000000000000068
 30
0.0
  9
$EXTMAX
 10
92.0
 20
82.0
 30
0.0
  9
$LIMMIN
 10
0.0
 20
0.0
  9
$LIMMAX
 10
12.0
 20
9.0
  9
$ORTHOMODE
 70
     0
  9
$REGENMODE
 70
     1
  9
$FILLMODE
 70
     1
  9
$QTEXTMODE
 70
     0
  9
$MIRRTEXT
 70
     1
  9
$DRAGMODE
 70
     2
  9
$LTSCALE
 40
1.0
  9
$OSMODE
 70
    37
  9
$ATTMODE
 70
     1
  9
$TEXTSIZE
 40
0.2
  9
$TRACEWID
 40
0.05
  9
$TEXTSTYLE
  7
STANDARD
  9
$CLAYER
  8
0
  9
$CELTYPE
  6
CONTINUOUS
  9
$CECOLOR
 62
   256
  9
$DIMSCALE
 40
1.0
  9
$DIMASZ
 40
0.18
  9
$DIMEXO
 40
0.0625
  9
$DIMDLI
 40
0.38
  9
$DIMRND
 40
0.0
  9
$DIMDLE
 40
0.0
  9
$DIMEXE
 40
0.18
  9
$DIMTP
 40
0.0
  9
$DIMTM
 40
0.0
  9
$DIMTXT
 40
0.18
  9
$DIMCEN
 40
0.09
  9
$DIMTSZ
 40
0.0
  9
$DIMTOL
 70
     0
  9
$DIMLIM
 70
     0
  9
$DIMTIH
 70
     1
  9
$DIMTOH
 70
     1
  9
$DIMSE1
 70
     0
  9
$DIMSE2
 70
     0
  9
$DIMTAD
 70
     0
  9
$DIMZIN
 70
     0
  9
$DIMBLK
  1

  9
$DIMASO
 70
     1
  9
$DIMSHO
 70
     1
  9
$DIMPOST
  1

  9
$DIMAPOST
  1

  9
$DIMALT
 70
     0
  9
$DIMALTD
 70
     2
  9
$DIMALTF
 40
25.399999999999999
  9
$DIMLFAC
 40
1.0
  9
$DIMTOFL
 70
     0
  9
$DIMTVP
 40
0.0
  9
$DIMTIX
 70
     0
  9
$DIMSOXD
 70
     0
  9
$DIMSAH
 70
     0
  9
$DIMBLK1
  1

  9
$DIMBLK2
  1

  9
$DIMSTYLE
  2
STANDARD
  9
$DIMCLRD
 70
     0
  9
$DIMCLRE
 70
     0
  9
$DIMCLRT
 70
     0
  9
$DIMTFAC
 40
1.0
  9
$DIMGAP
 40
0.09
  9
$LUNITS
 70
     2
  9
$LUPREC
 70
     4
  9
$SKETCHINC
 40
0.1
  9
$FILLETRAD
 40
0.0
  9
$AUNITS
 70
     0
  9
$AUPREC
 70
     0
  9
$MENU
  1
.
  9
$ELEVATION
 40
0.0
  9
$PELEVATION
 40
0.0
  9
$THICKNESS
 40
0.0
  9
$LIMCHECK
 70
     0
  9
$BLIPMODE
 70
     0
  9
$CHAMFERA
 40
0.0
  9
$CHAMFERB
 40
0.0
  9
$SKPOLY
 70
     0
  9
$TDCREATE
 40
2454674.6078596991
  9
$TDUPDATE
 40
2454674.6112628351
  9
$TDINDWG
 40
0.0034036806
  9
$TDUSRTIMER
 40
0.0034036806
  9
$USRTIMER
 70
     1
  9
$ANGBASE
 50
0.0
  9
$ANGDIR
 70
     0
  9
$PDMODE
 70
     0
  9
$PDSIZE
 40
0.0
  9
$PLINEWID
 40
0.0
  9
$COORDS
 70
     1
  9
$SPLFRAME
 70
     0
  9
$SPLINETYPE
 70
     6
  9
$SPLINESEGS
 70
     8
  9
$ATTDIA
 70
     0
  9
$ATTREQ
 70
     1
  9
$HANDLING
 70
 22529
  9
$HANDSEED
  5
31B
  9
$SURFTAB1
 70
     6
  9
$SURFTAB2
 70
     6
  9
$SURFTYPE
 70
     6
  9
$SURFU
 70
     6
  9
$SURFV
 70
     6
  9
$UCSNAME
  2

  9
$UCSORG
 10
0.0
 20
0.0
 30
0.0
  9
$UCSXDIR
 10
1.0
 20
0.0
 30
0.0
  9
$UCSYDIR
 10
0.0
 20
1.0
 30
0.0
  9
$PUCSNAME
  2

  9
$PUCSORG
 10
0.0
 20
0.0
 30
0.0
  9
$PUCSXDIR
 10
1.0
 20
0.0
 30
0.0
  9
$PUCSYDIR
 10
0.0
 20
1.0
 30
0.0
  9
$USERI1
 70
     0
  9
$USERI2
 70
     0
  9
$USERI3
 70
     0
  9
$USERI4
 70
     0
  9
$USERI5
 70
     0
  9
$USERR1
 40
0.0
  9
$USERR2
 40
0.0
  9
$USERR3
 40
0.0
  9
$USERR4
 40
0.0
  9
$USERR5
 40
0.0
  9
$WORLDVIEW
 70
     1
  9
$SHADEDGE
 70
     3
  9
$SHADEDIF
 70
    70
  9
$TILEMODE
 70
     1
  9
$MAXACTVP
 70
    64
  9
$PLIMCHECK
 70
     0
  9
$PEXTMIN
 10
1.0000000000000000E+020
 20
1.0000000000000000E+020
 30
1.0000000000000000E+020
  9
$PEXTMAX
 10
-1.0000000000000000E+020
 20
-1.0000000000000000E+020
 30
-1.0000000000000000E+020
  9
$PLIMMIN
 10
0.0
 20
0.0
  9
$PLIMMAX
 10
12.0
 20
9.0
  9
$UNITMODE
 70
     0
  9
$VISRETAIN
 70
     1
  9
$PLINEGEN
 70
     0
  9
$PSLTSCALE
 70
     1
  0
ENDSEC
  0
SECTION
  2
TABLES
  0
TABLE
  2
VPORT
 70
     3
  0
VPORT
  2
*ACTIVE
 70
     0
 10
0.0
 20
0.0
 11
1.0
 21
1.0
 12
46.0
 22
40.999999999999993
 13
0.0
 23
0.0
 14
1.0
 24
1.0
 15
0.0
 25
0.0
 16
0.0
 26
0.0
 36
1.0
 17
0.0
 27
0.0
 37
0.0
 40
82.629156010230176
 41
2.0435339308578739
 42
50.0
 43
0.0
 44
0.0
 50
0.0
 51
0.0
 71
     0
 72
   100
 73
     1
 74
     3
 75
     0
 76
     0
 77
     0
 78
     0
  0
ENDTAB
  0
TABLE
  2
LTYPE
 70
     1
  0
LTYPE
  2
CONTINUOUS
 70
     0
  3
Solid line
 72
    65
 73
     0
 40
0.0
  0
ENDTAB
  0
TABLE
  2
LAYER
 70
     1
  0
LAYER
  2
0
 70
     0
 62
     7
  6
CONTINUOUS
  0
ENDTAB
  0
TABLE
  2
STYLE
 70
     1
  0
STYLE
  2
STANDARD
 70
     0
 40
0.0
 41
1.0
 50
0.0
 71
     0
 42
0.2
  3
txt
  4

  0
ENDTAB
  0
TABLE
  2
VIEW
 70
     0
  0
ENDTAB
  0
TABLE
  2
UCS
 70
     0
  0
ENDTAB
  0
TABLE
  2
APPID
 70
     1
  0
APPID
  2
ACAD
 70
     0
  0
ENDTAB
  0
TABLE
  2
DIMSTYLE
 70
     1
  0
DIMSTYLE
  2
STANDARD
 70
     0
  3

  4

  5

  6

  7

 40
1.0
 41
0.18
 42
0.0625
 43
0.38
 44
0.18
 45
0.0
 46
0.0
 47
0.0
 48
0.0
140
0.18
141
0.09
142
0.0
143
25.399999999999999
144
1.0
145
0.0
146
1.0
147
0.09
 71
     0
 72
     0
 73
     1
 74
     1
 75
     0
 76
     0
 77
     0
 78
     0
170
     0
171
     2
172
     0
173
     0
174
     0
175
     0
176
     0
177
     0
178
     0
  0
ENDTAB
  0
ENDSEC
  0
SECTION
  2
BLOCKS
  0
BLOCK
  8
0
  2
$MODEL_SPACE
 70
     0
 10
0.0
 20
0.0
 30
0.0
  3
$MODEL_SPACE
  1

  0
ENDBLK
  5
20
  8
0
  0
BLOCK
 67
     1
  8
0
  2
$PAPER_SPACE
 70
     0
 10
0.0
 20
0.0
 30
0.0
  3
$PAPER_SPACE
  1

  0
ENDBLK
  5
1C
 67
     1
  8
0
  0
ENDSEC
  0
SECTION
  2
ENTITIES
  0
LINE
  5
22
  8
0
 10
32.0
 20
28.0
 30
0.0
 11
32.611999999999988
 21
28.0
 31
0.0
  0
LINE
  5
23
  8
0
 10
32.0
 20
28.0
 30
0.0
 11
32.0
 21
46.0
 31
0.0
  0
LINE
  5
24
  8
0
 10
33.576000000000001
 20
28.0
 30
0.0
 11
35.0
 21
28.0
 31
0.0
  0
LINE
  5
25
  8
0
 10
33.576000000000001
 20
28.0
 30
0.0
 11
35.111999999999988
 21
28.0
 31
0.0
  0
LINE
  5
26
  8
0
 10
33.0
 20
28.0
 30
0.0
 11
33.576000000000001
 21
28.0
 31
0.0
  0
LINE
  5
27
  8
0
 10
35.0
 20
28.0
 30
0.0
 11
35.0
 21
5.0
 31
0.0
  0
LINE
  5
28
  8
0
 10
35.503999999999991
 20
4.9999999999999902
 30
0.0
 11
36.847999999999999
 21
4.9999999999999902
 31
0.0
  0
LINE
  5
29
  8
0
 10
35.503999999999991
 20
4.9999999999999902
 30
0.0
 11
36.847999999999999
 21
4.9999999999999902
 31
0.0
  0
LINE
  5
2A
  8
0
 10
35.0
 20
4.9999999999999902
 30
0.0
 11
35.503999999999991
 21
4.9999999999999902
 31
0.0
  0
LINE
  5
2B
  8
0
 10
35.0
 20
4.9999999999999902
 30
0.0
 11
35.0
 21
28.0
 31
0.0
  0
LINE
  5
2C
  8
0
 10
35.0
 20
4.9999999999999902
 30
0.0
 11
35.503999999999991
 21
4.9999999999999902
 31
0.0
  0
LINE
  5
2D
  8
0
 10
35.111999999999988
 20
28.0
 30
0.0
 11
37.67199999999999
 21
28.0
 31
0.0
  0
LINE
  5
2E
  8
0
 10
34.428600000000003
 20
28.0
 30
0.0
 11
34.953099999999992
 21
28.0
 31
0.0
  0
LINE
  5
2F
  8
0
 10
34.953099999999992
 20
28.0
 30
0.0
 11
36.35199999999999
 21
28.0
 31
0.0
  0
LINE
  5
30
  8
0
 10
32.611999999999988
 20
28.0
 30
0.0
 11
34.244
 21
28.0
 31
0.0
  0
LINE
  5
31
  8
0
 10
32.0
 20
46.0
 30
0.0
 11
32.0
 21
28.0
 31
0.0
  0
LINE
  5
32
  8
0
 10
34.244
 20
28.0
 30
0.0
 11
35.0
 21
28.0
 31
0.0
  0
LINE
  5
33
  8
0
 10
34.244
 20
28.0
 30
0.0
 11
36.963999999999999
 21
28.0
 31
0.0
  0
LINE
  5
34
  8
0
 10
15.0
 20
46.0
 30
0.0
 11
15.0
 21
46.612000000000002
 31
0.0
  0
LINE
  5
35
  8
0
 10
15.0
 20
46.0
 30
0.0
 11
32.0
 21
46.0
 31
0.0
  0
LINE
  5
36
  8
0
 10
10.0
 20
48.0
 30
0.0
 11
10.0
 21
48.539999999999999
 31
0.0
  0
LINE
  5
37
  8
0
 10
10.0
 20
48.0
 30
0.0
 11
15.0
 21
48.0
 31
0.0
  0
LINE
  5
38
  8
0
 10
10.0
 20
48.539999999999999
 30
0.0
 11
10.0
 21
49.979999999999997
 31
0.0
  0
LINE
  5
39
  8
0
 10
10.0
 20
48.539999999999999
 30
0.0
 11
10.0
 21
48.0
 31
0.0
  0
LINE
  5
3A
  8
0
 10
15.0
 20
48.244
 30
0.0
 11
15.0
 21
50.963999999999999
 31
0.0
  0
LINE
  5
3B
  8
0
 10
15.0
 20
48.244
 30
0.0
 11
15.0
 21
46.612000000000002
 31
0.0
  0
LINE
  5
3C
  8
0
 10
15.0
 20
49.979999999999997
 30
0.0
 11
15.0
 21
48.539999999999999
 31
0.0
  0
LINE
  5
3D
  8
0
 10
15.0
 20
49.979999999999997
 30
0.0
 11
15.0
 21
52.380000000000003
 31
0.0
  0
LINE
  5
3E
  8
0
 10
15.0
 20
52.380000000000003
 30
0.0
 11
15.0
 21
49.979999999999997
 31
0.0
  0
LINE
  5
3F
  8
0
 10
15.0
 20
52.380000000000003
 30
0.0
 11
15.0
 21
55.560000000000002
 31
0.0
  0
LINE
  5
40
  8
0
 10
10.0
 20
49.979999999999997
 30
0.0
 11
10.0
 21
52.380000000000003
 31
0.0
  0
LINE
  5
41
  8
0
 10
10.0
 20
49.979999999999997
 30
0.0
 11
10.0
 21
48.539999999999999
 31
0.0
  0
LINE
  5
42
  8
0
 10
10.0
 20
52.380000000000003
 30
0.0
 11
10.0
 21
55.560000000000002
 31
0.0
  0
LINE
  5
43
  8
0
 10
10.0
 20
52.380000000000003
 30
0.0
 11
10.0
 21
49.979999999999997
 31
0.0
  0
LINE
  5
44
  8
0
 10
15.0
 20
50.963999999999999
 30
0.0
 11
15.0
 21
54.568000000000012
 31
0.0
  0
LINE
  5
45
  8
0
 10
15.0
 20
50.963999999999999
 30
0.0
 11
15.0
 21
48.244
 31
0.0
  0
LINE
  5
46
  8
0
 10
15.0
 20
55.560000000000002
 30
0.0
 11
15.0
 21
52.380000000000003
 31
0.0
  0
LINE
  5
47
  8
0
 10
15.0
 20
55.560000000000002
 30
0.0
 11
15.0
 21
59.159999999999997
 31
0.0
  0
LINE
  5
48
  8
0
 10
0.0
 20
57.0
 30
0.0
 11
10.0
 21
57.0
 31
0.0
  0
LINE
  5
49
  8
0
 10
0.0
 20
57.0
 30
0.0
 11
0.0
 21
69.0
 31
0.0
  0
LINE
  5
4A
  8
0
 10
10.0
 20
59.159999999999997
 30
0.0
 11
10.0
 21
55.560000000000002
 31
0.0
  0
LINE
  5
4B
  8
0
 10
10.0
 20
59.159999999999997
 30
0.0
 11
10.0
 21
63.0
 31
0.0
  0
LINE
  5
4C
  8
0
 10
0.0
 20
69.0
 30
0.0
 11
10.0
 21
69.0
 31
0.0
  0
LINE
  5
4D
  8
0
 10
0.0
 20
69.0
 30
0.0
 11
0.0
 21
57.0
 31
0.0
  0
LINE
  5
4E
  8
0
 10
10.0
 20
69.0
 30
0.0
 11
10.0
 21
70.439999999999998
 31
0.0
  0
LINE
  5
4F
  8
0
 10
10.0
 20
69.0
 30
0.0
 11
10.0
 21
57.0
 31
0.0
  0
LINE
  5
50
  8
0
 10
10.0
 20
70.439999999999998
 30
0.0
 11
10.0
 21
66.840000000000003
 31
0.0
  0
LINE
  5
51
  8
0
 10
10.0
 20
70.439999999999998
 30
0.0
 11
10.0
 21
73.620000000000005
 31
0.0
  0
LINE
  5
52
  8
0
 10
10.0
 20
70.439999999999998
 30
0.0
 11
10.0
 21
69.0
 31
0.0
  0
LINE
  5
53
  8
0
 10
10.0
 20
66.840000000000003
 30
0.0
 11
10.0
 21
63.0
 31
0.0
  0
LINE
  5
54
  8
0
 10
10.0
 20
66.840000000000003
 30
0.0
 11
10.0
 21
70.439999999999998
 31
0.0
  0
LINE
  5
55
  8
0
 10
10.0
 20
63.0
 30
0.0
 11
10.0
 21
59.159999999999997
 31
0.0
  0
LINE
  5
56
  8
0
 10
10.0
 20
63.0
 30
0.0
 11
10.0
 21
66.840000000000003
 31
0.0
  0
LINE
  5
57
  8
0
 10
15.0
 20
70.439999999999998
 30
0.0
 11
15.0
 21
66.840000000000003
 31
0.0
  0
LINE
  5
58
  8
0
 10
15.0
 20
70.439999999999998
 30
0.0
 11
15.0
 21
73.0
 31
0.0
  0
LINE
  5
59
  8
0
 10
15.0
 20
66.840000000000003
 30
0.0
 11
15.0
 21
63.0
 31
0.0
  0
LINE
  5
5A
  8
0
 10
15.0
 20
66.840000000000003
 30
0.0
 11
15.0
 21
70.439999999999998
 31
0.0
  0
LINE
  5
5B
  8
0
 10
15.0
 20
59.159999999999997
 30
0.0
 11
15.0
 21
55.560000000000002
 31
0.0
  0
LINE
  5
5C
  8
0
 10
15.0
 20
59.159999999999997
 30
0.0
 11
15.0
 21
63.0
 31
0.0
  0
LINE
  5
5D
  8
0
 10
10.0
 20
57.0
 30
0.0
 11
10.0
 21
55.560000000000002
 31
0.0
  0
LINE
  5
5E
  8
0
 10
10.0
 20
57.0
 30
0.0
 11
10.0
 21
69.0
 31
0.0
  0
LINE
  5
5F
  8
0
 10
10.0
 20
55.560000000000002
 30
0.0
 11
10.0
 21
57.0
 31
0.0
  0
LINE
  5
60
  8
0
 10
10.0
 20
55.560000000000002
 30
0.0
 11
10.0
 21
52.380000000000003
 31
0.0
  0
LINE
  5
61
  8
0
 10
10.0
 20
55.560000000000002
 30
0.0
 11
10.0
 21
59.159999999999997
 31
0.0
  0
LINE
  5
62
  8
0
 10
15.0
 20
67.352000000000004
 30
0.0
 11
15.0
 21
71.432000000000002
 31
0.0
  0
LINE
  5
63
  8
0
 10
15.0
 20
67.352000000000004
 30
0.0
 11
15.0
 21
63.0
 31
0.0
  0
LINE
  5
64
  8
0
 10
12.21471
 20
73.0
 30
0.0
 11
13.264709999999999
 21
73.0
 31
0.0
  0
LINE
  5
65
  8
0
 10
12.02941
 20
73.096199999999996
 30
0.0
 11
13.12059
 21
73.096199999999996
 31
0.0
  0
LINE
  5
66
  8
0
 10
11.35
 20
73.096199999999996
 30
0.0
 11
12.02941
 21
73.096199999999996
 31
0.0
  0
LINE
  5
67
  8
0
 10
11.55588
 20
73.0
 30
0.0
 11
12.21471
 21
73.0
 31
0.0
  0
LINE
  5
68
  8
0
 10
11.30881999999999
 20
73.0
 30
0.0
 11
11.55588
 21
73.0
 31
0.0
  0
LINE
  5
69
  8
0
 10
11.10294
 20
73.096199999999996
 30
0.0
 11
11.30881999999999
 21
73.0
 31
0.0
  0
LINE
  5
6A
  8
0
 10
11.10294
 20
73.096199999999996
 30
0.0
 11
11.35
 21
73.096199999999996
 31
0.0
  0
LINE
  5
6B
  8
0
 10
11.0
 20
73.288499999999999
 30
0.0
 11
11.0
 21
75.0
 31
0.0
  0
LINE
  5
6C
  8
0
 10
11.0
 20
73.288499999999999
 30
0.0
 11
11.10294
 21
73.096199999999996
 31
0.0
  0
LINE
  5
6D
  8
0
 10
11.94706
 20
75.0
 30
0.0
 11
13.05881999999999
 21
75.0
 31
0.0
  0
LINE
  5
6E
  8
0
 10
11.247059999999999
 20
75.0
 30
0.0
 11
11.94706
 21
75.0
 31
0.0
  0
LINE
  5
6F
  8
0
 10
11.0
 20
75.0
 30
0.0
 11
11.0
 21
73.288499999999999
 31
0.0
  0
LINE
  5
70
  8
0
 10
11.0
 20
75.0
 30
0.0
 11
11.247059999999999
 21
75.0
 31
0.0
  0
LINE
  5
71
  8
0
 10
10.0
 20
75.0
 30
0.0
 11
10.0
 21
73.620000000000005
 31
0.0
  0
LINE
  5
72
  8
0
 10
10.0
 20
73.620000000000005
 30
0.0
 11
10.0
 21
70.439999999999998
 31
0.0
  0
LINE
  5
73
  8
0
 10
10.0
 20
73.620000000000005
 30
0.0
 11
10.0
 21
75.0
 31
0.0
  0
LINE
  5
74
  8
0
 10
13.264709999999999
 20
73.0
 30
0.0
 11
14.664709999999999
 21
73.0
 31
0.0
  0
LINE
  5
75
  8
0
 10
13.12059
 20
73.096199999999996
 30
0.0
 11
14.56176
 21
73.096199999999996
 31
0.0
  0
LINE
  5
76
  8
0
 10
13.05881999999999
 20
75.0
 30
0.0
 11
14.52059
 21
75.0
 31
0.0
  0
LINE
  5
77
  8
0
 10
14.56176
 20
73.096199999999996
 30
0.0
 11
16.229410000000001
 21
73.096199999999996
 31
0.0
  0
LINE
  5
78
  8
0
 10
14.52059
 20
75.0
 30
0.0
 11
16.208819999999999
 21
75.0
 31
0.0
  0
LINE
  5
79
  8
0
 10
14.664709999999999
 20
73.0
 30
0.0
 11
16.270589999999999
 21
73.0
 31
0.0
  0
LINE
  5
7A
  8
0
 10
13.039999999999999
 20
75.0
 30
0.0
 11
15.44
 21
75.0
 31
0.0
  0
LINE
  5
7B
  8
0
 10
10.92
 20
75.0
 30
0.0
 11
11.0
 21
75.0
 31
0.0
  0
LINE
  5
7C
  8
0
 10
10.92
 20
75.0
 30
0.0
 11
13.039999999999999
 21
75.0
 31
0.0
  0
LINE
  5
7D
  8
0
 10
9.3200000000000003
 20
75.0
 30
0.0
 11
10.92
 21
75.0
 31
0.0
  0
LINE
  5
7E
  8
0
 10
9.3200000000000003
 20
75.0
 30
0.0
 11
10.0
 21
75.0
 31
0.0
  0
LINE
  5
7F
  8
0
 10
11.0
 20
80.0
 30
0.0
 11
11.0
 21
81.711500000000001
 31
0.0
  0
LINE
  5
80
  8
0
 10
13.039999999999999
 20
80.0
 30
0.0
 11
15.44
 21
80.0
 31
0.0
  0
LINE
  5
81
  8
0
 10
10.92
 20
80.0
 30
0.0
 11
13.039999999999999
 21
80.0
 31
0.0
  0
LINE
  5
82
  8
0
 10
9.3200000000000003
 20
80.0
 30
0.0
 11
10.92
 21
80.0
 31
0.0
  0
LINE
  5
83
  8
0
 10
8.3599999999999994
 20
80.0
 30
0.0
 11
9.3200000000000003
 21
80.0
 31
0.0
  0
LINE
  5
84
  8
0
 10
8.3599999999999994
 20
75.0
 30
0.0
 11
9.3200000000000003
 21
75.0
 31
0.0
  0
LINE
  5
85
  8
0
 10
8.3599999999999994
 20
75.0
 30
0.0
 11
10.0
 21
75.0
 31
0.0
  0
LINE
  5
86
  8
0
 10
8.3599999999999994
 20
75.0
 30
0.0
 11
10.0
 21
75.0
 31
0.0
  0
LINE
  5
87
  8
0
 10
8.0
 20
75.0
 30
0.0
 11
8.3599999999999994
 21
75.0
 31
0.0
  0
LINE
  5
88
  8
0
 10
8.0
 20
75.0
 30
0.0
 11
8.0
 21
80.0
 31
0.0
  0
LINE
  5
89
  8
0
 10
12.02941
 20
81.903800000000004
 30
0.0
 11
13.12059
 21
81.903800000000004
 31
0.0
  0
LINE
  5
8A
  8
0
 10
11.35
 20
81.903800000000004
 30
0.0
 11
12.02941
 21
81.903800000000004
 31
0.0
  0
LINE
  5
8B
  8
0
 10
13.12059
 20
81.903800000000004
 30
0.0
 11
14.56176
 21
81.903800000000004
 31
0.0
  0
LINE
  5
8C
  8
0
 10
14.56176
 20
81.903800000000004
 30
0.0
 11
16.229410000000001
 21
81.903800000000004
 31
0.0
  0
LINE
  5
8D
  8
0
 10
12.21471
 20
82.0
 30
0.0
 11
13.264709999999999
 21
82.0
 31
0.0
  0
LINE
  5
8E
  8
0
 10
11.55588
 20
82.0
 30
0.0
 11
12.21471
 21
82.0
 31
0.0
  0
LINE
  5
8F
  8
0
 10
11.30881999999999
 20
82.0
 30
0.0
 11
11.55588
 21
82.0
 31
0.0
  0
LINE
  5
90
  8
0
 10
13.264709999999999
 20
82.0
 30
0.0
 11
14.664709999999999
 21
82.0
 31
0.0
  0
LINE
  5
91
  8
0
 10
14.664709999999999
 20
82.0
 30
0.0
 11
16.270589999999999
 21
82.0
 31
0.0
  0
LINE
  5
92
  8
0
 10
11.10294
 20
81.903800000000004
 30
0.0
 11
11.30881999999999
 21
82.0
 31
0.0
  0
LINE
  5
93
  8
0
 10
11.10294
 20
81.903800000000004
 30
0.0
 11
11.35
 21
81.903800000000004
 31
0.0
  0
LINE
  5
94
  8
0
 10
11.0
 20
81.711500000000001
 30
0.0
 11
11.0
 21
80.0
 31
0.0
  0
LINE
  5
95
  8
0
 10
11.0
 20
81.711500000000001
 30
0.0
 11
11.10294
 21
81.903800000000004
 31
0.0
  0
LINE
  5
96
  8
0
 10
8.0
 20
80.0
 30
0.0
 11
8.0
 21
75.0
 31
0.0
  0
LINE
  5
97
  8
0
 10
8.0
 20
80.0
 30
0.0
 11
8.3599999999999994
 21
80.0
 31
0.0
  0
LINE
  5
98
  8
0
 10
15.0
 20
73.0
 30
0.0
 11
15.0
 21
71.432000000000002
 31
0.0
  0
LINE
  5
99
  8
0
 10
15.0
 20
73.0
 30
0.0
 11
15.0
 21
63.0
 31
0.0
  0
LINE
  5
9A
  8
0
 10
15.0
 20
73.0
 30
0.0
 11
15.0
 21
70.439999999999998
 31
0.0
  0
LINE
  5
9B
  8
0
 10
15.0
 20
71.432000000000002
 30
0.0
 11
15.0
 21
67.352000000000004
 31
0.0
  0
LINE
  5
9C
  8
0
 10
15.0
 20
71.432000000000002
 30
0.0
 11
15.0
 21
73.0
 31
0.0
  0
LINE
  5
9D
  8
0
 10
15.0
 20
63.0
 30
0.0
 11
22.0
 21
63.0
 31
0.0
  0
LINE
  5
9E
  8
0
 10
15.0
 20
63.0
 30
0.0
 11
15.0
 21
58.648000000000003
 31
0.0
  0
LINE
  5
9F
  8
0
 10
15.0
 20
63.0
 30
0.0
 11
15.0
 21
67.352000000000004
 31
0.0
  0
LINE
  5
A0
  8
0
 10
15.0
 20
63.0
 30
0.0
 11
15.0
 21
73.0
 31
0.0
  0
LINE
  5
A1
  8
0
 10
15.0
 20
63.0
 30
0.0
 11
15.0
 21
59.159999999999997
 31
0.0
  0
LINE
  5
A2
  8
0
 10
15.0
 20
63.0
 30
0.0
 11
15.0
 21
66.840000000000003
 31
0.0
  0
LINE
  5
A3
  8
0
 10
15.0
 20
54.568000000000012
 30
0.0
 11
15.0
 21
58.648000000000003
 31
0.0
  0
LINE
  5
A4
  8
0
 10
15.0
 20
54.568000000000012
 30
0.0
 11
15.0
 21
50.963999999999999
 31
0.0
  0
LINE
  5
A5
  8
0
 10
15.0
 20
58.648000000000003
 30
0.0
 11
15.0
 21
63.0
 31
0.0
  0
LINE
  5
A6
  8
0
 10
15.0
 20
58.648000000000003
 30
0.0
 11
15.0
 21
54.568000000000012
 31
0.0
  0
LINE
  5
A7
  8
0
 10
15.0
 20
48.539999999999999
 30
0.0
 11
15.0
 21
48.0
 31
0.0
  0
LINE
  5
A8
  8
0
 10
15.0
 20
48.539999999999999
 30
0.0
 11
15.0
 21
49.979999999999997
 31
0.0
  0
LINE
  5
A9
  8
0
 10
18.0
 20
73.0
 30
0.0
 11
19.729399999999991
 21
73.0
 31
0.0
  0
LINE
  5
AA
  8
0
 10
16.229410000000001
 20
73.096199999999996
 30
0.0
 11
18.0
 21
73.096199999999996
 31
0.0
  0
LINE
  5
AB
  8
0
 10
16.208819999999999
 20
75.0
 30
0.0
 11
18.0
 21
75.0
 31
0.0
  0
LINE
  5
AC
  8
0
 10
18.0
 20
73.096199999999996
 30
0.0
 11
19.770600000000002
 21
73.096199999999996
 31
0.0
  0
LINE
  5
AD
  8
0
 10
16.270589999999999
 20
73.0
 30
0.0
 11
18.0
 21
73.0
 31
0.0
  0
LINE
  5
AE
  8
0
 10
28.0
 20
60.0
 30
0.0
 11
29.535999999999991
 21
60.0
 31
0.0
  0
LINE
  5
AF
  8
0
 10
29.535999999999991
 20
60.0
 30
0.0
 11
30.975999999999988
 21
60.0
 31
0.0
  0
LINE
  5
B0
  8
0
 10
30.975999999999988
 20
60.0
 30
0.0
 11
32.396599999999999
 21
60.0
 31
0.0
  0
LINE
  5
B1
  8
0
 10
32.396599999999999
 20
60.0
 30
0.0
 11
34.0
 21
60.0
 31
0.0
  0
LINE
  5
B2
  8
0
 10
34.576000000000001
 20
59.904000000000003
 30
0.0
 11
36.111999999999988
 21
56.063999999999993
 31
0.0
  0
LINE
  5
B3
  8
0
 10
34.0
 20
60.0
 30
0.0
 11
34.5625
 21
60.0
 31
0.0
  0
LINE
  5
B4
  8
0
 10
26.463999999999999
 20
60.0
 30
0.0
 11
28.0
 21
60.0
 31
0.0
  0
LINE
  5
B5
  8
0
 10
25.024000000000001
 20
60.0
 30
0.0
 11
34.5625
 21
60.0
 31
0.0
  0
LINE
  5
B6
  8
0
 10
25.024000000000001
 20
60.0
 30
0.0
 11
26.463999999999999
 21
60.0
 31
0.0
  0
LINE
  5
B7
  8
0
 10
23.751999999999988
 20
60.0
 30
0.0
 11
25.024000000000001
 21
60.0
 31
0.0
  0
LINE
  5
B8
  8
0
 10
22.791999999999991
 20
60.0
 30
0.0
 11
23.751999999999988
 21
60.0
 31
0.0
  0
LINE
  5
B9
  8
0
 10
28.0
 20
70.0
 30
0.0
 11
29.535999999999991
 21
70.0
 31
0.0
  0
LINE
  5
BA
  8
0
 10
29.535999999999991
 20
70.0
 30
0.0
 11
30.975999999999988
 21
70.0
 31
0.0
  0
LINE
  5
BB
  8
0
 10
35.0
 20
64.0
 30
0.0
 11
35.539999999999999
 21
60.159999999999997
 31
0.0
  0
LINE
  5
BC
  8
0
 10
35.0
 20
64.0
 30
0.0
 11
35.539999999999999
 21
67.840000000000003
 31
0.0
  0
LINE
  5
BD
  8
0
 10
34.576000000000001
 20
68.096000000000004
 30
0.0
 11
36.111999999999988
 21
71.936000000000007
 31
0.0
  0
LINE
  5
BE
  8
0
 10
34.0
 20
64.0
 30
0.0
 11
34.576000000000001
 21
59.904000000000003
 31
0.0
  0
LINE
  5
BF
  8
0
 10
34.0
 20
64.0
 30
0.0
 11
34.576000000000001
 21
68.096000000000004
 31
0.0
  0
LINE
  5
C0
  8
0
 10
30.975999999999988
 20
70.0
 30
0.0
 11
32.331200000000003
 21
70.0
 31
0.0
  0
LINE
  5
C1
  8
0
 10
32.331200000000003
 20
70.0
 30
0.0
 11
34.0
 21
70.0
 31
0.0
  0
LINE
  5
C2
  8
0
 10
26.463999999999999
 20
70.0
 30
0.0
 11
28.0
 21
70.0
 31
0.0
  0
LINE
  5
C3
  8
0
 10
25.024000000000001
 20
70.0
 30
0.0
 11
26.463999999999999
 21
70.0
 31
0.0
  0
LINE
  5
C4
  8
0
 10
23.751999999999988
 20
70.0
 30
0.0
 11
25.024000000000001
 21
70.0
 31
0.0
  0
LINE
  5
C5
  8
0
 10
22.791999999999991
 20
70.0
 30
0.0
 11
23.751999999999988
 21
70.0
 31
0.0
  0
LINE
  5
C6
  8
0
 10
22.216000000000001
 20
70.0
 30
0.0
 11
22.791999999999991
 21
70.0
 31
0.0
  0
LINE
  5
C7
  8
0
 10
22.216000000000001
 20
60.0
 30
0.0
 11
22.791999999999991
 21
60.0
 31
0.0
  0
LINE
  5
C8
  8
0
 10
22.0
 20
60.0
 30
0.0
 11
22.216000000000001
 21
60.0
 31
0.0
  0
LINE
  5
C9
  8
0
 10
22.0
 20
60.0
 30
0.0
 11
22.0
 21
70.0
 31
0.0
  0
LINE
  5
CA
  8
0
 10
22.0
 20
70.0
 30
0.0
 11
22.0
 21
60.0
 31
0.0
  0
LINE
  5
CB
  8
0
 10
22.0
 20
70.0
 30
0.0
 11
22.216000000000001
 21
70.0
 31
0.0
  0
LINE
  5
CC
  8
0
 10
35.539999999999999
 20
67.840000000000003
 30
0.0
 11
36.97999999999999
 21
71.439999999999998
 31
0.0
  0
LINE
  5
CD
  8
0
 10
35.539999999999999
 20
60.159999999999997
 30
0.0
 11
36.97999999999999
 21
56.560000000000002
 31
0.0
  0
LINE
  5
CE
  8
0
 10
35.337600000000002
 20
70.0
 30
0.0
 11
36.111999999999988
 21
71.936000000000007
 31
0.0
  0
LINE
  5
CF
  8
0
 10
22.735299999999999
 20
73.0
 30
0.0
 11
23.785299999999999
 21
73.0
 31
0.0
  0
LINE
  5
D0
  8
0
 10
23.785299999999999
 20
73.0
 30
0.0
 11
24.444099999999992
 21
73.0
 31
0.0
  0
LINE
  5
D1
  8
0
 10
24.691199999999998
 20
73.0
 30
0.0
 11
24.897099999999998
 21
73.096199999999996
 31
0.0
  0
LINE
  5
D2
  8
0
 10
24.444099999999992
 20
73.0
 30
0.0
 11
24.691199999999998
 21
73.0
 31
0.0
  0
LINE
  5
D3
  8
0
 10
21.438199999999991
 20
73.096199999999996
 30
0.0
 11
22.8794
 21
73.096199999999996
 31
0.0
  0
LINE
  5
D4
  8
0
 10
19.770600000000002
 20
73.096199999999996
 30
0.0
 11
21.438199999999991
 21
73.096199999999996
 31
0.0
  0
LINE
  5
D5
  8
0
 10
22.8794
 20
73.096199999999996
 30
0.0
 11
23.970600000000001
 21
73.096199999999996
 31
0.0
  0
LINE
  5
D6
  8
0
 10
23.970600000000001
 20
73.096199999999996
 30
0.0
 11
24.649999999999991
 21
73.096199999999996
 31
0.0
  0
LINE
  5
D7
  8
0
 10
22.941199999999991
 20
75.0
 30
0.0
 11
24.052900000000001
 21
75.0
 31
0.0
  0
LINE
  5
D8
  8
0
 10
24.649999999999991
 20
73.096199999999996
 30
0.0
 11
24.897099999999998
 21
73.096199999999996
 31
0.0
  0
LINE
  5
D9
  8
0
 10
24.052900000000001
 20
75.0
 30
0.0
 11
24.7529
 21
75.0
 31
0.0
  0
LINE
  5
DA
  8
0
 10
24.7529
 20
75.0
 30
0.0
 11
25.0
 21
75.0
 31
0.0
  0
LINE
  5
DB
  8
0
 10
21.479399999999991
 20
75.0
 30
0.0
 11
22.941199999999991
 21
75.0
 31
0.0
  0
LINE
  5
DC
  8
0
 10
19.791199999999989
 20
75.0
 30
0.0
 11
21.479399999999991
 21
75.0
 31
0.0
  0
LINE
  5
DD
  8
0
 10
25.0
 20
73.288499999999999
 30
0.0
 11
25.0
 21
75.0
 31
0.0
  0
LINE
  5
DE
  8
0
 10
24.897099999999998
 20
73.096199999999996
 30
0.0
 11
25.0
 21
73.288499999999999
 31
0.0
  0
LINE
  5
DF
  8
0
 10
21.335299999999989
 20
73.0
 30
0.0
 11
22.735299999999999
 21
73.0
 31
0.0
  0
LINE
  5
E0
  8
0
 10
19.729399999999991
 20
73.0
 30
0.0
 11
21.335299999999989
 21
73.0
 31
0.0
  0
LINE
  5
E1
  8
0
 10
34.0
 20
70.0
 30
0.0
 11
34.0
 21
77.888000000000005
 31
0.0
  0
LINE
  5
E2
  8
0
 10
34.0
 20
70.0
 30
0.0
 11
35.337600000000002
 21
70.0
 31
0.0
  0
LINE
  5
E3
  8
0
 10
18.0
 20
75.0
 30
0.0
 11
38.424452830188699
 21
75.0
 31
0.0
  0
LINE
  5
E4
  8
0
 10
18.0
 20
75.0
 30
0.0
 11
19.791199999999989
 21
75.0
 31
0.0
  0
LINE
  5
E5
  8
0
 10
25.0
 20
80.0
 30
0.0
 11
25.0
 21
81.711500000000001
 31
0.0
  0
LINE
  5
E6
  8
0
 10
34.0
 20
77.888000000000005
 30
0.0
 11
42.063999999999993
 21
77.888000000000005
 31
0.0
  0
LINE
  5
E7
  8
0
 10
34.0
 20
77.888000000000005
 30
0.0
 11
34.0
 21
70.0
 31
0.0
  0
LINE
  5
E8
  8
0
 10
18.0
 20
80.0
 30
0.0
 11
50.0
 21
80.0
 31
0.0
  0
LINE
  5
E9
  8
0
 10
25.0
 20
75.0
 30
0.0
 11
34.0
 21
75.0
 31
0.0
  0
LINE
  5
EA
  8
0
 10
25.0
 20
75.0
 30
0.0
 11
25.0
 21
73.288499999999999
 31
0.0
  0
LINE
  5
EB
  8
0
 10
15.44
 20
75.0
 30
0.0
 11
18.0
 21
75.0
 31
0.0
  0
LINE
  5
EC
  8
0
 10
16.270589999999999
 20
82.0
 30
0.0
 11
18.0
 21
82.0
 31
0.0
  0
LINE
  5
ED
  8
0
 10
16.229410000000001
 20
81.903800000000004
 30
0.0
 11
18.0
 21
81.903800000000004
 31
0.0
  0
LINE
  5
EE
  8
0
 10
18.0
 20
82.0
 30
0.0
 11
19.729399999999991
 21
82.0
 31
0.0
  0
LINE
  5
EF
  8
0
 10
22.8794
 20
81.903800000000004
 30
0.0
 11
23.970600000000001
 21
81.903800000000004
 31
0.0
  0
LINE
  5
F0
  8
0
 10
23.970600000000001
 20
81.903800000000004
 30
0.0
 11
24.649999999999991
 21
81.903800000000004
 31
0.0
  0
LINE
  5
F1
  8
0
 10
24.649999999999991
 20
81.903800000000004
 30
0.0
 11
24.897099999999998
 21
81.903800000000004
 31
0.0
  0
LINE
  5
F2
  8
0
 10
21.438199999999991
 20
81.903800000000004
 30
0.0
 11
22.8794
 21
81.903800000000004
 31
0.0
  0
LINE
  5
F3
  8
0
 10
22.735299999999999
 20
82.0
 30
0.0
 11
23.785299999999999
 21
82.0
 31
0.0
  0
LINE
  5
F4
  8
0
 10
23.785299999999999
 20
82.0
 30
0.0
 11
24.444099999999992
 21
82.0
 31
0.0
  0
LINE
  5
F5
  8
0
 10
24.444099999999992
 20
82.0
 30
0.0
 11
24.691199999999998
 21
82.0
 31
0.0
  0
LINE
  5
F6
  8
0
 10
21.335299999999989
 20
82.0
 30
0.0
 11
22.735299999999999
 21
82.0
 31
0.0
  0
LINE
  5
F7
  8
0
 10
19.729399999999991
 20
82.0
 30
0.0
 11
21.335299999999989
 21
82.0
 31
0.0
  0
LINE
  5
F8
  8
0
 10
19.770600000000002
 20
81.903800000000004
 30
0.0
 11
21.438199999999991
 21
81.903800000000004
 31
0.0
  0
LINE
  5
F9
  8
0
 10
18.0
 20
81.903800000000004
 30
0.0
 11
19.770600000000002
 21
81.903800000000004
 31
0.0
  0
LINE
  5
FA
  8
0
 10
24.691199999999998
 20
82.0
 30
0.0
 11
24.897099999999998
 21
81.903800000000004
 31
0.0
  0
LINE
  5
FB
  8
0
 10
25.0
 20
81.711500000000001
 30
0.0
 11
25.0
 21
80.0
 31
0.0
  0
LINE
  5
FC
  8
0
 10
24.897099999999998
 20
81.903800000000004
 30
0.0
 11
25.0
 21
81.711500000000001
 31
0.0
  0
LINE
  5
FD
  8
0
 10
15.44
 20
80.0
 30
0.0
 11
18.0
 21
80.0
 31
0.0
  0
LINE
  5
FE
  8
0
 10
15.0
 20
48.0
 30
0.0
 11
15.0
 21
46.612000000000002
 31
0.0
  0
LINE
  5
FF
  8
0
 10
15.0
 20
48.0
 30
0.0
 11
15.0
 21
48.539999999999999
 31
0.0
  0
LINE
  5
100
  8
0
 10
15.0
 20
46.612000000000002
 30
0.0
 11
15.0
 21
48.0
 31
0.0
  0
LINE
  5
101
  8
0
 10
15.0
 20
46.612000000000002
 30
0.0
 11
15.0
 21
46.0
 31
0.0
  0
LINE
  5
102
  8
0
 10
15.0
 20
46.612000000000002
 30
0.0
 11
15.0
 21
48.244
 31
0.0
  0
LINE
  5
103
  8
0
 10
36.847999999999999
 20
4.9999999999999902
 30
0.0
 11
39.088000000000001
 21
4.9999999999999902
 31
0.0
  0
LINE
  5
104
  8
0
 10
37.46159999999999
 20
1.23759999999999
 30
0.0
 11
38.6616
 21
1.12869999999999
 31
0.0
  0
LINE
  5
105
  8
0
 10
37.0
 20
1.33659999999999
 30
0.0
 11
37.923099999999998
 21
1.633699999999989
 31
0.0
  0
LINE
  5
106
  8
0
 10
37.0
 20
1.33659999999999
 30
0.0
 11
37.46159999999999
 21
1.23759999999999
 31
0.0
  0
LINE
  5
107
  8
0
 10
37.0
 20
1.33659999999999
 30
0.0
 11
37.923099999999998
 21
1.0395999999999901
 31
0.0
  0
LINE
  5
108
  8
0
 10
37.46159999999999
 20
2.6237999999999899
 30
0.0
 11
38.6616
 21
2.5148999999999901
 31
0.0
  0
LINE
  5
109
  8
0
 10
37.46159999999999
 20
4.0098999999999902
 30
0.0
 11
38.6616
 21
3.90099999999999
 31
0.0
  0
LINE
  5
10A
  8
0
 10
37.0
 20
4.1088999999999896
 30
0.0
 11
37.923099999999998
 21
4.4058999999999902
 31
0.0
  0
LINE
  5
10B
  8
0
 10
37.0
 20
4.1088999999999896
 30
0.0
 11
37.46159999999999
 21
4.0098999999999902
 31
0.0
  0
LINE
  5
10C
  8
0
 10
37.0
 20
4.1088999999999896
 30
0.0
 11
37.923099999999998
 21
3.8118999999999899
 31
0.0
  0
LINE
  5
10D
  8
0
 10
37.0
 20
2.7227999999999901
 30
0.0
 11
37.923099999999998
 21
3.0197999999999898
 31
0.0
  0
LINE
  5
10E
  8
0
 10
37.0
 20
2.7227999999999901
 30
0.0
 11
37.46159999999999
 21
2.6237999999999899
 31
0.0
  0
LINE
  5
10F
  8
0
 10
37.0
 20
2.7227999999999901
 30
0.0
 11
37.923099999999998
 21
2.4256999999999902
 31
0.0
  0
LINE
  5
110
  8
0
 10
36.847999999999999
 20
4.9999999999999902
 30
0.0
 11
37.923099999999998
 21
4.9999999999999902
 31
0.0
  0
LINE
  5
111
  8
0
 10
37.67199999999999
 20
28.0
 30
0.0
 11
41.063999999999993
 21
28.0
 31
0.0
  0
LINE
  5
112
  8
0
 10
36.35199999999999
 20
28.0
 30
0.0
 11
38.683399999999992
 21
28.0
 31
0.0
  0
LINE
  5
113
  8
0
 10
36.97999999999999
 20
56.560000000000002
 30
0.0
 11
39.380000000000003
 21
53.380000000000003
 31
0.0
  0
LINE
  5
114
  8
0
 10
36.111999999999988
 20
56.063999999999993
 30
0.0
 11
38.671999999999997
 21
52.67199999999999
 31
0.0
  0
LINE
  5
115
  8
0
 10
36.963999999999999
 20
28.0
 30
0.0
 11
40.567999999999998
 21
28.0
 31
0.0
  0
LINE
  5
116
  8
0
 10
37.923099999999998
 20
-0.0000000000000057
 30
0.0
 11
38.29229999999999
 21
-0.0000000000000057
 31
0.0
  0
LINE
  5
117
  8
0
 10
37.923099999999998
 20
-0.0000000000000057
 30
0.0
 11
38.29229999999999
 21
-0.0000000000000063
 31
0.0
  0
LINE
  5
118
  8
0
 10
37.923099999999998
 20
-0.0000000000000057
 30
0.0
 11
37.923099999999998
 21
1.0395999999999901
 31
0.0
  0
LINE
  5
119
  8
0
 10
37.923099999999998
 20
1.0395999999999901
 30
0.0
 11
37.923099999999998
 21
-0.0000000000000057
 31
0.0
  0
LINE
  5
11A
  8
0
 10
37.923099999999998
 20
1.0395999999999901
 30
0.0
 11
38.29229999999999
 21
0.940599999999994
 31
0.0
  0
LINE
  5
11B
  8
0
 10
37.923099999999998
 20
1.633699999999989
 30
0.0
 11
38.29229999999999
 21
1.53469999999999
 31
0.0
  0
LINE
  5
11C
  8
0
 10
37.923099999999998
 20
1.633699999999989
 30
0.0
 11
37.923099999999998
 21
2.4256999999999902
 31
0.0
  0
LINE
  5
11D
  8
0
 10
37.923099999999998
 20
3.0197999999999898
 30
0.0
 11
37.923099999999998
 21
3.8118999999999899
 31
0.0
  0
LINE
  5
11E
  8
0
 10
37.923099999999998
 20
4.9999999999999902
 30
0.0
 11
37.923099999999998
 21
4.4058999999999902
 31
0.0
  0
LINE
  5
11F
  8
0
 10
37.923099999999998
 20
4.9999999999999902
 30
0.0
 11
38.29229999999999
 21
4.9999999999999902
 31
0.0
  0
LINE
  5
120
  8
0
 10
37.923099999999998
 20
3.8118999999999899
 30
0.0
 11
38.29229999999999
 21
3.7128999999999901
 31
0.0
  0
LINE
  5
121
  8
0
 10
37.923099999999998
 20
3.8118999999999899
 30
0.0
 11
37.923099999999998
 21
3.0197999999999898
 31
0.0
  0
LINE
  5
122
  8
0
 10
37.923099999999998
 20
4.4058999999999902
 30
0.0
 11
38.29229999999999
 21
4.30689999999999
 31
0.0
  0
LINE
  5
123
  8
0
 10
37.923099999999998
 20
4.4058999999999902
 30
0.0
 11
37.923099999999998
 21
4.9999999999999902
 31
0.0
  0
LINE
  5
124
  8
0
 10
37.923099999999998
 20
2.4256999999999902
 30
0.0
 11
38.29229999999999
 21
2.3266999999999891
 31
0.0
  0
LINE
  5
125
  8
0
 10
37.923099999999998
 20
2.4256999999999902
 30
0.0
 11
37.923099999999998
 21
1.633699999999989
 31
0.0
  0
LINE
  5
126
  8
0
 10
38.29229999999999
 20
-0.0000000000000063
 30
0.0
 11
39.399999999999991
 21
-0.0000000000000063
 31
0.0
  0
LINE
  5
127
  8
0
 10
38.29229999999999
 20
-0.0000000000000057
 30
0.0
 11
39.399999999999991
 21
-0.0000000000000057
 31
0.0
  0
LINE
  5
128
  8
0
 10
38.29229999999999
 20
0.940599999999994
 30
0.0
 11
39.399999999999991
 21
0.8415999999999948
 31
0.0
  0
LINE
  5
129
  8
0
 10
38.5
 20
-0.0000000000000057
 30
0.0
 11
38.878
 21
-0.0000000000000063
 31
0.0
  0
LINE
  5
12A
  8
0
 10
38.5
 20
-0.0000000000000057
 30
0.0
 11
38.878
 21
-0.0000000000000057
 31
0.0
  0
LINE
  5
12B
  8
0
 10
38.6616
 20
1.12869999999999
 30
0.0
 11
40.507699999999993
 21
1.069299999999999
 31
0.0
  0
LINE
  5
12C
  8
0
 10
38.29229999999999
 20
1.53469999999999
 30
0.0
 11
39.399999999999991
 21
1.4355999999999891
 31
0.0
  0
LINE
  5
12D
  8
0
 10
38.29229999999999
 20
2.3266999999999891
 30
0.0
 11
39.399999999999991
 21
2.2276999999999898
 31
0.0
  0
LINE
  5
12E
  8
0
 10
38.878
 20
-0.0000000000000057
 30
0.0
 11
39.885999999999989
 21
-0.0000000000000057
 31
0.0
  0
LINE
  5
12F
  8
0
 10
38.878
 20
-0.0000000000000063
 30
0.0
 11
39.885999999999989
 21
-0.0000000000000063
 31
0.0
  0
LINE
  5
130
  8
0
 10
39.399999999999991
 20
-0.0000000000000063
 30
0.0
 11
40.230699999999992
 21
-0.0000000000000063
 31
0.0
  0
LINE
  5
131
  8
0
 10
39.399999999999991
 20
-0.0000000000000063
 30
0.0
 11
41.1539
 21
-0.0000000000000063
 31
0.0
  0
LINE
  5
132
  8
0
 10
39.399999999999991
 20
-0.0000000000000057
 30
0.0
 11
40.230699999999992
 21
-0.0000000000000057
 31
0.0
  0
LINE
  5
133
  8
0
 10
39.399999999999991
 20
-0.0000000000000057
 30
0.0
 11
41.1539
 21
-0.0000000000000057
 31
0.0
  0
LINE
  5
134
  8
0
 10
38.8461
 20
-0.0000000000000057
 30
0.0
 11
39.399999999999991
 21
-0.0000000000000057
 31
0.0
  0
LINE
  5
135
  8
0
 10
38.8461
 20
-0.0000000000000057
 30
0.0
 11
39.399999999999991
 21
-0.0000000000000063
 31
0.0
  0
LINE
  5
136
  8
0
 10
39.399999999999991
 20
0.8415999999999948
 30
0.0
 11
41.1539
 21
0.792099999999995
 31
0.0
  0
LINE
  5
137
  8
0
 10
39.885999999999989
 20
-0.0000000000000063
 30
0.0
 11
41.566000000000003
 21
-0.0000000000000063
 31
0.0
  0
LINE
  5
138
  8
0
 10
39.885999999999989
 20
-0.0000000000000057
 30
0.0
 11
41.566000000000003
 21
-0.0000000000000057
 31
0.0
  0
LINE
  5
139
  8
0
 10
40.230699999999992
 20
-0.0000000000000063
 30
0.0
 11
41.79999999999999
 21
-0.0000000000000063
 31
0.0
  0
LINE
  5
13A
  8
0
 10
40.230699999999992
 20
-0.0000000000000057
 30
0.0
 11
41.79999999999999
 21
-0.0000000000000057
 31
0.0
  0
LINE
  5
13B
  8
0
 10
40.507699999999993
 20
1.069299999999999
 30
0.0
 11
43.0
 21
1.01979999999999
 31
0.0
  0
LINE
  5
13C
  8
0
 10
39.399999999999991
 20
1.4355999999999891
 30
0.0
 11
41.1539
 21
1.386099999999989
 31
0.0
  0
LINE
  5
13D
  8
0
 10
39.399999999999991
 20
2.2276999999999898
 30
0.0
 11
41.1539
 21
2.1781999999999888
 31
0.0
  0
LINE
  5
13E
  8
0
 10
40.507699999999993
 20
2.4553999999999898
 30
0.0
 11
43.0
 21
2.4058999999999902
 31
0.0
  0
LINE
  5
13F
  8
0
 10
39.399999999999991
 20
2.8217999999999899
 30
0.0
 11
41.1539
 21
2.7722999999999902
 31
0.0
  0
LINE
  5
140
  8
0
 10
38.6616
 20
2.5148999999999901
 30
0.0
 11
40.507699999999993
 21
2.4553999999999898
 31
0.0
  0
LINE
  5
141
  8
0
 10
38.29229999999999
 20
4.9999999999999902
 30
0.0
 11
39.399999999999991
 21
4.9999999999999902
 31
0.0
  0
LINE
  5
142
  8
0
 10
38.29229999999999
 20
3.7128999999999901
 30
0.0
 11
39.399999999999991
 21
3.6138999999999899
 31
0.0
  0
LINE
  5
143
  8
0
 10
39.399999999999991
 20
3.6138999999999899
 30
0.0
 11
41.1539
 21
3.5643999999999898
 31
0.0
  0
LINE
  5
144
  8
0
 10
40.507699999999993
 20
3.8415999999999899
 30
0.0
 11
43.0
 21
3.7921
 31
0.0
  0
LINE
  5
145
  8
0
 10
39.399999999999991
 20
4.9999999999999902
 30
0.0
 11
41.1539
 21
4.9504999999999901
 31
0.0
  0
LINE
  5
146
  8
0
 10
39.399999999999991
 20
4.9999999999999902
 30
0.0
 11
41.038499999999999
 21
4.9999999999999902
 31
0.0
  0
LINE
  5
147
  8
0
 10
41.038499999999999
 20
4.9999999999999902
 30
0.0
 11
43.296700000000001
 21
4.9999999999999902
 31
0.0
  0
LINE
  5
148
  8
0
 10
39.399999999999991
 20
4.2078999999999898
 30
0.0
 11
41.1539
 21
4.1583999999999897
 31
0.0
  0
LINE
  5
149
  8
0
 10
38.6616
 20
3.90099999999999
 30
0.0
 11
40.507699999999993
 21
3.8415999999999899
 31
0.0
  0
LINE
  5
14A
  8
0
 10
38.29229999999999
 20
4.30689999999999
 30
0.0
 11
39.399999999999991
 21
4.2078999999999898
 31
0.0
  0
LINE
  5
14B
  8
0
 10
38.29229999999999
 20
2.9207999999999901
 30
0.0
 11
39.399999999999991
 21
2.8217999999999899
 31
0.0
  0
LINE
  5
14C
  8
0
 10
37.923099999999998
 20
3.0197999999999898
 30
0.0
 11
38.29229999999999
 21
2.9207999999999901
 31
0.0
  0
LINE
  5
14D
  8
0
 10
39.088000000000001
 20
4.9999999999999902
 30
0.0
 11
42.055999999999997
 21
4.9999999999999902
 31
0.0
  0
LINE
  5
14E
  8
0
 10
41.1539
 20
-0.0000000000000063
 30
0.0
 11
43.461599999999997
 21
-0.0000000000000063
 31
0.0
  0
LINE
  5
14F
  8
0
 10
41.1539
 20
-0.0000000000000057
 30
0.0
 11
43.461599999999997
 21
-0.0000000000000051
 31
0.0
  0
LINE
  5
150
  8
0
 10
41.1539
 20
0.792099999999995
 30
0.0
 11
43.461599999999997
 21
0.742599999999995
 31
0.0
  0
LINE
  5
151
  8
0
 10
41.1539
 20
1.386099999999989
 30
0.0
 11
43.461599999999997
 21
1.33659999999999
 31
0.0
  0
LINE
  5
152
  8
0
 10
41.566000000000003
 20
-0.0000000000000057
 30
0.0
 11
43.791999999999987
 21
-0.0000000000000051
 31
0.0
  0
LINE
  5
153
  8
0
 10
41.566000000000003
 20
-0.0000000000000063
 30
0.0
 11
43.791999999999987
 21
-0.0000000000000063
 31
0.0
  0
LINE
  5
154
  8
0
 10
41.1539
 20
2.1781999999999888
 30
0.0
 11
43.461599999999997
 21
2.12869999999999
 31
0.0
  0
LINE
  5
155
  8
0
 10
41.1539
 20
4.9504999999999901
 30
0.0
 11
43.461599999999997
 21
4.90099999999999
 31
0.0
  0
LINE
  5
156
  8
0
 10
41.1539
 20
3.5643999999999898
 30
0.0
 11
43.461599999999997
 21
3.5148999999999901
 31
0.0
  0
LINE
  5
157
  8
0
 10
41.1539
 20
4.1583999999999897
 30
0.0
 11
43.461599999999997
 21
4.1088999999999896
 31
0.0
  0
LINE
  5
158
  8
0
 10
41.1539
 20
2.7722999999999902
 30
0.0
 11
43.461599999999997
 21
2.7227999999999901
 31
0.0
  0
LINE
  5
159
  8
0
 10
41.063999999999993
 20
28.0
 30
0.0
 11
44.904000000000003
 21
28.0
 31
0.0
  0
LINE
  5
15A
  8
0
 10
38.683399999999992
 20
28.0
 30
0.0
 11
41.77259999999999
 21
28.0
 31
0.0
  0
LINE
  5
15B
  8
0
 10
41.79999999999999
 20
-0.0000000000000063
 30
0.0
 11
43.923099999999998
 21
-0.0000000000000063
 31
0.0
  0
LINE
  5
15C
  8
0
 10
41.79999999999999
 20
-0.0000000000000057
 30
0.0
 11
43.923099999999998
 21
-0.0000000000000051
 31
0.0
  0
LINE
  5
15D
  8
0
 10
43.0
 20
1.01979999999999
 30
0.0
 11
45.861600000000003
 21
0.9999999999999948
 31
0.0
  0
LINE
  5
15E
  8
0
 10
43.0
 20
3.7921
 30
0.0
 11
45.861600000000003
 21
3.7722999999999902
 31
0.0
  0
LINE
  5
15F
  8
0
 10
43.0
 20
2.4058999999999902
 30
0.0
 11
45.861600000000003
 21
2.386099999999999
 31
0.0
  0
LINE
  5
160
  8
0
 10
42.055999999999997
 20
4.9999999999999902
 30
0.0
 11
45.415999999999997
 21
4.9999999999999902
 31
0.0
  0
LINE
  5
161
  8
0
 10
41.77259999999999
 20
28.0
 30
0.0
 11
45.2697
 21
28.0
 31
0.0
  0
LINE
  5
162
  8
0
 10
42.560000000000002
 20
50.97999999999999
 30
0.0
 11
46.159999999999989
 21
49.539999999999999
 31
0.0
  0
LINE
  5
163
  8
0
 10
39.380000000000003
 20
53.380000000000003
 30
0.0
 11
42.560000000000002
 21
50.97999999999999
 31
0.0
  0
LINE
  5
164
  8
0
 10
42.063999999999993
 20
50.111999999999988
 30
0.0
 11
45.903999999999989
 21
48.576000000000001
 31
0.0
  0
LINE
  5
165
  8
0
 10
38.671999999999997
 20
52.67199999999999
 30
0.0
 11
42.063999999999993
 21
50.111999999999988
 31
0.0
  0
LINE
  5
166
  8
0
 10
40.567999999999998
 20
28.0
 30
0.0
 11
44.648000000000003
 21
28.0
 31
0.0
  0
LINE
  5
167
  8
0
 10
43.461599999999997
 20
-0.0000000000000063
 30
0.0
 11
46.13839999999999
 21
-0.0000000000000068
 31
0.0
  0
LINE
  5
168
  8
0
 10
43.461599999999997
 20
-0.0000000000000051
 30
0.0
 11
46.13839999999999
 21
-0.0000000000000051
 31
0.0
  0
LINE
  5
169
  8
0
 10
43.461599999999997
 20
0.742599999999995
 30
0.0
 11
46.13839999999999
 21
0.712899999999995
 31
0.0
  0
LINE
  5
16A
  8
0
 10
43.461599999999997
 20
1.33659999999999
 30
0.0
 11
46.13839999999999
 21
1.3068999999999891
 31
0.0
  0
LINE
  5
16B
  8
0
 10
43.791999999999987
 20
-0.0000000000000051
 30
0.0
 11
46.311999999999991
 21
-0.0000000000000051
 31
0.0
  0
LINE
  5
16C
  8
0
 10
43.791999999999987
 20
-0.0000000000000063
 30
0.0
 11
46.311999999999991
 21
-0.0000000000000063
 31
0.0
  0
LINE
  5
16D
  8
0
 10
43.923099999999998
 20
-0.0000000000000063
 30
0.0
 11
46.415399999999991
 21
-0.0000000000000063
 31
0.0
  0
LINE
  5
16E
  8
0
 10
43.923099999999998
 20
-0.0000000000000051
 30
0.0
 11
46.415399999999991
 21
-0.0000000000000051
 31
0.0
  0
LINE
  5
16F
  8
0
 10
43.461599999999997
 20
2.12869999999999
 30
0.0
 11
46.13839999999999
 21
2.0989999999999891
 31
0.0
  0
LINE
  5
170
  8
0
 10
43.461599999999997
 20
4.90099999999999
 30
0.0
 11
46.13839999999999
 21
4.87129999999999
 31
0.0
  0
LINE
  5
171
  8
0
 10
43.296700000000001
 20
4.9999999999999902
 30
0.0
 11
46.014299999999992
 21
4.9999999999999902
 31
0.0
  0
LINE
  5
172
  8
0
 10
43.461599999999997
 20
3.5148999999999901
 30
0.0
 11
46.13839999999999
 21
3.4850999999999899
 31
0.0
  0
LINE
  5
173
  8
0
 10
43.461599999999997
 20
4.1088999999999896
 30
0.0
 11
46.13839999999999
 21
4.0791999999999904
 31
0.0
  0
LINE
  5
174
  8
0
 10
43.461599999999997
 20
2.7227999999999901
 30
0.0
 11
46.13839999999999
 21
2.6930999999999901
 31
0.0
  0
LINE
  5
175
  8
0
 10
46.311999999999991
 20
-0.0000000000000051
 30
0.0
 11
49.0
 21
-0.0000000000000051
 31
0.0
  0
LINE
  5
176
  8
0
 10
46.311999999999991
 20
-0.0000000000000063
 30
0.0
 11
49.0
 21
-0.0000000000000068
 31
0.0
  0
LINE
  5
177
  8
0
 10
46.13839999999999
 20
-0.0000000000000068
 30
0.0
 11
49.0
 21
-0.0000000000000068
 31
0.0
  0
LINE
  5
178
  8
0
 10
46.415399999999991
 20
-0.0000000000000063
 30
0.0
 11
49.0
 21
-0.0000000000000063
 31
0.0
  0
LINE
  5
179
  8
0
 10
46.13839999999999
 20
-0.0000000000000051
 30
0.0
 11
49.0
 21
-0.0000000000000051
 31
0.0
  0
LINE
  5
17A
  8
0
 10
49.0
 20
-0.0000000000000068
 30
0.0
 11
51.861600000000003
 21
-0.0000000000000068
 31
0.0
  0
LINE
  5
17B
  8
0
 10
49.0
 20
-0.0000000000000068
 30
0.0
 11
51.688000000000002
 21
-0.0000000000000063
 31
0.0
  0
LINE
  5
17C
  8
0
 10
49.0
 20
-0.0000000000000063
 30
0.0
 11
51.584600000000002
 21
-0.0000000000000063
 31
0.0
  0
LINE
  5
17D
  8
0
 10
49.0
 20
-0.0000000000000051
 30
0.0
 11
51.584600000000002
 21
-0.0000000000000051
 31
0.0
  0
LINE
  5
17E
  8
0
 10
49.0
 20
-0.0000000000000051
 30
0.0
 11
51.861600000000003
 21
-0.0000000000000051
 31
0.0
  0
LINE
  5
17F
  8
0
 10
49.0
 20
-0.0000000000000051
 30
0.0
 11
51.688000000000002
 21
-0.0000000000000051
 31
0.0
  0
LINE
  5
180
  8
0
 10
46.415399999999991
 20
-0.0000000000000051
 30
0.0
 11
49.0
 21
-0.0000000000000051
 31
0.0
  0
LINE
  5
181
  8
0
 10
46.13839999999999
 20
0.712899999999995
 30
0.0
 11
49.0
 21
0.6930999999999951
 31
0.0
  0
LINE
  5
182
  8
0
 10
46.13839999999999
 20
1.3068999999999891
 30
0.0
 11
49.0
 21
1.287099999999999
 31
0.0
  0
LINE
  5
183
  8
0
 10
45.861600000000003
 20
0.9999999999999948
 30
0.0
 11
49.0
 21
0.990099999999995
 31
0.0
  0
LINE
  5
184
  8
0
 10
49.0
 20
1.287099999999999
 30
0.0
 11
51.861600000000003
 21
1.2672999999999901
 31
0.0
  0
LINE
  5
185
  8
0
 10
49.0
 20
0.6930999999999951
 30
0.0
 11
51.861600000000003
 21
0.6732999999999949
 31
0.0
  0
LINE
  5
186
  8
0
 10
49.0
 20
0.990099999999995
 30
0.0
 11
52.138399999999997
 21
0.9801999999999949
 31
0.0
  0
LINE
  5
187
  8
0
 10
46.13839999999999
 20
2.0989999999999891
 30
0.0
 11
49.0
 21
2.0791999999999891
 31
0.0
  0
LINE
  5
188
  8
0
 10
46.13839999999999
 20
3.4850999999999899
 30
0.0
 11
49.0
 21
3.4652999999999898
 31
0.0
  0
LINE
  5
189
  8
0
 10
46.13839999999999
 20
4.87129999999999
 30
0.0
 11
49.0
 21
4.8514999999999899
 31
0.0
  0
LINE
  5
18A
  8
0
 10
46.014299999999992
 20
4.9999999999999902
 30
0.0
 11
49.0
 21
4.9999999999999902
 31
0.0
  0
LINE
  5
18B
  8
0
 10
46.13839999999999
 20
4.0791999999999904
 30
0.0
 11
49.0
 21
4.0593999999999903
 31
0.0
  0
LINE
  5
18C
  8
0
 10
45.861600000000003
 20
3.7722999999999902
 30
0.0
 11
49.0
 21
3.7623999999999902
 31
0.0
  0
LINE
  5
18D
  8
0
 10
49.0
 20
3.4652999999999898
 30
0.0
 11
51.861600000000003
 21
3.4454999999999898
 31
0.0
  0
LINE
  5
18E
  8
0
 10
49.0
 20
4.8514999999999899
 30
0.0
 11
51.861600000000003
 21
4.8316999999999988
 31
0.0
  0
LINE
  5
18F
  8
0
 10
49.0
 20
4.0593999999999903
 30
0.0
 11
51.861600000000003
 21
4.0395999999999903
 31
0.0
  0
LINE
  5
190
  8
0
 10
49.0
 20
3.7623999999999902
 30
0.0
 11
52.138399999999997
 21
3.7524999999999902
 31
0.0
  0
LINE
  5
191
  8
0
 10
46.13839999999999
 20
2.6930999999999901
 30
0.0
 11
49.0
 21
2.6732999999999989
 31
0.0
  0
LINE
  5
192
  8
0
 10
45.861600000000003
 20
2.386099999999999
 30
0.0
 11
49.0
 21
2.3761999999999901
 31
0.0
  0
LINE
  5
193
  8
0
 10
49.0
 20
2.6732999999999989
 30
0.0
 11
51.861600000000003
 21
2.6534999999999891
 31
0.0
  0
LINE
  5
194
  8
0
 10
49.0
 20
2.0791999999999891
 30
0.0
 11
51.861600000000003
 21
2.059399999999989
 31
0.0
  0
LINE
  5
195
  8
0
 10
49.0
 20
2.3761999999999901
 30
0.0
 11
52.138399999999997
 21
2.3662999999999901
 31
0.0
  0
LINE
  5
196
  8
0
 10
45.415999999999997
 20
4.9999999999999902
 30
0.0
 11
49.0
 21
4.9999999999999902
 31
0.0
  0
LINE
  5
197
  8
0
 10
49.0
 20
4.9999999999999902
 30
0.0
 11
52.583999999999989
 21
4.9999999999999902
 31
0.0
  0
LINE
  5
198
  8
0
 10
49.0
 20
4.9999999999999902
 30
0.0
 11
52.013399999999997
 21
4.9999999999999902
 31
0.0
  0
LINE
  5
199
  8
0
 10
44.904000000000003
 20
28.0
 30
0.0
 11
49.0
 21
28.0
 31
0.0
  0
LINE
  5
19A
  8
0
 10
51.584600000000002
 20
-0.0000000000000063
 30
0.0
 11
54.076900000000002
 21
-0.0000000000000063
 31
0.0
  0
LINE
  5
19B
  8
0
 10
51.688000000000002
 20
-0.0000000000000051
 30
0.0
 11
54.207999999999991
 21
-0.0000000000000051
 31
0.0
  0
LINE
  5
19C
  8
0
 10
51.688000000000002
 20
-0.0000000000000063
 30
0.0
 11
54.207999999999991
 21
-0.0000000000000063
 31
0.0
  0
LINE
  5
19D
  8
0
 10
51.861600000000003
 20
-0.0000000000000068
 30
0.0
 11
54.538499999999999
 21
-0.0000000000000063
 31
0.0
  0
LINE
  5
19E
  8
0
 10
51.861600000000003
 20
-0.0000000000000051
 30
0.0
 11
54.538499999999999
 21
-0.0000000000000051
 31
0.0
  0
LINE
  5
19F
  8
0
 10
51.584600000000002
 20
-0.0000000000000051
 30
0.0
 11
54.076900000000002
 21
-0.0000000000000051
 31
0.0
  0
LINE
  5
1A0
  8
0
 10
51.861600000000003
 20
1.2672999999999901
 30
0.0
 11
54.538499999999999
 21
1.23759999999999
 31
0.0
  0
LINE
  5
1A1
  8
0
 10
51.861600000000003
 20
0.6732999999999949
 30
0.0
 11
54.538499999999999
 21
0.643599999999995
 31
0.0
  0
LINE
  5
1A2
  8
0
 10
51.861600000000003
 20
4.8316999999999988
 30
0.0
 11
54.538499999999999
 21
4.8019999999999898
 31
0.0
  0
LINE
  5
1A3
  8
0
 10
51.861600000000003
 20
4.0395999999999903
 30
0.0
 11
54.538499999999999
 21
4.0098999999999902
 31
0.0
  0
LINE
  5
1A4
  8
0
 10
51.861600000000003
 20
3.4454999999999898
 30
0.0
 11
54.538499999999999
 21
3.4157999999999902
 31
0.0
  0
LINE
  5
1A5
  8
0
 10
51.861600000000003
 20
2.6534999999999891
 30
0.0
 11
54.538499999999999
 21
2.6238000000000001
 31
0.0
  0
LINE
  5
1A6
  8
0
 10
52.138399999999997
 20
0.9801999999999949
 30
0.0
 11
55.0
 21
0.960399999999994
 31
0.0
  0
LINE
  5
1A7
  8
0
 10
52.013399999999997
 20
4.9999999999999902
 30
0.0
 11
54.826900000000002
 21
4.9999999999999902
 31
0.0
  0
LINE
  5
1A8
  8
0
 10
52.138399999999997
 20
3.7524999999999902
 30
0.0
 11
55.0
 21
3.7326999999999901
 31
0.0
  0
LINE
  5
1A9
  8
0
 10
52.138399999999997
 20
2.3662999999999901
 30
0.0
 11
55.0
 21
2.34649999999999
 31
0.0
  0
LINE
  5
1AA
  8
0
 10
51.861600000000003
 20
2.059399999999989
 30
0.0
 11
54.538499999999999
 21
2.029699999999989
 31
0.0
  0
LINE
  5
1AB
  8
0
 10
52.583999999999989
 20
4.9999999999999902
 30
0.0
 11
55.944000000000003
 21
4.9999999999999902
 31
0.0
  0
LINE
  5
1AC
  8
0
 10
53.095999999999997
 20
28.0
 30
0.0
 11
56.936
 21
28.0
 31
0.0
  0
LINE
  5
1AD
  8
0
 10
52.7303
 20
28.0
 30
0.0
 11
56.227400000000003
 21
28.0
 31
0.0
  0
LINE
  5
1AE
  8
0
 10
53.351999999999997
 20
28.0
 30
0.0
 11
57.431999999999988
 21
28.0
 31
0.0
  0
LINE
  5
1AF
  8
0
 10
49.0
 20
28.0
 30
0.0
 11
53.351999999999997
 21
28.0
 31
0.0
  0
LINE
  5
1B0
  8
0
 10
49.0
 20
28.0
 30
0.0
 11
52.7303
 21
28.0
 31
0.0
  0
LINE
  5
1B1
  8
0
 10
49.0
 20
28.0
 30
0.0
 11
53.095999999999997
 21
28.0
 31
0.0
  0
LINE
  5
1B2
  8
0
 10
50.0
 20
49.0
 30
0.0
 11
53.840000000000003
 21
49.539999999999999
 31
0.0
  0
LINE
  5
1B3
  8
0
 10
46.159999999999989
 20
49.539999999999999
 30
0.0
 11
50.0
 21
49.0
 31
0.0
  0
LINE
  5
1B4
  8
0
 10
45.903999999999989
 20
48.576000000000001
 30
0.0
 11
50.0
 21
48.0
 31
0.0
  0
LINE
  5
1B5
  8
0
 10
50.0
 20
48.0
 30
0.0
 11
50.0
 21
36.0
 31
0.0
  0
LINE
  5
1B6
  8
0
 10
50.0
 20
48.0
 30
0.0
 11
54.096000000000011
 21
48.576000000000001
 31
0.0
  0
LINE
  5
1B7
  8
0
 10
50.0
 20
36.0
 30
0.0
 11
50.0
 21
48.0
 31
0.0
  0
LINE
  5
1B8
  8
0
 10
50.0
 20
36.0
 30
0.0
 11
60.0
 21
36.0
 31
0.0
  0
LINE
  5
1B9
  8
0
 10
45.2697
 20
28.0
 30
0.0
 11
49.0
 21
28.0
 31
0.0
  0
LINE
  5
1BA
  8
0
 10
44.648000000000003
 20
28.0
 30
0.0
 11
49.0
 21
28.0
 31
0.0
  0
LINE
  5
1BB
  8
0
 10
50.0
 20
50.0
 30
0.0
 11
53.583999999999989
 21
50.503999999999991
 31
0.0
  0
LINE
  5
1BC
  8
0
 10
54.207999999999991
 20
-0.0000000000000063
 30
0.0
 11
56.43399999999999
 21
-0.0000000000000063
 31
0.0
  0
LINE
  5
1BD
  8
0
 10
54.538499999999999
 20
-0.0000000000000063
 30
0.0
 11
56.846200000000003
 21
-0.0000000000000063
 31
0.0
  0
LINE
  5
1BE
  8
0
 10
54.076900000000002
 20
-0.0000000000000063
 30
0.0
 11
56.200000000000003
 21
-0.0000000000000063
 31
0.0
  0
LINE
  5
1BF
  8
0
 10
56.200000000000003
 20
-0.0000000000000063
 30
0.0
 11
57.769199999999998
 21
-0.0000000000000063
 31
0.0
  0
LINE
  5
1C0
  8
0
 10
56.43399999999999
 20
-0.0000000000000063
 30
0.0
 11
58.11399999999999
 21
-0.0000000000000063
 31
0.0
  0
LINE
  5
1C1
  8
0
 10
58.11399999999999
 20
-0.0000000000000063
 30
0.0
 11
59.122
 21
-0.0000000000000063
 31
0.0
  0
LINE
  5
1C2
  8
0
 10
56.846200000000003
 20
-0.0000000000000063
 30
0.0
 11
58.600000000000001
 21
-0.0000000000000063
 31
0.0
  0
LINE
  5
1C3
  8
0
 10
56.43399999999999
 20
-0.0000000000000057
 30
0.0
 11
58.11399999999999
 21
-0.0000000000000057
 31
0.0
  0
LINE
  5
1C4
  8
0
 10
58.11399999999999
 20
-0.0000000000000057
 30
0.0
 11
59.122
 21
-0.0000000000000057
 31
0.0
  0
LINE
  5
1C5
  8
0
 10
57.769199999999998
 20
-0.0000000000000063
 30
0.0
 11
58.600000000000001
 21
-0.0000000000000063
 31
0.0
  0
LINE
  5
1C6
  8
0
 10
58.600000000000001
 20
-0.0000000000000063
 30
0.0
 11
59.15379999999999
 21
-0.0000000000000057
 31
0.0
  0
LINE
  5
1C7
  8
0
 10
58.600000000000001
 20
-0.0000000000000063
 30
0.0
 11
59.707700000000003
 21
-0.0000000000000063
 31
0.0
  0
LINE
  5
1C8
  8
0
 10
56.846200000000003
 20
-0.0000000000000057
 30
0.0
 11
58.600000000000001
 21
-0.0000000000000057
 31
0.0
  0
LINE
  5
1C9
  8
0
 10
56.200000000000003
 20
-0.0000000000000057
 30
0.0
 11
57.769199999999998
 21
-0.0000000000000057
 31
0.0
  0
LINE
  5
1CA
  8
0
 10
54.207999999999991
 20
-0.0000000000000051
 30
0.0
 11
56.43399999999999
 21
-0.0000000000000057
 31
0.0
  0
LINE
  5
1CB
  8
0
 10
54.538499999999999
 20
-0.0000000000000051
 30
0.0
 11
56.846200000000003
 21
-0.0000000000000057
 31
0.0
  0
LINE
  5
1CC
  8
0
 10
54.076900000000002
 20
-0.0000000000000051
 30
0.0
 11
56.200000000000003
 21
-0.0000000000000057
 31
0.0
  0
LINE
  5
1CD
  8
0
 10
57.769199999999998
 20
-0.0000000000000057
 30
0.0
 11
58.600000000000001
 21
-0.0000000000000057
 31
0.0
  0
LINE
  5
1CE
  8
0
 10
58.600000000000001
 20
-0.0000000000000057
 30
0.0
 11
59.15379999999999
 21
-0.0000000000000057
 31
0.0
  0
LINE
  5
1CF
  8
0
 10
58.600000000000001
 20
-0.0000000000000057
 30
0.0
 11
59.707700000000003
 21
-0.0000000000000057
 31
0.0
  0
LINE
  5
1D0
  8
0
 10
54.538499999999999
 20
1.23759999999999
 30
0.0
 11
56.846200000000003
 21
1.1880999999999891
 31
0.0
  0
LINE
  5
1D1
  8
0
 10
56.846200000000003
 20
1.1880999999999891
 30
0.0
 11
58.600000000000001
 21
1.1385999999999901
 31
0.0
  0
LINE
  5
1D2
  8
0
 10
55.0
 20
0.960399999999994
 30
0.0
 11
57.4923
 21
0.9108999999999941
 31
0.0
  0
LINE
  5
1D3
  8
0
 10
54.538499999999999
 20
0.643599999999995
 30
0.0
 11
56.846200000000003
 21
0.5940999999999941
 31
0.0
  0
LINE
  5
1D4
  8
0
 10
58.600000000000001
 20
1.1385999999999901
 30
0.0
 11
59.707700000000003
 21
1.0395999999999901
 31
0.0
  0
LINE
  5
1D5
  8
0
 10
57.4923
 20
0.9108999999999941
 30
0.0
 11
59.338500000000003
 21
0.851499999999994
 31
0.0
  0
LINE
  5
1D6
  8
0
 10
56.846200000000003
 20
0.5940999999999941
 30
0.0
 11
58.600000000000001
 21
0.544599999999994
 31
0.0
  0
LINE
  5
1D7
  8
0
 10
58.600000000000001
 20
0.544599999999994
 30
0.0
 11
59.707700000000003
 21
0.4454999999999951
 31
0.0
  0
LINE
  5
1D8
  8
0
 10
54.538499999999999
 20
4.8019999999999898
 30
0.0
 11
56.846200000000003
 21
4.7524999999999897
 31
0.0
  0
LINE
  5
1D9
  8
0
 10
54.538499999999999
 20
4.0098999999999902
 30
0.0
 11
56.846200000000003
 21
3.960399999999999
 31
0.0
  0
LINE
  5
1DA
  8
0
 10
54.826900000000002
 20
4.9999999999999902
 30
0.0
 11
57.350999999999999
 21
4.9999999999999902
 31
0.0
  0
LINE
  5
1DB
  8
0
 10
55.0
 20
3.7326999999999901
 30
0.0
 11
57.4923
 21
3.68319999999999
 31
0.0
  0
LINE
  5
1DC
  8
0
 10
54.538499999999999
 20
3.4157999999999902
 30
0.0
 11
56.846200000000003
 21
3.366299999999999
 31
0.0
  0
LINE
  5
1DD
  8
0
 10
54.538499999999999
 20
2.6238000000000001
 30
0.0
 11
56.846200000000003
 21
2.5742999999999898
 31
0.0
  0
LINE
  5
1DE
  8
0
 10
56.846200000000003
 20
4.7524999999999897
 30
0.0
 11
58.600000000000001
 21
4.7029999999999896
 31
0.0
  0
LINE
  5
1DF
  8
0
 10
56.846200000000003
 20
3.960399999999999
 30
0.0
 11
58.600000000000001
 21
3.9108999999999901
 31
0.0
  0
LINE
  5
1E0
  8
0
 10
57.350999999999999
 20
4.9999999999999902
 30
0.0
 11
59.314599999999999
 21
4.9999999999999902
 31
0.0
  0
LINE
  5
1E1
  8
0
 10
57.4923
 20
3.68319999999999
 30
0.0
 11
59.338500000000003
 21
3.6237999999999899
 31
0.0
  0
LINE
  5
1E2
  8
0
 10
56.846200000000003
 20
3.366299999999999
 30
0.0
 11
58.600000000000001
 21
3.31679999999999
 31
0.0
  0
LINE
  5
1E3
  8
0
 10
56.846200000000003
 20
2.5742999999999898
 30
0.0
 11
58.600000000000001
 21
2.5247999999999902
 31
0.0
  0
LINE
  5
1E4
  8
0
 10
55.0
 20
2.34649999999999
 30
0.0
 11
57.4923
 21
2.2969999999999899
 31
0.0
  0
LINE
  5
1E5
  8
0
 10
54.538499999999999
 20
2.029699999999989
 30
0.0
 11
56.846200000000003
 21
1.98019999999999
 31
0.0
  0
LINE
  5
1E6
  8
0
 10
58.600000000000001
 20
4.7029999999999896
 30
0.0
 11
59.707700000000003
 21
4.6039999999999903
 31
0.0
  0
LINE
  5
1E7
  8
0
 10
58.600000000000001
 20
3.9108999999999901
 30
0.0
 11
59.707700000000003
 21
3.8118999999999899
 31
0.0
  0
LINE
  5
1E8
  8
0
 10
58.600000000000001
 20
3.31679999999999
 30
0.0
 11
59.707700000000003
 21
3.2177999999999898
 31
0.0
  0
LINE
  5
1E9
  8
0
 10
58.600000000000001
 20
2.5247999999999902
 30
0.0
 11
59.707700000000003
 21
2.4256999999999902
 31
0.0
  0
LINE
  5
1EA
  8
0
 10
57.4923
 20
2.2969999999999899
 30
0.0
 11
59.338500000000003
 21
2.2375999999999898
 31
0.0
  0
LINE
  5
1EB
  8
0
 10
56.846200000000003
 20
1.98019999999999
 30
0.0
 11
58.600000000000001
 21
1.930699999999989
 31
0.0
  0
LINE
  5
1EC
  8
0
 10
58.600000000000001
 20
1.930699999999989
 30
0.0
 11
59.707700000000003
 21
1.831699999999989
 31
0.0
  0
LINE
  5
1ED
  8
0
 10
55.944000000000003
 20
4.9999999999999902
 30
0.0
 11
58.911999999999999
 21
4.9999999999999902
 31
0.0
  0
LINE
  5
1EE
  8
0
 10
59.122
 20
-0.0000000000000057
 30
0.0
 11
59.5
 21
-0.0000000000000057
 31
0.0
  0
LINE
  5
1EF
  8
0
 10
59.122
 20
-0.0000000000000063
 30
0.0
 11
59.5
 21
-0.0000000000000057
 31
0.0
  0
LINE
  5
1F0
  8
0
 10
59.314599999999999
 20
4.9999999999999902
 30
0.0
 11
59.447600000000001
 21
4.9999999999999902
 31
0.0
  0
LINE
  5
1F1
  8
0
 10
58.911999999999999
 20
4.9999999999999902
 30
0.0
 11
61.152000000000001
 21
4.9999999999999902
 31
0.0
  0
LINE
  5
1F2
  8
0
 10
56.936
 20
28.0
 30
0.0
 11
60.328000000000003
 21
28.0
 31
0.0
  0
LINE
  5
1F3
  8
0
 10
59.707700000000003
 20
-0.0000000000000063
 30
0.0
 11
60.076900000000002
 21
-0.0000000000000057
 31
0.0
  0
LINE
  5
1F4
  8
0
 10
60.076900000000002
 20
-0.0000000000000057
 30
0.0
 11
60.076900000000002
 21
0.346499999999995
 31
0.0
  0
LINE
  5
1F5
  8
0
 10
60.076900000000002
 20
0.346499999999995
 30
0.0
 11
60.076900000000002
 21
-0.0000000000000057
 31
0.0
  0
LINE
  5
1F6
  8
0
 10
59.707700000000003
 20
-0.0000000000000057
 30
0.0
 11
60.076900000000002
 21
-0.0000000000000057
 31
0.0
  0
LINE
  5
1F7
  8
0
 10
60.076900000000002
 20
0.346499999999995
 30
0.0
 11
61.0
 21
0.6435999999999941
 31
0.0
  0
LINE
  5
1F8
  8
0
 10
60.076900000000002
 20
0.940599999999994
 30
0.0
 11
61.0
 21
0.6435999999999941
 31
0.0
  0
LINE
  5
1F9
  8
0
 10
60.076900000000002
 20
0.940599999999994
 30
0.0
 11
60.076900000000002
 21
1.732699999999989
 31
0.0
  0
LINE
  5
1FA
  8
0
 10
59.707700000000003
 20
1.0395999999999901
 30
0.0
 11
60.076900000000002
 21
0.940599999999994
 31
0.0
  0
LINE
  5
1FB
  8
0
 10
59.338500000000003
 20
0.851499999999994
 30
0.0
 11
60.538499999999999
 21
0.7425999999999942
 31
0.0
  0
LINE
  5
1FC
  8
0
 10
59.707700000000003
 20
0.4454999999999951
 30
0.0
 11
60.076900000000002
 21
0.346499999999995
 31
0.0
  0
LINE
  5
1FD
  8
0
 10
60.076900000000002
 20
1.732699999999989
 30
0.0
 11
61.0
 21
2.029699999999989
 31
0.0
  0
LINE
  5
1FE
  8
0
 10
60.076900000000002
 20
1.732699999999989
 30
0.0
 11
60.076900000000002
 21
0.940599999999994
 31
0.0
  0
LINE
  5
1FF
  8
0
 10
59.338500000000003
 20
3.6237999999999899
 30
0.0
 11
60.538499999999999
 21
3.5148999999999901
 31
0.0
  0
LINE
  5
200
  8
0
 10
60.076900000000002
 20
2.3266999999999891
 30
0.0
 11
60.076900000000002
 21
3.11879999999999
 31
0.0
  0
LINE
  5
201
  8
0
 10
60.076900000000002
 20
2.3266999999999891
 30
0.0
 11
61.0
 21
2.029699999999989
 31
0.0
  0
LINE
  5
202
  8
0
 10
59.447600000000001
 20
4.9999999999999902
 30
0.0
 11
59.707700000000003
 21
4.6039999999999903
 31
0.0
  0
LINE
  5
203
  8
0
 10
59.447600000000001
 20
4.9999999999999902
 30
0.0
 11
60.538499999999999
 21
4.90099999999999
 31
0.0
  0
LINE
  5
204
  8
0
 10
59.447600000000001
 20
4.9999999999999902
 30
0.0
 11
60.261499999999998
 21
4.9999999999999902
 31
0.0
  0
LINE
  5
205
  8
0
 10
59.707700000000003
 20
4.6039999999999903
 30
0.0
 11
60.076900000000002
 21
4.5048999999999904
 31
0.0
  0
LINE
  5
206
  8
0
 10
59.707700000000003
 20
4.6039999999999903
 30
0.0
 11
60.538499999999999
 21
4.90099999999999
 31
0.0
  0
LINE
  5
207
  8
0
 10
59.707700000000003
 20
3.8118999999999899
 30
0.0
 11
60.076900000000002
 21
3.7128999999999901
 31
0.0
  0
LINE
  5
208
  8
0
 10
60.076900000000002
 20
3.7128999999999901
 30
0.0
 11
60.076900000000002
 21
4.5048999999999904
 31
0.0
  0
LINE
  5
209
  8
0
 10
60.076900000000002
 20
4.5048999999999904
 30
0.0
 11
60.538499999999999
 21
4.90099999999999
 31
0.0
  0
LINE
  5
20A
  8
0
 10
60.076900000000002
 20
4.5048999999999904
 30
0.0
 11
61.0
 21
4.8019999999999898
 31
0.0
  0
LINE
  5
20B
  8
0
 10
60.076900000000002
 20
4.5048999999999904
 30
0.0
 11
60.076900000000002
 21
3.7128999999999901
 31
0.0
  0
LINE
  5
20C
  8
0
 10
60.384599999999999
 20
4.9999999999999902
 30
0.0
 11
61.0
 21
4.8019999999999898
 31
0.0
  0
LINE
  5
20D
  8
0
 10
60.261499999999998
 20
4.9999999999999902
 30
0.0
 11
60.384599999999999
 21
4.9999999999999902
 31
0.0
  0
LINE
  5
20E
  8
0
 10
60.076900000000002
 20
3.7128999999999901
 30
0.0
 11
61.0
 21
3.4157999999999902
 31
0.0
  0
LINE
  5
20F
  8
0
 10
60.076900000000002
 20
3.11879999999999
 30
0.0
 11
61.0
 21
3.4157999999999902
 31
0.0
  0
LINE
  5
210
  8
0
 10
60.076900000000002
 20
3.11879999999999
 30
0.0
 11
60.076900000000002
 21
2.3266999999999891
 31
0.0
  0
LINE
  5
211
  8
0
 10
59.707700000000003
 20
3.2177999999999898
 30
0.0
 11
60.076900000000002
 21
3.11879999999999
 31
0.0
  0
LINE
  5
212
  8
0
 10
59.707700000000003
 20
2.4256999999999902
 30
0.0
 11
60.076900000000002
 21
2.3266999999999891
 31
0.0
  0
LINE
  5
213
  8
0
 10
59.338500000000003
 20
2.2375999999999898
 30
0.0
 11
60.538499999999999
 21
2.12869999999999
 31
0.0
  0
LINE
  5
214
  8
0
 10
59.707700000000003
 20
1.831699999999989
 30
0.0
 11
60.076900000000002
 21
1.732699999999989
 31
0.0
  0
LINE
  5
215
  8
0
 10
60.538499999999999
 20
0.7425999999999942
 30
0.0
 11
61.0
 21
0.6435999999999941
 31
0.0
  0
LINE
  5
216
  8
0
 10
60.538499999999999
 20
4.90099999999999
 30
0.0
 11
61.0
 21
4.8019999999999898
 31
0.0
  0
LINE
  5
217
  8
0
 10
60.538499999999999
 20
3.5148999999999901
 30
0.0
 11
61.0
 21
3.4157999999999902
 31
0.0
  0
LINE
  5
218
  8
0
 10
60.538499999999999
 20
2.12869999999999
 30
0.0
 11
61.0
 21
2.029699999999989
 31
0.0
  0
LINE
  5
219
  8
0
 10
60.384599999999999
 20
4.9999999999999902
 30
0.0
 11
61.152000000000001
 21
4.9999999999999902
 31
0.0
  0
LINE
  5
21A
  8
0
 10
60.328000000000003
 20
28.0
 30
0.0
 11
62.888000000000012
 21
28.0
 31
0.0
  0
LINE
  5
21B
  8
0
 10
59.316600000000001
 20
28.0
 30
0.0
 11
61.648000000000003
 21
28.0
 31
0.0
  0
LINE
  5
21C
  8
0
 10
56.227400000000003
 20
28.0
 30
0.0
 11
59.316600000000001
 21
28.0
 31
0.0
  0
LINE
  5
21D
  8
0
 10
61.152000000000001
 20
4.9999999999999902
 30
0.0
 11
62.496000000000002
 21
4.9999999999999902
 31
0.0
  0
LINE
  5
21E
  8
0
 10
61.152000000000001
 20
4.9999999999999902
 30
0.0
 11
62.496000000000002
 21
4.9999999999999902
 31
0.0
  0
LINE
  5
21F
  8
0
 10
62.496000000000002
 20
4.9999999999999902
 30
0.0
 11
63.0
 21
4.9999999999999902
 31
0.0
  0
LINE
  5
220
  8
0
 10
62.496000000000002
 20
4.9999999999999902
 30
0.0
 11
63.0
 21
4.9999999999999902
 31
0.0
  0
LINE
  5
221
  8
0
 10
63.0
 20
4.9999999999999902
 30
0.0
 11
63.0
 21
28.0
 31
0.0
  0
LINE
  5
222
  8
0
 10
62.888000000000012
 20
28.0
 30
0.0
 11
64.423999999999992
 21
28.0
 31
0.0
  0
LINE
  5
223
  8
0
 10
63.0
 20
28.0
 30
0.0
 11
63.756
 21
28.0
 31
0.0
  0
LINE
  5
224
  8
0
 10
63.0
 20
28.0
 30
0.0
 11
64.423999999999992
 21
28.0
 31
0.0
  0
LINE
  5
225
  8
0
 10
63.0
 20
28.0
 30
0.0
 11
63.0
 21
5.0
 31
0.0
  0
LINE
  5
226
  8
0
 10
64.423999999999992
 20
28.0
 30
0.0
 11
65.0
 21
28.0
 31
0.0
  0
LINE
  5
227
  8
0
 10
63.046900000000001
 20
28.0
 30
0.0
 11
63.571399999999997
 21
28.0
 31
0.0
  0
LINE
  5
228
  8
0
 10
61.648000000000003
 20
28.0
 30
0.0
 11
63.046900000000001
 21
28.0
 31
0.0
  0
LINE
  5
229
  8
0
 10
66.0
 20
28.0
 30
0.0
 11
66.0
 21
46.0
 31
0.0
  0
LINE
  5
22A
  8
0
 10
65.388000000000005
 20
28.0
 30
0.0
 11
66.0
 21
28.0
 31
0.0
  0
LINE
  5
22B
  8
0
 10
63.756
 20
28.0
 30
0.0
 11
65.388000000000005
 21
28.0
 31
0.0
  0
LINE
  5
22C
  8
0
 10
61.036000000000001
 20
28.0
 30
0.0
 11
63.756
 21
28.0
 31
0.0
  0
LINE
  5
22D
  8
0
 10
53.840000000000003
 20
49.539999999999999
 30
0.0
 11
57.439999999999991
 21
50.97999999999999
 31
0.0
  0
LINE
  5
22E
  8
0
 10
54.096000000000011
 20
48.576000000000001
 30
0.0
 11
57.936000000000007
 21
50.111999999999988
 31
0.0
  0
LINE
  5
22F
  8
0
 10
57.936000000000007
 20
50.111999999999988
 30
0.0
 11
61.328000000000003
 21
52.67199999999999
 31
0.0
  0
LINE
  5
230
  8
0
 10
60.0
 20
36.0
 30
0.0
 11
60.0
 21
51.669735849056607
 31
0.0
  0
LINE
  5
231
  8
0
 10
85.0
 20
46.0
 30
0.0
 11
85.0
 21
46.612000000000002
 31
0.0
  0
LINE
  5
232
  8
0
 10
85.0
 20
46.612000000000002
 30
0.0
 11
85.0
 21
46.0
 31
0.0
  0
LINE
  5
233
  8
0
 10
85.0
 20
46.612000000000002
 30
0.0
 11
85.0
 21
48.244
 31
0.0
  0
LINE
  5
234
  8
0
 10
85.0
 20
48.244
 30
0.0
 11
85.0
 21
46.612000000000002
 31
0.0
  0
LINE
  5
235
  8
0
 10
85.0
 20
48.244
 30
0.0
 11
85.0
 21
50.963999999999999
 31
0.0
  0
LINE
  5
236
  8
0
 10
66.0
 20
46.0
 30
0.0
 11
66.0
 21
28.0
 31
0.0
  0
LINE
  5
237
  8
0
 10
66.0
 20
46.0
 30
0.0
 11
85.0
 21
46.0
 31
0.0
  0
LINE
  5
238
  8
0
 10
57.431999999999988
 20
28.0
 30
0.0
 11
61.036000000000001
 21
28.0
 31
0.0
  0
LINE
  5
239
  8
0
 10
53.583999999999989
 20
50.503999999999991
 30
0.0
 11
56.943999999999988
 21
51.847999999999999
 31
0.0
  0
LINE
  5
23A
  8
0
 10
50.0
 20
52.0
 30
0.0
 11
53.071999999999989
 21
52.431999999999988
 31
0.0
  0
LINE
  5
23B
  8
0
 10
57.439999999999991
 20
50.97999999999999
 30
0.0
 11
60.619999999999997
 21
53.380000000000003
 31
0.0
  0
LINE
  5
23C
  8
0
 10
60.0
 20
51.669735849056607
 30
0.0
 11
60.0
 21
36.0
 31
0.0
  0
LINE
  5
23D
  8
0
 10
85.0
 20
50.963999999999999
 30
0.0
 11
85.0
 21
48.244
 31
0.0
  0
LINE
  5
23E
  8
0
 10
85.0
 20
50.963999999999999
 30
0.0
 11
85.0
 21
54.568000000000012
 31
0.0
  0
LINE
  5
23F
  8
0
 10
56.943999999999988
 20
51.847999999999999
 30
0.0
 11
59.911999999999999
 21
54.088000000000001
 31
0.0
  0
LINE
  5
240
  8
0
 10
53.071999999999989
 20
52.431999999999988
 30
0.0
 11
55.951999999999998
 21
53.583999999999989
 31
0.0
  0
LINE
  5
241
  8
0
 10
60.619999999999997
 20
53.380000000000003
 30
0.0
 11
63.020000000000003
 21
56.560000000000002
 31
0.0
  0
LINE
  5
242
  8
0
 10
61.328000000000003
 20
52.67199999999999
 30
0.0
 11
63.887999999999998
 21
56.063999999999993
 31
0.0
  0
LINE
  5
243
  8
0
 10
59.911999999999999
 20
54.088000000000001
 30
0.0
 11
62.152000000000001
 21
57.055999999999997
 31
0.0
  0
LINE
  5
244
  8
0
 10
55.951999999999998
 20
53.583999999999989
 30
0.0
 11
58.496000000000002
 21
55.503999999999991
 31
0.0
  0
LINE
  5
245
  8
0
 10
46.927999999999997
 20
52.431999999999988
 30
0.0
 11
50.0
 21
52.0
 31
0.0
  0
LINE
  5
246
  8
0
 10
44.048000000000002
 20
53.583999999999989
 30
0.0
 11
46.927999999999997
 21
52.431999999999988
 31
0.0
  0
LINE
  5
247
  8
0
 10
46.415999999999997
 20
50.503999999999991
 30
0.0
 11
50.0
 21
50.0
 31
0.0
  0
LINE
  5
248
  8
0
 10
43.055999999999997
 20
51.847999999999999
 30
0.0
 11
46.415999999999997
 21
50.503999999999991
 31
0.0
  0
LINE
  5
249
  8
0
 10
85.0
 20
54.568000000000012
 30
0.0
 11
85.0
 21
50.963999999999999
 31
0.0
  0
LINE
  5
24A
  8
0
 10
85.0
 20
54.568000000000012
 30
0.0
 11
85.0
 21
58.648000000000003
 31
0.0
  0
LINE
  5
24B
  8
0
 10
58.496000000000002
 20
55.503999999999991
 30
0.0
 11
60.415999999999997
 21
58.048000000000002
 31
0.0
  0
LINE
  5
24C
  8
0
 10
63.020000000000003
 20
56.560000000000002
 30
0.0
 11
64.459999999999994
 21
60.159999999999997
 31
0.0
  0
LINE
  5
24D
  8
0
 10
63.887999999999998
 20
56.063999999999993
 30
0.0
 11
65.423999999999992
 21
59.904000000000003
 31
0.0
  0
LINE
  5
24E
  8
0
 10
64.459999999999994
 20
60.159999999999997
 30
0.0
 11
65.0
 21
64.0
 31
0.0
  0
LINE
  5
24F
  8
0
 10
65.423999999999992
 20
59.904000000000003
 30
0.0
 11
66.0
 21
64.0
 31
0.0
  0
LINE
  5
250
  8
0
 10
72.0
 20
60.0
 30
0.0
 11
73.536000000000001
 21
60.0
 31
0.0
  0
LINE
  5
251
  8
0
 10
73.536000000000001
 20
60.0
 30
0.0
 11
74.975999999999999
 21
60.0
 31
0.0
  0
LINE
  5
252
  8
0
 10
74.975999999999999
 20
60.0
 30
0.0
 11
76.248000000000005
 21
60.0
 31
0.0
  0
LINE
  5
253
  8
0
 10
76.248000000000005
 20
60.0
 30
0.0
 11
77.207999999999998
 21
60.0
 31
0.0
  0
LINE
  5
254
  8
0
 10
78.0
 20
60.0
 30
0.0
 11
78.0
 21
70.0
 31
0.0
  0
LINE
  5
255
  8
0
 10
77.207999999999998
 20
60.0
 30
0.0
 11
77.783999999999992
 21
60.0
 31
0.0
  0
LINE
  5
256
  8
0
 10
77.783999999999992
 20
60.0
 30
0.0
 11
78.0
 21
60.0
 31
0.0
  0
LINE
  5
257
  8
0
 10
70.463999999999999
 20
60.0
 30
0.0
 11
72.0
 21
60.0
 31
0.0
  0
LINE
  5
258
  8
0
 10
69.024000000000001
 20
60.0
 30
0.0
 11
70.463999999999999
 21
60.0
 31
0.0
  0
LINE
  5
259
  8
0
 10
67.603399999999993
 20
60.0
 30
0.0
 11
69.024000000000001
 21
60.0
 31
0.0
  0
LINE
  5
25A
  8
0
 10
66.0
 20
60.0
 30
0.0
 11
67.603399999999993
 21
60.0
 31
0.0
  0
LINE
  5
25B
  8
0
 10
65.4375
 20
60.0
 30
0.0
 11
66.0
 21
60.0
 31
0.0
  0
LINE
  5
25C
  8
0
 10
65.4375
 20
60.0
 30
0.0
 11
74.975999999999999
 21
60.0
 31
0.0
  0
LINE
  5
25D
  8
0
 10
85.0
 20
58.648000000000003
 30
0.0
 11
85.0
 21
54.568000000000012
 31
0.0
  0
LINE
  5
25E
  8
0
 10
85.0
 20
58.648000000000003
 30
0.0
 11
85.0
 21
63.0
 31
0.0
  0
LINE
  5
25F
  8
0
 10
62.152000000000001
 20
57.055999999999997
 30
0.0
 11
63.496000000000002
 21
60.415999999999997
 31
0.0
  0
LINE
  5
260
  8
0
 10
63.496000000000002
 20
60.415999999999997
 30
0.0
 11
64.0
 21
64.0
 31
0.0
  0
LINE
  5
261
  8
0
 10
60.415999999999997
 20
58.048000000000002
 30
0.0
 11
61.567999999999998
 21
60.927999999999997
 31
0.0
  0
LINE
  5
262
  8
0
 10
41.503999999999998
 20
55.503999999999991
 30
0.0
 11
44.048000000000002
 21
53.583999999999989
 31
0.0
  0
LINE
  5
263
  8
0
 10
39.584000000000003
 20
58.048000000000002
 30
0.0
 11
41.503999999999998
 21
55.503999999999991
 31
0.0
  0
LINE
  5
264
  8
0
 10
40.087999999999987
 20
54.088000000000001
 30
0.0
 11
43.055999999999997
 21
51.847999999999999
 31
0.0
  0
LINE
  5
265
  8
0
 10
37.847999999999999
 20
57.055999999999997
 30
0.0
 11
40.087999999999987
 21
54.088000000000001
 31
0.0
  0
LINE
  5
266
  8
0
 10
36.97999999999999
 20
71.439999999999998
 30
0.0
 11
39.380000000000003
 21
74.620000000000005
 31
0.0
  0
LINE
  5
267
  8
0
 10
36.111999999999988
 20
71.936000000000007
 30
0.0
 11
38.671999999999997
 21
75.328000000000003
 31
0.0
  0
LINE
  5
268
  8
0
 10
37.847999999999999
 20
70.944000000000003
 30
0.0
 11
40.087999999999987
 21
73.911999999999992
 31
0.0
  0
LINE
  5
269
  8
0
 10
36.503999999999991
 20
67.584000000000003
 30
0.0
 11
37.847999999999999
 21
70.944000000000003
 31
0.0
  0
LINE
  5
26A
  8
0
 10
61.567999999999998
 20
60.927999999999997
 30
0.0
 11
62.0
 21
64.0
 31
0.0
  0
LINE
  5
26B
  8
0
 10
39.584000000000003
 20
69.951999999999998
 30
0.0
 11
41.503999999999998
 21
72.495999999999995
 31
0.0
  0
LINE
  5
26C
  8
0
 10
38.431999999999988
 20
67.072000000000003
 30
0.0
 11
39.584000000000003
 21
69.951999999999998
 31
0.0
  0
LINE
  5
26D
  8
0
 10
41.503999999999998
 20
72.495999999999995
 30
0.0
 11
44.048000000000002
 21
74.415999999999997
 31
0.0
  0
LINE
  5
26E
  8
0
 10
40.087999999999987
 20
73.911999999999992
 30
0.0
 11
43.055999999999997
 21
76.152000000000001
 31
0.0
  0
LINE
  5
26F
  8
0
 10
58.496000000000002
 20
72.495999999999995
 30
0.0
 11
60.415999999999997
 21
69.951999999999998
 31
0.0
  0
LINE
  5
270
  8
0
 10
60.415999999999997
 20
69.951999999999998
 30
0.0
 11
61.567999999999998
 21
67.072000000000003
 31
0.0
  0
LINE
  5
271
  8
0
 10
61.567999999999998
 20
67.072000000000003
 30
0.0
 11
62.0
 21
64.0
 31
0.0
  0
LINE
  5
272
  8
0
 10
39.380000000000003
 20
74.620000000000005
 30
0.0
 11
42.560000000000002
 21
77.019999999999996
 31
0.0
  0
LINE
  5
273
  8
0
 10
38.671999999999997
 20
75.328000000000003
 30
0.0
 11
42.063999999999993
 21
77.888000000000005
 31
0.0
  0
LINE
  5
274
  8
0
 10
46.927999999999997
 20
75.567999999999984
 30
0.0
 11
50.0
 21
76.0
 31
0.0
  0
LINE
  5
275
  8
0
 10
44.048000000000002
 20
74.415999999999997
 30
0.0
 11
46.927999999999997
 21
75.567999999999984
 31
0.0
  0
LINE
  5
276
  8
0
 10
42.560000000000002
 20
77.019999999999996
 30
0.0
 11
46.159999999999989
 21
78.459999999999994
 31
0.0
  0
LINE
  5
277
  8
0
 10
46.415999999999997
 20
77.495999999999995
 30
0.0
 11
50.0
 21
78.0
 31
0.0
  0
LINE
  5
278
  8
0
 10
43.055999999999997
 20
76.152000000000001
 30
0.0
 11
46.415999999999997
 21
77.495999999999995
 31
0.0
  0
LINE
  5
279
  8
0
 10
50.0
 20
76.0
 30
0.0
 11
53.071999999999989
 21
75.567999999999984
 31
0.0
  0
LINE
  5
27A
  8
0
 10
53.071999999999989
 20
75.567999999999984
 30
0.0
 11
55.951999999999998
 21
74.415999999999997
 31
0.0
  0
LINE
  5
27B
  8
0
 10
55.951999999999998
 20
74.415999999999997
 30
0.0
 11
58.496000000000002
 21
72.495999999999995
 31
0.0
  0
LINE
  5
27C
  8
0
 10
46.159999999999989
 20
78.459999999999994
 30
0.0
 11
50.0
 21
79.0
 31
0.0
  0
LINE
  5
27D
  8
0
 10
50.0
 20
79.0
 30
0.0
 11
53.840000000000003
 21
78.459999999999994
 31
0.0
  0
LINE
  5
27E
  8
0
 10
45.903999999999989
 20
79.423999999999992
 30
0.0
 11
50.0
 21
80.0
 31
0.0
  0
LINE
  5
27F
  8
0
 10
42.063999999999993
 20
77.888000000000005
 30
0.0
 11
45.903999999999989
 21
79.423999999999992
 31
0.0
  0
LINE
  5
280
  8
0
 10
50.0
 20
80.0
 30
0.0
 11
82.0
 21
80.0
 31
0.0
  0
LINE
  5
281
  8
0
 10
50.0
 20
80.0
 30
0.0
 11
54.096000000000011
 21
79.423999999999992
 31
0.0
  0
LINE
  5
282
  8
0
 10
53.840000000000003
 20
78.459999999999994
 30
0.0
 11
57.439999999999991
 21
77.019999999999996
 31
0.0
  0
LINE
  5
283
  8
0
 10
54.096000000000011
 20
79.423999999999992
 30
0.0
 11
57.936000000000007
 21
77.888000000000005
 31
0.0
  0
LINE
  5
284
  8
0
 10
50.0
 20
78.0
 30
0.0
 11
53.583999999999989
 21
77.495999999999995
 31
0.0
  0
LINE
  5
285
  8
0
 10
53.583999999999989
 20
77.495999999999995
 30
0.0
 11
56.943999999999988
 21
76.152000000000001
 31
0.0
  0
LINE
  5
286
  8
0
 10
60.619999999999997
 20
74.620000000000005
 30
0.0
 11
63.020000000000003
 21
71.439999999999998
 31
0.0
  0
LINE
  5
287
  8
0
 10
57.439999999999991
 20
77.019999999999996
 30
0.0
 11
60.619999999999997
 21
74.620000000000005
 31
0.0
  0
LINE
  5
288
  8
0
 10
61.328000000000003
 20
75.328000000000003
 30
0.0
 11
63.887999999999998
 21
71.936000000000007
 31
0.0
  0
LINE
  5
289
  8
0
 10
61.575547169811287
 20
75.0
 30
0.0
 11
82.0
 21
75.0
 31
0.0
  0
LINE
  5
28A
  8
0
 10
57.936000000000007
 20
77.888000000000005
 30
0.0
 11
66.0
 21
77.888000000000005
 31
0.0
  0
LINE
  5
28B
  8
0
 10
57.936000000000007
 20
77.888000000000005
 30
0.0
 11
61.328000000000003
 21
75.328000000000003
 31
0.0
  0
LINE
  5
28C
  8
0
 10
56.943999999999988
 20
76.152000000000001
 30
0.0
 11
59.911999999999999
 21
73.911999999999992
 31
0.0
  0
LINE
  5
28D
  8
0
 10
59.911999999999999
 20
73.911999999999992
 30
0.0
 11
62.152000000000001
 21
70.944000000000003
 31
0.0
  0
LINE
  5
28E
  8
0
 10
78.0
 20
63.0
 30
0.0
 11
85.0
 21
63.0
 31
0.0
  0
LINE
  5
28F
  8
0
 10
85.0
 20
63.0
 30
0.0
 11
85.0
 21
58.648000000000003
 31
0.0
  0
LINE
  5
290
  8
0
 10
85.0
 20
63.0
 30
0.0
 11
85.0
 21
73.0
 31
0.0
  0
LINE
  5
291
  8
0
 10
64.459999999999994
 20
67.840000000000003
 30
0.0
 11
65.0
 21
64.0
 31
0.0
  0
LINE
  5
292
  8
0
 10
65.423999999999992
 20
68.096000000000004
 30
0.0
 11
66.0
 21
64.0
 31
0.0
  0
LINE
  5
293
  8
0
 10
72.0
 20
70.0
 30
0.0
 11
73.536000000000001
 21
70.0
 31
0.0
  0
LINE
  5
294
  8
0
 10
73.536000000000001
 20
70.0
 30
0.0
 11
74.975999999999999
 21
70.0
 31
0.0
  0
LINE
  5
295
  8
0
 10
74.975999999999999
 20
70.0
 30
0.0
 11
76.248000000000005
 21
70.0
 31
0.0
  0
LINE
  5
296
  8
0
 10
76.248000000000005
 20
70.0
 30
0.0
 11
77.207999999999998
 21
70.0
 31
0.0
  0
LINE
  5
297
  8
0
 10
77.207999999999998
 20
70.0
 30
0.0
 11
77.783999999999992
 21
70.0
 31
0.0
  0
LINE
  5
298
  8
0
 10
77.783999999999992
 20
70.0
 30
0.0
 11
78.0
 21
70.0
 31
0.0
  0
LINE
  5
299
  8
0
 10
78.0
 20
70.0
 30
0.0
 11
78.0
 21
60.0
 31
0.0
  0
LINE
  5
29A
  8
0
 10
70.463999999999999
 20
70.0
 30
0.0
 11
72.0
 21
70.0
 31
0.0
  0
LINE
  5
29B
  8
0
 10
69.024000000000001
 20
70.0
 30
0.0
 11
70.463999999999999
 21
70.0
 31
0.0
  0
LINE
  5
29C
  8
0
 10
67.668800000000005
 20
70.0
 30
0.0
 11
69.024000000000001
 21
70.0
 31
0.0
  0
LINE
  5
29D
  8
0
 10
66.0
 20
70.0
 30
0.0
 11
67.668800000000005
 21
70.0
 31
0.0
  0
LINE
  5
29E
  8
0
 10
66.0
 20
70.0
 30
0.0
 11
66.0
 21
77.888000000000005
 31
0.0
  0
LINE
  5
29F
  8
0
 10
63.020000000000003
 20
71.439999999999998
 30
0.0
 11
64.459999999999994
 21
67.840000000000003
 31
0.0
  0
LINE
  5
2A0
  8
0
 10
63.887999999999998
 20
71.936000000000007
 30
0.0
 11
65.423999999999992
 21
68.096000000000004
 31
0.0
  0
LINE
  5
2A1
  8
0
 10
76.214699999999993
 20
73.0
 30
0.0
 11
77.264700000000005
 21
73.0
 31
0.0
  0
LINE
  5
2A2
  8
0
 10
75.555899999999994
 20
73.0
 30
0.0
 11
76.214699999999993
 21
73.0
 31
0.0
  0
LINE
  5
2A3
  8
0
 10
75.308800000000005
 20
73.0
 30
0.0
 11
75.555899999999994
 21
73.0
 31
0.0
  0
LINE
  5
2A4
  8
0
 10
77.264700000000005
 20
73.0
 30
0.0
 11
78.664699999999996
 21
73.0
 31
0.0
  0
LINE
  5
2A5
  8
0
 10
78.664699999999996
 20
73.0
 30
0.0
 11
80.270600000000002
 21
73.0
 31
0.0
  0
LINE
  5
2A6
  8
0
 10
80.270600000000002
 20
73.0
 30
0.0
 11
82.0
 21
73.0
 31
0.0
  0
LINE
  5
2A7
  8
0
 10
83.729399999999984
 20
73.0
 30
0.0
 11
85.335300000000004
 21
73.0
 31
0.0
  0
LINE
  5
2A8
  8
0
 10
75.0
 20
73.288499999999999
 30
0.0
 11
75.102900000000005
 21
73.096199999999996
 31
0.0
  0
LINE
  5
2A9
  8
0
 10
75.0
 20
73.288499999999999
 30
0.0
 11
75.0
 21
75.0
 31
0.0
  0
LINE
  5
2AA
  8
0
 10
76.029399999999995
 20
73.096199999999996
 30
0.0
 11
77.120599999999996
 21
73.096199999999996
 31
0.0
  0
LINE
  5
2AB
  8
0
 10
75.349999999999994
 20
73.096199999999996
 30
0.0
 11
76.029399999999995
 21
73.096199999999996
 31
0.0
  0
LINE
  5
2AC
  8
0
 10
77.120599999999996
 20
73.096199999999996
 30
0.0
 11
78.561800000000005
 21
73.096199999999996
 31
0.0
  0
LINE
  5
2AD
  8
0
 10
78.561800000000005
 20
73.096199999999996
 30
0.0
 11
80.229399999999998
 21
73.096199999999996
 31
0.0
  0
LINE
  5
2AE
  8
0
 10
83.770600000000002
 20
73.096199999999996
 30
0.0
 11
85.438199999999995
 21
73.096199999999996
 31
0.0
  0
LINE
  5
2AF
  8
0
 10
82.0
 20
73.096199999999996
 30
0.0
 11
83.770600000000002
 21
73.096199999999996
 31
0.0
  0
LINE
  5
2B0
  8
0
 10
80.229399999999998
 20
73.096199999999996
 30
0.0
 11
82.0
 21
73.096199999999996
 31
0.0
  0
LINE
  5
2B1
  8
0
 10
75.947100000000006
 20
75.0
 30
0.0
 11
77.058800000000005
 21
75.0
 31
0.0
  0
LINE
  5
2B2
  8
0
 10
75.247100000000003
 20
75.0
 30
0.0
 11
75.947100000000006
 21
75.0
 31
0.0
  0
LINE
  5
2B3
  8
0
 10
77.058800000000005
 20
75.0
 30
0.0
 11
78.520600000000002
 21
75.0
 31
0.0
  0
LINE
  5
2B4
  8
0
 10
78.520600000000002
 20
75.0
 30
0.0
 11
80.208799999999997
 21
75.0
 31
0.0
  0
LINE
  5
2B5
  8
0
 10
83.791200000000003
 20
75.0
 30
0.0
 11
85.479399999999998
 21
75.0
 31
0.0
  0
LINE
  5
2B6
  8
0
 10
80.208799999999997
 20
75.0
 30
0.0
 11
82.0
 21
75.0
 31
0.0
  0
LINE
  5
2B7
  8
0
 10
75.102900000000005
 20
73.096199999999996
 30
0.0
 11
75.308800000000005
 21
73.0
 31
0.0
  0
LINE
  5
2B8
  8
0
 10
75.102900000000005
 20
73.096199999999996
 30
0.0
 11
75.349999999999994
 21
73.096199999999996
 31
0.0
  0
LINE
  5
2B9
  8
0
 10
75.0
 20
75.0
 30
0.0
 11
75.0
 21
73.288499999999999
 31
0.0
  0
LINE
  5
2BA
  8
0
 10
75.0
 20
75.0
 30
0.0
 11
75.247100000000003
 21
75.0
 31
0.0
  0
LINE
  5
2BB
  8
0
 10
82.0
 20
73.0
 30
0.0
 11
83.729399999999984
 21
73.0
 31
0.0
  0
LINE
  5
2BC
  8
0
 10
66.0
 20
75.0
 30
0.0
 11
75.0
 21
75.0
 31
0.0
  0
LINE
  5
2BD
  8
0
 10
82.0
 20
75.0
 30
0.0
 11
84.560000000000016
 21
75.0
 31
0.0
  0
LINE
  5
2BE
  8
0
 10
82.0
 20
75.0
 30
0.0
 11
83.791200000000003
 21
75.0
 31
0.0
  0
LINE
  5
2BF
  8
0
 10
85.0
 20
73.0
 30
0.0
 11
85.335300000000004
 21
73.0
 31
0.0
  0
LINE
  5
2C0
  8
0
 10
84.560000000000016
 20
75.0
 30
0.0
 11
86.959999999999994
 21
75.0
 31
0.0
  0
LINE
  5
2C1
  8
0
 10
64.662400000000005
 20
70.0
 30
0.0
 11
66.0
 21
70.0
 31
0.0
  0
LINE
  5
2C2
  8
0
 10
85.335300000000004
 20
73.0
 30
0.0
 11
86.735299999999995
 21
73.0
 31
0.0
  0
LINE
  5
2C3
  8
0
 10
86.735299999999995
 20
73.0
 30
0.0
 11
87.785300000000007
 21
73.0
 31
0.0
  0
LINE
  5
2C4
  8
0
 10
85.335300000000004
 20
73.0
 30
0.0
 11
86.735299999999995
 21
73.0
 31
0.0
  0
LINE
  5
2C5
  8
0
 10
86.735299999999995
 20
73.0
 30
0.0
 11
87.785300000000007
 21
73.0
 31
0.0
  0
LINE
  5
2C6
  8
0
 10
85.438199999999995
 20
73.096199999999996
 30
0.0
 11
86.879400000000004
 21
73.096199999999996
 31
0.0
  0
LINE
  5
2C7
  8
0
 10
86.879400000000004
 20
73.096199999999996
 30
0.0
 11
87.970600000000005
 21
73.096199999999996
 31
0.0
  0
LINE
  5
2C8
  8
0
 10
87.970600000000005
 20
73.096199999999996
 30
0.0
 11
88.650000000000006
 21
73.096199999999996
 31
0.0
  0
LINE
  5
2C9
  8
0
 10
86.941199999999995
 20
75.0
 30
0.0
 11
88.052899999999994
 21
75.0
 31
0.0
  0
LINE
  5
2CA
  8
0
 10
88.052899999999994
 20
75.0
 30
0.0
 11
88.752899999999997
 21
75.0
 31
0.0
  0
LINE
  5
2CB
  8
0
 10
85.479399999999998
 20
75.0
 30
0.0
 11
86.941199999999995
 21
75.0
 31
0.0
  0
LINE
  5
2CC
  8
0
 10
87.785300000000007
 20
73.0
 30
0.0
 11
88.444100000000006
 21
73.0
 31
0.0
  0
LINE
  5
2CD
  8
0
 10
88.444100000000006
 20
73.0
 30
0.0
 11
88.691199999999995
 21
73.0
 31
0.0
  0
LINE
  5
2CE
  8
0
 10
87.785300000000007
 20
73.0
 30
0.0
 11
88.444100000000006
 21
73.0
 31
0.0
  0
LINE
  5
2CF
  8
0
 10
88.650000000000006
 20
73.096199999999996
 30
0.0
 11
88.897099999999995
 21
73.096199999999996
 31
0.0
  0
LINE
  5
2D0
  8
0
 10
88.691199999999995
 20
73.0
 30
0.0
 11
88.897099999999995
 21
73.096199999999996
 31
0.0
  0
LINE
  5
2D1
  8
0
 10
88.752899999999997
 20
75.0
 30
0.0
 11
89.0
 21
75.0
 31
0.0
  0
LINE
  5
2D2
  8
0
 10
88.897099999999995
 20
73.096199999999996
 30
0.0
 11
89.0
 21
73.288499999999999
 31
0.0
  0
LINE
  5
2D3
  8
0
 10
89.0
 20
73.288499999999999
 30
0.0
 11
89.0
 21
75.0
 31
0.0
  0
LINE
  5
2D4
  8
0
 10
88.691199999999995
 20
73.0
 30
0.0
 11
88.897099999999995
 21
73.096199999999996
 31
0.0
  0
LINE
  5
2D5
  8
0
 10
88.444100000000006
 20
73.0
 30
0.0
 11
88.691199999999995
 21
73.0
 31
0.0
  0
LINE
  5
2D6
  8
0
 10
86.959999999999994
 20
75.0
 30
0.0
 11
89.079999999999984
 21
75.0
 31
0.0
  0
LINE
  5
2D7
  8
0
 10
85.0
 20
73.0
 30
0.0
 11
85.0
 21
63.0
 31
0.0
  0
LINE
  5
2D8
  8
0
 10
89.079999999999984
 20
75.0
 30
0.0
 11
90.680000000000007
 21
75.0
 31
0.0
  0
LINE
  5
2D9
  8
0
 10
90.680000000000007
 20
75.0
 30
0.0
 11
91.639999999999986
 21
75.0
 31
0.0
  0
LINE
  5
2DA
  8
0
 10
89.0
 20
75.0
 30
0.0
 11
91.639999999999986
 21
75.0
 31
0.0
  0
LINE
  5
2DB
  8
0
 10
89.0
 20
75.0
 30
0.0
 11
89.079999999999984
 21
75.0
 31
0.0
  0
LINE
  5
2DC
  8
0
 10
89.0
 20
75.0
 30
0.0
 11
89.0
 21
73.288499999999999
 31
0.0
  0
LINE
  5
2DD
  8
0
 10
92.0
 20
75.0
 30
0.0
 11
92.0
 21
80.0
 31
0.0
  0
LINE
  5
2DE
  8
0
 10
91.639999999999986
 20
75.0
 30
0.0
 11
92.0
 21
75.0
 31
0.0
  0
LINE
  5
2DF
  8
0
 10
75.0
 20
80.0
 30
0.0
 11
75.0
 21
81.711500000000001
 31
0.0
  0
LINE
  5
2E0
  8
0
 10
82.0
 20
80.0
 30
0.0
 11
84.560000000000016
 21
80.0
 31
0.0
  0
LINE
  5
2E1
  8
0
 10
89.0
 20
80.0
 30
0.0
 11
89.0
 21
81.711500000000001
 31
0.0
  0
LINE
  5
2E2
  8
0
 10
84.560000000000016
 20
80.0
 30
0.0
 11
86.959999999999994
 21
80.0
 31
0.0
  0
LINE
  5
2E3
  8
0
 10
86.959999999999994
 20
80.0
 30
0.0
 11
89.079999999999984
 21
80.0
 31
0.0
  0
LINE
  5
2E4
  8
0
 10
89.079999999999984
 20
80.0
 30
0.0
 11
90.680000000000007
 21
80.0
 31
0.0
  0
LINE
  5
2E5
  8
0
 10
76.029399999999995
 20
81.903800000000004
 30
0.0
 11
77.120599999999996
 21
81.903800000000004
 31
0.0
  0
LINE
  5
2E6
  8
0
 10
75.349999999999994
 20
81.903800000000004
 30
0.0
 11
76.029399999999995
 21
81.903800000000004
 31
0.0
  0
LINE
  5
2E7
  8
0
 10
77.120599999999996
 20
81.903800000000004
 30
0.0
 11
78.561800000000005
 21
81.903800000000004
 31
0.0
  0
LINE
  5
2E8
  8
0
 10
78.561800000000005
 20
81.903800000000004
 30
0.0
 11
80.229399999999998
 21
81.903800000000004
 31
0.0
  0
LINE
  5
2E9
  8
0
 10
86.879400000000004
 20
81.903800000000004
 30
0.0
 11
87.970600000000005
 21
81.903800000000004
 31
0.0
  0
LINE
  5
2EA
  8
0
 10
87.970600000000005
 20
81.903800000000004
 30
0.0
 11
88.650000000000006
 21
81.903800000000004
 31
0.0
  0
LINE
  5
2EB
  8
0
 10
88.650000000000006
 20
81.903800000000004
 30
0.0
 11
88.897099999999995
 21
81.903800000000004
 31
0.0
  0
LINE
  5
2EC
  8
0
 10
85.438199999999995
 20
81.903800000000004
 30
0.0
 11
86.879400000000004
 21
81.903800000000004
 31
0.0
  0
LINE
  5
2ED
  8
0
 10
83.770600000000002
 20
81.903800000000004
 30
0.0
 11
85.438199999999995
 21
81.903800000000004
 31
0.0
  0
LINE
  5
2EE
  8
0
 10
82.0
 20
81.903800000000004
 30
0.0
 11
83.770600000000002
 21
81.903800000000004
 31
0.0
  0
LINE
  5
2EF
  8
0
 10
80.229399999999998
 20
81.903800000000004
 30
0.0
 11
82.0
 21
81.903800000000004
 31
0.0
  0
LINE
  5
2F0
  8
0
 10
88.897099999999995
 20
81.903800000000004
 30
0.0
 11
89.0
 21
81.711500000000001
 31
0.0
  0
LINE
  5
2F1
  8
0
 10
89.0
 20
81.711500000000001
 30
0.0
 11
89.0
 21
80.0
 31
0.0
  0
LINE
  5
2F2
  8
0
 10
76.214699999999993
 20
82.0
 30
0.0
 11
77.264700000000005
 21
82.0
 31
0.0
  0
LINE
  5
2F3
  8
0
 10
75.555899999999994
 20
82.0
 30
0.0
 11
76.214699999999993
 21
82.0
 31
0.0
  0
LINE
  5
2F4
  8
0
 10
75.308800000000005
 20
82.0
 30
0.0
 11
75.555899999999994
 21
82.0
 31
0.0
  0
LINE
  5
2F5
  8
0
 10
77.264700000000005
 20
82.0
 30
0.0
 11
78.664699999999996
 21
82.0
 31
0.0
  0
LINE
  5
2F6
  8
0
 10
86.735299999999995
 20
82.0
 30
0.0
 11
87.785300000000007
 21
82.0
 31
0.0
  0
LINE
  5
2F7
  8
0
 10
87.785300000000007
 20
82.0
 30
0.0
 11
88.444100000000006
 21
82.0
 31
0.0
  0
LINE
  5
2F8
  8
0
 10
88.444100000000006
 20
82.0
 30
0.0
 11
88.691199999999995
 21
82.0
 31
0.0
  0
LINE
  5
2F9
  8
0
 10
85.335300000000004
 20
82.0
 30
0.0
 11
86.735299999999995
 21
82.0
 31
0.0
  0
LINE
  5
2FA
  8
0
 10
83.729399999999984
 20
82.0
 30
0.0
 11
85.335300000000004
 21
82.0
 31
0.0
  0
LINE
  5
2FB
  8
0
 10
82.0
 20
82.0
 30
0.0
 11
83.729399999999984
 21
82.0
 31
0.0
  0
LINE
  5
2FC
  8
0
 10
78.664699999999996
 20
82.0
 30
0.0
 11
80.270600000000002
 21
82.0
 31
0.0
  0
LINE
  5
2FD
  8
0
 10
80.270600000000002
 20
82.0
 30
0.0
 11
82.0
 21
82.0
 31
0.0
  0
LINE
  5
2FE
  8
0
 10
88.691199999999995
 20
82.0
 30
0.0
 11
88.897099999999995
 21
81.903800000000004
 31
0.0
  0
LINE
  5
2FF
  8
0
 10
75.102900000000005
 20
81.903800000000004
 30
0.0
 11
75.308800000000005
 21
82.0
 31
0.0
  0
LINE
  5
300
  8
0
 10
75.102900000000005
 20
81.903800000000004
 30
0.0
 11
75.349999999999994
 21
81.903800000000004
 31
0.0
  0
LINE
  5
301
  8
0
 10
75.0
 20
81.711500000000001
 30
0.0
 11
75.102900000000005
 21
81.903800000000004
 31
0.0
  0
LINE
  5
302
  8
0
 10
75.0
 20
81.711500000000001
 30
0.0
 11
75.0
 21
80.0
 31
0.0
  0
LINE
  5
303
  8
0
 10
90.680000000000007
 20
80.0
 30
0.0
 11
91.639999999999986
 21
80.0
 31
0.0
  0
LINE
  5
304
  8
0
 10
92.0
 20
80.0
 30
0.0
 11
92.0
 21
75.0
 31
0.0
  0
LINE
  5
305
  8
0
 10
91.639999999999986
 20
80.0
 30
0.0
 11
92.0
 21
80.0
 31
0.0
  0
LINE
  5
306
  8
0
 10
66.0
 20
77.888000000000005
 30
0.0
 11
66.0
 21
70.0
 31
0.0
  0
LINE
  5
307
  8
0
 10
62.152000000000001
 20
70.944000000000003
 30
0.0
 11
63.496000000000002
 21
67.584000000000003
 31
0.0
  0
LINE
  5
308
  8
0
 10
63.496000000000002
 20
67.584000000000003
 30
0.0
 11
64.0
 21
64.0
 31
0.0
  0
LINE
  5
309
  8
0
 10
38.431999999999988
 20
60.927999999999997
 30
0.0
 11
39.584000000000003
 21
58.048000000000002
 31
0.0
  0
LINE
  5
30A
  8
0
 10
38.0
 20
64.0
 30
0.0
 11
38.431999999999988
 21
60.927999999999997
 31
0.0
  0
LINE
  5
30B
  8
0
 10
38.0
 20
64.0
 30
0.0
 11
38.431999999999988
 21
67.072000000000003
 31
0.0
  0
LINE
  5
30C
  8
0
 10
36.503999999999991
 20
60.415999999999997
 30
0.0
 11
37.847999999999999
 21
57.055999999999997
 31
0.0
  0
LINE
  5
30D
  8
0
 10
36.0
 20
64.0
 30
0.0
 11
36.503999999999991
 21
60.415999999999997
 31
0.0
  0
LINE
  5
30E
  8
0
 10
36.0
 20
64.0
 30
0.0
 11
36.503999999999991
 21
67.584000000000003
 31
0.0
  0
ENDSEC
  0
EOF
