  0
SECTION
  2
HEADER
  9
$ACADVER
  1
AC1009
  9
$INSBASE
 10
0.0
 20
0.0
 30
0.0
  9
$EXTMIN
 10
-0.002289
 20
-0.001221
 30
-0.002929
  9
$EXTMAX
 10
75.002289
 20
40.001221
 30
96.00293
  9
$LIMMIN
 10
0.0
 20
0.0
  9
$LIMMAX
 10
12.0
 20
9.0
  9
$ORTHOMODE
 70
     0
  9
$REGENMODE
 70
     1
  9
$FILLMODE
 70
     1
  9
$QTEXTMODE
 70
     0
  9
$MIRRTEXT
 70
     1
  9
$DRAGMODE
 70
     2
  9
$LTSCALE
 40
1.0
  9
$OSMODE
 70
     0
  9
$ATTMODE
 70
     1
  9
$TEXTSIZE
 40
0.2
  9
$TRACEWID
 40
0.05
  9
$TEXTSTYLE
  7
STANDARD
  9
$CLAYER
  8
0
  9
$CELTYPE
  6
BYLAYER
  9
$CECOLOR
 62
   256
  9
$DIMSCALE
 40
1.0
  9
$DIMASZ
 40
0.18
  9
$DIMEXO
 40
0.0625
  9
$DIMDLI
 40
0.38
  9
$DIMRND
 40
0.0
  9
$DIMDLE
 40
0.0
  9
$DIMEXE
 40
0.18
  9
$DIMTP
 40
0.0
  9
$DIMTM
 40
0.0
  9
$DIMTXT
 40
0.18
  9
$DIMCEN
 40
0.09
  9
$DIMTSZ
 40
0.0
  9
$DIMTOL
 70
     0
  9
$DIMLIM
 70
     0
  9
$DIMTIH
 70
     1
  9
$DIMTOH
 70
     1
  9
$DIMSE1
 70
     0
  9
$DIMSE2
 70
     0
  9
$DIMTAD
 70
     0
  9
$DIMZIN
 70
     0
  9
$DIMBLK
  1

  9
$DIMASO
 70
     1
  9
$DIMSHO
 70
     1
  9
$DIMPOST
  1

  9
$DIMAPOST
  1

  9
$DIMALT
 70
     0
  9
$DIMALTD
 70
     2
  9
$DIMALTF
 40
25.4
  9
$DIMLFAC
 40
1.0
  9
$DIMTOFL
 70
     0
  9
$DIMTVP
 40
0.0
  9
$DIMTIX
 70
     0
  9
$DIMSOXD
 70
     0
  9
$DIMSAH
 70
     0
  9
$DIMBLK1
  1

  9
$DIMBLK2
  1

  9
$DIMSTYLE
  2
STANDARD
  9
$DIMCLRD
 70
     0
  9
$DIMCLRE
 70
     0
  9
$DIMCLRT
 70
     0
  9
$DIMTFAC
 40
1.0
  9
$DIMGAP
 40
0.09
  9
$LUNITS
 70
     2
  9
$LUPREC
 70
     4
  9
$SKETCHINC
 40
0.1
  9
$FILLETRAD
 40
0.5
  9
$AUNITS
 70
     0
  9
$AUPREC
 70
     0
  9
$MENU
  1
.
  9
$ELEVATION
 40
0.0
  9
$PELEVATION
 40
0.0
  9
$THICKNESS
 40
0.0
  9
$LIMCHECK
 70
     0
  9
$BLIPMODE
 70
     0
  9
$CHAMFERA
 40
0.5
  9
$CHAMFERB
 40
0.5
  9
$SKPOLY
 70
     1
  9
$TDCREATE
 40
2451535.382586
  9
$TDUPDATE
 40
2451535.422107
  9
$TDINDWG
 40
0.039521
  9
$TDUSRTIMER
 40
0.039521
  9
$USRTIMER
 70
     1
  9
$ANGBASE
 50
0.0
  9
$ANGDIR
 70
     0
  9
$PDMODE
 70
     0
  9
$PDSIZE
 40
0.0
  9
$PLINEWID
 40
0.0
  9
$COORDS
 70
     1
  9
$SPLFRAME
 70
     0
  9
$SPLINETYPE
 70
     6
  9
$SPLINESEGS
 70
     8
  9
$ATTDIA
 70
     0
  9
$ATTREQ
 70
     1
  9
$HANDLING
 70
     1
  9
$HANDSEED
  5
33F
  9
$SURFTAB1
 70
     6
  9
$SURFTAB2
 70
     6
  9
$SURFTYPE
 70
     6
  9
$SURFU
 70
     6
  9
$SURFV
 70
     6
  9
$UCSNAME
  2

  9
$UCSORG
 10
0.0
 20
0.0
 30
0.0
  9
$UCSXDIR
 10
1.0
 20
0.0
 30
0.0
  9
$UCSYDIR
 10
0.0
 20
1.0
 30
0.0
  9
$PUCSNAME
  2

  9
$PUCSORG
 10
0.0
 20
0.0
 30
0.0
  9
$PUCSXDIR
 10
1.0
 20
0.0
 30
0.0
  9
$PUCSYDIR
 10
0.0
 20
1.0
 30
0.0
  9
$USERI1
 70
     0
  9
$USERI2
 70
     0
  9
$USERI3
 70
     0
  9
$USERI4
 70
     0
  9
$USERI5
 70
     0
  9
$USERR1
 40
0.0
  9
$USERR2
 40
0.0
  9
$USERR3
 40
0.0
  9
$USERR4
 40
0.0
  9
$USERR5
 40
0.0
  9
$WORLDVIEW
 70
     1
  9
$SHADEDGE
 70
     3
  9
$SHADEDIF
 70
    70
  9
$TILEMODE
 70
     1
  9
$MAXACTVP
 70
    48
  9
$PLIMCHECK
 70
     0
  9
$PEXTMIN
 10
1.000000E+020
 20
1.000000E+020
 30
1.000000E+020
  9
$PEXTMAX
 10
-1.000000E+020
 20
-1.000000E+020
 30
-1.000000E+020
  9
$PLIMMIN
 10
0.0
 20
0.0
  9
$PLIMMAX
 10
12.0
 20
9.0
  9
$UNITMODE
 70
     0
  9
$VISRETAIN
 70
     1
  9
$PLINEGEN
 70
     0
  9
$PSLTSCALE
 70
     1
  0
ENDSEC
  0
SECTION
  2
TABLES
  0
TABLE
  2
VPORT
 70
    10
  0
VPORT
  2
*ACTIVE
 70
     0
 10
0.0
 20
0.0
 11
1.0
 21
1.0
 12
12.374369
 22
62.666113
 13
0.0
 23
0.0
 14
0.5
 24
0.5
 15
0.5
 25
0.5
 16
-1.0
 26
-1.0
 36
1.0
 17
0.0
 27
0.0
 37
0.0
 40
126.933178
 41
2.012739
 42
50.0
 43
0.0
 44
0.0
 50
0.0
 51
0.0
 71
     0
 72
   100
 73
     1
 74
     1
 75
     0
 76
     0
 77
     0
 78
     0
  0
ENDTAB
  0
TABLE
  2
LTYPE
 70
     1
  0
LTYPE
  2
CONTINUOUS
 70
     0
  3
Solid line
 72
    65
 73
     0
 40
0.0
  0
ENDTAB
  0
TABLE
  2
LAYER
 70
     2
  0
LAYER
  2
0
 70
     0
 62
     7
  6
CONTINUOUS
  0
LAYER
  2
ASHADE
 70
     4
 62
     7
  6
CONTINUOUS
  0
ENDTAB
  0
TABLE
  2
STYLE
 70
     2
  0
STYLE
  2
STANDARD
 70
     0
 40
0.0
 41
1.0
 50
0.0
 71
     0
 42
0.2
  3
txt
  4

  0
STYLE
  2
ASHADE
 70
     0
 40
0.2
 41
1.0
 50
0.0
 71
     0
 42
0.2
  3
simplex.shx
  4

  0
ENDTAB
  0
TABLE
  2
VIEW
 70
     0
  0
ENDTAB
  0
TABLE
  2
UCS
 70
     0
  0
ENDTAB
  0
TABLE
  2
APPID
 70
     6
  0
APPID
  2
ACAD
 70
     0
  0
APPID
  2
AVE_RENDER
 70
     0
  0
APPID
  2
AVE_ENTITY_MATERIAL
 70
     0
  0
APPID
  2
AVE_FINISH
 70
     0
  0
APPID
  2
AVE_MATERIAL
 70
     0
  0
APPID
  2
AVE_GLOBAL
 70
     0
  0
ENDTAB
  0
TABLE
  2
DIMSTYLE
 70
     1
  0
DIMSTYLE
  2
STANDARD
 70
     0
  3

  4

  5

  6

  7

 40
1.0
 41
0.18
 42
0.0625
 43
0.38
 44
0.18
 45
0.0
 46
0.0
 47
0.0
 48
0.0
140
0.18
141
0.09
142
0.0
143
25.4
144
1.0
145
0.0
146
1.0
147
0.09
 71
     0
 72
     0
 73
     1
 74
     1
 75
     0
 76
     0
 77
     0
 78
     0
170
     0
171
     2
172
     0
173
     0
174
     0
175
     0
176
     0
177
     0
178
     0
  0
ENDTAB
  0
ENDSEC
  0
SECTION
  2
BLOCKS
  0
BLOCK
  8
0
  2
$MODEL_SPACE
 70
     0
 10
0.0
 20
0.0
 30
0.0
  3
$MODEL_SPACE
  1

  0
ENDBLK
  5
1B
  8
0
  0
BLOCK
 67
     1
  8
0
  2
$PAPER_SPACE
 70
     0
 10
0.0
 20
0.0
 30
0.0
  3
$PAPER_SPACE
  1

  0
ENDBLK
  5
18
 67
     1
  8
0
  0
BLOCK
  8
ASHADE
  2
AVE_RENDER
 70
     0
 10
0.0
 20
0.0
 30
0.0
  3
AVE_RENDER
  1
AVE_RENDER
  0
ENDBLK
  5
18F
  8
0
  0
BLOCK
  8
ASHADE
  2
AVE_GLOBAL
 70
     0
 10
0.0
 20
0.0
 30
0.0
  3
AVE_GLOBAL
  1
AVE_GLOBAL
  0
ENDBLK
  5
19D
  8
0
  0
ENDSEC
  0
SECTION
  2
ENTITIES
  0
INSERT
  5
190
  8
ASHADE
 62
     1
  2
AVE_RENDER
 10
0.0
 20
0.0
 30
0.0
1001
AVE_RENDER
1002
{
1070
     7
1000
Pref
1070
    30
1070
    20
1070
     1
1070
     0
1000

1070
    10
1070
     1
1070
    10
1040
1.0
1070
     1
1040
0.3
1040
0.7
1040
0.0
1040
10.0
1010
-1.0
1020
-1.0
1030
-1.0
1040
0.3
1070
    49
1070
     0
1070
     0
1010
1.0
1020
1.0
1030
1.0
1040
45.0
1070
     1
1070
     0
1000
WCS
1040
0.0
1070
     0
1040
10.0
1002
}
  0
INSERT
  5
191
  8
ASHADE
 62
     3
  2
AVE_RENDER
 10
0.0
 20
0.0
 30
0.0
1001
AVE_RENDER
1002
{
1070
     0
1000
Full Opt
1070
     0
1070
     1
1070
     1
1070
     1
1070
     0
1070
     0
1070
     0
1070
     1
1070
     1
1040
0.0001
1040
0.0001
1002
}
  0
INSERT
  5
192
  8
ASHADE
 62
     4
  2
AVE_RENDER
 10
0.0
 20
0.0
 30
0.0
1001
AVE_RENDER
1002
{
1070
     0
1000
Quick Opt
1070
     0
1070
     1
1070
     1
1070
     1
1070
     0
1070
     0
1070
     1
1002
}
  0
INSERT
  5
193
  8
ASHADE
 62
     5
  2
AVE_RENDER
 10
0.0
 20
0.0
 30
0.0
1001
AVE_RENDER
1002
{
1070
     1
1000
Scanl Opt
1070
     2
1070
     0
1070
     2
1040
2.0
1040
4.0
1070
     0
1070
     1
1070
     0
1040
0.03
1002
}
  0
INSERT
  5
194
  8
ASHADE
 62
     6
  2
AVE_RENDER
 10
0.0
 20
0.0
 30
0.0
1001
AVE_RENDER
1002
{
1070
     2
1000
Raytr Opt
1070
     2
1070
     0
1070
     2
1040
2.0
1040
4.0
1070
     0
1070
     1
1070
     1
1040
0.03
1070
     3
1040
0.03
1002
}
  0
INSERT
  5
195
  8
ASHADE
 62
     7
  2
AVE_RENDER
 10
0.0
 20
0.0
 30
0.0
1001
AVE_RENDER
1002
{
1070
     0
1000
RFile Opt
1070
     1
1070
   640
1070
   480
1070
 10000
1070
     1
1070
     8
1070
     8
1070
     0
1070
     0
1070
     0
1070
     0
1070
     0
1070
     0
1070
     0
1002
}
  0
INSERT
  5
196
  8
ASHADE
 62
     8
  2
AVE_RENDER
 10
0.0
 20
0.0
 30
0.0
1001
AVE_RENDER
1002
{
1070
     0
1000
Fog Opt
1070
     0
1070
     0
1040
0.0
1040
1.0
1040
0.0
1040
1.0
1010
0.5
1020
0.5
1030
0.5
1002
}
  0
INSERT
  5
197
  8
ASHADE
 62
     9
  2
AVE_RENDER
 10
0.0
 20
0.0
 30
0.0
1001
AVE_RENDER
1002
{
1070
     0
1000
BG Opt
1070
     0
1070
     1
1010
0.0
1020
0.0
1030
0.0
1010
1.0
1020
0.0
1030
0.0
1010
0.0
1020
1.0
1030
0.0
1010
0.0
1020
0.0
1030
1.0
1040
0.5
1040
0.33
1040
0.0
1000

1070
     1
1000

1070
     1
1070
     1
1040
1.0
1040
1.0
1040
0.0
1040
0.0
1070
     0
1002
}
  0
INSERT
  5
19E
  8
ASHADE
 62
     1
  2
AVE_GLOBAL
 10
0.0
 20
0.0
 30
0.0
1001
AVE_MATERIAL
1002
{
1000
*GLOBAL*
1000
1
1000
Global finish.
1002
{
1002
}
1002
{
1070
    63
1002
{
1002
{
1010
-1.0
1020
-1.0
1030
-1.0
1002
}
1040
0.1
1000

1040
0.0
1002
{
1002
}
1040
0.0
1002
{
1002
}
1040
0.0
1002
}
1002
{
1002
{
1010
-1.0
1020
-1.0
1030
-1.0
1002
}
1040
0.7
1000

1040
0.0
1002
{
1002
}
1040
0.0
1002
{
1002
}
1040
0.0
1002
}
1002
{
1002
{
1010
-1.0
1020
-1.0
1030
-1.0
1002
}
1040
0.2
1000

1040
0.0
1002
{
1002
}
1040
0.0
1002
{
1002
}
1040
0.0
1002
}
1002
{
1070
     0
1002
{
1070
     1
1002
{
1040
1.0
1040
1.0
1000

1040
0.0
1002
{
1002
}
1040
0.0
1002
{
1002
}
1040
0.0
1002
}
1002
}
1040
1.0
1040
0.0
1040
0.0
1002
}
1002
{
1040
1.0
1040
1.0
1000

1040
0.0
1002
{
1002
}
1040
0.0
1002
{
1002
}
1040
0.0
1002
}
1002
{
1040
0.5
1040
1.0
1000

1040
0.0
1002
{
1002
}
1040
0.0
1002
{
1002
}
1040
0.0
1002
}
1002
{
1070
     0
1040
0.0
1002
{
1002
}
1040
1.0
1002
{
1002
}
1040
0.0
1002
}
1002
{
1040
0.0
1002
{
1002
{
1010
0.0
1020
0.0
1030
0.0
1002
}
1040
1.0
1000

1040
0.0
1002
{
1002
}
1040
0.0
1002
{
1002
}
1040
0.0
1002
}
1002
}
1002
{
1002
{
1070
     1
1002
{
1040
0.0
1040
1.0
1000

1040
0.0
1002
{
1002
}
1040
0.0
1002
{
1002
}
1040
0.0
1002
}
1002
}
1040
0.0
1002
{
1002
}
1010
1.0
1020
0.0
1030
0.0
1010
0.0
1020
1.0
1030
0.0
1010
0.0
1020
0.0
1030
1.0
1070
     0
1002
}
1002
{
1002
{
1040
1.0
1040
1.0
1002
{
1070
     1
1002
{
1040
1.0
1040
1.0
1000

1040
0.0
1002
{
1002
}
1040
0.0
1002
{
1002
}
1040
0.0
1002
}
1002
}
1002
}
1070
     0
1040
0.0
1002
{
1002
}
1002
}
1002
{
1002
}
1002
}
1002
{
1071
        3
1070
     3
1070
     0
1002
{
1070
     2
1070
     0
1070
     0
1040
0.0
1002
}
1070
     0
1070
     2
1002
{
1002
}
1002
}
1002
{
1040
8030.0
1040
190.300003
1040
0.305
1040
228.0
1040
545.0
1040
14.0
1040
17.4
1040
0.456
1002
}
1002
}
  0
POLYLINE
  5
1E0
  8
0
 66
     1
 10
0.0
 20
0.0
 30
0.0
 70
    16
 71
     5
 72
    11
  0
VERTEX
  5
1E1
  8
0
 10
37.5
 20
13.0
 30
84.0
 70
    64
  0
VERTEX
  5
1E2
  8
0
 10
37.5
 20
12.5
 30
82.1
 70
    64
  0
VERTEX
  5
1E3
  8
0
 10
37.5
 20
11.2
 30
79.2
 70
    64
  0
VERTEX
  5
1E4
  8
0
 10
37.5
 20
9.2
 30
73.5
 70
    64
  0
VERTEX
  5
1E5
  8
0
 10
37.5
 20
6.5
 30
66.1
 70
    64
  0
VERTEX
  5
1E6
  8
0
 10
37.5
 20
3.3
 30
57.6
 70
    64
  0
VERTEX
  5
1E7
  8
0
 10
37.5
 20
0.0
 30
48.5
 70
    64
  0
VERTEX
  5
1E8
  8
0
 10
37.5
 20
0.0
 30
10.0
 70
    64
  0
VERTEX
  5
1E9
  8
0
 10
37.5
 20
0.0
 30
6.0
 70
    64
  0
VERTEX
  5
1EA
  8
0
 10
37.5
 20
0.0
 30
3.0
 70
    64
  0
VERTEX
  5
1EB
  8
0
 10
37.5
 20
0.0
 30
2.0
 70
    64
  0
VERTEX
  5
1EC
  8
0
 10
37.5
 20
13.0
 30
84.0
 70
    64
  0
VERTEX
  5
1ED
  8
0
 10
28.3
 20
12.5
 30
82.7
 70
    64
  0
VERTEX
  5
1EE
  8
0
 10
19.8
 20
11.2
 30
79.2
 70
    64
  0
VERTEX
  5
1EF
  8
0
 10
12.4
 20
9.2
 30
73.5
 70
    64
  0
VERTEX
  5
1F0
  8
0
 10
6.7
 20
6.5
 30
66.1
 70
    64
  0
VERTEX
  5
1F1
  8
0
 10
3.2
 20
3.3
 30
57.6
 70
    64
  0
VERTEX
  5
1F2
  8
0
 10
2.0
 20
0.0
 30
48.5
 70
    64
  0
VERTEX
  5
1F3
  8
0
 10
2.0
 20
0.0
 30
10.0
 70
    64
  0
VERTEX
  5
1F4
  8
0
 10
11.0
 20
0.0
 30
6.0
 70
    64
  0
VERTEX
  5
1F5
  8
0
 10
23.8
 20
0.0
 30
3.0
 70
    64
  0
VERTEX
  5
1F6
  8
0
 10
37.5
 20
0.0
 30
2.0
 70
    64
  0
VERTEX
  5
1F7
  8
0
 10
37.5
 20
15.0
 30
86.0
 70
    64
  0
VERTEX
  5
1F8
  8
0
 10
27.8
 20
14.5
 30
84.7
 70
    64
  0
VERTEX
  5
1F9
  8
0
 10
18.8
 20
13.3
 30
81.0
 70
    64
  0
VERTEX
  5
1FA
  8
0
 10
11.0
 20
11.2
 30
75.0
 70
    64
  0
VERTEX
  5
1FB
  8
0
 10
5.0
 20
8.5
 30
67.2
 70
    64
  0
VERTEX
  5
1FC
  8
0
 10
1.3
 20
5.4
 30
58.2
 70
    64
  0
VERTEX
  5
1FD
  8
0
 10
0.0
 20
2.0
 30
48.5
 70
    64
  0
VERTEX
  5
1FE
  8
0
 10
0.0
 20
2.0
 30
10.0
 70
    64
  0
VERTEX
  5
1FF
  8
0
 10
9.9
 20
2.0
 30
4.9
 70
    64
  0
VERTEX
  5
200
  8
0
 10
23.1
 20
2.0
 30
1.3
 70
    64
  0
VERTEX
  5
201
  8
0
 10
37.5
 20
2.0
 30
0.0
 70
    64
  0
VERTEX
  5
202
  8
0
 10
37.5
 20
25.0
 30
86.0
 70
    64
  0
VERTEX
  5
203
  8
0
 10
27.8
 20
25.0
 30
84.7
 70
    64
  0
VERTEX
  5
204
  8
0
 10
18.8
 20
25.0
 30
81.0
 70
    64
  0
VERTEX
  5
205
  8
0
 10
11.0
 20
25.0
 30
75.0
 70
    64
  0
VERTEX
  5
206
  8
0
 10
5.0
 20
25.0
 30
67.2
 70
    64
  0
VERTEX
  5
207
  8
0
 10
1.3
 20
25.0
 30
58.2
 70
    64
  0
VERTEX
  5
208
  8
0
 10
0.0
 20
25.0
 30
48.5
 70
    64
  0
VERTEX
  5
209
  8
0
 10
0.0
 20
25.0
 30
10.0
 70
    64
  0
VERTEX
  5
20A
  8
0
 10
9.9
 20
25.0
 30
4.9
 70
    64
  0
VERTEX
  5
20B
  8
0
 10
23.1
 20
25.0
 30
1.3
 70
    64
  0
VERTEX
  5
20C
  8
0
 10
37.5
 20
25.0
 30
0.0
 70
    64
  0
VERTEX
  5
20D
  8
0
 10
37.5
 20
27.0
 30
84.0
 70
    64
  0
VERTEX
  5
20E
  8
0
 10
28.3
 20
27.0
 30
82.7
 70
    64
  0
VERTEX
  5
20F
  8
0
 10
19.8
 20
27.0
 30
79.2
 70
    64
  0
VERTEX
  5
210
  8
0
 10
12.4
 20
27.0
 30
73.5
 70
    64
  0
VERTEX
  5
211
  8
0
 10
6.7
 20
27.0
 30
66.1
 70
    64
  0
VERTEX
  5
212
  8
0
 10
3.2
 20
27.0
 30
57.6
 70
    64
  0
VERTEX
  5
213
  8
0
 10
2.0
 20
27.0
 30
48.5
 70
    64
  0
VERTEX
  5
214
  8
0
 10
2.0
 20
27.0
 30
10.0
 70
    64
  0
VERTEX
  5
215
  8
0
 10
11.0
 20
27.0
 30
6.0
 70
    64
  0
VERTEX
  5
216
  8
0
 10
23.8
 20
27.0
 30
3.0
 70
    64
  0
VERTEX
  5
217
  8
0
 10
37.5
 20
27.0
 30
2.0
 70
    64
  0
SEQEND
  5
218
  8
0
  0
POLYLINE
  5
23D
  8
0
 66
     1
 10
0.0
 20
0.0
 30
0.0
 70
    16
 71
     3
 72
    11
  0
VERTEX
  5
23E
  8
0
 10
37.5
 20
27.0
 30
84.0
 70
    64
  0
VERTEX
  5
23F
  8
0
 10
28.3
 20
27.0
 30
82.7
 70
    64
  0
VERTEX
  5
240
  8
0
 10
19.8
 20
27.0
 30
79.2
 70
    64
  0
VERTEX
  5
241
  8
0
 10
12.4
 20
27.0
 30
73.5
 70
    64
  0
VERTEX
  5
242
  8
0
 10
6.7
 20
27.0
 30
66.1
 70
    64
  0
VERTEX
  5
243
  8
0
 10
3.2
 20
27.0
 30
57.6
 70
    64
  0
VERTEX
  5
244
  8
0
 10
2.0
 20
27.0
 30
48.5
 70
    64
  0
VERTEX
  5
245
  8
0
 10
2.0
 20
27.0
 30
10.0
 70
    64
  0
VERTEX
  5
246
  8
0
 10
11.0
 20
27.0
 30
6.0
 70
    64
  0
VERTEX
  5
247
  8
0
 10
23.8
 20
27.0
 30
3.0
 70
    64
  0
VERTEX
  5
248
  8
0
 10
37.5
 20
27.0
 30
2.0
 70
    64
  0
VERTEX
  5
249
  8
0
 10
37.5
 20
28.0
 30
86.0
 70
    64
  0
VERTEX
  5
24A
  8
0
 10
27.8
 20
28.0
 30
84.7
 70
    64
  0
VERTEX
  5
24B
  8
0
 10
18.8
 20
28.0
 30
81.0
 70
    64
  0
VERTEX
  5
24C
  8
0
 10
11.0
 20
28.0
 30
75.0
 70
    64
  0
VERTEX
  5
24D
  8
0
 10
5.0
 20
28.0
 30
67.2
 70
    64
  0
VERTEX
  5
24E
  8
0
 10
1.3
 20
28.0
 30
58.2
 70
    64
  0
VERTEX
  5
24F
  8
0
 10
0.0
 20
28.0
 30
48.5
 70
    64
  0
VERTEX
  5
250
  8
0
 10
0.0
 20
28.0
 30
10.0
 70
    64
  0
VERTEX
  5
251
  8
0
 10
9.9
 20
28.0
 30
4.9
 70
    64
  0
VERTEX
  5
252
  8
0
 10
23.1
 20
28.0
 30
1.3
 70
    64
  0
VERTEX
  5
253
  8
0
 10
37.5
 20
28.0
 30
0.0
 70
    64
  0
VERTEX
  5
254
  8
0
 10
37.5
 20
40.0
 30
86.0
 70
    64
  0
VERTEX
  5
255
  8
0
 10
27.8
 20
40.0
 30
84.7
 70
    64
  0
VERTEX
  5
256
  8
0
 10
18.8
 20
40.0
 30
81.0
 70
    64
  0
VERTEX
  5
257
  8
0
 10
11.0
 20
40.0
 30
75.0
 70
    64
  0
VERTEX
  5
258
  8
0
 10
5.0
 20
40.0
 30
67.2
 70
    64
  0
VERTEX
  5
259
  8
0
 10
1.3
 20
40.0
 30
58.2
 70
    64
  0
VERTEX
  5
25A
  8
0
 10
0.0
 20
40.0
 30
48.5
 70
    64
  0
VERTEX
  5
25B
  8
0
 10
0.0
 20
32.0
 30
10.0
 70
    64
  0
VERTEX
  5
25C
  8
0
 10
9.9
 20
30.5
 30
4.9
 70
    64
  0
VERTEX
  5
25D
  8
0
 10
23.1
 20
29.5
 30
1.3
 70
    64
  0
VERTEX
  5
25E
  8
0
 10
37.5
 20
29.0
 30
0.0
 70
    64
  0
SEQEND
  5
25F
  8
0
  0
POLYLINE
  5
260
  8
0
 66
     1
 10
0.0
 20
0.0
 30
0.0
 70
    16
 71
     3
 72
    11
  0
VERTEX
  5
261
  8
0
 10
37.5
 20
27.0
 30
84.0
 70
    64
  0
VERTEX
  5
262
  8
0
 10
46.7
 20
27.0
 30
82.7
 70
    64
  0
VERTEX
  5
263
  8
0
 10
55.2
 20
27.0
 30
79.2
 70
    64
  0
VERTEX
  5
264
  8
0
 10
62.6
 20
27.0
 30
73.5
 70
    64
  0
VERTEX
  5
265
  8
0
 10
68.3
 20
27.0
 30
66.1
 70
    64
  0
VERTEX
  5
266
  8
0
 10
71.8
 20
27.0
 30
57.6
 70
    64
  0
VERTEX
  5
267
  8
0
 10
73.0
 20
27.0
 30
48.5
 70
    64
  0
VERTEX
  5
268
  8
0
 10
73.0
 20
27.0
 30
10.0
 70
    64
  0
VERTEX
  5
269
  8
0
 10
64.0
 20
27.0
 30
6.0
 70
    64
  0
VERTEX
  5
26A
  8
0
 10
51.2
 20
27.0
 30
3.0
 70
    64
  0
VERTEX
  5
26B
  8
0
 10
37.5
 20
27.0
 30
2.0
 70
    64
  0
VERTEX
  5
26C
  8
0
 10
37.5
 20
28.0
 30
86.0
 70
    64
  0
VERTEX
  5
26D
  8
0
 10
47.2
 20
28.0
 30
84.7
 70
    64
  0
VERTEX
  5
26E
  8
0
 10
56.2
 20
28.0
 30
81.0
 70
    64
  0
VERTEX
  5
26F
  8
0
 10
64.0
 20
28.0
 30
75.0
 70
    64
  0
VERTEX
  5
270
  8
0
 10
70.0
 20
28.0
 30
67.2
 70
    64
  0
VERTEX
  5
271
  8
0
 10
73.7
 20
28.0
 30
58.2
 70
    64
  0
VERTEX
  5
272
  8
0
 10
75.0
 20
28.0
 30
48.5
 70
    64
  0
VERTEX
  5
273
  8
0
 10
75.0
 20
28.0
 30
10.0
 70
    64
  0
VERTEX
  5
274
  8
0
 10
65.1
 20
28.0
 30
4.9
 70
    64
  0
VERTEX
  5
275
  8
0
 10
51.9
 20
28.0
 30
1.3
 70
    64
  0
VERTEX
  5
276
  8
0
 10
37.5
 20
28.0
 30
0.0
 70
    64
  0
VERTEX
  5
277
  8
0
 10
37.5
 20
40.0
 30
86.0
 70
    64
  0
VERTEX
  5
278
  8
0
 10
47.2
 20
40.0
 30
84.7
 70
    64
  0
VERTEX
  5
279
  8
0
 10
56.2
 20
40.0
 30
81.0
 70
    64
  0
VERTEX
  5
27A
  8
0
 10
64.0
 20
40.0
 30
75.0
 70
    64
  0
VERTEX
  5
27B
  8
0
 10
70.0
 20
40.0
 30
67.2
 70
    64
  0
VERTEX
  5
27C
  8
0
 10
73.7
 20
40.0
 30
58.2
 70
    64
  0
VERTEX
  5
27D
  8
0
 10
75.0
 20
40.0
 30
48.5
 70
    64
  0
VERTEX
  5
27E
  8
0
 10
75.0
 20
32.0
 30
10.0
 70
    64
  0
VERTEX
  5
27F
  8
0
 10
65.1
 20
30.5
 30
4.9
 70
    64
  0
VERTEX
  5
280
  8
0
 10
51.9
 20
29.5
 30
1.3
 70
    64
  0
VERTEX
  5
281
  8
0
 10
37.5
 20
29.0
 30
0.0
 70
    64
  0
SEQEND
  5
282
  8
0
  0
POLYLINE
  5
283
  8
0
 66
     1
 10
0.0
 20
0.0
 30
0.0
 70
    16
 71
     5
 72
    11
  0
VERTEX
  5
284
  8
0
 10
37.5
 20
13.0
 30
84.0
 70
    64
  0
VERTEX
  5
285
  8
0
 10
37.5
 20
12.5
 30
82.1
 70
    64
  0
VERTEX
  5
286
  8
0
 10
37.5
 20
11.2
 30
79.2
 70
    64
  0
VERTEX
  5
287
  8
0
 10
37.5
 20
9.2
 30
73.5
 70
    64
  0
VERTEX
  5
288
  8
0
 10
37.5
 20
6.5
 30
66.1
 70
    64
  0
VERTEX
  5
289
  8
0
 10
37.5
 20
3.3
 30
57.6
 70
    64
  0
VERTEX
  5
28A
  8
0
 10
37.5
 20
0.0
 30
48.5
 70
    64
  0
VERTEX
  5
28B
  8
0
 10
37.5
 20
0.0
 30
10.0
 70
    64
  0
VERTEX
  5
28C
  8
0
 10
37.5
 20
0.0
 30
6.0
 70
    64
  0
VERTEX
  5
28D
  8
0
 10
37.5
 20
0.0
 30
3.0
 70
    64
  0
VERTEX
  5
28E
  8
0
 10
37.5
 20
0.0
 30
2.0
 70
    64
  0
VERTEX
  5
28F
  8
0
 10
37.5
 20
13.0
 30
84.0
 70
    64
  0
VERTEX
  5
290
  8
0
 10
46.7
 20
12.5
 30
82.7
 70
    64
  0
VERTEX
  5
291
  8
0
 10
55.2
 20
11.2
 30
79.2
 70
    64
  0
VERTEX
  5
292
  8
0
 10
62.6
 20
9.2
 30
73.5
 70
    64
  0
VERTEX
  5
293
  8
0
 10
68.3
 20
6.5
 30
66.1
 70
    64
  0
VERTEX
  5
294
  8
0
 10
71.8
 20
3.3
 30
57.6
 70
    64
  0
VERTEX
  5
295
  8
0
 10
73.0
 20
0.0
 30
48.5
 70
    64
  0
VERTEX
  5
296
  8
0
 10
73.0
 20
0.0
 30
10.0
 70
    64
  0
VERTEX
  5
297
  8
0
 10
64.0
 20
0.0
 30
6.0
 70
    64
  0
VERTEX
  5
298
  8
0
 10
51.2
 20
0.0
 30
3.0
 70
    64
  0
VERTEX
  5
299
  8
0
 10
37.5
 20
0.0
 30
2.0
 70
    64
  0
VERTEX
  5
29A
  8
0
 10
37.5
 20
15.0
 30
86.0
 70
    64
  0
VERTEX
  5
29B
  8
0
 10
47.2
 20
14.5
 30
84.7
 70
    64
  0
VERTEX
  5
29C
  8
0
 10
56.2
 20
13.3
 30
81.0
 70
    64
  0
VERTEX
  5
29D
  8
0
 10
64.0
 20
11.2
 30
75.0
 70
    64
  0
VERTEX
  5
29E
  8
0
 10
70.0
 20
8.5
 30
67.2
 70
    64
  0
VERTEX
  5
29F
  8
0
 10
73.7
 20
5.4
 30
58.2
 70
    64
  0
VERTEX
  5
2A0
  8
0
 10
75.0
 20
2.0
 30
48.5
 70
    64
  0
VERTEX
  5
2A1
  8
0
 10
75.0
 20
2.0
 30
10.0
 70
    64
  0
VERTEX
  5
2A2
  8
0
 10
65.1
 20
2.0
 30
4.9
 70
    64
  0
VERTEX
  5
2A3
  8
0
 10
51.9
 20
2.0
 30
1.3
 70
    64
  0
VERTEX
  5
2A4
  8
0
 10
37.5
 20
2.0
 30
0.0
 70
    64
  0
VERTEX
  5
2A5
  8
0
 10
37.5
 20
25.0
 30
86.0
 70
    64
  0
VERTEX
  5
2A6
  8
0
 10
47.2
 20
25.0
 30
84.7
 70
    64
  0
VERTEX
  5
2A7
  8
0
 10
56.2
 20
25.0
 30
81.0
 70
    64
  0
VERTEX
  5
2A8
  8
0
 10
64.0
 20
25.0
 30
75.0
 70
    64
  0
VERTEX
  5
2A9
  8
0
 10
70.0
 20
25.0
 30
67.2
 70
    64
  0
VERTEX
  5
2AA
  8
0
 10
73.7
 20
25.0
 30
58.2
 70
    64
  0
VERTEX
  5
2AB
  8
0
 10
75.0
 20
25.0
 30
48.5
 70
    64
  0
VERTEX
  5
2AC
  8
0
 10
75.0
 20
25.0
 30
10.0
 70
    64
  0
VERTEX
  5
2AD
  8
0
 10
65.1
 20
25.0
 30
4.9
 70
    64
  0
VERTEX
  5
2AE
  8
0
 10
51.9
 20
25.0
 30
1.3
 70
    64
  0
VERTEX
  5
2AF
  8
0
 10
37.5
 20
25.0
 30
0.0
 70
    64
  0
VERTEX
  5
2B0
  8
0
 10
37.5
 20
27.0
 30
84.0
 70
    64
  0
VERTEX
  5
2B1
  8
0
 10
46.7
 20
27.0
 30
82.7
 70
    64
  0
VERTEX
  5
2B2
  8
0
 10
55.2
 20
27.0
 30
79.2
 70
    64
  0
VERTEX
  5
2B3
  8
0
 10
62.6
 20
27.0
 30
73.5
 70
    64
  0
VERTEX
  5
2B4
  8
0
 10
68.3
 20
27.0
 30
66.1
 70
    64
  0
VERTEX
  5
2B5
  8
0
 10
71.8
 20
27.0
 30
57.6
 70
    64
  0
VERTEX
  5
2B6
  8
0
 10
73.0
 20
27.0
 30
48.5
 70
    64
  0
VERTEX
  5
2B7
  8
0
 10
73.0
 20
27.0
 30
10.0
 70
    64
  0
VERTEX
  5
2B8
  8
0
 10
64.0
 20
27.0
 30
6.0
 70
    64
  0
VERTEX
  5
2B9
  8
0
 10
51.2
 20
27.0
 30
3.0
 70
    64
  0
VERTEX
  5
2BA
  8
0
 10
37.5
 20
27.0
 30
2.0
 70
    64
  0
SEQEND
  5
2BB
  8
0
  0
POLYLINE
  5
2BD
  8
0
 66
     1
 10
0.0
 20
0.0
 30
0.0
 70
    16
 71
     5
 72
     6
  0
VERTEX
  5
2BE
  8
0
 10
37.5
 20
21.0
 30
96.0
 70
    64
  0
VERTEX
  5
2BF
  8
0
 10
37.5
 20
19.5
 30
95.6
 70
    64
  0
VERTEX
  5
2C0
  8
0
 10
37.5
 20
18.2
 30
94.6
 70
    64
  0
VERTEX
  5
2C1
  8
0
 10
37.5
 20
17.3
 30
92.8
 70
    64
  0
VERTEX
  5
2C2
  8
0
 10
37.5
 20
17.0
 30
91.0
 70
    64
  0
VERTEX
  5
2C3
  8
0
 10
37.5
 20
17.0
 30
87.0
 70
    64
  0
VERTEX
  5
2C4
  8
0
 10
30.5
 20
21.0
 30
95.3
 70
    64
  0
VERTEX
  5
2C5
  8
0
 10
30.6
 20
19.5
 30
94.9
 70
    64
  0
VERTEX
  5
2C6
  8
0
 10
30.8
 20
18.2
 30
93.8
 70
    64
  0
VERTEX
  5
2C7
  8
0
 10
31.1
 20
17.3
 30
92.2
 70
    64
  0
VERTEX
  5
2C8
  8
0
 10
31.4
 20
17.0
 30
90.4
 70
    64
  0
VERTEX
  5
2C9
  8
0
 10
32.6
 20
17.0
 30
85.9
 70
    64
  0
VERTEX
  5
2CA
  8
0
 10
23.6
 20
21.0
 30
93.3
 70
    64
  0
VERTEX
  5
2CB
  8
0
 10
23.8
 20
19.5
 30
92.9
 70
    64
  0
VERTEX
  5
2CC
  8
0
 10
24.2
 20
18.2
 30
91.0
 70
    64
  0
VERTEX
  5
2CD
  8
0
 10
24.9
 20
17.3
 30
90.5
 70
    64
  0
VERTEX
  5
2CE
  8
0
 10
25.7
 20
17.0
 30
88.7
 70
    64
  0
VERTEX
  5
2CF
  8
0
 10
27.6
 20
17.0
 30
85.1
 70
    64
  0
VERTEX
  5
2D0
  8
0
 10
17.9
 20
21.0
 30
90.4
 70
    64
  0
VERTEX
  5
2D1
  8
0
 10
18.1
 20
19.5
 30
90.1
 70
    64
  0
VERTEX
  5
2D2
  8
0
 10
18.7
 20
18.2
 30
89.1
 70
    64
  0
VERTEX
  5
2D3
  8
0
 10
19.5
 20
17.3
 30
87.7
 70
    64
  0
VERTEX
  5
2D4
  8
0
 10
20.4
 20
17.0
 30
86.1
 70
    64
  0
VERTEX
  5
2D5
  8
0
 10
22.3
 20
17.0
 30
82.8
 70
    64
  0
VERTEX
  5
2D6
  8
0
 10
22.3
 20
21.0
 30
82.8
 70
    64
  0
VERTEX
  5
2D7
  8
0
 10
22.3
 20
21.0
 30
82.8
 70
    64
  0
VERTEX
  5
2D8
  8
0
 10
22.3
 20
21.0
 30
82.8
 70
    64
  0
VERTEX
  5
2D9
  8
0
 10
22.3
 20
21.0
 30
82.8
 70
    64
  0
VERTEX
  5
2DA
  8
0
 10
22.3
 20
21.0
 30
82.8
 70
    64
  0
VERTEX
  5
2DB
  8
0
 10
22.3
 20
21.0
 30
82.8
 70
    64
  0
SEQEND
  5
2DC
  8
0
  0
POLYLINE
  5
2DD
  8
0
 66
     1
 10
0.0
 20
0.0
 30
0.0
 70
    16
 71
     5
 72
     6
  0
VERTEX
  5
2DE
  8
0
 10
37.5
 20
21.0
 30
96.0
 70
    64
  0
VERTEX
  5
2DF
  8
0
 10
37.5
 20
22.5
 30
95.6
 70
    64
  0
VERTEX
  5
2E0
  8
0
 10
37.5
 20
23.8
 30
94.6
 70
    64
  0
VERTEX
  5
2E1
  8
0
 10
37.5
 20
24.7
 30
92.8
 70
    64
  0
VERTEX
  5
2E2
  8
0
 10
37.5
 20
25.0
 30
91.0
 70
    64
  0
VERTEX
  5
2E3
  8
0
 10
37.5
 20
25.0
 30
87.0
 70
    64
  0
VERTEX
  5
2E4
  8
0
 10
30.5
 20
21.0
 30
95.3
 70
    64
  0
VERTEX
  5
2E5
  8
0
 10
30.6
 20
22.5
 30
94.9
 70
    64
  0
VERTEX
  5
2E6
  8
0
 10
30.8
 20
23.8
 30
93.8
 70
    64
  0
VERTEX
  5
2E7
  8
0
 10
31.1
 20
24.7
 30
92.2
 70
    64
  0
VERTEX
  5
2E8
  8
0
 10
31.4
 20
25.0
 30
90.4
 70
    64
  0
VERTEX
  5
2E9
  8
0
 10
32.6
 20
25.0
 30
85.9
 70
    64
  0
VERTEX
  5
2EA
  8
0
 10
23.6
 20
21.0
 30
93.3
 70
    64
  0
VERTEX
  5
2EB
  8
0
 10
23.8
 20
22.5
 30
92.9
 70
    64
  0
VERTEX
  5
2EC
  8
0
 10
24.2
 20
23.8
 30
91.0
 70
    64
  0
VERTEX
  5
2ED
  8
0
 10
24.9
 20
24.7
 30
90.5
 70
    64
  0
VERTEX
  5
2EE
  8
0
 10
25.7
 20
25.0
 30
88.7
 70
    64
  0
VERTEX
  5
2EF
  8
0
 10
27.6
 20
25.0
 30
85.1
 70
    64
  0
VERTEX
  5
2F0
  8
0
 10
17.9
 20
21.0
 30
90.4
 70
    64
  0
VERTEX
  5
2F1
  8
0
 10
18.1
 20
22.5
 30
90.1
 70
    64
  0
VERTEX
  5
2F2
  8
0
 10
18.7
 20
23.8
 30
89.1
 70
    64
  0
VERTEX
  5
2F3
  8
0
 10
19.5
 20
24.7
 30
87.7
 70
    64
  0
VERTEX
  5
2F4
  8
0
 10
20.4
 20
25.0
 30
86.1
 70
    64
  0
VERTEX
  5
2F5
  8
0
 10
22.3
 20
25.0
 30
82.8
 70
    64
  0
VERTEX
  5
2F6
  8
0
 10
22.3
 20
21.0
 30
82.8
 70
    64
  0
VERTEX
  5
2F7
  8
0
 10
22.3
 20
21.0
 30
82.8
 70
    64
  0
VERTEX
  5
2F8
  8
0
 10
22.3
 20
21.0
 30
82.8
 70
    64
  0
VERTEX
  5
2F9
  8
0
 10
22.3
 20
21.0
 30
82.8
 70
    64
  0
VERTEX
  5
2FA
  8
0
 10
22.3
 20
21.0
 30
82.8
 70
    64
  0
VERTEX
  5
2FB
  8
0
 10
22.3
 20
21.0
 30
82.8
 70
    64
  0
SEQEND
  5
2FC
  8
0
  0
POLYLINE
  5
2FD
  8
0
 66
     1
 10
0.0
 20
0.0
 30
0.0
 70
    16
 71
     5
 72
     6
  0
VERTEX
  5
2FE
  8
0
 10
37.5
 20
21.0
 30
96.0
 70
    64
  0
VERTEX
  5
2FF
  8
0
 10
37.5
 20
22.5
 30
95.6
 70
    64
  0
VERTEX
  5
300
  8
0
 10
37.5
 20
23.8
 30
94.6
 70
    64
  0
VERTEX
  5
301
  8
0
 10
37.5
 20
24.7
 30
92.8
 70
    64
  0
VERTEX
  5
302
  8
0
 10
37.5
 20
25.0
 30
91.0
 70
    64
  0
VERTEX
  5
303
  8
0
 10
37.5
 20
25.0
 30
87.0
 70
    64
  0
VERTEX
  5
304
  8
0
 10
44.5
 20
21.0
 30
95.3
 70
    64
  0
VERTEX
  5
305
  8
0
 10
44.4
 20
22.5
 30
94.9
 70
    64
  0
VERTEX
  5
306
  8
0
 10
44.2
 20
23.8
 30
93.8
 70
    64
  0
VERTEX
  5
307
  8
0
 10
43.9
 20
24.7
 30
92.2
 70
    64
  0
VERTEX
  5
308
  8
0
 10
43.6
 20
25.0
 30
90.4
 70
    64
  0
VERTEX
  5
309
  8
0
 10
42.4
 20
25.0
 30
85.9
 70
    64
  0
VERTEX
  5
30A
  8
0
 10
51.4
 20
21.0
 30
93.3
 70
    64
  0
VERTEX
  5
30B
  8
0
 10
51.2
 20
22.5
 30
92.9
 70
    64
  0
VERTEX
  5
30C
  8
0
 10
50.8
 20
23.8
 30
91.0
 70
    64
  0
VERTEX
  5
30D
  8
0
 10
50.1
 20
24.7
 30
90.5
 70
    64
  0
VERTEX
  5
30E
  8
0
 10
49.3
 20
25.0
 30
88.7
 70
    64
  0
VERTEX
  5
30F
  8
0
 10
47.4
 20
25.0
 30
85.1
 70
    64
  0
VERTEX
  5
310
  8
0
 10
57.1
 20
21.0
 30
90.4
 70
    64
  0
VERTEX
  5
311
  8
0
 10
56.9
 20
22.5
 30
90.1
 70
    64
  0
VERTEX
  5
312
  8
0
 10
56.3
 20
23.8
 30
89.1
 70
    64
  0
VERTEX
  5
313
  8
0
 10
55.5
 20
24.7
 30
87.7
 70
    64
  0
VERTEX
  5
314
  8
0
 10
54.6
 20
25.0
 30
86.1
 70
    64
  0
VERTEX
  5
315
  8
0
 10
52.7
 20
25.0
 30
82.8
 70
    64
  0
VERTEX
  5
316
  8
0
 10
52.7
 20
21.0
 30
82.8
 70
    64
  0
VERTEX
  5
317
  8
0
 10
52.7
 20
21.0
 30
82.8
 70
    64
  0
VERTEX
  5
318
  8
0
 10
52.7
 20
21.0
 30
82.8
 70
    64
  0
VERTEX
  5
319
  8
0
 10
52.7
 20
21.0
 30
82.8
 70
    64
  0
VERTEX
  5
31A
  8
0
 10
52.7
 20
21.0
 30
82.8
 70
    64
  0
VERTEX
  5
31B
  8
0
 10
52.7
 20
21.0
 30
82.8
 70
    64
  0
SEQEND
  5
31C
  8
0
  0
POLYLINE
  5
31D
  8
0
 66
     1
 10
0.0
 20
0.0
 30
0.0
 70
    16
 71
     5
 72
     6
  0
VERTEX
  5
31E
  8
0
 10
37.5
 20
21.0
 30
96.0
 70
    64
  0
VERTEX
  5
31F
  8
0
 10
37.5
 20
19.5
 30
95.6
 70
    64
  0
VERTEX
  5
320
  8
0
 10
37.5
 20
18.2
 30
94.6
 70
    64
  0
VERTEX
  5
321
  8
0
 10
37.5
 20
17.3
 30
92.8
 70
    64
  0
VERTEX
  5
322
  8
0
 10
37.5
 20
17.0
 30
91.0
 70
    64
  0
VERTEX
  5
323
  8
0
 10
37.5
 20
17.0
 30
87.0
 70
    64
  0
VERTEX
  5
324
  8
0
 10
44.5
 20
21.0
 30
95.3
 70
    64
  0
VERTEX
  5
325
  8
0
 10
44.4
 20
19.5
 30
94.9
 70
    64
  0
VERTEX
  5
326
  8
0
 10
44.2
 20
18.2
 30
93.8
 70
    64
  0
VERTEX
  5
327
  8
0
 10
43.9
 20
17.3
 30
92.2
 70
    64
  0
VERTEX
  5
328
  8
0
 10
43.6
 20
17.0
 30
90.4
 70
    64
  0
VERTEX
  5
329
  8
0
 10
42.4
 20
17.0
 30
85.9
 70
    64
  0
VERTEX
  5
32A
  8
0
 10
51.4
 20
21.0
 30
93.3
 70
    64
  0
VERTEX
  5
32B
  8
0
 10
51.2
 20
19.5
 30
92.9
 70
    64
  0
VERTEX
  5
32C
  8
0
 10
50.8
 20
18.2
 30
91.0
 70
    64
  0
VERTEX
  5
32D
  8
0
 10
50.1
 20
17.3
 30
90.5
 70
    64
  0
VERTEX
  5
32E
  8
0
 10
49.3
 20
17.0
 30
88.7
 70
    64
  0
VERTEX
  5
32F
  8
0
 10
47.4
 20
17.0
 30
85.1
 70
    64
  0
VERTEX
  5
330
  8
0
 10
57.1
 20
21.0
 30
90.4
 70
    64
  0
VERTEX
  5
331
  8
0
 10
56.9
 20
19.5
 30
90.1
 70
    64
  0
VERTEX
  5
332
  8
0
 10
56.3
 20
18.2
 30
89.1
 70
    64
  0
VERTEX
  5
333
  8
0
 10
55.5
 20
17.3
 30
87.7
 70
    64
  0
VERTEX
  5
334
  8
0
 10
54.6
 20
17.0
 30
86.1
 70
    64
  0
VERTEX
  5
335
  8
0
 10
52.7
 20
17.0
 30
82.8
 70
    64
  0
VERTEX
  5
336
  8
0
 10
52.7
 20
21.0
 30
82.8
 70
    64
  0
VERTEX
  5
337
  8
0
 10
52.7
 20
21.0
 30
82.8
 70
    64
  0
VERTEX
  5
338
  8
0
 10
52.7
 20
21.0
 30
82.8
 70
    64
  0
VERTEX
  5
339
  8
0
 10
52.7
 20
21.0
 30
82.8
 70
    64
  0
VERTEX
  5
33A
  8
0
 10
52.7
 20
21.0
 30
82.8
 70
    64
  0
VERTEX
  5
33B
  8
0
 10
52.7
 20
21.0
 30
82.8
 70
    64
  0
SEQEND
  5
33C
  8
0
  0
ENDSEC
  0
EOF
