  0
SECTION
  2
HEADER
  9
$ACADVER
  1
AC1009
  9
$INSBASE
 10
0.0
 20
0.0
 30
0.0
  9
$EXTMIN
 10
0.0
 20
0.0
 30
0.0
  9
$EXTMAX
 10
142.0
 20
106.0
 30
175.5
  9
$LIMMIN
 10
0.0
 20
0.0
  9
$LIMMAX
 10
12.0
 20
9.0
  9
$ORTHOMODE
 70
     0
  9
$REGENMODE
 70
     1
  9
$FILLMODE
 70
     1
  9
$QTEXTMODE
 70
     0
  9
$MIRRTEXT
 70
     1
  9
$DRAGMODE
 70
     2
  9
$LTSCALE
 40
1.0
  9
$OSMODE
 70
     0
  9
$ATTMODE
 70
     1
  9
$TEXTSIZE
 40
0.2
  9
$TRACEWID
 40
0.05
  9
$TEXTSTYLE
  7
STANDARD
  9
$CLAYER
  8
0
  9
$CELTYPE
  6
BYLAYER
  9
$CECOLOR
 62
   256
  9
$DIMSCALE
 40
1.0
  9
$DIMASZ
 40
0.18
  9
$DIMEXO
 40
0.0625
  9
$DIMDLI
 40
0.38
  9
$DIMRND
 40
0.0
  9
$DIMDLE
 40
0.0
  9
$DIMEXE
 40
0.18
  9
$DIMTP
 40
0.0
  9
$DIMTM
 40
0.0
  9
$DIMTXT
 40
0.18
  9
$DIMCEN
 40
0.09
  9
$DIMTSZ
 40
0.0
  9
$DIMTOL
 70
     0
  9
$DIMLIM
 70
     0
  9
$DIMTIH
 70
     1
  9
$DIMTOH
 70
     1
  9
$DIMSE1
 70
     0
  9
$DIMSE2
 70
     0
  9
$DIMTAD
 70
     0
  9
$DIMZIN
 70
     0
  9
$DIMBLK
  1

  9
$DIMASO
 70
     1
  9
$DIMSHO
 70
     1
  9
$DIMPOST
  1

  9
$DIMAPOST
  1

  9
$DIMALT
 70
     0
  9
$DIMALTD
 70
     2
  9
$DIMALTF
 40
25.4
  9
$DIMLFAC
 40
1.0
  9
$DIMTOFL
 70
     0
  9
$DIMTVP
 40
0.0
  9
$DIMTIX
 70
     0
  9
$DIMSOXD
 70
     0
  9
$DIMSAH
 70
     0
  9
$DIMBLK1
  1

  9
$DIMBLK2
  1

  9
$DIMSTYLE
  2
STANDARD
  9
$DIMCLRD
 70
     0
  9
$DIMCLRE
 70
     0
  9
$DIMCLRT
 70
     0
  9
$DIMTFAC
 40
1.0
  9
$DIMGAP
 40
0.09
  9
$LUNITS
 70
     2
  9
$LUPREC
 70
     4
  9
$SKETCHINC
 40
0.1
  9
$FILLETRAD
 40
0.5
  9
$AUNITS
 70
     0
  9
$AUPREC
 70
     0
  9
$MENU
  1
.
  9
$ELEVATION
 40
0.0
  9
$PELEVATION
 40
0.0
  9
$THICKNESS
 40
0.0
  9
$LIMCHECK
 70
     0
  9
$BLIPMODE
 70
     0
  9
$CHAMFERA
 40
0.5
  9
$CHAMFERB
 40
0.5
  9
$SKPOLY
 70
     1
  9
$TDCREATE
 40
2451432.822028
  9
$TDUPDATE
 40
2451710.814438
  9
$TDINDWG
 40
0.464493
  9
$TDUSRTIMER
 40
0.464493
  9
$USRTIMER
 70
     1
  9
$ANGBASE
 50
0.0
  9
$ANGDIR
 70
     0
  9
$PDMODE
 70
     0
  9
$PDSIZE
 40
0.0
  9
$PLINEWID
 40
0.0
  9
$COORDS
 70
     1
  9
$SPLFRAME
 70
     0
  9
$SPLINETYPE
 70
     6
  9
$SPLINESEGS
 70
     8
  9
$ATTDIA
 70
     0
  9
$ATTREQ
 70
     1
  9
$HANDLING
 70
     1
  9
$HANDSEED
  5
361E
  9
$SURFTAB1
 70
     6
  9
$SURFTAB2
 70
     6
  9
$SURFTYPE
 70
     6
  9
$SURFU
 70
     6
  9
$SURFV
 70
     6
  9
$UCSNAME
  2

  9
$UCSORG
 10
0.0
 20
0.0
 30
0.0
  9
$UCSXDIR
 10
1.0
 20
0.0
 30
0.0
  9
$UCSYDIR
 10
0.0
 20
1.0
 30
0.0
  9
$PUCSNAME
  2

  9
$PUCSORG
 10
0.0
 20
0.0
 30
0.0
  9
$PUCSXDIR
 10
1.0
 20
0.0
 30
0.0
  9
$PUCSYDIR
 10
0.0
 20
1.0
 30
0.0
  9
$USERI1
 70
     0
  9
$USERI2
 70
     0
  9
$USERI3
 70
     0
  9
$USERI4
 70
     0
  9
$USERI5
 70
     0
  9
$USERR1
 40
0.0
  9
$USERR2
 40
0.0
  9
$USERR3
 40
0.0
  9
$USERR4
 40
0.0
  9
$USERR5
 40
0.0
  9
$WORLDVIEW
 70
     1
  9
$SHADEDGE
 70
     3
  9
$SHADEDIF
 70
    70
  9
$TILEMODE
 70
     1
  9
$MAXACTVP
 70
    48
  9
$PLIMCHECK
 70
     0
  9
$PEXTMIN
 10
1.000000E+020
 20
1.000000E+020
 30
1.000000E+020
  9
$PEXTMAX
 10
-1.000000E+020
 20
-1.000000E+020
 30
-1.000000E+020
  9
$PLIMMIN
 10
0.0
 20
0.0
  9
$PLIMMAX
 10
12.0
 20
9.0
  9
$UNITMODE
 70
     0
  9
$VISRETAIN
 70
     1
  9
$PLINEGEN
 70
     0
  9
$PSLTSCALE
 70
     1
  0
ENDSEC
  0
SECTION
  2
TABLES
  0
TABLE
  2
VPORT
 70
     5
  0
VPORT
  2
*ACTIVE
 70
     0
 10
0.0
 20
0.0
 11
1.0
 21
1.0
 12
12.727922
 22
122.270363
 13
0.0
 23
0.0
 14
0.5
 24
0.5
 15
0.5
 25
0.5
 16
-1.0
 26
-1.0
 36
1.0
 17
0.0
 27
0.0
 37
0.0
 40
247.578499
 41
1.991701
 42
50.0
 43
0.0
 44
0.0
 50
0.0
 51
0.0
 71
     0
 72
   100
 73
     1
 74
     1
 75
     0
 76
     0
 77
     0
 78
     0
  0
ENDTAB
  0
TABLE
  2
LTYPE
 70
     1
  0
LTYPE
  2
CONTINUOUS
 70
     0
  3
Solid line
 72
    65
 73
     0
 40
0.0
  0
ENDTAB
  0
TABLE
  2
LAYER
 70
     2
  0
LAYER
  2
0
 70
     0
 62
     7
  6
CONTINUOUS
  0
LAYER
  2
ASHADE
 70
     4
 62
     7
  6
CONTINUOUS
  0
ENDTAB
  0
TABLE
  2
STYLE
 70
     2
  0
STYLE
  2
STANDARD
 70
     0
 40
0.0
 41
1.0
 50
0.0
 71
     0
 42
0.2
  3
txt
  4

  0
STYLE
  2
ASHADE
 70
     0
 40
0.2
 41
1.0
 50
0.0
 71
     0
 42
0.2
  3
simplex.shx
  4

  0
ENDTAB
  0
TABLE
  2
VIEW
 70
     0
  0
ENDTAB
  0
TABLE
  2
UCS
 70
     0
  0
ENDTAB
  0
TABLE
  2
APPID
 70
     6
  0
APPID
  2
ACAD
 70
     0
  0
APPID
  2
AVE_RENDER
 70
     0
  0
APPID
  2
AVE_ENTITY_MATERIAL
 70
     0
  0
APPID
  2
AVE_FINISH
 70
     0
  0
APPID
  2
AVE_MATERIAL
 70
     0
  0
APPID
  2
AVE_GLOBAL
 70
     0
  0
ENDTAB
  0
TABLE
  2
DIMSTYLE
 70
     1
  0
DIMSTYLE
  2
STANDARD
 70
     0
  3

  4

  5

  6

  7

 40
1.0
 41
0.18
 42
0.0625
 43
0.38
 44
0.18
 45
0.0
 46
0.0
 47
0.0
 48
0.0
140
0.18
141
0.09
142
0.0
143
25.4
144
1.0
145
0.0
146
1.0
147
0.09
 71
     0
 72
     0
 73
     1
 74
     1
 75
     0
 76
     0
 77
     0
 78
     0
170
     0
171
     2
172
     0
173
     0
174
     0
175
     0
176
     0
177
     0
178
     0
  0
ENDTAB
  0
ENDSEC
  0
SECTION
  2
BLOCKS
  0
BLOCK
  8
0
  2
$MODEL_SPACE
 70
     0
 10
0.0
 20
0.0
 30
0.0
  3
$MODEL_SPACE
  1

  0
ENDBLK
  5
1B
  8
0
  0
BLOCK
 67
     1
  8
0
  2
$PAPER_SPACE
 70
     0
 10
0.0
 20
0.0
 30
0.0
  3
$PAPER_SPACE
  1

  0
ENDBLK
  5
18
 67
     1
  8
0
  0
BLOCK
  8
ASHADE
  2
AVE_RENDER
 70
     0
 10
0.0
 20
0.0
 30
0.0
  3
AVE_RENDER
  1
AVE_RENDER
  0
ENDBLK
  5
22C
  8
0
  0
BLOCK
  8
ASHADE
  2
AVE_GLOBAL
 70
     0
 10
0.0
 20
0.0
 30
0.0
  3
AVE_GLOBAL
  1
AVE_GLOBAL
  0
ENDBLK
  5
23A
  8
0
  0
ENDSEC
  0
SECTION
  2
ENTITIES
  0
INSERT
  5
22D
  8
ASHADE
 62
     1
  2
AVE_RENDER
 10
0.0
 20
0.0
 30
0.0
1001
AVE_RENDER
1002
{
1070
     7
1000
Pref
1070
    30
1070
    20
1070
     1
1070
     0
1000

1070
    10
1070
     1
1070
    10
1040
1.0
1070
     1
1040
0.3
1040
0.7
1040
0.0
1040
10.0
1010
-1.0
1020
-1.0
1030
-1.0
1040
0.3
1070
    49
1070
     0
1070
     0
1010
1.0
1020
1.0
1030
1.0
1040
45.0
1070
     1
1070
     0
1000
WCS
1040
0.0
1070
     0
1040
10.0
1002
}
  0
INSERT
  5
22E
  8
ASHADE
 62
     3
  2
AVE_RENDER
 10
0.0
 20
0.0
 30
0.0
1001
AVE_RENDER
1002
{
1070
     0
1000
Full Opt
1070
     0
1070
     1
1070
     1
1070
     1
1070
     0
1070
     0
1070
     0
1070
     1
1070
     1
1040
0.0001
1040
0.0001
1002
}
  0
INSERT
  5
22F
  8
ASHADE
 62
     4
  2
AVE_RENDER
 10
0.0
 20
0.0
 30
0.0
1001
AVE_RENDER
1002
{
1070
     0
1000
Quick Opt
1070
     0
1070
     1
1070
     1
1070
     1
1070
     0
1070
     0
1070
     1
1002
}
  0
INSERT
  5
230
  8
ASHADE
 62
     5
  2
AVE_RENDER
 10
0.0
 20
0.0
 30
0.0
1001
AVE_RENDER
1002
{
1070
     1
1000
Scanl Opt
1070
     2
1070
     0
1070
     2
1040
2.0
1040
4.0
1070
     0
1070
     1
1070
     0
1040
0.03
1002
}
  0
INSERT
  5
231
  8
ASHADE
 62
     6
  2
AVE_RENDER
 10
0.0
 20
0.0
 30
0.0
1001
AVE_RENDER
1002
{
1070
     2
1000
Raytr Opt
1070
     2
1070
     0
1070
     2
1040
2.0
1040
4.0
1070
     0
1070
     1
1070
     1
1040
0.03
1070
     3
1040
0.03
1002
}
  0
INSERT
  5
232
  8
ASHADE
 62
     7
  2
AVE_RENDER
 10
0.0
 20
0.0
 30
0.0
1001
AVE_RENDER
1002
{
1070
     0
1000
RFile Opt
1070
     1
1070
   640
1070
   480
1070
 10000
1070
     1
1070
     8
1070
     8
1070
     0
1070
     0
1070
     0
1070
     0
1070
     0
1070
     0
1070
     0
1002
}
  0
INSERT
  5
233
  8
ASHADE
 62
     8
  2
AVE_RENDER
 10
0.0
 20
0.0
 30
0.0
1001
AVE_RENDER
1002
{
1070
     0
1000
Fog Opt
1070
     0
1070
     0
1040
0.0
1040
1.0
1040
0.0
1040
1.0
1010
0.5
1020
0.5
1030
0.5
1002
}
  0
INSERT
  5
234
  8
ASHADE
 62
     9
  2
AVE_RENDER
 10
0.0
 20
0.0
 30
0.0
1001
AVE_RENDER
1002
{
1070
     0
1000
BG Opt
1070
     0
1070
     1
1010
0.0
1020
0.0
1030
0.0
1010
1.0
1020
0.0
1030
0.0
1010
0.0
1020
1.0
1030
0.0
1010
0.0
1020
0.0
1030
1.0
1040
0.5
1040
0.33
1040
0.0
1000

1070
     1
1000

1070
     1
1070
     1
1040
1.0
1040
1.0
1040
0.0
1040
0.0
1070
     0
1002
}
  0
INSERT
  5
23B
  8
ASHADE
 62
     1
  2
AVE_GLOBAL
 10
0.0
 20
0.0
 30
0.0
1001
AVE_MATERIAL
1002
{
1000
*GLOBAL*
1000
1
1000
Global finish.
1002
{
1002
}
1002
{
1070
    63
1002
{
1002
{
1010
-1.0
1020
-1.0
1030
-1.0
1002
}
1040
0.1
1000

1040
0.0
1002
{
1002
}
1040
0.0
1002
{
1002
}
1040
0.0
1002
}
1002
{
1002
{
1010
-1.0
1020
-1.0
1030
-1.0
1002
}
1040
0.7
1000

1040
0.0
1002
{
1002
}
1040
0.0
1002
{
1002
}
1040
0.0
1002
}
1002
{
1002
{
1010
-1.0
1020
-1.0
1030
-1.0
1002
}
1040
0.2
1000

1040
0.0
1002
{
1002
}
1040
0.0
1002
{
1002
}
1040
0.0
1002
}
1002
{
1070
     0
1002
{
1070
     1
1002
{
1040
1.0
1040
1.0
1000

1040
0.0
1002
{
1002
}
1040
0.0
1002
{
1002
}
1040
0.0
1002
}
1002
}
1040
1.0
1040
0.0
1040
0.0
1002
}
1002
{
1040
1.0
1040
1.0
1000

1040
0.0
1002
{
1002
}
1040
0.0
1002
{
1002
}
1040
0.0
1002
}
1002
{
1040
0.5
1040
1.0
1000

1040
0.0
1002
{
1002
}
1040
0.0
1002
{
1002
}
1040
0.0
1002
}
1002
{
1070
     0
1040
0.0
1002
{
1002
}
1040
1.0
1002
{
1002
}
1040
0.0
1002
}
1002
{
1040
0.0
1002
{
1002
{
1010
0.0
1020
0.0
1030
0.0
1002
}
1040
1.0
1000

1040
0.0
1002
{
1002
}
1040
0.0
1002
{
1002
}
1040
0.0
1002
}
1002
}
1002
{
1002
{
1070
     1
1002
{
1040
0.0
1040
1.0
1000

1040
0.0
1002
{
1002
}
1040
0.0
1002
{
1002
}
1040
0.0
1002
}
1002
}
1040
0.0
1002
{
1002
}
1010
1.0
1020
0.0
1030
0.0
1010
0.0
1020
1.0
1030
0.0
1010
0.0
1020
0.0
1030
1.0
1070
     0
1002
}
1002
{
1002
{
1040
1.0
1040
1.0
1002
{
1070
     1
1002
{
1040
1.0
1040
1.0
1000

1040
0.0
1002
{
1002
}
1040
0.0
1002
{
1002
}
1040
0.0
1002
}
1002
}
1002
}
1070
     0
1040
0.0
1002
{
1002
}
1002
}
1002
{
1002
}
1002
}
1002
{
1071
        3
1070
     3
1070
     0
1002
{
1070
     2
1070
     0
1070
     0
1040
0.0
1002
}
1070
     0
1070
     2
1002
{
1002
}
1002
}
1002
{
1040
8030.0
1040
190.300003
1040
0.305
1040
228.0
1040
545.0
1040
14.0
1040
17.4
1040
0.456
1002
}
1002
}
  0
POLYLINE
  5
28A4
  8
0
 66
     1
 10
0.0
 20
0.0
 30
0.0
 70
    16
 71
     5
 72
    13
  0
VERTEX
  5
28A5
  8
0
 10
0.0
 20
55.4
 30
98.5
 70
    64
  0
VERTEX
  5
28A6
  8
0
 10
0.3
 20
53.6
 30
98.5
 70
    64
  0
VERTEX
  5
28A7
  8
0
 10
0.9
 20
51.9
 30
98.5
 70
    64
  0
VERTEX
  5
28A8
  8
0
 10
2.1
 20
50.5
 30
98.5
 70
    64
  0
VERTEX
  5
28A9
  8
0
 10
3.5
 20
49.3
 30
98.5
 70
    64
  0
VERTEX
  5
28AA
  8
0
 10
5.2
 20
48.7
 30
98.5
 70
    64
  0
VERTEX
  5
28AB
  8
0
 10
7.0
 20
48.4
 30
98.5
 70
    64
  0
VERTEX
  5
28AC
  8
0
 10
8.8
 20
48.7
 30
98.5
 70
    64
  0
VERTEX
  5
28AD
  8
0
 10
10.5
 20
49.3
 30
98.5
 70
    64
  0
VERTEX
  5
28AE
  8
0
 10
11.9
 20
50.5
 30
98.5
 70
    64
  0
VERTEX
  5
28AF
  8
0
 10
13.1
 20
51.9
 30
98.5
 70
    64
  0
VERTEX
  5
28B0
  8
0
 10
13.7
 20
53.6
 30
98.5
 70
    64
  0
VERTEX
  5
28B1
  8
0
 10
14.0
 20
55.4
 30
98.5
 70
    64
  0
VERTEX
  5
28B2
  8
0
 10
0.0
 20
55.4
 30
77.0
 70
    64
  0
VERTEX
  5
28B3
  8
0
 10
0.3
 20
53.6
 30
77.0
 70
    64
  0
VERTEX
  5
28B4
  8
0
 10
0.9
 20
51.9
 30
77.0
 70
    64
  0
VERTEX
  5
28B5
  8
0
 10
2.1
 20
50.5
 30
77.0
 70
    64
  0
VERTEX
  5
28B6
  8
0
 10
3.5
 20
49.3
 30
77.0
 70
    64
  0
VERTEX
  5
28B7
  8
0
 10
5.2
 20
48.7
 30
77.0
 70
    64
  0
VERTEX
  5
28B8
  8
0
 10
7.0
 20
48.4
 30
77.0
 70
    64
  0
VERTEX
  5
28B9
  8
0
 10
8.8
 20
48.7
 30
77.0
 70
    64
  0
VERTEX
  5
28BA
  8
0
 10
10.5
 20
49.3
 30
77.0
 70
    64
  0
VERTEX
  5
28BB
  8
0
 10
11.9
 20
50.5
 30
77.0
 70
    64
  0
VERTEX
  5
28BC
  8
0
 10
13.1
 20
51.9
 30
77.0
 70
    64
  0
VERTEX
  5
28BD
  8
0
 10
13.7
 20
53.6
 30
77.0
 70
    64
  0
VERTEX
  5
28BE
  8
0
 10
14.0
 20
55.4
 30
77.0
 70
    64
  0
VERTEX
  5
28BF
  8
0
 10
0.9
 20
55.4
 30
70.5
 70
    64
  0
VERTEX
  5
28C0
  8
0
 10
1.1
 20
53.6
 30
70.6
 70
    64
  0
VERTEX
  5
28C1
  8
0
 10
1.8
 20
51.9
 30
70.8
 70
    64
  0
VERTEX
  5
28C2
  8
0
 10
2.8
 20
50.5
 30
71.0
 70
    64
  0
VERTEX
  5
28C3
  8
0
 10
4.2
 20
49.3
 30
71.4
 70
    64
  0
VERTEX
  5
28C4
  8
0
 10
5.9
 20
48.7
 30
71.9
 70
    64
  0
VERTEX
  5
28C5
  8
0
 10
7.6
 20
48.4
 30
72.3
 70
    64
  0
VERTEX
  5
28C6
  8
0
 10
9.4
 20
48.7
 30
72.8
 70
    64
  0
VERTEX
  5
28C7
  8
0
 10
11.0
 20
49.3
 30
73.2
 70
    64
  0
VERTEX
  5
28C8
  8
0
 10
12.4
 20
50.5
 30
73.6
 70
    64
  0
VERTEX
  5
28C9
  8
0
 10
13.5
 20
51.9
 30
73.9
 70
    64
  0
VERTEX
  5
28CA
  8
0
 10
14.1
 20
53.6
 30
74.0
 70
    64
  0
VERTEX
  5
28CB
  8
0
 10
14.4
 20
55.4
 30
74.1
 70
    64
  0
VERTEX
  5
28CC
  8
0
 10
3.4
 20
55.4
 30
64.5
 70
    64
  0
VERTEX
  5
28CD
  8
0
 10
3.6
 20
53.6
 30
64.6
 70
    64
  0
VERTEX
  5
28CE
  8
0
 10
4.2
 20
51.9
 30
65.0
 70
    64
  0
VERTEX
  5
28CF
  8
0
 10
5.1
 20
50.5
 30
65.5
 70
    64
  0
VERTEX
  5
28D0
  8
0
 10
6.4
 20
49.3
 30
66.3
 70
    64
  0
VERTEX
  5
28D1
  8
0
 10
7.8
 20
48.7
 30
67.1
 70
    64
  0
VERTEX
  5
28D2
  8
0
 10
9.4
 20
48.4
 30
68.0
 70
    64
  0
VERTEX
  5
28D3
  8
0
 10
11.0
 20
48.7
 30
68.9
 70
    64
  0
VERTEX
  5
28D4
  8
0
 10
12.4
 20
49.3
 30
69.7
 70
    64
  0
VERTEX
  5
28D5
  8
0
 10
13.7
 20
50.5
 30
70.5
 70
    64
  0
VERTEX
  5
28D6
  8
0
 10
14.7
 20
51.9
 30
71.0
 70
    64
  0
VERTEX
  5
28D7
  8
0
 10
15.3
 20
53.6
 30
71.4
 70
    64
  0
VERTEX
  5
28D8
  8
0
 10
15.5
 20
55.4
 30
71.5
 70
    64
  0
VERTEX
  5
28D9
  8
0
 10
7.3
 20
55.4
 30
59.3
 70
    64
  0
VERTEX
  5
28DA
  8
0
 10
7.5
 20
53.6
 30
59.5
 70
    64
  0
VERTEX
  5
28DB
  8
0
 10
8.0
 20
51.9
 30
60.0
 70
    64
  0
VERTEX
  5
28DC
  8
0
 10
8.8
 20
50.5
 30
60.8
 70
    64
  0
VERTEX
  5
28DD
  8
0
 10
9.8
 20
49.3
 30
61.8
 70
    64
  0
VERTEX
  5
28DE
  8
0
 10
11.0
 20
48.7
 30
63.0
 70
    64
  0
VERTEX
  5
28DF
  8
0
 10
12.3
 20
48.4
 30
64.3
 70
    64
  0
VERTEX
  5
28E0
  8
0
 10
13.6
 20
48.7
 30
65.6
 70
    64
  0
VERTEX
  5
28E1
  8
0
 10
14.7
 20
49.3
 30
66.7
 70
    64
  0
VERTEX
  5
28E2
  8
0
 10
15.8
 20
50.5
 30
67.8
 70
    64
  0
VERTEX
  5
28E3
  8
0
 10
16.6
 20
51.9
 30
68.6
 70
    64
  0
VERTEX
  5
28E4
  8
0
 10
17.0
 20
53.6
 30
69.0
 70
    64
  0
VERTEX
  5
28E5
  8
0
 10
17.2
 20
55.4
 30
69.2
 70
    64
  0
SEQEND
  5
28E6
  8
0
  0
POLYLINE
  5
28E7
  8
0
 66
     1
 10
0.0
 20
0.0
 30
0.0
 70
    16
 71
     4
 72
    13
  0
VERTEX
  5
28E8
  8
0
 10
137.0
 20
55.4
 30
59.0
 70
    64
  0
VERTEX
  5
28E9
  8
0
 10
137.0
 20
55.4
 30
59.0
 70
    64
  0
VERTEX
  5
28EA
  8
0
 10
137.0
 20
55.4
 30
59.0
 70
    64
  0
VERTEX
  5
28EB
  8
0
 10
137.0
 20
55.4
 30
59.0
 70
    64
  0
VERTEX
  5
28EC
  8
0
 10
137.0
 20
55.4
 30
59.0
 70
    64
  0
VERTEX
  5
28ED
  8
0
 10
137.0
 20
55.4
 30
59.0
 70
    64
  0
VERTEX
  5
28EE
  8
0
 10
137.0
 20
55.4
 30
59.0
 70
    64
  0
VERTEX
  5
28EF
  8
0
 10
137.0
 20
55.4
 30
59.0
 70
    64
  0
VERTEX
  5
28F0
  8
0
 10
137.0
 20
55.4
 30
59.0
 70
    64
  0
VERTEX
  5
28F1
  8
0
 10
137.0
 20
55.4
 30
59.0
 70
    64
  0
VERTEX
  5
28F2
  8
0
 10
137.0
 20
55.4
 30
59.0
 70
    64
  0
VERTEX
  5
28F3
  8
0
 10
137.0
 20
55.4
 30
59.0
 70
    64
  0
VERTEX
  5
28F4
  8
0
 10
137.0
 20
55.4
 30
59.0
 70
    64
  0
VERTEX
  5
28F5
  8
0
 10
137.0
 20
55.4
 30
50.0
 70
    64
  0
VERTEX
  5
28F6
  8
0
 10
137.0
 20
53.1
 30
50.3
 70
    64
  0
VERTEX
  5
28F7
  8
0
 10
137.0
 20
50.9
 30
51.2
 70
    64
  0
VERTEX
  5
28F8
  8
0
 10
137.0
 20
49.0
 30
52.6
 70
    64
  0
VERTEX
  5
28F9
  8
0
 10
137.0
 20
47.6
 30
54.5
 70
    64
  0
VERTEX
  5
28FA
  8
0
 10
137.0
 20
46.7
 30
56.7
 70
    64
  0
VERTEX
  5
28FB
  8
0
 10
137.0
 20
46.4
 30
59.0
 70
    64
  0
VERTEX
  5
28FC
  8
0
 10
137.0
 20
46.7
 30
61.3
 70
    64
  0
VERTEX
  5
28FD
  8
0
 10
137.0
 20
47.6
 30
63.5
 70
    64
  0
VERTEX
  5
28FE
  8
0
 10
137.0
 20
49.0
 30
65.4
 70
    64
  0
VERTEX
  5
28FF
  8
0
 10
137.0
 20
50.9
 30
66.8
 70
    64
  0
VERTEX
  5
2900
  8
0
 10
137.0
 20
53.1
 30
67.7
 70
    64
  0
VERTEX
  5
2901
  8
0
 10
137.0
 20
55.4
 30
68.0
 70
    64
  0
VERTEX
  5
2902
  8
0
 10
135.0
 20
55.4
 30
50.0
 70
    64
  0
VERTEX
  5
2903
  8
0
 10
135.0
 20
53.1
 30
50.3
 70
    64
  0
VERTEX
  5
2904
  8
0
 10
135.0
 20
50.9
 30
51.2
 70
    64
  0
VERTEX
  5
2905
  8
0
 10
135.0
 20
49.0
 30
52.6
 70
    64
  0
VERTEX
  5
2906
  8
0
 10
135.0
 20
47.6
 30
54.5
 70
    64
  0
VERTEX
  5
2907
  8
0
 10
135.0
 20
46.7
 30
56.7
 70
    64
  0
VERTEX
  5
2908
  8
0
 10
135.0
 20
46.4
 30
59.0
 70
    64
  0
VERTEX
  5
2909
  8
0
 10
135.0
 20
46.7
 30
61.3
 70
    64
  0
VERTEX
  5
290A
  8
0
 10
135.0
 20
47.6
 30
63.5
 70
    64
  0
VERTEX
  5
290B
  8
0
 10
135.0
 20
49.0
 30
65.4
 70
    64
  0
VERTEX
  5
290C
  8
0
 10
135.0
 20
50.9
 30
66.8
 70
    64
  0
VERTEX
  5
290D
  8
0
 10
135.0
 20
53.1
 30
67.7
 70
    64
  0
VERTEX
  5
290E
  8
0
 10
135.0
 20
55.4
 30
68.0
 70
    64
  0
VERTEX
  5
290F
  8
0
 10
135.0
 20
55.4
 30
52.0
 70
    64
  0
VERTEX
  5
2910
  8
0
 10
135.0
 20
53.6
 30
52.3
 70
    64
  0
VERTEX
  5
2911
  8
0
 10
135.0
 20
51.9
 30
52.9
 70
    64
  0
VERTEX
  5
2912
  8
0
 10
135.0
 20
50.5
 30
54.1
 70
    64
  0
VERTEX
  5
2913
  8
0
 10
135.0
 20
49.3
 30
55.5
 70
    64
  0
VERTEX
  5
2914
  8
0
 10
135.0
 20
48.7
 30
57.2
 70
    64
  0
VERTEX
  5
2915
  8
0
 10
135.0
 20
48.4
 30
59.0
 70
    64
  0
VERTEX
  5
2916
  8
0
 10
135.0
 20
48.7
 30
60.8
 70
    64
  0
VERTEX
  5
2917
  8
0
 10
135.0
 20
49.3
 30
62.5
 70
    64
  0
VERTEX
  5
2918
  8
0
 10
135.0
 20
50.5
 30
63.9
 70
    64
  0
VERTEX
  5
2919
  8
0
 10
135.0
 20
51.9
 30
65.1
 70
    64
  0
VERTEX
  5
291A
  8
0
 10
135.0
 20
53.6
 30
65.7
 70
    64
  0
VERTEX
  5
291B
  8
0
 10
135.0
 20
55.4
 30
66.0
 70
    64
  0
SEQEND
  5
291C
  8
0
  0
POLYLINE
  5
291D
  8
0
 66
     1
 10
0.0
 20
0.0
 30
0.0
 70
    16
 71
     5
 72
    13
  0
VERTEX
  5
291E
  8
0
 10
135.0
 20
55.4
 30
52.0
 70
    64
  0
VERTEX
  5
291F
  8
0
 10
135.0
 20
53.6
 30
52.3
 70
    64
  0
VERTEX
  5
2920
  8
0
 10
135.0
 20
51.9
 30
52.9
 70
    64
  0
VERTEX
  5
2921
  8
0
 10
135.0
 20
50.5
 30
54.1
 70
    64
  0
VERTEX
  5
2922
  8
0
 10
135.0
 20
49.3
 30
55.5
 70
    64
  0
VERTEX
  5
2923
  8
0
 10
135.0
 20
48.7
 30
57.2
 70
    64
  0
VERTEX
  5
2924
  8
0
 10
135.0
 20
48.4
 30
59.0
 70
    64
  0
VERTEX
  5
2925
  8
0
 10
135.0
 20
48.7
 30
60.8
 70
    64
  0
VERTEX
  5
2926
  8
0
 10
135.0
 20
49.3
 30
62.5
 70
    64
  0
VERTEX
  5
2927
  8
0
 10
135.0
 20
50.5
 30
63.9
 70
    64
  0
VERTEX
  5
2928
  8
0
 10
135.0
 20
51.9
 30
65.1
 70
    64
  0
VERTEX
  5
2929
  8
0
 10
135.0
 20
53.6
 30
65.7
 70
    64
  0
VERTEX
  5
292A
  8
0
 10
135.0
 20
55.4
 30
66.0
 70
    64
  0
VERTEX
  5
292B
  8
0
 10
25.0
 20
55.4
 30
52.0
 70
    64
  0
VERTEX
  5
292C
  8
0
 10
25.0
 20
53.6
 30
52.3
 70
    64
  0
VERTEX
  5
292D
  8
0
 10
25.0
 20
51.9
 30
52.9
 70
    64
  0
VERTEX
  5
292E
  8
0
 10
25.0
 20
50.5
 30
54.1
 70
    64
  0
VERTEX
  5
292F
  8
0
 10
25.0
 20
49.3
 30
55.5
 70
    64
  0
VERTEX
  5
2930
  8
0
 10
25.0
 20
48.7
 30
57.2
 70
    64
  0
VERTEX
  5
2931
  8
0
 10
25.0
 20
48.4
 30
59.0
 70
    64
  0
VERTEX
  5
2932
  8
0
 10
25.0
 20
48.7
 30
60.8
 70
    64
  0
VERTEX
  5
2933
  8
0
 10
25.0
 20
49.3
 30
62.5
 70
    64
  0
VERTEX
  5
2934
  8
0
 10
25.0
 20
50.5
 30
63.9
 70
    64
  0
VERTEX
  5
2935
  8
0
 10
25.0
 20
51.9
 30
65.1
 70
    64
  0
VERTEX
  5
2936
  8
0
 10
25.0
 20
53.6
 30
65.7
 70
    64
  0
VERTEX
  5
2937
  8
0
 10
25.0
 20
55.4
 30
66.0
 70
    64
  0
VERTEX
  5
2938
  8
0
 10
18.5
 20
55.4
 30
52.9
 70
    64
  0
VERTEX
  5
2939
  8
0
 10
18.6
 20
53.6
 30
53.1
 70
    64
  0
VERTEX
  5
293A
  8
0
 10
18.8
 20
51.9
 30
53.8
 70
    64
  0
VERTEX
  5
293B
  8
0
 10
19.0
 20
50.5
 30
54.8
 70
    64
  0
VERTEX
  5
293C
  8
0
 10
19.4
 20
49.3
 30
56.2
 70
    64
  0
VERTEX
  5
293D
  8
0
 10
19.9
 20
48.7
 30
57.9
 70
    64
  0
VERTEX
  5
293E
  8
0
 10
20.3
 20
48.4
 30
59.6
 70
    64
  0
VERTEX
  5
293F
  8
0
 10
20.8
 20
48.7
 30
61.4
 70
    64
  0
VERTEX
  5
2940
  8
0
 10
21.2
 20
49.3
 30
63.0
 70
    64
  0
VERTEX
  5
2941
  8
0
 10
21.6
 20
50.5
 30
64.4
 70
    64
  0
VERTEX
  5
2942
  8
0
 10
21.9
 20
51.9
 30
65.5
 70
    64
  0
VERTEX
  5
2943
  8
0
 10
22.0
 20
53.6
 30
66.1
 70
    64
  0
VERTEX
  5
2944
  8
0
 10
22.1
 20
55.4
 30
66.4
 70
    64
  0
VERTEX
  5
2945
  8
0
 10
12.5
 20
55.4
 30
55.4
 70
    64
  0
VERTEX
  5
2946
  8
0
 10
12.6
 20
53.6
 30
55.6
 70
    64
  0
VERTEX
  5
2947
  8
0
 10
13.0
 20
51.9
 30
56.2
 70
    64
  0
VERTEX
  5
2948
  8
0
 10
13.5
 20
50.5
 30
57.1
 70
    64
  0
VERTEX
  5
2949
  8
0
 10
14.3
 20
49.3
 30
58.4
 70
    64
  0
VERTEX
  5
294A
  8
0
 10
15.1
 20
48.7
 30
59.8
 70
    64
  0
VERTEX
  5
294B
  8
0
 10
16.0
 20
48.4
 30
61.4
 70
    64
  0
VERTEX
  5
294C
  8
0
 10
16.9
 20
48.7
 30
63.0
 70
    64
  0
VERTEX
  5
294D
  8
0
 10
17.7
 20
49.3
 30
64.4
 70
    64
  0
VERTEX
  5
294E
  8
0
 10
18.5
 20
50.5
 30
65.7
 70
    64
  0
VERTEX
  5
294F
  8
0
 10
19.0
 20
51.9
 30
66.7
 70
    64
  0
VERTEX
  5
2950
  8
0
 10
19.4
 20
53.6
 30
67.3
 70
    64
  0
VERTEX
  5
2951
  8
0
 10
19.5
 20
55.4
 30
67.5
 70
    64
  0
VERTEX
  5
2952
  8
0
 10
7.3
 20
55.4
 30
59.3
 70
    64
  0
VERTEX
  5
2953
  8
0
 10
7.5
 20
53.6
 30
59.5
 70
    64
  0
VERTEX
  5
2954
  8
0
 10
8.0
 20
51.9
 30
60.0
 70
    64
  0
VERTEX
  5
2955
  8
0
 10
8.8
 20
50.5
 30
60.8
 70
    64
  0
VERTEX
  5
2956
  8
0
 10
9.8
 20
49.3
 30
61.8
 70
    64
  0
VERTEX
  5
2957
  8
0
 10
11.0
 20
48.7
 30
63.0
 70
    64
  0
VERTEX
  5
2958
  8
0
 10
12.3
 20
48.4
 30
64.3
 70
    64
  0
VERTEX
  5
2959
  8
0
 10
13.6
 20
48.7
 30
65.6
 70
    64
  0
VERTEX
  5
295A
  8
0
 10
14.7
 20
49.3
 30
66.7
 70
    64
  0
VERTEX
  5
295B
  8
0
 10
15.8
 20
50.5
 30
67.8
 70
    64
  0
VERTEX
  5
295C
  8
0
 10
16.6
 20
51.9
 30
68.6
 70
    64
  0
VERTEX
  5
295D
  8
0
 10
17.0
 20
53.6
 30
69.0
 70
    64
  0
VERTEX
  5
295E
  8
0
 10
17.2
 20
55.4
 30
69.2
 70
    64
  0
SEQEND
  5
295F
  8
0
  0
POLYLINE
  5
29A3
  8
0
 66
     1
 10
0.0
 20
0.0
 30
0.0
 70
    16
 71
     5
 72
    13
  0
VERTEX
  5
29A4
  8
0
 10
0.0
 20
55.4
 30
98.5
 70
    64
  0
VERTEX
  5
29A5
  8
0
 10
0.3
 20
53.6
 30
98.5
 70
    64
  0
VERTEX
  5
29A6
  8
0
 10
0.9
 20
51.9
 30
98.5
 70
    64
  0
VERTEX
  5
29A7
  8
0
 10
2.1
 20
50.5
 30
98.5
 70
    64
  0
VERTEX
  5
29A8
  8
0
 10
3.5
 20
49.3
 30
98.5
 70
    64
  0
VERTEX
  5
29A9
  8
0
 10
5.2
 20
48.7
 30
98.5
 70
    64
  0
VERTEX
  5
29AA
  8
0
 10
7.0
 20
48.4
 30
98.5
 70
    64
  0
VERTEX
  5
29AB
  8
0
 10
8.8
 20
48.7
 30
98.5
 70
    64
  0
VERTEX
  5
29AC
  8
0
 10
10.5
 20
49.3
 30
98.5
 70
    64
  0
VERTEX
  5
29AD
  8
0
 10
11.9
 20
50.5
 30
98.5
 70
    64
  0
VERTEX
  5
29AE
  8
0
 10
13.1
 20
51.9
 30
98.5
 70
    64
  0
VERTEX
  5
29AF
  8
0
 10
13.7
 20
53.6
 30
98.5
 70
    64
  0
VERTEX
  5
29B0
  8
0
 10
14.0
 20
55.4
 30
98.5
 70
    64
  0
VERTEX
  5
29B1
  8
0
 10
0.0
 20
55.4
 30
120.0
 70
    64
  0
VERTEX
  5
29B2
  8
0
 10
0.3
 20
53.6
 30
120.0
 70
    64
  0
VERTEX
  5
29B3
  8
0
 10
0.9
 20
51.9
 30
120.0
 70
    64
  0
VERTEX
  5
29B4
  8
0
 10
2.1
 20
50.5
 30
120.0
 70
    64
  0
VERTEX
  5
29B5
  8
0
 10
3.5
 20
49.3
 30
120.0
 70
    64
  0
VERTEX
  5
29B6
  8
0
 10
5.2
 20
48.7
 30
120.0
 70
    64
  0
VERTEX
  5
29B7
  8
0
 10
7.0
 20
48.4
 30
120.0
 70
    64
  0
VERTEX
  5
29B8
  8
0
 10
8.8
 20
48.7
 30
120.0
 70
    64
  0
VERTEX
  5
29B9
  8
0
 10
10.5
 20
49.3
 30
120.0
 70
    64
  0
VERTEX
  5
29BA
  8
0
 10
11.9
 20
50.5
 30
120.0
 70
    64
  0
VERTEX
  5
29BB
  8
0
 10
13.1
 20
51.9
 30
120.0
 70
    64
  0
VERTEX
  5
29BC
  8
0
 10
13.7
 20
53.6
 30
120.0
 70
    64
  0
VERTEX
  5
29BD
  8
0
 10
14.0
 20
55.4
 30
120.0
 70
    64
  0
VERTEX
  5
29BE
  8
0
 10
0.9
 20
55.4
 30
126.5
 70
    64
  0
VERTEX
  5
29BF
  8
0
 10
1.1
 20
53.6
 30
126.4
 70
    64
  0
VERTEX
  5
29C0
  8
0
 10
1.8
 20
51.9
 30
126.2
 70
    64
  0
VERTEX
  5
29C1
  8
0
 10
2.8
 20
50.5
 30
126.0
 70
    64
  0
VERTEX
  5
29C2
  8
0
 10
4.2
 20
49.3
 30
125.6
 70
    64
  0
VERTEX
  5
29C3
  8
0
 10
5.9
 20
48.7
 30
125.1
 70
    64
  0
VERTEX
  5
29C4
  8
0
 10
7.6
 20
48.4
 30
124.7
 70
    64
  0
VERTEX
  5
29C5
  8
0
 10
9.4
 20
48.7
 30
124.2
 70
    64
  0
VERTEX
  5
29C6
  8
0
 10
11.0
 20
49.3
 30
123.8
 70
    64
  0
VERTEX
  5
29C7
  8
0
 10
12.4
 20
50.5
 30
123.4
 70
    64
  0
VERTEX
  5
29C8
  8
0
 10
13.5
 20
51.9
 30
123.1
 70
    64
  0
VERTEX
  5
29C9
  8
0
 10
14.1
 20
53.6
 30
123.0
 70
    64
  0
VERTEX
  5
29CA
  8
0
 10
14.4
 20
55.4
 30
122.9
 70
    64
  0
VERTEX
  5
29CB
  8
0
 10
3.4
 20
55.4
 30
132.5
 70
    64
  0
VERTEX
  5
29CC
  8
0
 10
3.6
 20
53.6
 30
132.4
 70
    64
  0
VERTEX
  5
29CD
  8
0
 10
4.2
 20
51.9
 30
132.0
 70
    64
  0
VERTEX
  5
29CE
  8
0
 10
5.1
 20
50.5
 30
131.5
 70
    64
  0
VERTEX
  5
29CF
  8
0
 10
6.4
 20
49.3
 30
130.7
 70
    64
  0
VERTEX
  5
29D0
  8
0
 10
7.8
 20
48.7
 30
129.9
 70
    64
  0
VERTEX
  5
29D1
  8
0
 10
9.4
 20
48.4
 30
129.0
 70
    64
  0
VERTEX
  5
29D2
  8
0
 10
11.0
 20
48.7
 30
128.1
 70
    64
  0
VERTEX
  5
29D3
  8
0
 10
12.4
 20
49.3
 30
127.3
 70
    64
  0
VERTEX
  5
29D4
  8
0
 10
13.7
 20
50.5
 30
126.5
 70
    64
  0
VERTEX
  5
29D5
  8
0
 10
14.7
 20
51.9
 30
126.0
 70
    64
  0
VERTEX
  5
29D6
  8
0
 10
15.3
 20
53.6
 30
125.6
 70
    64
  0
VERTEX
  5
29D7
  8
0
 10
15.5
 20
55.4
 30
125.5
 70
    64
  0
VERTEX
  5
29D8
  8
0
 10
7.3
 20
55.4
 30
137.7
 70
    64
  0
VERTEX
  5
29D9
  8
0
 10
7.5
 20
53.6
 30
137.5
 70
    64
  0
VERTEX
  5
29DA
  8
0
 10
8.0
 20
51.9
 30
137.0
 70
    64
  0
VERTEX
  5
29DB
  8
0
 10
8.8
 20
50.5
 30
136.2
 70
    64
  0
VERTEX
  5
29DC
  8
0
 10
9.8
 20
49.3
 30
135.2
 70
    64
  0
VERTEX
  5
29DD
  8
0
 10
11.0
 20
48.7
 30
134.0
 70
    64
  0
VERTEX
  5
29DE
  8
0
 10
12.3
 20
48.4
 30
132.7
 70
    64
  0
VERTEX
  5
29DF
  8
0
 10
13.6
 20
48.7
 30
131.4
 70
    64
  0
VERTEX
  5
29E0
  8
0
 10
14.7
 20
49.3
 30
130.3
 70
    64
  0
VERTEX
  5
29E1
  8
0
 10
15.8
 20
50.5
 30
129.2
 70
    64
  0
VERTEX
  5
29E2
  8
0
 10
16.6
 20
51.9
 30
128.4
 70
    64
  0
VERTEX
  5
29E3
  8
0
 10
17.0
 20
53.6
 30
128.0
 70
    64
  0
VERTEX
  5
29E4
  8
0
 10
17.2
 20
55.4
 30
127.8
 70
    64
  0
SEQEND
  5
29E5
  8
0
  0
POLYLINE
  5
29E6
  8
0
 66
     1
 10
0.0
 20
0.0
 30
0.0
 70
    16
 71
     5
 72
    13
  0
VERTEX
  5
29E7
  8
0
 10
70.0
 20
55.4
 30
145.0
 70
    64
  0
VERTEX
  5
29E8
  8
0
 10
70.0
 20
53.6
 30
144.7
 70
    64
  0
VERTEX
  5
29E9
  8
0
 10
70.0
 20
51.9
 30
144.1
 70
    64
  0
VERTEX
  5
29EA
  8
0
 10
70.0
 20
50.5
 30
142.9
 70
    64
  0
VERTEX
  5
29EB
  8
0
 10
70.0
 20
49.3
 30
141.5
 70
    64
  0
VERTEX
  5
29EC
  8
0
 10
70.0
 20
48.7
 30
139.8
 70
    64
  0
VERTEX
  5
29ED
  8
0
 10
70.0
 20
48.4
 30
138.0
 70
    64
  0
VERTEX
  5
29EE
  8
0
 10
70.0
 20
48.7
 30
136.2
 70
    64
  0
VERTEX
  5
29EF
  8
0
 10
70.0
 20
49.3
 30
134.5
 70
    64
  0
VERTEX
  5
29F0
  8
0
 10
70.0
 20
50.5
 30
133.1
 70
    64
  0
VERTEX
  5
29F1
  8
0
 10
70.0
 20
51.9
 30
131.9
 70
    64
  0
VERTEX
  5
29F2
  8
0
 10
70.0
 20
53.6
 30
131.3
 70
    64
  0
VERTEX
  5
29F3
  8
0
 10
70.0
 20
55.4
 30
131.0
 70
    64
  0
VERTEX
  5
29F4
  8
0
 10
25.0
 20
55.4
 30
145.0
 70
    64
  0
VERTEX
  5
29F5
  8
0
 10
25.0
 20
53.6
 30
144.7
 70
    64
  0
VERTEX
  5
29F6
  8
0
 10
25.0
 20
51.9
 30
144.1
 70
    64
  0
VERTEX
  5
29F7
  8
0
 10
25.0
 20
50.5
 30
142.9
 70
    64
  0
VERTEX
  5
29F8
  8
0
 10
25.0
 20
49.3
 30
141.5
 70
    64
  0
VERTEX
  5
29F9
  8
0
 10
25.0
 20
48.7
 30
139.8
 70
    64
  0
VERTEX
  5
29FA
  8
0
 10
25.0
 20
48.4
 30
138.0
 70
    64
  0
VERTEX
  5
29FB
  8
0
 10
25.0
 20
48.7
 30
136.2
 70
    64
  0
VERTEX
  5
29FC
  8
0
 10
25.0
 20
49.3
 30
134.5
 70
    64
  0
VERTEX
  5
29FD
  8
0
 10
25.0
 20
50.5
 30
133.1
 70
    64
  0
VERTEX
  5
29FE
  8
0
 10
25.0
 20
51.9
 30
131.9
 70
    64
  0
VERTEX
  5
29FF
  8
0
 10
25.0
 20
53.6
 30
131.3
 70
    64
  0
VERTEX
  5
2A00
  8
0
 10
25.0
 20
55.4
 30
131.0
 70
    64
  0
VERTEX
  5
2A01
  8
0
 10
18.5
 20
55.4
 30
144.1
 70
    64
  0
VERTEX
  5
2A02
  8
0
 10
18.6
 20
53.6
 30
143.9
 70
    64
  0
VERTEX
  5
2A03
  8
0
 10
18.8
 20
51.9
 30
143.2
 70
    64
  0
VERTEX
  5
2A04
  8
0
 10
19.0
 20
50.5
 30
142.2
 70
    64
  0
VERTEX
  5
2A05
  8
0
 10
19.4
 20
49.3
 30
140.8
 70
    64
  0
VERTEX
  5
2A06
  8
0
 10
19.9
 20
48.7
 30
139.1
 70
    64
  0
VERTEX
  5
2A07
  8
0
 10
20.3
 20
48.4
 30
137.4
 70
    64
  0
VERTEX
  5
2A08
  8
0
 10
20.8
 20
48.7
 30
135.6
 70
    64
  0
VERTEX
  5
2A09
  8
0
 10
21.2
 20
49.3
 30
134.0
 70
    64
  0
VERTEX
  5
2A0A
  8
0
 10
21.6
 20
50.5
 30
132.6
 70
    64
  0
VERTEX
  5
2A0B
  8
0
 10
21.9
 20
51.9
 30
131.5
 70
    64
  0
VERTEX
  5
2A0C
  8
0
 10
22.0
 20
53.6
 30
130.9
 70
    64
  0
VERTEX
  5
2A0D
  8
0
 10
22.1
 20
55.4
 30
130.6
 70
    64
  0
VERTEX
  5
2A0E
  8
0
 10
12.5
 20
55.4
 30
141.6
 70
    64
  0
VERTEX
  5
2A0F
  8
0
 10
12.6
 20
53.6
 30
141.4
 70
    64
  0
VERTEX
  5
2A10
  8
0
 10
13.0
 20
51.9
 30
140.8
 70
    64
  0
VERTEX
  5
2A11
  8
0
 10
13.5
 20
50.5
 30
139.9
 70
    64
  0
VERTEX
  5
2A12
  8
0
 10
14.3
 20
49.3
 30
138.6
 70
    64
  0
VERTEX
  5
2A13
  8
0
 10
15.1
 20
48.7
 30
137.2
 70
    64
  0
VERTEX
  5
2A14
  8
0
 10
16.0
 20
48.4
 30
135.6
 70
    64
  0
VERTEX
  5
2A15
  8
0
 10
16.9
 20
48.7
 30
134.0
 70
    64
  0
VERTEX
  5
2A16
  8
0
 10
17.7
 20
49.3
 30
132.6
 70
    64
  0
VERTEX
  5
2A17
  8
0
 10
18.5
 20
50.5
 30
131.3
 70
    64
  0
VERTEX
  5
2A18
  8
0
 10
19.0
 20
51.9
 30
130.3
 70
    64
  0
VERTEX
  5
2A19
  8
0
 10
19.4
 20
53.6
 30
129.7
 70
    64
  0
VERTEX
  5
2A1A
  8
0
 10
19.5
 20
55.4
 30
129.5
 70
    64
  0
VERTEX
  5
2A1B
  8
0
 10
7.3
 20
55.4
 30
137.7
 70
    64
  0
VERTEX
  5
2A1C
  8
0
 10
7.5
 20
53.6
 30
137.5
 70
    64
  0
VERTEX
  5
2A1D
  8
0
 10
8.0
 20
51.9
 30
137.0
 70
    64
  0
VERTEX
  5
2A1E
  8
0
 10
8.8
 20
50.5
 30
136.2
 70
    64
  0
VERTEX
  5
2A1F
  8
0
 10
9.8
 20
49.3
 30
135.2
 70
    64
  0
VERTEX
  5
2A20
  8
0
 10
11.0
 20
48.7
 30
134.0
 70
    64
  0
VERTEX
  5
2A21
  8
0
 10
12.3
 20
48.4
 30
132.7
 70
    64
  0
VERTEX
  5
2A22
  8
0
 10
13.6
 20
48.7
 30
131.4
 70
    64
  0
VERTEX
  5
2A23
  8
0
 10
14.7
 20
49.3
 30
130.3
 70
    64
  0
VERTEX
  5
2A24
  8
0
 10
15.8
 20
50.5
 30
129.2
 70
    64
  0
VERTEX
  5
2A25
  8
0
 10
16.6
 20
51.9
 30
128.4
 70
    64
  0
VERTEX
  5
2A26
  8
0
 10
17.0
 20
53.6
 30
128.0
 70
    64
  0
VERTEX
  5
2A27
  8
0
 10
17.2
 20
55.4
 30
127.8
 70
    64
  0
SEQEND
  5
2A28
  8
0
  0
POLYLINE
  5
2A6C
  8
0
 66
     1
 10
0.0
 20
0.0
 30
0.0
 70
    16
 71
     3
 72
    13
  0
VERTEX
  5
2A6D
  8
0
 10
99.0
 20
55.4
 30
131.0
 70
    64
  0
VERTEX
  5
2A6E
  8
0
 10
99.0
 20
53.6
 30
131.3
 70
    64
  0
VERTEX
  5
2A6F
  8
0
 10
99.0
 20
51.9
 30
131.9
 70
    64
  0
VERTEX
  5
2A70
  8
0
 10
99.0
 20
50.5
 30
133.1
 70
    64
  0
VERTEX
  5
2A71
  8
0
 10
99.0
 20
49.3
 30
134.5
 70
    64
  0
VERTEX
  5
2A72
  8
0
 10
99.0
 20
48.7
 30
136.2
 70
    64
  0
VERTEX
  5
2A73
  8
0
 10
99.0
 20
48.4
 30
138.0
 70
    64
  0
VERTEX
  5
2A74
  8
0
 10
99.0
 20
48.7
 30
139.8
 70
    64
  0
VERTEX
  5
2A75
  8
0
 10
99.0
 20
49.3
 30
141.5
 70
    64
  0
VERTEX
  5
2A76
  8
0
 10
99.0
 20
50.5
 30
142.9
 70
    64
  0
VERTEX
  5
2A77
  8
0
 10
99.0
 20
51.9
 30
144.1
 70
    64
  0
VERTEX
  5
2A78
  8
0
 10
99.0
 20
53.6
 30
144.7
 70
    64
  0
VERTEX
  5
2A79
  8
0
 10
99.0
 20
55.4
 30
145.0
 70
    64
  0
VERTEX
  5
2A7A
  8
0
 10
135.0
 20
55.4
 30
131.0
 70
    64
  0
VERTEX
  5
2A7B
  8
0
 10
135.0
 20
53.6
 30
131.3
 70
    64
  0
VERTEX
  5
2A7C
  8
0
 10
135.0
 20
51.9
 30
131.9
 70
    64
  0
VERTEX
  5
2A7D
  8
0
 10
135.0
 20
50.5
 30
133.1
 70
    64
  0
VERTEX
  5
2A7E
  8
0
 10
135.0
 20
49.3
 30
134.5
 70
    64
  0
VERTEX
  5
2A7F
  8
0
 10
135.0
 20
48.7
 30
136.2
 70
    64
  0
VERTEX
  5
2A80
  8
0
 10
135.0
 20
48.4
 30
138.0
 70
    64
  0
VERTEX
  5
2A81
  8
0
 10
135.0
 20
48.7
 30
139.8
 70
    64
  0
VERTEX
  5
2A82
  8
0
 10
135.0
 20
49.3
 30
141.5
 70
    64
  0
VERTEX
  5
2A83
  8
0
 10
135.0
 20
50.5
 30
142.9
 70
    64
  0
VERTEX
  5
2A84
  8
0
 10
135.0
 20
51.9
 30
144.1
 70
    64
  0
VERTEX
  5
2A85
  8
0
 10
135.0
 20
53.6
 30
144.7
 70
    64
  0
VERTEX
  5
2A86
  8
0
 10
135.0
 20
55.4
 30
145.0
 70
    64
  0
VERTEX
  5
2A87
  8
0
 10
135.0
 20
55.4
 30
138.0
 70
    64
  0
VERTEX
  5
2A88
  8
0
 10
135.0
 20
55.4
 30
138.0
 70
    64
  0
VERTEX
  5
2A89
  8
0
 10
135.0
 20
55.4
 30
138.0
 70
    64
  0
VERTEX
  5
2A8A
  8
0
 10
135.0
 20
55.4
 30
138.0
 70
    64
  0
VERTEX
  5
2A8B
  8
0
 10
135.0
 20
55.4
 30
138.0
 70
    64
  0
VERTEX
  5
2A8C
  8
0
 10
135.0
 20
55.4
 30
138.0
 70
    64
  0
VERTEX
  5
2A8D
  8
0
 10
135.0
 20
55.4
 30
138.0
 70
    64
  0
VERTEX
  5
2A8E
  8
0
 10
135.0
 20
55.4
 30
138.0
 70
    64
  0
VERTEX
  5
2A8F
  8
0
 10
135.0
 20
55.4
 30
138.0
 70
    64
  0
VERTEX
  5
2A90
  8
0
 10
135.0
 20
55.4
 30
138.0
 70
    64
  0
VERTEX
  5
2A91
  8
0
 10
135.0
 20
55.4
 30
138.0
 70
    64
  0
VERTEX
  5
2A92
  8
0
 10
135.0
 20
55.4
 30
138.0
 70
    64
  0
VERTEX
  5
2A93
  8
0
 10
135.0
 20
55.4
 30
138.0
 70
    64
  0
SEQEND
  5
2A94
  8
0
  0
POLYLINE
  5
2C9B
  8
0
 66
     1
 10
0.0
 20
0.0
 30
0.0
 70
    16
 71
     5
 72
    13
  0
VERTEX
  5
2C9C
  8
0
 10
0.0
 20
55.4
 30
98.5
 70
    64
  0
VERTEX
  5
2C9D
  8
0
 10
0.3
 20
57.2
 30
98.5
 70
    64
  0
VERTEX
  5
2C9E
  8
0
 10
0.9
 20
58.9
 30
98.5
 70
    64
  0
VERTEX
  5
2C9F
  8
0
 10
2.1
 20
60.3
 30
98.5
 70
    64
  0
VERTEX
  5
2CA0
  8
0
 10
3.5
 20
61.5
 30
98.5
 70
    64
  0
VERTEX
  5
2CA1
  8
0
 10
5.2
 20
62.1
 30
98.5
 70
    64
  0
VERTEX
  5
2CA2
  8
0
 10
7.0
 20
62.4
 30
98.5
 70
    64
  0
VERTEX
  5
2CA3
  8
0
 10
8.8
 20
62.1
 30
98.5
 70
    64
  0
VERTEX
  5
2CA4
  8
0
 10
10.5
 20
61.5
 30
98.5
 70
    64
  0
VERTEX
  5
2CA5
  8
0
 10
11.9
 20
60.3
 30
98.5
 70
    64
  0
VERTEX
  5
2CA6
  8
0
 10
13.1
 20
58.9
 30
98.5
 70
    64
  0
VERTEX
  5
2CA7
  8
0
 10
13.7
 20
57.2
 30
98.5
 70
    64
  0
VERTEX
  5
2CA8
  8
0
 10
14.0
 20
55.4
 30
98.5
 70
    64
  0
VERTEX
  5
2CA9
  8
0
 10
0.0
 20
55.4
 30
77.0
 70
    64
  0
VERTEX
  5
2CAA
  8
0
 10
0.3
 20
57.2
 30
77.0
 70
    64
  0
VERTEX
  5
2CAB
  8
0
 10
0.9
 20
58.9
 30
77.0
 70
    64
  0
VERTEX
  5
2CAC
  8
0
 10
2.1
 20
60.3
 30
77.0
 70
    64
  0
VERTEX
  5
2CAD
  8
0
 10
3.5
 20
61.5
 30
77.0
 70
    64
  0
VERTEX
  5
2CAE
  8
0
 10
5.2
 20
62.1
 30
77.0
 70
    64
  0
VERTEX
  5
2CAF
  8
0
 10
7.0
 20
62.4
 30
77.0
 70
    64
  0
VERTEX
  5
2CB0
  8
0
 10
8.8
 20
62.1
 30
77.0
 70
    64
  0
VERTEX
  5
2CB1
  8
0
 10
10.5
 20
61.5
 30
77.0
 70
    64
  0
VERTEX
  5
2CB2
  8
0
 10
11.9
 20
60.3
 30
77.0
 70
    64
  0
VERTEX
  5
2CB3
  8
0
 10
13.1
 20
58.9
 30
77.0
 70
    64
  0
VERTEX
  5
2CB4
  8
0
 10
13.7
 20
57.2
 30
77.0
 70
    64
  0
VERTEX
  5
2CB5
  8
0
 10
14.0
 20
55.4
 30
77.0
 70
    64
  0
VERTEX
  5
2CB6
  8
0
 10
0.9
 20
55.4
 30
70.5
 70
    64
  0
VERTEX
  5
2CB7
  8
0
 10
1.1
 20
57.2
 30
70.6
 70
    64
  0
VERTEX
  5
2CB8
  8
0
 10
1.8
 20
58.9
 30
70.8
 70
    64
  0
VERTEX
  5
2CB9
  8
0
 10
2.8
 20
60.3
 30
71.0
 70
    64
  0
VERTEX
  5
2CBA
  8
0
 10
4.2
 20
61.5
 30
71.4
 70
    64
  0
VERTEX
  5
2CBB
  8
0
 10
5.9
 20
62.1
 30
71.9
 70
    64
  0
VERTEX
  5
2CBC
  8
0
 10
7.6
 20
62.4
 30
72.3
 70
    64
  0
VERTEX
  5
2CBD
  8
0
 10
9.4
 20
62.1
 30
72.8
 70
    64
  0
VERTEX
  5
2CBE
  8
0
 10
11.0
 20
61.5
 30
73.2
 70
    64
  0
VERTEX
  5
2CBF
  8
0
 10
12.4
 20
60.3
 30
73.6
 70
    64
  0
VERTEX
  5
2CC0
  8
0
 10
13.5
 20
58.9
 30
73.9
 70
    64
  0
VERTEX
  5
2CC1
  8
0
 10
14.1
 20
57.2
 30
74.0
 70
    64
  0
VERTEX
  5
2CC2
  8
0
 10
14.4
 20
55.4
 30
74.1
 70
    64
  0
VERTEX
  5
2CC3
  8
0
 10
3.4
 20
55.4
 30
64.5
 70
    64
  0
VERTEX
  5
2CC4
  8
0
 10
3.6
 20
57.2
 30
64.6
 70
    64
  0
VERTEX
  5
2CC5
  8
0
 10
4.2
 20
58.9
 30
65.0
 70
    64
  0
VERTEX
  5
2CC6
  8
0
 10
5.1
 20
60.3
 30
65.5
 70
    64
  0
VERTEX
  5
2CC7
  8
0
 10
6.4
 20
61.5
 30
66.3
 70
    64
  0
VERTEX
  5
2CC8
  8
0
 10
7.8
 20
62.1
 30
67.1
 70
    64
  0
VERTEX
  5
2CC9
  8
0
 10
9.4
 20
62.4
 30
68.0
 70
    64
  0
VERTEX
  5
2CCA
  8
0
 10
11.0
 20
62.1
 30
68.9
 70
    64
  0
VERTEX
  5
2CCB
  8
0
 10
12.4
 20
61.5
 30
69.7
 70
    64
  0
VERTEX
  5
2CCC
  8
0
 10
13.7
 20
60.3
 30
70.5
 70
    64
  0
VERTEX
  5
2CCD
  8
0
 10
14.7
 20
58.9
 30
71.0
 70
    64
  0
VERTEX
  5
2CCE
  8
0
 10
15.3
 20
57.2
 30
71.4
 70
    64
  0
VERTEX
  5
2CCF
  8
0
 10
15.5
 20
55.4
 30
71.5
 70
    64
  0
VERTEX
  5
2CD0
  8
0
 10
7.3
 20
55.4
 30
59.3
 70
    64
  0
VERTEX
  5
2CD1
  8
0
 10
7.5
 20
57.2
 30
59.5
 70
    64
  0
VERTEX
  5
2CD2
  8
0
 10
8.0
 20
58.9
 30
60.0
 70
    64
  0
VERTEX
  5
2CD3
  8
0
 10
8.8
 20
60.3
 30
60.8
 70
    64
  0
VERTEX
  5
2CD4
  8
0
 10
9.8
 20
61.5
 30
61.8
 70
    64
  0
VERTEX
  5
2CD5
  8
0
 10
11.0
 20
62.1
 30
63.0
 70
    64
  0
VERTEX
  5
2CD6
  8
0
 10
12.3
 20
62.4
 30
64.3
 70
    64
  0
VERTEX
  5
2CD7
  8
0
 10
13.6
 20
62.1
 30
65.6
 70
    64
  0
VERTEX
  5
2CD8
  8
0
 10
14.7
 20
61.5
 30
66.7
 70
    64
  0
VERTEX
  5
2CD9
  8
0
 10
15.8
 20
60.3
 30
67.8
 70
    64
  0
VERTEX
  5
2CDA
  8
0
 10
16.6
 20
58.9
 30
68.6
 70
    64
  0
VERTEX
  5
2CDB
  8
0
 10
17.0
 20
57.2
 30
69.0
 70
    64
  0
VERTEX
  5
2CDC
  8
0
 10
17.2
 20
55.4
 30
69.2
 70
    64
  0
SEQEND
  5
2CDD
  8
0
  0
POLYLINE
  5
2CDE
  8
0
 66
     1
 10
0.0
 20
0.0
 30
0.0
 70
    16
 71
     5
 72
    13
  0
VERTEX
  5
2CDF
  8
0
 10
0.0
 20
55.4
 30
98.5
 70
    64
  0
VERTEX
  5
2CE0
  8
0
 10
0.3
 20
57.2
 30
98.5
 70
    64
  0
VERTEX
  5
2CE1
  8
0
 10
0.9
 20
58.9
 30
98.5
 70
    64
  0
VERTEX
  5
2CE2
  8
0
 10
2.1
 20
60.3
 30
98.5
 70
    64
  0
VERTEX
  5
2CE3
  8
0
 10
3.5
 20
61.5
 30
98.5
 70
    64
  0
VERTEX
  5
2CE4
  8
0
 10
5.2
 20
62.1
 30
98.5
 70
    64
  0
VERTEX
  5
2CE5
  8
0
 10
7.0
 20
62.4
 30
98.5
 70
    64
  0
VERTEX
  5
2CE6
  8
0
 10
8.8
 20
62.1
 30
98.5
 70
    64
  0
VERTEX
  5
2CE7
  8
0
 10
10.5
 20
61.5
 30
98.5
 70
    64
  0
VERTEX
  5
2CE8
  8
0
 10
11.9
 20
60.3
 30
98.5
 70
    64
  0
VERTEX
  5
2CE9
  8
0
 10
13.1
 20
58.9
 30
98.5
 70
    64
  0
VERTEX
  5
2CEA
  8
0
 10
13.7
 20
57.2
 30
98.5
 70
    64
  0
VERTEX
  5
2CEB
  8
0
 10
14.0
 20
55.4
 30
98.5
 70
    64
  0
VERTEX
  5
2CEC
  8
0
 10
0.0
 20
55.4
 30
120.0
 70
    64
  0
VERTEX
  5
2CED
  8
0
 10
0.3
 20
57.2
 30
120.0
 70
    64
  0
VERTEX
  5
2CEE
  8
0
 10
0.9
 20
58.9
 30
120.0
 70
    64
  0
VERTEX
  5
2CEF
  8
0
 10
2.1
 20
60.3
 30
120.0
 70
    64
  0
VERTEX
  5
2CF0
  8
0
 10
3.5
 20
61.5
 30
120.0
 70
    64
  0
VERTEX
  5
2CF1
  8
0
 10
5.2
 20
62.1
 30
120.0
 70
    64
  0
VERTEX
  5
2CF2
  8
0
 10
7.0
 20
62.4
 30
120.0
 70
    64
  0
VERTEX
  5
2CF3
  8
0
 10
8.8
 20
62.1
 30
120.0
 70
    64
  0
VERTEX
  5
2CF4
  8
0
 10
10.5
 20
61.5
 30
120.0
 70
    64
  0
VERTEX
  5
2CF5
  8
0
 10
11.9
 20
60.3
 30
120.0
 70
    64
  0
VERTEX
  5
2CF6
  8
0
 10
13.1
 20
58.9
 30
120.0
 70
    64
  0
VERTEX
  5
2CF7
  8
0
 10
13.7
 20
57.2
 30
120.0
 70
    64
  0
VERTEX
  5
2CF8
  8
0
 10
14.0
 20
55.4
 30
120.0
 70
    64
  0
VERTEX
  5
2CF9
  8
0
 10
0.9
 20
55.4
 30
126.5
 70
    64
  0
VERTEX
  5
2CFA
  8
0
 10
1.1
 20
57.2
 30
126.4
 70
    64
  0
VERTEX
  5
2CFB
  8
0
 10
1.8
 20
58.9
 30
126.2
 70
    64
  0
VERTEX
  5
2CFC
  8
0
 10
2.8
 20
60.3
 30
126.0
 70
    64
  0
VERTEX
  5
2CFD
  8
0
 10
4.2
 20
61.5
 30
125.6
 70
    64
  0
VERTEX
  5
2CFE
  8
0
 10
5.9
 20
62.1
 30
125.1
 70
    64
  0
VERTEX
  5
2CFF
  8
0
 10
7.6
 20
62.4
 30
124.7
 70
    64
  0
VERTEX
  5
2D00
  8
0
 10
9.4
 20
62.1
 30
124.2
 70
    64
  0
VERTEX
  5
2D01
  8
0
 10
11.0
 20
61.5
 30
123.8
 70
    64
  0
VERTEX
  5
2D02
  8
0
 10
12.4
 20
60.3
 30
123.4
 70
    64
  0
VERTEX
  5
2D03
  8
0
 10
13.5
 20
58.9
 30
123.1
 70
    64
  0
VERTEX
  5
2D04
  8
0
 10
14.1
 20
57.2
 30
123.0
 70
    64
  0
VERTEX
  5
2D05
  8
0
 10
14.4
 20
55.4
 30
122.9
 70
    64
  0
VERTEX
  5
2D06
  8
0
 10
3.4
 20
55.4
 30
132.5
 70
    64
  0
VERTEX
  5
2D07
  8
0
 10
3.6
 20
57.2
 30
132.4
 70
    64
  0
VERTEX
  5
2D08
  8
0
 10
4.2
 20
58.9
 30
132.0
 70
    64
  0
VERTEX
  5
2D09
  8
0
 10
5.1
 20
60.3
 30
131.5
 70
    64
  0
VERTEX
  5
2D0A
  8
0
 10
6.4
 20
61.5
 30
130.7
 70
    64
  0
VERTEX
  5
2D0B
  8
0
 10
7.8
 20
62.1
 30
129.9
 70
    64
  0
VERTEX
  5
2D0C
  8
0
 10
9.4
 20
62.4
 30
129.0
 70
    64
  0
VERTEX
  5
2D0D
  8
0
 10
11.0
 20
62.1
 30
128.1
 70
    64
  0
VERTEX
  5
2D0E
  8
0
 10
12.4
 20
61.5
 30
127.3
 70
    64
  0
VERTEX
  5
2D0F
  8
0
 10
13.7
 20
60.3
 30
126.5
 70
    64
  0
VERTEX
  5
2D10
  8
0
 10
14.7
 20
58.9
 30
126.0
 70
    64
  0
VERTEX
  5
2D11
  8
0
 10
15.3
 20
57.2
 30
125.6
 70
    64
  0
VERTEX
  5
2D12
  8
0
 10
15.5
 20
55.4
 30
125.5
 70
    64
  0
VERTEX
  5
2D13
  8
0
 10
7.3
 20
55.4
 30
137.7
 70
    64
  0
VERTEX
  5
2D14
  8
0
 10
7.5
 20
57.2
 30
137.5
 70
    64
  0
VERTEX
  5
2D15
  8
0
 10
8.0
 20
58.9
 30
137.0
 70
    64
  0
VERTEX
  5
2D16
  8
0
 10
8.8
 20
60.3
 30
136.2
 70
    64
  0
VERTEX
  5
2D17
  8
0
 10
9.8
 20
61.5
 30
135.2
 70
    64
  0
VERTEX
  5
2D18
  8
0
 10
11.0
 20
62.1
 30
134.0
 70
    64
  0
VERTEX
  5
2D19
  8
0
 10
12.3
 20
62.4
 30
132.7
 70
    64
  0
VERTEX
  5
2D1A
  8
0
 10
13.6
 20
62.1
 30
131.4
 70
    64
  0
VERTEX
  5
2D1B
  8
0
 10
14.7
 20
61.5
 30
130.3
 70
    64
  0
VERTEX
  5
2D1C
  8
0
 10
15.8
 20
60.3
 30
129.2
 70
    64
  0
VERTEX
  5
2D1D
  8
0
 10
16.6
 20
58.9
 30
128.4
 70
    64
  0
VERTEX
  5
2D1E
  8
0
 10
17.0
 20
57.2
 30
128.0
 70
    64
  0
VERTEX
  5
2D1F
  8
0
 10
17.2
 20
55.4
 30
127.8
 70
    64
  0
SEQEND
  5
2D20
  8
0
  0
POLYLINE
  5
2D21
  8
0
 66
     1
 10
0.0
 20
0.0
 30
0.0
 70
    16
 71
     5
 72
    13
  0
VERTEX
  5
2D22
  8
0
 10
70.0
 20
55.4
 30
145.0
 70
    64
  0
VERTEX
  5
2D23
  8
0
 10
70.0
 20
57.2
 30
144.7
 70
    64
  0
VERTEX
  5
2D24
  8
0
 10
70.0
 20
58.9
 30
144.1
 70
    64
  0
VERTEX
  5
2D25
  8
0
 10
70.0
 20
60.3
 30
142.9
 70
    64
  0
VERTEX
  5
2D26
  8
0
 10
70.0
 20
61.5
 30
141.5
 70
    64
  0
VERTEX
  5
2D27
  8
0
 10
70.0
 20
62.1
 30
139.8
 70
    64
  0
VERTEX
  5
2D28
  8
0
 10
70.0
 20
62.4
 30
138.0
 70
    64
  0
VERTEX
  5
2D29
  8
0
 10
70.0
 20
62.1
 30
136.2
 70
    64
  0
VERTEX
  5
2D2A
  8
0
 10
70.0
 20
61.5
 30
134.5
 70
    64
  0
VERTEX
  5
2D2B
  8
0
 10
70.0
 20
60.3
 30
133.1
 70
    64
  0
VERTEX
  5
2D2C
  8
0
 10
70.0
 20
58.9
 30
131.9
 70
    64
  0
VERTEX
  5
2D2D
  8
0
 10
70.0
 20
57.2
 30
131.3
 70
    64
  0
VERTEX
  5
2D2E
  8
0
 10
70.0
 20
55.4
 30
131.0
 70
    64
  0
VERTEX
  5
2D2F
  8
0
 10
25.0
 20
55.4
 30
145.0
 70
    64
  0
VERTEX
  5
2D30
  8
0
 10
25.0
 20
57.2
 30
144.7
 70
    64
  0
VERTEX
  5
2D31
  8
0
 10
25.0
 20
58.9
 30
144.1
 70
    64
  0
VERTEX
  5
2D32
  8
0
 10
25.0
 20
60.3
 30
142.9
 70
    64
  0
VERTEX
  5
2D33
  8
0
 10
25.0
 20
61.5
 30
141.5
 70
    64
  0
VERTEX
  5
2D34
  8
0
 10
25.0
 20
62.1
 30
139.8
 70
    64
  0
VERTEX
  5
2D35
  8
0
 10
25.0
 20
62.4
 30
138.0
 70
    64
  0
VERTEX
  5
2D36
  8
0
 10
25.0
 20
62.1
 30
136.2
 70
    64
  0
VERTEX
  5
2D37
  8
0
 10
25.0
 20
61.5
 30
134.5
 70
    64
  0
VERTEX
  5
2D38
  8
0
 10
25.0
 20
60.3
 30
133.1
 70
    64
  0
VERTEX
  5
2D39
  8
0
 10
25.0
 20
58.9
 30
131.9
 70
    64
  0
VERTEX
  5
2D3A
  8
0
 10
25.0
 20
57.2
 30
131.3
 70
    64
  0
VERTEX
  5
2D3B
  8
0
 10
25.0
 20
55.4
 30
131.0
 70
    64
  0
VERTEX
  5
2D3C
  8
0
 10
18.5
 20
55.4
 30
144.1
 70
    64
  0
VERTEX
  5
2D3D
  8
0
 10
18.6
 20
57.2
 30
143.9
 70
    64
  0
VERTEX
  5
2D3E
  8
0
 10
18.8
 20
58.9
 30
143.2
 70
    64
  0
VERTEX
  5
2D3F
  8
0
 10
19.0
 20
60.3
 30
142.2
 70
    64
  0
VERTEX
  5
2D40
  8
0
 10
19.4
 20
61.5
 30
140.8
 70
    64
  0
VERTEX
  5
2D41
  8
0
 10
19.9
 20
62.1
 30
139.1
 70
    64
  0
VERTEX
  5
2D42
  8
0
 10
20.3
 20
62.4
 30
137.4
 70
    64
  0
VERTEX
  5
2D43
  8
0
 10
20.8
 20
62.1
 30
135.6
 70
    64
  0
VERTEX
  5
2D44
  8
0
 10
21.2
 20
61.5
 30
134.0
 70
    64
  0
VERTEX
  5
2D45
  8
0
 10
21.6
 20
60.3
 30
132.6
 70
    64
  0
VERTEX
  5
2D46
  8
0
 10
21.9
 20
58.9
 30
131.5
 70
    64
  0
VERTEX
  5
2D47
  8
0
 10
22.0
 20
57.2
 30
130.9
 70
    64
  0
VERTEX
  5
2D48
  8
0
 10
22.1
 20
55.4
 30
130.6
 70
    64
  0
VERTEX
  5
2D49
  8
0
 10
12.5
 20
55.4
 30
141.6
 70
    64
  0
VERTEX
  5
2D4A
  8
0
 10
12.6
 20
57.2
 30
141.4
 70
    64
  0
VERTEX
  5
2D4B
  8
0
 10
13.0
 20
58.9
 30
140.8
 70
    64
  0
VERTEX
  5
2D4C
  8
0
 10
13.5
 20
60.3
 30
139.9
 70
    64
  0
VERTEX
  5
2D4D
  8
0
 10
14.3
 20
61.5
 30
138.6
 70
    64
  0
VERTEX
  5
2D4E
  8
0
 10
15.1
 20
62.1
 30
137.2
 70
    64
  0
VERTEX
  5
2D4F
  8
0
 10
16.0
 20
62.4
 30
135.6
 70
    64
  0
VERTEX
  5
2D50
  8
0
 10
16.9
 20
62.1
 30
134.0
 70
    64
  0
VERTEX
  5
2D51
  8
0
 10
17.7
 20
61.5
 30
132.6
 70
    64
  0
VERTEX
  5
2D52
  8
0
 10
18.5
 20
60.3
 30
131.3
 70
    64
  0
VERTEX
  5
2D53
  8
0
 10
19.0
 20
58.9
 30
130.3
 70
    64
  0
VERTEX
  5
2D54
  8
0
 10
19.4
 20
57.2
 30
129.7
 70
    64
  0
VERTEX
  5
2D55
  8
0
 10
19.5
 20
55.4
 30
129.5
 70
    64
  0
VERTEX
  5
2D56
  8
0
 10
7.3
 20
55.4
 30
137.7
 70
    64
  0
VERTEX
  5
2D57
  8
0
 10
7.5
 20
57.2
 30
137.5
 70
    64
  0
VERTEX
  5
2D58
  8
0
 10
8.0
 20
58.9
 30
137.0
 70
    64
  0
VERTEX
  5
2D59
  8
0
 10
8.8
 20
60.3
 30
136.2
 70
    64
  0
VERTEX
  5
2D5A
  8
0
 10
9.8
 20
61.5
 30
135.2
 70
    64
  0
VERTEX
  5
2D5B
  8
0
 10
11.0
 20
62.1
 30
134.0
 70
    64
  0
VERTEX
  5
2D5C
  8
0
 10
12.3
 20
62.4
 30
132.7
 70
    64
  0
VERTEX
  5
2D5D
  8
0
 10
13.6
 20
62.1
 30
131.4
 70
    64
  0
VERTEX
  5
2D5E
  8
0
 10
14.7
 20
61.5
 30
130.3
 70
    64
  0
VERTEX
  5
2D5F
  8
0
 10
15.8
 20
60.3
 30
129.2
 70
    64
  0
VERTEX
  5
2D60
  8
0
 10
16.6
 20
58.9
 30
128.4
 70
    64
  0
VERTEX
  5
2D61
  8
0
 10
17.0
 20
57.2
 30
128.0
 70
    64
  0
VERTEX
  5
2D62
  8
0
 10
17.2
 20
55.4
 30
127.8
 70
    64
  0
SEQEND
  5
2D63
  8
0
  0
POLYLINE
  5
2D64
  8
0
 66
     1
 10
0.0
 20
0.0
 30
0.0
 70
    16
 71
     3
 72
    13
  0
VERTEX
  5
2D65
  8
0
 10
99.0
 20
55.4
 30
131.0
 70
    64
  0
VERTEX
  5
2D66
  8
0
 10
99.0
 20
57.2
 30
131.3
 70
    64
  0
VERTEX
  5
2D67
  8
0
 10
99.0
 20
58.9
 30
131.9
 70
    64
  0
VERTEX
  5
2D68
  8
0
 10
99.0
 20
60.3
 30
133.1
 70
    64
  0
VERTEX
  5
2D69
  8
0
 10
99.0
 20
61.5
 30
134.5
 70
    64
  0
VERTEX
  5
2D6A
  8
0
 10
99.0
 20
62.1
 30
136.2
 70
    64
  0
VERTEX
  5
2D6B
  8
0
 10
99.0
 20
62.4
 30
138.0
 70
    64
  0
VERTEX
  5
2D6C
  8
0
 10
99.0
 20
62.1
 30
139.8
 70
    64
  0
VERTEX
  5
2D6D
  8
0
 10
99.0
 20
61.5
 30
141.5
 70
    64
  0
VERTEX
  5
2D6E
  8
0
 10
99.0
 20
60.3
 30
142.9
 70
    64
  0
VERTEX
  5
2D6F
  8
0
 10
99.0
 20
58.9
 30
144.1
 70
    64
  0
VERTEX
  5
2D70
  8
0
 10
99.0
 20
57.2
 30
144.7
 70
    64
  0
VERTEX
  5
2D71
  8
0
 10
99.0
 20
55.4
 30
145.0
 70
    64
  0
VERTEX
  5
2D72
  8
0
 10
135.0
 20
55.4
 30
131.0
 70
    64
  0
VERTEX
  5
2D73
  8
0
 10
135.0
 20
57.2
 30
131.3
 70
    64
  0
VERTEX
  5
2D74
  8
0
 10
135.0
 20
58.9
 30
131.9
 70
    64
  0
VERTEX
  5
2D75
  8
0
 10
135.0
 20
60.3
 30
133.1
 70
    64
  0
VERTEX
  5
2D76
  8
0
 10
135.0
 20
61.5
 30
134.5
 70
    64
  0
VERTEX
  5
2D77
  8
0
 10
135.0
 20
62.1
 30
136.2
 70
    64
  0
VERTEX
  5
2D78
  8
0
 10
135.0
 20
62.4
 30
138.0
 70
    64
  0
VERTEX
  5
2D79
  8
0
 10
135.0
 20
62.1
 30
139.8
 70
    64
  0
VERTEX
  5
2D7A
  8
0
 10
135.0
 20
61.5
 30
141.5
 70
    64
  0
VERTEX
  5
2D7B
  8
0
 10
135.0
 20
60.3
 30
142.9
 70
    64
  0
VERTEX
  5
2D7C
  8
0
 10
135.0
 20
58.9
 30
144.1
 70
    64
  0
VERTEX
  5
2D7D
  8
0
 10
135.0
 20
57.2
 30
144.7
 70
    64
  0
VERTEX
  5
2D7E
  8
0
 10
135.0
 20
55.4
 30
145.0
 70
    64
  0
VERTEX
  5
2D7F
  8
0
 10
135.0
 20
55.4
 30
138.0
 70
    64
  0
VERTEX
  5
2D80
  8
0
 10
135.0
 20
55.4
 30
138.0
 70
    64
  0
VERTEX
  5
2D81
  8
0
 10
135.0
 20
55.4
 30
138.0
 70
    64
  0
VERTEX
  5
2D82
  8
0
 10
135.0
 20
55.4
 30
138.0
 70
    64
  0
VERTEX
  5
2D83
  8
0
 10
135.0
 20
55.4
 30
138.0
 70
    64
  0
VERTEX
  5
2D84
  8
0
 10
135.0
 20
55.4
 30
138.0
 70
    64
  0
VERTEX
  5
2D85
  8
0
 10
135.0
 20
55.4
 30
138.0
 70
    64
  0
VERTEX
  5
2D86
  8
0
 10
135.0
 20
55.4
 30
138.0
 70
    64
  0
VERTEX
  5
2D87
  8
0
 10
135.0
 20
55.4
 30
138.0
 70
    64
  0
VERTEX
  5
2D88
  8
0
 10
135.0
 20
55.4
 30
138.0
 70
    64
  0
VERTEX
  5
2D89
  8
0
 10
135.0
 20
55.4
 30
138.0
 70
    64
  0
VERTEX
  5
2D8A
  8
0
 10
135.0
 20
55.4
 30
138.0
 70
    64
  0
VERTEX
  5
2D8B
  8
0
 10
135.0
 20
55.4
 30
138.0
 70
    64
  0
SEQEND
  5
2D8C
  8
0
  0
POLYLINE
  5
2D8D
  8
0
 66
     1
 10
0.0
 20
0.0
 30
0.0
 70
    16
 71
     5
 72
    13
  0
VERTEX
  5
2D8E
  8
0
 10
135.0
 20
55.4
 30
52.0
 70
    64
  0
VERTEX
  5
2D8F
  8
0
 10
135.0
 20
57.2
 30
52.3
 70
    64
  0
VERTEX
  5
2D90
  8
0
 10
135.0
 20
58.9
 30
52.9
 70
    64
  0
VERTEX
  5
2D91
  8
0
 10
135.0
 20
60.3
 30
54.1
 70
    64
  0
VERTEX
  5
2D92
  8
0
 10
135.0
 20
61.5
 30
55.5
 70
    64
  0
VERTEX
  5
2D93
  8
0
 10
135.0
 20
62.1
 30
57.2
 70
    64
  0
VERTEX
  5
2D94
  8
0
 10
135.0
 20
62.4
 30
59.0
 70
    64
  0
VERTEX
  5
2D95
  8
0
 10
135.0
 20
62.1
 30
60.8
 70
    64
  0
VERTEX
  5
2D96
  8
0
 10
135.0
 20
61.5
 30
62.5
 70
    64
  0
VERTEX
  5
2D97
  8
0
 10
135.0
 20
60.3
 30
63.9
 70
    64
  0
VERTEX
  5
2D98
  8
0
 10
135.0
 20
58.9
 30
65.1
 70
    64
  0
VERTEX
  5
2D99
  8
0
 10
135.0
 20
57.2
 30
65.7
 70
    64
  0
VERTEX
  5
2D9A
  8
0
 10
135.0
 20
55.4
 30
66.0
 70
    64
  0
VERTEX
  5
2D9B
  8
0
 10
25.0
 20
55.4
 30
52.0
 70
    64
  0
VERTEX
  5
2D9C
  8
0
 10
25.0
 20
57.2
 30
52.3
 70
    64
  0
VERTEX
  5
2D9D
  8
0
 10
25.0
 20
58.9
 30
52.9
 70
    64
  0
VERTEX
  5
2D9E
  8
0
 10
25.0
 20
60.3
 30
54.1
 70
    64
  0
VERTEX
  5
2D9F
  8
0
 10
25.0
 20
61.5
 30
55.5
 70
    64
  0
VERTEX
  5
2DA0
  8
0
 10
25.0
 20
62.1
 30
57.2
 70
    64
  0
VERTEX
  5
2DA1
  8
0
 10
25.0
 20
62.4
 30
59.0
 70
    64
  0
VERTEX
  5
2DA2
  8
0
 10
25.0
 20
62.1
 30
60.8
 70
    64
  0
VERTEX
  5
2DA3
  8
0
 10
25.0
 20
61.5
 30
62.5
 70
    64
  0
VERTEX
  5
2DA4
  8
0
 10
25.0
 20
60.3
 30
63.9
 70
    64
  0
VERTEX
  5
2DA5
  8
0
 10
25.0
 20
58.9
 30
65.1
 70
    64
  0
VERTEX
  5
2DA6
  8
0
 10
25.0
 20
57.2
 30
65.7
 70
    64
  0
VERTEX
  5
2DA7
  8
0
 10
25.0
 20
55.4
 30
66.0
 70
    64
  0
VERTEX
  5
2DA8
  8
0
 10
18.5
 20
55.4
 30
52.9
 70
    64
  0
VERTEX
  5
2DA9
  8
0
 10
18.6
 20
57.2
 30
53.1
 70
    64
  0
VERTEX
  5
2DAA
  8
0
 10
18.8
 20
58.9
 30
53.8
 70
    64
  0
VERTEX
  5
2DAB
  8
0
 10
19.0
 20
60.3
 30
54.8
 70
    64
  0
VERTEX
  5
2DAC
  8
0
 10
19.4
 20
61.5
 30
56.2
 70
    64
  0
VERTEX
  5
2DAD
  8
0
 10
19.9
 20
62.1
 30
57.9
 70
    64
  0
VERTEX
  5
2DAE
  8
0
 10
20.3
 20
62.4
 30
59.6
 70
    64
  0
VERTEX
  5
2DAF
  8
0
 10
20.8
 20
62.1
 30
61.4
 70
    64
  0
VERTEX
  5
2DB0
  8
0
 10
21.2
 20
61.5
 30
63.0
 70
    64
  0
VERTEX
  5
2DB1
  8
0
 10
21.6
 20
60.3
 30
64.4
 70
    64
  0
VERTEX
  5
2DB2
  8
0
 10
21.9
 20
58.9
 30
65.5
 70
    64
  0
VERTEX
  5
2DB3
  8
0
 10
22.0
 20
57.2
 30
66.1
 70
    64
  0
VERTEX
  5
2DB4
  8
0
 10
22.1
 20
55.4
 30
66.4
 70
    64
  0
VERTEX
  5
2DB5
  8
0
 10
12.5
 20
55.4
 30
55.4
 70
    64
  0
VERTEX
  5
2DB6
  8
0
 10
12.6
 20
57.2
 30
55.6
 70
    64
  0
VERTEX
  5
2DB7
  8
0
 10
13.0
 20
58.9
 30
56.2
 70
    64
  0
VERTEX
  5
2DB8
  8
0
 10
13.5
 20
60.3
 30
57.1
 70
    64
  0
VERTEX
  5
2DB9
  8
0
 10
14.3
 20
61.5
 30
58.4
 70
    64
  0
VERTEX
  5
2DBA
  8
0
 10
15.1
 20
62.1
 30
59.8
 70
    64
  0
VERTEX
  5
2DBB
  8
0
 10
16.0
 20
62.4
 30
61.4
 70
    64
  0
VERTEX
  5
2DBC
  8
0
 10
16.9
 20
62.1
 30
63.0
 70
    64
  0
VERTEX
  5
2DBD
  8
0
 10
17.7
 20
61.5
 30
64.4
 70
    64
  0
VERTEX
  5
2DBE
  8
0
 10
18.5
 20
60.3
 30
65.7
 70
    64
  0
VERTEX
  5
2DBF
  8
0
 10
19.0
 20
58.9
 30
66.7
 70
    64
  0
VERTEX
  5
2DC0
  8
0
 10
19.4
 20
57.2
 30
67.3
 70
    64
  0
VERTEX
  5
2DC1
  8
0
 10
19.5
 20
55.4
 30
67.5
 70
    64
  0
VERTEX
  5
2DC2
  8
0
 10
7.3
 20
55.4
 30
59.3
 70
    64
  0
VERTEX
  5
2DC3
  8
0
 10
7.5
 20
57.2
 30
59.5
 70
    64
  0
VERTEX
  5
2DC4
  8
0
 10
8.0
 20
58.9
 30
60.0
 70
    64
  0
VERTEX
  5
2DC5
  8
0
 10
8.8
 20
60.3
 30
60.8
 70
    64
  0
VERTEX
  5
2DC6
  8
0
 10
9.8
 20
61.5
 30
61.8
 70
    64
  0
VERTEX
  5
2DC7
  8
0
 10
11.0
 20
62.1
 30
63.0
 70
    64
  0
VERTEX
  5
2DC8
  8
0
 10
12.3
 20
62.4
 30
64.3
 70
    64
  0
VERTEX
  5
2DC9
  8
0
 10
13.6
 20
62.1
 30
65.6
 70
    64
  0
VERTEX
  5
2DCA
  8
0
 10
14.7
 20
61.5
 30
66.7
 70
    64
  0
VERTEX
  5
2DCB
  8
0
 10
15.8
 20
60.3
 30
67.8
 70
    64
  0
VERTEX
  5
2DCC
  8
0
 10
16.6
 20
58.9
 30
68.6
 70
    64
  0
VERTEX
  5
2DCD
  8
0
 10
17.0
 20
57.2
 30
69.0
 70
    64
  0
VERTEX
  5
2DCE
  8
0
 10
17.2
 20
55.4
 30
69.2
 70
    64
  0
SEQEND
  5
2DCF
  8
0
  0
POLYLINE
  5
2DD0
  8
0
 66
     1
 10
0.0
 20
0.0
 30
0.0
 70
    16
 71
     4
 72
    13
  0
VERTEX
  5
2DD1
  8
0
 10
137.0
 20
55.4
 30
59.0
 70
    64
  0
VERTEX
  5
2DD2
  8
0
 10
137.0
 20
55.4
 30
59.0
 70
    64
  0
VERTEX
  5
2DD3
  8
0
 10
137.0
 20
55.4
 30
59.0
 70
    64
  0
VERTEX
  5
2DD4
  8
0
 10
137.0
 20
55.4
 30
59.0
 70
    64
  0
VERTEX
  5
2DD5
  8
0
 10
137.0
 20
55.4
 30
59.0
 70
    64
  0
VERTEX
  5
2DD6
  8
0
 10
137.0
 20
55.4
 30
59.0
 70
    64
  0
VERTEX
  5
2DD7
  8
0
 10
137.0
 20
55.4
 30
59.0
 70
    64
  0
VERTEX
  5
2DD8
  8
0
 10
137.0
 20
55.4
 30
59.0
 70
    64
  0
VERTEX
  5
2DD9
  8
0
 10
137.0
 20
55.4
 30
59.0
 70
    64
  0
VERTEX
  5
2DDA
  8
0
 10
137.0
 20
55.4
 30
59.0
 70
    64
  0
VERTEX
  5
2DDB
  8
0
 10
137.0
 20
55.4
 30
59.0
 70
    64
  0
VERTEX
  5
2DDC
  8
0
 10
137.0
 20
55.4
 30
59.0
 70
    64
  0
VERTEX
  5
2DDD
  8
0
 10
137.0
 20
55.4
 30
59.0
 70
    64
  0
VERTEX
  5
2DDE
  8
0
 10
137.0
 20
55.4
 30
50.0
 70
    64
  0
VERTEX
  5
2DDF
  8
0
 10
137.0
 20
57.7
 30
50.3
 70
    64
  0
VERTEX
  5
2DE0
  8
0
 10
137.0
 20
59.9
 30
51.2
 70
    64
  0
VERTEX
  5
2DE1
  8
0
 10
137.0
 20
61.8
 30
52.6
 70
    64
  0
VERTEX
  5
2DE2
  8
0
 10
137.0
 20
63.2
 30
54.5
 70
    64
  0
VERTEX
  5
2DE3
  8
0
 10
137.0
 20
64.1
 30
56.7
 70
    64
  0
VERTEX
  5
2DE4
  8
0
 10
137.0
 20
64.4
 30
59.0
 70
    64
  0
VERTEX
  5
2DE5
  8
0
 10
137.0
 20
64.1
 30
61.3
 70
    64
  0
VERTEX
  5
2DE6
  8
0
 10
137.0
 20
63.2
 30
63.5
 70
    64
  0
VERTEX
  5
2DE7
  8
0
 10
137.0
 20
61.8
 30
65.4
 70
    64
  0
VERTEX
  5
2DE8
  8
0
 10
137.0
 20
59.9
 30
66.8
 70
    64
  0
VERTEX
  5
2DE9
  8
0
 10
137.0
 20
57.7
 30
67.7
 70
    64
  0
VERTEX
  5
2DEA
  8
0
 10
137.0
 20
55.4
 30
68.0
 70
    64
  0
VERTEX
  5
2DEB
  8
0
 10
135.0
 20
55.4
 30
50.0
 70
    64
  0
VERTEX
  5
2DEC
  8
0
 10
135.0
 20
57.7
 30
50.3
 70
    64
  0
VERTEX
  5
2DED
  8
0
 10
135.0
 20
59.9
 30
51.2
 70
    64
  0
VERTEX
  5
2DEE
  8
0
 10
135.0
 20
61.8
 30
52.6
 70
    64
  0
VERTEX
  5
2DEF
  8
0
 10
135.0
 20
63.2
 30
54.5
 70
    64
  0
VERTEX
  5
2DF0
  8
0
 10
135.0
 20
64.1
 30
56.7
 70
    64
  0
VERTEX
  5
2DF1
  8
0
 10
135.0
 20
64.4
 30
59.0
 70
    64
  0
VERTEX
  5
2DF2
  8
0
 10
135.0
 20
64.1
 30
61.3
 70
    64
  0
VERTEX
  5
2DF3
  8
0
 10
135.0
 20
63.2
 30
63.5
 70
    64
  0
VERTEX
  5
2DF4
  8
0
 10
135.0
 20
61.8
 30
65.4
 70
    64
  0
VERTEX
  5
2DF5
  8
0
 10
135.0
 20
59.9
 30
66.8
 70
    64
  0
VERTEX
  5
2DF6
  8
0
 10
135.0
 20
57.7
 30
67.7
 70
    64
  0
VERTEX
  5
2DF7
  8
0
 10
135.0
 20
55.4
 30
68.0
 70
    64
  0
VERTEX
  5
2DF8
  8
0
 10
135.0
 20
55.4
 30
52.0
 70
    64
  0
VERTEX
  5
2DF9
  8
0
 10
135.0
 20
57.2
 30
52.3
 70
    64
  0
VERTEX
  5
2DFA
  8
0
 10
135.0
 20
58.9
 30
52.9
 70
    64
  0
VERTEX
  5
2DFB
  8
0
 10
135.0
 20
60.3
 30
54.1
 70
    64
  0
VERTEX
  5
2DFC
  8
0
 10
135.0
 20
61.5
 30
55.5
 70
    64
  0
VERTEX
  5
2DFD
  8
0
 10
135.0
 20
62.1
 30
57.2
 70
    64
  0
VERTEX
  5
2DFE
  8
0
 10
135.0
 20
62.4
 30
59.0
 70
    64
  0
VERTEX
  5
2DFF
  8
0
 10
135.0
 20
62.1
 30
60.8
 70
    64
  0
VERTEX
  5
2E00
  8
0
 10
135.0
 20
61.5
 30
62.5
 70
    64
  0
VERTEX
  5
2E01
  8
0
 10
135.0
 20
60.3
 30
63.9
 70
    64
  0
VERTEX
  5
2E02
  8
0
 10
135.0
 20
58.9
 30
65.1
 70
    64
  0
VERTEX
  5
2E03
  8
0
 10
135.0
 20
57.2
 30
65.7
 70
    64
  0
VERTEX
  5
2E04
  8
0
 10
135.0
 20
55.4
 30
66.0
 70
    64
  0
SEQEND
  5
2E05
  8
0
  0
POLYLINE
  5
2E2B
  8
0
 66
     1
 10
0.0
 20
0.0
 30
0.0
 70
    16
 71
     5
 72
     7
  0
VERTEX
  5
2E2C
  8
0
 10
34.5
 20
55.9
 30
30.0
 70
    64
  0
VERTEX
  5
2E2D
  8
0
 10
34.5
 20
50.8
 30
30.7
 70
    64
  0
VERTEX
  5
2E2E
  8
0
 10
34.5
 20
45.9
 30
32.7
 70
    64
  0
VERTEX
  5
2E2F
  8
0
 10
34.5
 20
41.8
 30
35.9
 70
    64
  0
VERTEX
  5
2E30
  8
0
 10
34.5
 20
38.6
 30
40.0
 70
    64
  0
VERTEX
  5
2E31
  8
0
 10
34.5
 20
36.6
 30
44.9
 70
    64
  0
VERTEX
  5
2E32
  8
0
 10
34.5
 20
35.9
 30
50.0
 70
    64
  0
VERTEX
  5
2E33
  8
0
 10
34.5
 20
55.9
 30
0.0
 70
    64
  0
VERTEX
  5
2E34
  8
0
 10
34.5
 20
43.0
 30
1.8
 70
    64
  0
VERTEX
  5
2E35
  8
0
 10
34.5
 20
31.0
 30
6.7
 70
    64
  0
VERTEX
  5
2E36
  8
0
 10
34.5
 20
20.6
 30
14.7
 70
    64
  0
VERTEX
  5
2E37
  8
0
 10
34.5
 20
12.6
 30
25.1
 70
    64
  0
VERTEX
  5
2E38
  8
0
 10
34.5
 20
7.7
 30
37.1
 70
    64
  0
VERTEX
  5
2E39
  8
0
 10
34.5
 20
5.9
 30
50.0
 70
    64
  0
VERTEX
  5
2E3A
  8
0
 10
134.5
 20
55.9
 30
0.0
 70
    64
  0
VERTEX
  5
2E3B
  8
0
 10
134.5
 20
43.0
 30
1.8
 70
    64
  0
VERTEX
  5
2E3C
  8
0
 10
134.5
 20
31.0
 30
6.7
 70
    64
  0
VERTEX
  5
2E3D
  8
0
 10
134.5
 20
20.6
 30
14.7
 70
    64
  0
VERTEX
  5
2E3E
  8
0
 10
134.5
 20
12.6
 30
25.1
 70
    64
  0
VERTEX
  5
2E3F
  8
0
 10
134.5
 20
7.7
 30
37.1
 70
    64
  0
VERTEX
  5
2E40
  8
0
 10
134.5
 20
5.9
 30
50.0
 70
    64
  0
VERTEX
  5
2E41
  8
0
 10
134.5
 20
55.9
 30
30.0
 70
    64
  0
VERTEX
  5
2E42
  8
0
 10
134.5
 20
50.8
 30
30.7
 70
    64
  0
VERTEX
  5
2E43
  8
0
 10
134.5
 20
45.9
 30
32.7
 70
    64
  0
VERTEX
  5
2E44
  8
0
 10
134.5
 20
41.8
 30
35.9
 70
    64
  0
VERTEX
  5
2E45
  8
0
 10
134.5
 20
38.6
 30
40.0
 70
    64
  0
VERTEX
  5
2E46
  8
0
 10
134.5
 20
36.6
 30
44.9
 70
    64
  0
VERTEX
  5
2E47
  8
0
 10
134.5
 20
35.9
 30
50.0
 70
    64
  0
VERTEX
  5
2E48
  8
0
 10
34.5
 20
55.9
 30
30.0
 70
    64
  0
VERTEX
  5
2E49
  8
0
 10
34.5
 20
50.8
 30
30.7
 70
    64
  0
VERTEX
  5
2E4A
  8
0
 10
34.5
 20
45.9
 30
32.7
 70
    64
  0
VERTEX
  5
2E4B
  8
0
 10
34.5
 20
41.8
 30
35.9
 70
    64
  0
VERTEX
  5
2E4C
  8
0
 10
34.5
 20
38.6
 30
40.0
 70
    64
  0
VERTEX
  5
2E4D
  8
0
 10
34.5
 20
36.6
 30
44.9
 70
    64
  0
VERTEX
  5
2E4E
  8
0
 10
34.5
 20
35.9
 30
50.0
 70
    64
  0
SEQEND
  5
2E4F
  8
0
  0
POLYLINE
  5
2E50
  8
0
 66
     1
 10
0.0
 20
0.0
 30
0.0
 70
    16
 71
     5
 72
     7
  0
VERTEX
  5
2E51
  8
0
 10
34.5
 20
55.9
 30
30.0
 70
    64
  0
VERTEX
  5
2E52
  8
0
 10
34.5
 20
61.0
 30
30.7
 70
    64
  0
VERTEX
  5
2E53
  8
0
 10
34.5
 20
65.9
 30
32.7
 70
    64
  0
VERTEX
  5
2E54
  8
0
 10
34.5
 20
70.0
 30
35.9
 70
    64
  0
VERTEX
  5
2E55
  8
0
 10
34.5
 20
73.2
 30
40.0
 70
    64
  0
VERTEX
  5
2E56
  8
0
 10
34.5
 20
75.2
 30
44.9
 70
    64
  0
VERTEX
  5
2E57
  8
0
 10
34.5
 20
75.9
 30
50.0
 70
    64
  0
VERTEX
  5
2E58
  8
0
 10
34.5
 20
55.9
 30
0.0
 70
    64
  0
VERTEX
  5
2E59
  8
0
 10
34.5
 20
68.8
 30
1.8
 70
    64
  0
VERTEX
  5
2E5A
  8
0
 10
34.5
 20
80.8
 30
6.7
 70
    64
  0
VERTEX
  5
2E5B
  8
0
 10
34.5
 20
91.2
 30
14.7
 70
    64
  0
VERTEX
  5
2E5C
  8
0
 10
34.5
 20
99.2
 30
25.1
 70
    64
  0
VERTEX
  5
2E5D
  8
0
 10
34.5
 20
104.1
 30
37.1
 70
    64
  0
VERTEX
  5
2E5E
  8
0
 10
34.5
 20
105.9
 30
50.0
 70
    64
  0
VERTEX
  5
2E5F
  8
0
 10
134.5
 20
55.9
 30
0.0
 70
    64
  0
VERTEX
  5
2E60
  8
0
 10
134.5
 20
68.8
 30
1.8
 70
    64
  0
VERTEX
  5
2E61
  8
0
 10
134.5
 20
80.8
 30
6.7
 70
    64
  0
VERTEX
  5
2E62
  8
0
 10
134.5
 20
91.2
 30
14.7
 70
    64
  0
VERTEX
  5
2E63
  8
0
 10
134.5
 20
99.2
 30
25.1
 70
    64
  0
VERTEX
  5
2E64
  8
0
 10
134.5
 20
104.1
 30
37.1
 70
    64
  0
VERTEX
  5
2E65
  8
0
 10
134.5
 20
105.9
 30
50.0
 70
    64
  0
VERTEX
  5
2E66
  8
0
 10
134.5
 20
55.9
 30
30.0
 70
    64
  0
VERTEX
  5
2E67
  8
0
 10
134.5
 20
61.0
 30
30.7
 70
    64
  0
VERTEX
  5
2E68
  8
0
 10
134.5
 20
65.9
 30
32.7
 70
    64
  0
VERTEX
  5
2E69
  8
0
 10
134.5
 20
70.0
 30
35.9
 70
    64
  0
VERTEX
  5
2E6A
  8
0
 10
134.5
 20
73.2
 30
40.0
 70
    64
  0
VERTEX
  5
2E6B
  8
0
 10
134.5
 20
75.2
 30
44.9
 70
    64
  0
VERTEX
  5
2E6C
  8
0
 10
134.5
 20
75.9
 30
50.0
 70
    64
  0
VERTEX
  5
2E6D
  8
0
 10
34.5
 20
55.9
 30
30.0
 70
    64
  0
VERTEX
  5
2E6E
  8
0
 10
34.5
 20
61.0
 30
30.7
 70
    64
  0
VERTEX
  5
2E6F
  8
0
 10
34.5
 20
65.9
 30
32.7
 70
    64
  0
VERTEX
  5
2E70
  8
0
 10
34.5
 20
70.0
 30
35.9
 70
    64
  0
VERTEX
  5
2E71
  8
0
 10
34.5
 20
73.2
 30
40.0
 70
    64
  0
VERTEX
  5
2E72
  8
0
 10
34.5
 20
75.2
 30
44.9
 70
    64
  0
VERTEX
  5
2E73
  8
0
 10
34.5
 20
75.9
 30
50.0
 70
    64
  0
SEQEND
  5
2E74
  8
0
  0
POLYLINE
  5
2E75
  8
0
 66
     1
 10
0.0
 20
0.0
 30
0.0
 70
    16
 71
     5
 72
     7
  0
VERTEX
  5
2E76
  8
0
 10
34.5
 20
55.9
 30
70.0
 70
    64
  0
VERTEX
  5
2E77
  8
0
 10
34.5
 20
50.8
 30
69.3
 70
    64
  0
VERTEX
  5
2E78
  8
0
 10
34.5
 20
45.9
 30
67.3
 70
    64
  0
VERTEX
  5
2E79
  8
0
 10
34.5
 20
41.8
 30
64.1
 70
    64
  0
VERTEX
  5
2E7A
  8
0
 10
34.5
 20
38.6
 30
60.0
 70
    64
  0
VERTEX
  5
2E7B
  8
0
 10
34.5
 20
36.6
 30
55.1
 70
    64
  0
VERTEX
  5
2E7C
  8
0
 10
34.5
 20
35.9
 30
50.0
 70
    64
  0
VERTEX
  5
2E7D
  8
0
 10
34.5
 20
55.9
 30
100.0
 70
    64
  0
VERTEX
  5
2E7E
  8
0
 10
34.5
 20
43.0
 30
98.2
 70
    64
  0
VERTEX
  5
2E7F
  8
0
 10
34.5
 20
31.0
 30
93.3
 70
    64
  0
VERTEX
  5
2E80
  8
0
 10
34.5
 20
20.6
 30
85.3
 70
    64
  0
VERTEX
  5
2E81
  8
0
 10
34.5
 20
12.6
 30
74.9
 70
    64
  0
VERTEX
  5
2E82
  8
0
 10
34.5
 20
7.7
 30
62.9
 70
    64
  0
VERTEX
  5
2E83
  8
0
 10
34.5
 20
5.9
 30
50.0
 70
    64
  0
VERTEX
  5
2E84
  8
0
 10
134.5
 20
55.9
 30
100.0
 70
    64
  0
VERTEX
  5
2E85
  8
0
 10
134.5
 20
43.0
 30
98.2
 70
    64
  0
VERTEX
  5
2E86
  8
0
 10
134.5
 20
31.0
 30
93.3
 70
    64
  0
VERTEX
  5
2E87
  8
0
 10
134.5
 20
20.6
 30
85.3
 70
    64
  0
VERTEX
  5
2E88
  8
0
 10
134.5
 20
12.6
 30
74.9
 70
    64
  0
VERTEX
  5
2E89
  8
0
 10
134.5
 20
7.7
 30
62.9
 70
    64
  0
VERTEX
  5
2E8A
  8
0
 10
134.5
 20
5.9
 30
50.0
 70
    64
  0
VERTEX
  5
2E8B
  8
0
 10
134.5
 20
55.9
 30
70.0
 70
    64
  0
VERTEX
  5
2E8C
  8
0
 10
134.5
 20
50.8
 30
69.3
 70
    64
  0
VERTEX
  5
2E8D
  8
0
 10
134.5
 20
45.9
 30
67.3
 70
    64
  0
VERTEX
  5
2E8E
  8
0
 10
134.5
 20
41.8
 30
64.1
 70
    64
  0
VERTEX
  5
2E8F
  8
0
 10
134.5
 20
38.6
 30
60.0
 70
    64
  0
VERTEX
  5
2E90
  8
0
 10
134.5
 20
36.6
 30
55.1
 70
    64
  0
VERTEX
  5
2E91
  8
0
 10
134.5
 20
35.9
 30
50.0
 70
    64
  0
VERTEX
  5
2E92
  8
0
 10
34.5
 20
55.9
 30
70.0
 70
    64
  0
VERTEX
  5
2E93
  8
0
 10
34.5
 20
50.8
 30
69.3
 70
    64
  0
VERTEX
  5
2E94
  8
0
 10
34.5
 20
45.9
 30
67.3
 70
    64
  0
VERTEX
  5
2E95
  8
0
 10
34.5
 20
41.8
 30
64.1
 70
    64
  0
VERTEX
  5
2E96
  8
0
 10
34.5
 20
38.6
 30
60.0
 70
    64
  0
VERTEX
  5
2E97
  8
0
 10
34.5
 20
36.6
 30
55.1
 70
    64
  0
VERTEX
  5
2E98
  8
0
 10
34.5
 20
35.9
 30
50.0
 70
    64
  0
SEQEND
  5
2E99
  8
0
  0
POLYLINE
  5
2E9A
  8
0
 66
     1
 10
0.0
 20
0.0
 30
0.0
 70
    16
 71
     5
 72
     7
  0
VERTEX
  5
2E9B
  8
0
 10
34.5
 20
55.9
 30
70.0
 70
    64
  0
VERTEX
  5
2E9C
  8
0
 10
34.5
 20
61.0
 30
69.3
 70
    64
  0
VERTEX
  5
2E9D
  8
0
 10
34.5
 20
65.9
 30
67.3
 70
    64
  0
VERTEX
  5
2E9E
  8
0
 10
34.5
 20
70.0
 30
64.1
 70
    64
  0
VERTEX
  5
2E9F
  8
0
 10
34.5
 20
73.2
 30
60.0
 70
    64
  0
VERTEX
  5
2EA0
  8
0
 10
34.5
 20
75.2
 30
55.1
 70
    64
  0
VERTEX
  5
2EA1
  8
0
 10
34.5
 20
75.9
 30
50.0
 70
    64
  0
VERTEX
  5
2EA2
  8
0
 10
34.5
 20
55.9
 30
100.0
 70
    64
  0
VERTEX
  5
2EA3
  8
0
 10
34.5
 20
68.8
 30
98.2
 70
    64
  0
VERTEX
  5
2EA4
  8
0
 10
34.5
 20
80.8
 30
93.3
 70
    64
  0
VERTEX
  5
2EA5
  8
0
 10
34.5
 20
91.2
 30
85.3
 70
    64
  0
VERTEX
  5
2EA6
  8
0
 10
34.5
 20
99.2
 30
74.9
 70
    64
  0
VERTEX
  5
2EA7
  8
0
 10
34.5
 20
104.1
 30
62.9
 70
    64
  0
VERTEX
  5
2EA8
  8
0
 10
34.5
 20
105.9
 30
50.0
 70
    64
  0
VERTEX
  5
2EA9
  8
0
 10
134.5
 20
55.9
 30
100.0
 70
    64
  0
VERTEX
  5
2EAA
  8
0
 10
134.5
 20
68.8
 30
98.2
 70
    64
  0
VERTEX
  5
2EAB
  8
0
 10
134.5
 20
80.8
 30
93.3
 70
    64
  0
VERTEX
  5
2EAC
  8
0
 10
134.5
 20
91.2
 30
85.3
 70
    64
  0
VERTEX
  5
2EAD
  8
0
 10
134.5
 20
99.2
 30
74.9
 70
    64
  0
VERTEX
  5
2EAE
  8
0
 10
134.5
 20
104.1
 30
62.9
 70
    64
  0
VERTEX
  5
2EAF
  8
0
 10
134.5
 20
105.9
 30
50.0
 70
    64
  0
VERTEX
  5
2EB0
  8
0
 10
134.5
 20
55.9
 30
70.0
 70
    64
  0
VERTEX
  5
2EB1
  8
0
 10
134.5
 20
61.0
 30
69.3
 70
    64
  0
VERTEX
  5
2EB2
  8
0
 10
134.5
 20
65.9
 30
67.3
 70
    64
  0
VERTEX
  5
2EB3
  8
0
 10
134.5
 20
70.0
 30
64.1
 70
    64
  0
VERTEX
  5
2EB4
  8
0
 10
134.5
 20
73.2
 30
60.0
 70
    64
  0
VERTEX
  5
2EB5
  8
0
 10
134.5
 20
75.2
 30
55.1
 70
    64
  0
VERTEX
  5
2EB6
  8
0
 10
134.5
 20
75.9
 30
50.0
 70
    64
  0
VERTEX
  5
2EB7
  8
0
 10
34.5
 20
55.9
 30
70.0
 70
    64
  0
VERTEX
  5
2EB8
  8
0
 10
34.5
 20
61.0
 30
69.3
 70
    64
  0
VERTEX
  5
2EB9
  8
0
 10
34.5
 20
65.9
 30
67.3
 70
    64
  0
VERTEX
  5
2EBA
  8
0
 10
34.5
 20
70.0
 30
64.1
 70
    64
  0
VERTEX
  5
2EBB
  8
0
 10
34.5
 20
73.2
 30
60.0
 70
    64
  0
VERTEX
  5
2EBC
  8
0
 10
34.5
 20
75.2
 30
55.1
 70
    64
  0
VERTEX
  5
2EBD
  8
0
 10
34.5
 20
75.9
 30
50.0
 70
    64
  0
SEQEND
  5
2EBE
  8
0
  0
POLYLINE
  5
2EC0
  8
0
 66
     1
 10
0.0
 20
0.0
 30
0.0
 70
    16
 71
     4
 72
    32
  0
VERTEX
  5
2EC1
  8
0
 10
74.0
 20
45.8
 30
135.4
 70
    64
  0
VERTEX
  5
2EC2
  8
0
 10
74.0
 20
46.7
 30
133.0
 70
    64
  0
VERTEX
  5
2EC3
  8
0
 10
74.0
 20
48.3
 30
130.9
 70
    64
  0
VERTEX
  5
2EC4
  8
0
 10
74.0
 20
50.4
 30
129.3
 70
    64
  0
VERTEX
  5
2EC5
  8
0
 10
74.0
 20
52.8
 30
128.4
 70
    64
  0
VERTEX
  5
2EC6
  8
0
 10
74.0
 20
55.4
 30
128.0
 70
    64
  0
VERTEX
  5
2EC7
  8
0
 10
74.0
 20
58.0
 30
128.4
 70
    64
  0
VERTEX
  5
2EC8
  8
0
 10
74.0
 20
60.4
 30
129.3
 70
    64
  0
VERTEX
  5
2EC9
  8
0
 10
74.0
 20
62.5
 30
130.9
 70
    64
  0
VERTEX
  5
2ECA
  8
0
 10
74.0
 20
64.1
 30
133.0
 70
    64
  0
VERTEX
  5
2ECB
  8
0
 10
74.0
 20
65.0
 30
135.4
 70
    64
  0
VERTEX
  5
2ECC
  8
0
 10
74.0
 20
65.4
 30
138.0
 70
    64
  0
VERTEX
  5
2ECD
  8
0
 10
74.0
 20
65.0
 30
140.6
 70
    64
  0
VERTEX
  5
2ECE
  8
0
 10
74.0
 20
64.1
 30
143.0
 70
    64
  0
VERTEX
  5
2ECF
  8
0
 10
74.0
 20
62.5
 30
145.1
 70
    64
  0
VERTEX
  5
2ED0
  8
0
 10
74.0
 20
60.4
 30
146.7
 70
    64
  0
VERTEX
  5
2ED1
  8
0
 10
74.0
 20
58.0
 30
147.6
 70
    64
  0
VERTEX
  5
2ED2
  8
0
 10
74.0
 20
55.4
 30
148.0
 70
    64
  0
VERTEX
  5
2ED3
  8
0
 10
74.0
 20
52.8
 30
147.6
 70
    64
  0
VERTEX
  5
2ED4
  8
0
 10
74.0
 20
50.4
 30
146.7
 70
    64
  0
VERTEX
  5
2ED5
  8
0
 10
74.0
 20
48.3
 30
145.1
 70
    64
  0
VERTEX
  5
2ED6
  8
0
 10
74.0
 20
46.7
 30
143.0
 70
    64
  0
VERTEX
  5
2ED7
  8
0
 10
74.0
 20
33.7
 30
124.0
 70
    64
  0
VERTEX
  5
2ED8
  8
0
 10
84.5
 20
29.5
 30
116.8
 70
    64
  0
VERTEX
  5
2ED9
  8
0
 10
84.5
 20
26.4
 30
111.5
 70
    64
  0
VERTEX
  5
2EDA
  8
0
 10
84.5
 20
25.2
 30
109.5
 70
    64
  0
VERTEX
  5
2EDB
  8
0
 10
84.5
 20
16.1
 30
94.0
 70
    64
  0
VERTEX
  5
2EDC
  8
0
 10
84.5
 20
4.8
 30
68.9
 70
    64
  0
VERTEX
  5
2EDD
  8
0
 10
84.5
 20
1.3
 30
55.2
 70
    64
  0
VERTEX
  5
2EDE
  8
0
 10
84.5
 20
0.7
 30
52.9
 70
    64
  0
VERTEX
  5
2EDF
  8
0
 10
84.5
 20
0.2
 30
51.0
 70
    64
  0
VERTEX
  5
2EE0
  8
0
 10
84.5
 20
0.0
 30
50.3
 70
    64
  0
VERTEX
  5
2EE1
  8
0
 10
27.0
 20
45.8
 30
135.4
 70
    64
  0
VERTEX
  5
2EE2
  8
0
 10
27.0
 20
46.7
 30
133.0
 70
    64
  0
VERTEX
  5
2EE3
  8
0
 10
27.0
 20
48.3
 30
130.9
 70
    64
  0
VERTEX
  5
2EE4
  8
0
 10
27.0
 20
50.4
 30
129.3
 70
    64
  0
VERTEX
  5
2EE5
  8
0
 10
27.0
 20
52.8
 30
128.4
 70
    64
  0
VERTEX
  5
2EE6
  8
0
 10
27.0
 20
55.4
 30
128.0
 70
    64
  0
VERTEX
  5
2EE7
  8
0
 10
27.0
 20
58.0
 30
128.4
 70
    64
  0
VERTEX
  5
2EE8
  8
0
 10
27.0
 20
60.4
 30
129.3
 70
    64
  0
VERTEX
  5
2EE9
  8
0
 10
27.0
 20
62.5
 30
130.9
 70
    64
  0
VERTEX
  5
2EEA
  8
0
 10
27.0
 20
64.1
 30
133.0
 70
    64
  0
VERTEX
  5
2EEB
  8
0
 10
27.0
 20
65.0
 30
135.4
 70
    64
  0
VERTEX
  5
2EEC
  8
0
 10
27.0
 20
65.4
 30
138.0
 70
    64
  0
VERTEX
  5
2EED
  8
0
 10
27.0
 20
65.0
 30
140.6
 70
    64
  0
VERTEX
  5
2EEE
  8
0
 10
27.0
 20
64.1
 30
143.0
 70
    64
  0
VERTEX
  5
2EEF
  8
0
 10
27.0
 20
62.5
 30
145.1
 70
    64
  0
VERTEX
  5
2EF0
  8
0
 10
27.0
 20
60.4
 30
146.7
 70
    64
  0
VERTEX
  5
2EF1
  8
0
 10
27.0
 20
58.0
 30
147.6
 70
    64
  0
VERTEX
  5
2EF2
  8
0
 10
27.0
 20
55.4
 30
148.0
 70
    64
  0
VERTEX
  5
2EF3
  8
0
 10
27.0
 20
52.8
 30
147.6
 70
    64
  0
VERTEX
  5
2EF4
  8
0
 10
27.0
 20
50.4
 30
146.7
 70
    64
  0
VERTEX
  5
2EF5
  8
0
 10
27.0
 20
48.3
 30
145.1
 70
    64
  0
VERTEX
  5
2EF6
  8
0
 10
27.0
 20
46.7
 30
143.0
 70
    64
  0
VERTEX
  5
2EF7
  8
0
 10
27.0
 20
33.7
 30
124.0
 70
    64
  0
VERTEX
  5
2EF8
  8
0
 10
27.0
 20
29.5
 30
116.8
 70
    64
  0
VERTEX
  5
2EF9
  8
0
 10
27.0
 20
26.4
 30
111.5
 70
    64
  0
VERTEX
  5
2EFA
  8
0
 10
27.0
 20
25.2
 30
109.5
 70
    64
  0
VERTEX
  5
2EFB
  8
0
 10
27.0
 20
16.1
 30
94.0
 70
    64
  0
VERTEX
  5
2EFC
  8
0
 10
27.0
 20
4.8
 30
68.9
 70
    64
  0
VERTEX
  5
2EFD
  8
0
 10
27.0
 20
1.3
 30
55.2
 70
    64
  0
VERTEX
  5
2EFE
  8
0
 10
27.7
 20
0.7
 30
52.9
 70
    64
  0
VERTEX
  5
2EFF
  8
0
 10
29.6
 20
0.2
 30
51.0
 70
    64
  0
VERTEX
  5
2F00
  8
0
 10
31.9
 20
0.0
 30
50.3
 70
    64
  0
VERTEX
  5
2F01
  8
0
 10
27.0
 20
47.7
 30
135.9
 70
    64
  0
VERTEX
  5
2F02
  8
0
 10
27.0
 20
48.5
 30
134.0
 70
    64
  0
VERTEX
  5
2F03
  8
0
 10
27.0
 20
49.8
 30
132.4
 70
    64
  0
VERTEX
  5
2F04
  8
0
 10
27.0
 20
51.4
 30
131.1
 70
    64
  0
VERTEX
  5
2F05
  8
0
 10
27.0
 20
53.3
 30
130.3
 70
    64
  0
VERTEX
  5
2F06
  8
0
 10
27.0
 20
55.4
 30
130.0
 70
    64
  0
VERTEX
  5
2F07
  8
0
 10
27.0
 20
57.5
 30
130.3
 70
    64
  0
VERTEX
  5
2F08
  8
0
 10
27.0
 20
59.4
 30
131.1
 70
    64
  0
VERTEX
  5
2F09
  8
0
 10
27.0
 20
61.0
 30
132.4
 70
    64
  0
VERTEX
  5
2F0A
  8
0
 10
27.0
 20
62.3
 30
134.0
 70
    64
  0
VERTEX
  5
2F0B
  8
0
 10
27.0
 20
63.1
 30
135.9
 70
    64
  0
VERTEX
  5
2F0C
  8
0
 10
27.0
 20
63.4
 30
138.0
 70
    64
  0
VERTEX
  5
2F0D
  8
0
 10
27.0
 20
63.1
 30
140.1
 70
    64
  0
VERTEX
  5
2F0E
  8
0
 10
27.0
 20
62.3
 30
142.0
 70
    64
  0
VERTEX
  5
2F0F
  8
0
 10
27.0
 20
61.0
 30
143.6
 70
    64
  0
VERTEX
  5
2F10
  8
0
 10
27.0
 20
59.4
 30
144.9
 70
    64
  0
VERTEX
  5
2F11
  8
0
 10
27.0
 20
57.5
 30
145.7
 70
    64
  0
VERTEX
  5
2F12
  8
0
 10
27.0
 20
55.4
 30
146.0
 70
    64
  0
VERTEX
  5
2F13
  8
0
 10
27.0
 20
53.3
 30
145.7
 70
    64
  0
VERTEX
  5
2F14
  8
0
 10
27.0
 20
51.4
 30
144.9
 70
    64
  0
VERTEX
  5
2F15
  8
0
 10
27.0
 20
49.8
 30
143.6
 70
    64
  0
VERTEX
  5
2F16
  8
0
 10
27.0
 20
48.5
 30
142.0
 70
    64
  0
VERTEX
  5
2F17
  8
0
 10
27.0
 20
35.7
 30
124.0
 70
    64
  0
VERTEX
  5
2F18
  8
0
 10
27.0
 20
31.5
 30
116.8
 70
    64
  0
VERTEX
  5
2F19
  8
0
 10
27.0
 20
28.4
 30
111.5
 70
    64
  0
VERTEX
  5
2F1A
  8
0
 10
27.0
 20
27.2
 30
109.5
 70
    64
  0
VERTEX
  5
2F1B
  8
0
 10
27.0
 20
18.1
 30
94.0
 70
    64
  0
VERTEX
  5
2F1C
  8
0
 10
27.0
 20
6.8
 30
68.9
 70
    64
  0
VERTEX
  5
2F1D
  8
0
 10
27.0
 20
3.6
 30
55.2
 70
    64
  0
VERTEX
  5
2F1E
  8
0
 10
27.7
 20
2.8
 30
52.9
 70
    64
  0
VERTEX
  5
2F1F
  8
0
 10
29.6
 20
2.3
 30
51.0
 70
    64
  0
VERTEX
  5
2F20
  8
0
 10
31.9
 20
2.1
 30
50.3
 70
    64
  0
VERTEX
  5
2F21
  8
0
 10
74.0
 20
47.7
 30
135.9
 70
    64
  0
VERTEX
  5
2F22
  8
0
 10
74.0
 20
48.5
 30
134.0
 70
    64
  0
VERTEX
  5
2F23
  8
0
 10
74.0
 20
49.8
 30
132.4
 70
    64
  0
VERTEX
  5
2F24
  8
0
 10
74.0
 20
51.4
 30
131.1
 70
    64
  0
VERTEX
  5
2F25
  8
0
 10
74.0
 20
53.3
 30
130.3
 70
    64
  0
VERTEX
  5
2F26
  8
0
 10
74.0
 20
55.4
 30
130.0
 70
    64
  0
VERTEX
  5
2F27
  8
0
 10
74.0
 20
57.5
 30
130.3
 70
    64
  0
VERTEX
  5
2F28
  8
0
 10
74.0
 20
59.7
 30
131.1
 70
    64
  0
VERTEX
  5
2F29
  8
0
 10
74.0
 20
61.0
 30
132.4
 70
    64
  0
VERTEX
  5
2F2A
  8
0
 10
74.0
 20
62.3
 30
134.0
 70
    64
  0
VERTEX
  5
2F2B
  8
0
 10
74.0
 20
63.1
 30
135.9
 70
    64
  0
VERTEX
  5
2F2C
  8
0
 10
74.0
 20
63.4
 30
138.0
 70
    64
  0
VERTEX
  5
2F2D
  8
0
 10
74.0
 20
63.1
 30
140.1
 70
    64
  0
VERTEX
  5
2F2E
  8
0
 10
74.0
 20
62.3
 30
142.0
 70
    64
  0
VERTEX
  5
2F2F
  8
0
 10
74.0
 20
61.0
 30
143.6
 70
    64
  0
VERTEX
  5
2F30
  8
0
 10
74.0
 20
59.4
 30
144.9
 70
    64
  0
VERTEX
  5
2F31
  8
0
 10
74.0
 20
57.5
 30
145.7
 70
    64
  0
VERTEX
  5
2F32
  8
0
 10
74.0
 20
55.4
 30
146.0
 70
    64
  0
VERTEX
  5
2F33
  8
0
 10
74.0
 20
53.3
 30
145.7
 70
    64
  0
VERTEX
  5
2F34
  8
0
 10
74.0
 20
51.4
 30
144.9
 70
    64
  0
VERTEX
  5
2F35
  8
0
 10
74.0
 20
49.8
 30
143.6
 70
    64
  0
VERTEX
  5
2F36
  8
0
 10
74.0
 20
48.5
 30
142.0
 70
    64
  0
VERTEX
  5
2F37
  8
0
 10
74.0
 20
35.7
 30
124.0
 70
    64
  0
VERTEX
  5
2F38
  8
0
 10
84.5
 20
31.5
 30
116.8
 70
    64
  0
VERTEX
  5
2F39
  8
0
 10
84.5
 20
28.4
 30
111.5
 70
    64
  0
VERTEX
  5
2F3A
  8
0
 10
84.5
 20
27.2
 30
109.5
 70
    64
  0
VERTEX
  5
2F3B
  8
0
 10
84.5
 20
18.1
 30
94.0
 70
    64
  0
VERTEX
  5
2F3C
  8
0
 10
84.5
 20
6.8
 30
68.9
 70
    64
  0
VERTEX
  5
2F3D
  8
0
 10
84.5
 20
3.6
 30
55.2
 70
    64
  0
VERTEX
  5
2F3E
  8
0
 10
84.5
 20
2.8
 30
52.9
 70
    64
  0
VERTEX
  5
2F3F
  8
0
 10
84.5
 20
2.3
 30
51.0
 70
    64
  0
VERTEX
  5
2F40
  8
0
 10
84.5
 20
2.1
 30
50.3
 70
    64
  0
SEQEND
  5
2F41
  8
0
  0
INSERT
  5
2FDB
  8
ASHADE
 62
     1
  2
AVE_GLOBAL
 10
0.0
 20
0.0
 30
0.0
1001
AVE_MATERIAL
1002
{
1000
*GLOBAL*
1000
1
1000
Global finish.
1002
{
1002
}
1002
{
1070
    63
1002
{
1002
{
1010
-1.0
1020
-1.0
1030
-1.0
1002
}
1040
0.1
1000

1040
0.0
1002
{
1002
}
1040
0.0
1002
{
1002
}
1040
0.0
1002
}
1002
{
1002
{
1010
-1.0
1020
-1.0
1030
-1.0
1002
}
1040
0.7
1000

1040
0.0
1002
{
1002
}
1040
0.0
1002
{
1002
}
1040
0.0
1002
}
1002
{
1002
{
1010
-1.0
1020
-1.0
1030
-1.0
1002
}
1040
0.2
1000

1040
0.0
1002
{
1002
}
1040
0.0
1002
{
1002
}
1040
0.0
1002
}
1002
{
1070
     0
1002
{
1070
     1
1002
{
1040
1.0
1040
1.0
1000

1040
0.0
1002
{
1002
}
1040
0.0
1002
{
1002
}
1040
0.0
1002
}
1002
}
1040
1.0
1040
0.0
1040
0.0
1002
}
1002
{
1040
1.0
1040
1.0
1000

1040
0.0
1002
{
1002
}
1040
0.0
1002
{
1002
}
1040
0.0
1002
}
1002
{
1040
0.5
1040
1.0
1000

1040
0.0
1002
{
1002
}
1040
0.0
1002
{
1002
}
1040
0.0
1002
}
1002
{
1070
     0
1040
0.0
1002
{
1002
}
1040
1.0
1002
{
1002
}
1040
0.0
1002
}
1002
{
1040
0.0
1002
{
1002
{
1010
0.0
1020
0.0
1030
0.0
1002
}
1040
1.0
1000

1040
0.0
1002
{
1002
}
1040
0.0
1002
{
1002
}
1040
0.0
1002
}
1002
}
1002
{
1002
{
1070
     1
1002
{
1040
0.0
1040
1.0
1000

1040
0.0
1002
{
1002
}
1040
0.0
1002
{
1002
}
1040
0.0
1002
}
1002
}
1040
0.0
1002
{
1002
}
1010
1.0
1020
0.0
1030
0.0
1010
0.0
1020
1.0
1030
0.0
1010
0.0
1020
0.0
1030
1.0
1070
     0
1002
}
1002
{
1002
{
1040
1.0
1040
1.0
1002
{
1070
     1
1002
{
1040
1.0
1040
1.0
1000

1040
0.0
1002
{
1002
}
1040
0.0
1002
{
1002
}
1040
0.0
1002
}
1002
}
1002
}
1070
     0
1040
0.0
1002
{
1002
}
1002
}
1002
{
1002
}
1002
}
1002
{
1071
        3
1070
     3
1070
     0
1002
{
1070
     2
1070
     0
1070
     0
1040
0.0
1002
}
1070
     0
1070
     2
1002
{
1002
}
1002
}
1002
{
1040
8030.0
1040
190.300003
1040
0.305
1040
228.0
1040
545.0
1040
14.0
1040
17.4
1040
0.456
1002
}
1002
}
  0
INSERT
  5
2FDC
  8
ASHADE
 62
     1
  2
AVE_GLOBAL
 10
0.0
 20
0.0
 30
0.0
1001
AVE_MATERIAL
1002
{
1000
*GLOBAL*
1000
1
1000
Global finish.
1002
{
1002
}
1002
{
1070
    63
1002
{
1002
{
1010
-1.0
1020
-1.0
1030
-1.0
1002
}
1040
0.1
1000

1040
0.0
1002
{
1002
}
1040
0.0
1002
{
1002
}
1040
0.0
1002
}
1002
{
1002
{
1010
-1.0
1020
-1.0
1030
-1.0
1002
}
1040
0.7
1000

1040
0.0
1002
{
1002
}
1040
0.0
1002
{
1002
}
1040
0.0
1002
}
1002
{
1002
{
1010
-1.0
1020
-1.0
1030
-1.0
1002
}
1040
0.2
1000

1040
0.0
1002
{
1002
}
1040
0.0
1002
{
1002
}
1040
0.0
1002
}
1002
{
1070
     0
1002
{
1070
     1
1002
{
1040
1.0
1040
1.0
1000

1040
0.0
1002
{
1002
}
1040
0.0
1002
{
1002
}
1040
0.0
1002
}
1002
}
1040
1.0
1040
0.0
1040
0.0
1002
}
1002
{
1040
1.0
1040
1.0
1000

1040
0.0
1002
{
1002
}
1040
0.0
1002
{
1002
}
1040
0.0
1002
}
1002
{
1040
0.5
1040
1.0
1000

1040
0.0
1002
{
1002
}
1040
0.0
1002
{
1002
}
1040
0.0
1002
}
1002
{
1070
     0
1040
0.0
1002
{
1002
}
1040
1.0
1002
{
1002
}
1040
0.0
1002
}
1002
{
1040
0.0
1002
{
1002
{
1010
0.0
1020
0.0
1030
0.0
1002
}
1040
1.0
1000

1040
0.0
1002
{
1002
}
1040
0.0
1002
{
1002
}
1040
0.0
1002
}
1002
}
1002
{
1002
{
1070
     1
1002
{
1040
0.0
1040
1.0
1000

1040
0.0
1002
{
1002
}
1040
0.0
1002
{
1002
}
1040
0.0
1002
}
1002
}
1040
0.0
1002
{
1002
}
1010
1.0
1020
0.0
1030
0.0
1010
0.0
1020
1.0
1030
0.0
1010
0.0
1020
0.0
1030
1.0
1070
     0
1002
}
1002
{
1002
{
1040
1.0
1040
1.0
1002
{
1070
     1
1002
{
1040
1.0
1040
1.0
1000

1040
0.0
1002
{
1002
}
1040
0.0
1002
{
1002
}
1040
0.0
1002
}
1002
}
1002
}
1070
     0
1040
0.0
1002
{
1002
}
1002
}
1002
{
1002
}
1002
}
1002
{
1071
        3
1070
     3
1070
     0
1002
{
1070
     2
1070
     0
1070
     0
1040
0.0
1002
}
1070
     0
1070
     2
1002
{
1002
}
1002
}
1002
{
1040
8030.0
1040
190.300003
1040
0.305
1040
228.0
1040
545.0
1040
14.0
1040
17.4
1040
0.456
1002
}
1002
}
  0
INSERT
  5
2FDD
  8
ASHADE
 62
     1
  2
AVE_GLOBAL
 10
0.0
 20
0.0
 30
0.0
1001
AVE_MATERIAL
1002
{
1000
*GLOBAL*
1000
1
1000
Global finish.
1002
{
1002
}
1002
{
1070
    63
1002
{
1002
{
1010
-1.0
1020
-1.0
1030
-1.0
1002
}
1040
0.1
1000

1040
0.0
1002
{
1002
}
1040
0.0
1002
{
1002
}
1040
0.0
1002
}
1002
{
1002
{
1010
-1.0
1020
-1.0
1030
-1.0
1002
}
1040
0.7
1000

1040
0.0
1002
{
1002
}
1040
0.0
1002
{
1002
}
1040
0.0
1002
}
1002
{
1002
{
1010
-1.0
1020
-1.0
1030
-1.0
1002
}
1040
0.2
1000

1040
0.0
1002
{
1002
}
1040
0.0
1002
{
1002
}
1040
0.0
1002
}
1002
{
1070
     0
1002
{
1070
     1
1002
{
1040
1.0
1040
1.0
1000

1040
0.0
1002
{
1002
}
1040
0.0
1002
{
1002
}
1040
0.0
1002
}
1002
}
1040
1.0
1040
0.0
1040
0.0
1002
}
1002
{
1040
1.0
1040
1.0
1000

1040
0.0
1002
{
1002
}
1040
0.0
1002
{
1002
}
1040
0.0
1002
}
1002
{
1040
0.5
1040
1.0
1000

1040
0.0
1002
{
1002
}
1040
0.0
1002
{
1002
}
1040
0.0
1002
}
1002
{
1070
     0
1040
0.0
1002
{
1002
}
1040
1.0
1002
{
1002
}
1040
0.0
1002
}
1002
{
1040
0.0
1002
{
1002
{
1010
0.0
1020
0.0
1030
0.0
1002
}
1040
1.0
1000

1040
0.0
1002
{
1002
}
1040
0.0
1002
{
1002
}
1040
0.0
1002
}
1002
}
1002
{
1002
{
1070
     1
1002
{
1040
0.0
1040
1.0
1000

1040
0.0
1002
{
1002
}
1040
0.0
1002
{
1002
}
1040
0.0
1002
}
1002
}
1040
0.0
1002
{
1002
}
1010
1.0
1020
0.0
1030
0.0
1010
0.0
1020
1.0
1030
0.0
1010
0.0
1020
0.0
1030
1.0
1070
     0
1002
}
1002
{
1002
{
1040
1.0
1040
1.0
1002
{
1070
     1
1002
{
1040
1.0
1040
1.0
1000

1040
0.0
1002
{
1002
}
1040
0.0
1002
{
1002
}
1040
0.0
1002
}
1002
}
1002
}
1070
     0
1040
0.0
1002
{
1002
}
1002
}
1002
{
1002
}
1002
}
1002
{
1071
        3
1070
     3
1070
     0
1002
{
1070
     2
1070
     0
1070
     0
1040
0.0
1002
}
1070
     0
1070
     2
1002
{
1002
}
1002
}
1002
{
1040
8030.0
1040
190.300003
1040
0.305
1040
228.0
1040
545.0
1040
14.0
1040
17.4
1040
0.456
1002
}
1002
}
  0
INSERT
  5
2FDE
  8
ASHADE
 62
     1
  2
AVE_GLOBAL
 10
0.0
 20
0.0
 30
0.0
1001
AVE_MATERIAL
1002
{
1000
*GLOBAL*
1000
1
1000
Global finish.
1002
{
1002
}
1002
{
1070
    63
1002
{
1002
{
1010
-1.0
1020
-1.0
1030
-1.0
1002
}
1040
0.1
1000

1040
0.0
1002
{
1002
}
1040
0.0
1002
{
1002
}
1040
0.0
1002
}
1002
{
1002
{
1010
-1.0
1020
-1.0
1030
-1.0
1002
}
1040
0.7
1000

1040
0.0
1002
{
1002
}
1040
0.0
1002
{
1002
}
1040
0.0
1002
}
1002
{
1002
{
1010
-1.0
1020
-1.0
1030
-1.0
1002
}
1040
0.2
1000

1040
0.0
1002
{
1002
}
1040
0.0
1002
{
1002
}
1040
0.0
1002
}
1002
{
1070
     0
1002
{
1070
     1
1002
{
1040
1.0
1040
1.0
1000

1040
0.0
1002
{
1002
}
1040
0.0
1002
{
1002
}
1040
0.0
1002
}
1002
}
1040
1.0
1040
0.0
1040
0.0
1002
}
1002
{
1040
1.0
1040
1.0
1000

1040
0.0
1002
{
1002
}
1040
0.0
1002
{
1002
}
1040
0.0
1002
}
1002
{
1040
0.5
1040
1.0
1000

1040
0.0
1002
{
1002
}
1040
0.0
1002
{
1002
}
1040
0.0
1002
}
1002
{
1070
     0
1040
0.0
1002
{
1002
}
1040
1.0
1002
{
1002
}
1040
0.0
1002
}
1002
{
1040
0.0
1002
{
1002
{
1010
0.0
1020
0.0
1030
0.0
1002
}
1040
1.0
1000

1040
0.0
1002
{
1002
}
1040
0.0
1002
{
1002
}
1040
0.0
1002
}
1002
}
1002
{
1002
{
1070
     1
1002
{
1040
0.0
1040
1.0
1000

1040
0.0
1002
{
1002
}
1040
0.0
1002
{
1002
}
1040
0.0
1002
}
1002
}
1040
0.0
1002
{
1002
}
1010
1.0
1020
0.0
1030
0.0
1010
0.0
1020
1.0
1030
0.0
1010
0.0
1020
0.0
1030
1.0
1070
     0
1002
}
1002
{
1002
{
1040
1.0
1040
1.0
1002
{
1070
     1
1002
{
1040
1.0
1040
1.0
1000

1040
0.0
1002
{
1002
}
1040
0.0
1002
{
1002
}
1040
0.0
1002
}
1002
}
1002
}
1070
     0
1040
0.0
1002
{
1002
}
1002
}
1002
{
1002
}
1002
}
1002
{
1071
        3
1070
     3
1070
     0
1002
{
1070
     2
1070
     0
1070
     0
1040
0.0
1002
}
1070
     0
1070
     2
1002
{
1002
}
1002
}
1002
{
1040
8030.0
1040
190.300003
1040
0.305
1040
228.0
1040
545.0
1040
14.0
1040
17.4
1040
0.456
1002
}
1002
}
  0
INSERT
  5
2FDF
  8
ASHADE
 62
     1
  2
AVE_GLOBAL
 10
0.0
 20
0.0
 30
0.0
1001
AVE_MATERIAL
1002
{
1000
*GLOBAL*
1000
1
1000
Global finish.
1002
{
1002
}
1002
{
1070
    63
1002
{
1002
{
1010
-1.0
1020
-1.0
1030
-1.0
1002
}
1040
0.1
1000

1040
0.0
1002
{
1002
}
1040
0.0
1002
{
1002
}
1040
0.0
1002
}
1002
{
1002
{
1010
-1.0
1020
-1.0
1030
-1.0
1002
}
1040
0.7
1000

1040
0.0
1002
{
1002
}
1040
0.0
1002
{
1002
}
1040
0.0
1002
}
1002
{
1002
{
1010
-1.0
1020
-1.0
1030
-1.0
1002
}
1040
0.2
1000

1040
0.0
1002
{
1002
}
1040
0.0
1002
{
1002
}
1040
0.0
1002
}
1002
{
1070
     0
1002
{
1070
     1
1002
{
1040
1.0
1040
1.0
1000

1040
0.0
1002
{
1002
}
1040
0.0
1002
{
1002
}
1040
0.0
1002
}
1002
}
1040
1.0
1040
0.0
1040
0.0
1002
}
1002
{
1040
1.0
1040
1.0
1000

1040
0.0
1002
{
1002
}
1040
0.0
1002
{
1002
}
1040
0.0
1002
}
1002
{
1040
0.5
1040
1.0
1000

1040
0.0
1002
{
1002
}
1040
0.0
1002
{
1002
}
1040
0.0
1002
}
1002
{
1070
     0
1040
0.0
1002
{
1002
}
1040
1.0
1002
{
1002
}
1040
0.0
1002
}
1002
{
1040
0.0
1002
{
1002
{
1010
0.0
1020
0.0
1030
0.0
1002
}
1040
1.0
1000

1040
0.0
1002
{
1002
}
1040
0.0
1002
{
1002
}
1040
0.0
1002
}
1002
}
1002
{
1002
{
1070
     1
1002
{
1040
0.0
1040
1.0
1000

1040
0.0
1002
{
1002
}
1040
0.0
1002
{
1002
}
1040
0.0
1002
}
1002
}
1040
0.0
1002
{
1002
}
1010
1.0
1020
0.0
1030
0.0
1010
0.0
1020
1.0
1030
0.0
1010
0.0
1020
0.0
1030
1.0
1070
     0
1002
}
1002
{
1002
{
1040
1.0
1040
1.0
1002
{
1070
     1
1002
{
1040
1.0
1040
1.0
1000

1040
0.0
1002
{
1002
}
1040
0.0
1002
{
1002
}
1040
0.0
1002
}
1002
}
1002
}
1070
     0
1040
0.0
1002
{
1002
}
1002
}
1002
{
1002
}
1002
}
1002
{
1071
        3
1070
     3
1070
     0
1002
{
1070
     2
1070
     0
1070
     0
1040
0.0
1002
}
1070
     0
1070
     2
1002
{
1002
}
1002
}
1002
{
1040
8030.0
1040
190.300003
1040
0.305
1040
228.0
1040
545.0
1040
14.0
1040
17.4
1040
0.456
1002
}
1002
}
  0
POLYLINE
  5
30D6
  8
0
 66
     1
 10
0.0
 20
0.0
 30
0.0
 70
    16
 71
     2
 72
     4
  0
VERTEX
  5
30D7
  8
0
 10
93.5
 20
55.4
 30
138.0
 70
    64
  0
VERTEX
  5
30D8
  8
0
 10
93.5
 20
55.4
 30
138.0
 70
    64
  0
VERTEX
  5
30D9
  8
0
 10
93.5
 20
55.4
 30
147.0
 70
    64
  0
VERTEX
  5
30DA
  8
0
 10
84.5
 20
55.4
 30
147.0
 70
    64
  0
VERTEX
  5
30DB
  8
0
 10
93.5
 20
73.0
 30
138.0
 70
    64
  0
VERTEX
  5
30DC
  8
0
 10
93.5
 20
73.0
 30
138.0
 70
    64
  0
VERTEX
  5
30DD
  8
0
 10
93.5
 20
73.0
 30
147.0
 70
    64
  0
VERTEX
  5
30DE
  8
0
 10
84.5
 20
73.0
 30
147.0
 70
    64
  0
SEQEND
  5
30DF
  8
0
  0
INSERT
  5
30E0
  8
ASHADE
 62
     1
  2
AVE_GLOBAL
 10
0.0
 20
0.0
 30
0.0
1001
AVE_MATERIAL
1002
{
1000
*GLOBAL*
1000
1
1000
Global finish.
1002
{
1002
}
1002
{
1070
    63
1002
{
1002
{
1010
-1.0
1020
-1.0
1030
-1.0
1002
}
1040
0.1
1000

1040
0.0
1002
{
1002
}
1040
0.0
1002
{
1002
}
1040
0.0
1002
}
1002
{
1002
{
1010
-1.0
1020
-1.0
1030
-1.0
1002
}
1040
0.7
1000

1040
0.0
1002
{
1002
}
1040
0.0
1002
{
1002
}
1040
0.0
1002
}
1002
{
1002
{
1010
-1.0
1020
-1.0
1030
-1.0
1002
}
1040
0.2
1000

1040
0.0
1002
{
1002
}
1040
0.0
1002
{
1002
}
1040
0.0
1002
}
1002
{
1070
     0
1002
{
1070
     1
1002
{
1040
1.0
1040
1.0
1000

1040
0.0
1002
{
1002
}
1040
0.0
1002
{
1002
}
1040
0.0
1002
}
1002
}
1040
1.0
1040
0.0
1040
0.0
1002
}
1002
{
1040
1.0
1040
1.0
1000

1040
0.0
1002
{
1002
}
1040
0.0
1002
{
1002
}
1040
0.0
1002
}
1002
{
1040
0.5
1040
1.0
1000

1040
0.0
1002
{
1002
}
1040
0.0
1002
{
1002
}
1040
0.0
1002
}
1002
{
1070
     0
1040
0.0
1002
{
1002
}
1040
1.0
1002
{
1002
}
1040
0.0
1002
}
1002
{
1040
0.0
1002
{
1002
{
1010
0.0
1020
0.0
1030
0.0
1002
}
1040
1.0
1000

1040
0.0
1002
{
1002
}
1040
0.0
1002
{
1002
}
1040
0.0
1002
}
1002
}
1002
{
1002
{
1070
     1
1002
{
1040
0.0
1040
1.0
1000

1040
0.0
1002
{
1002
}
1040
0.0
1002
{
1002
}
1040
0.0
1002
}
1002
}
1040
0.0
1002
{
1002
}
1010
1.0
1020
0.0
1030
0.0
1010
0.0
1020
1.0
1030
0.0
1010
0.0
1020
0.0
1030
1.0
1070
     0
1002
}
1002
{
1002
{
1040
1.0
1040
1.0
1002
{
1070
     1
1002
{
1040
1.0
1040
1.0
1000

1040
0.0
1002
{
1002
}
1040
0.0
1002
{
1002
}
1040
0.0
1002
}
1002
}
1002
}
1070
     0
1040
0.0
1002
{
1002
}
1002
}
1002
{
1002
}
1002
}
1002
{
1071
        3
1070
     3
1070
     0
1002
{
1070
     2
1070
     0
1070
     0
1040
0.0
1002
}
1070
     0
1070
     2
1002
{
1002
}
1002
}
1002
{
1040
8030.0
1040
190.300003
1040
0.305
1040
228.0
1040
545.0
1040
14.0
1040
17.4
1040
0.456
1002
}
1002
}
  0
INSERT
  5
30E1
  8
ASHADE
 62
     1
  2
AVE_GLOBAL
 10
0.0
 20
0.0
 30
0.0
1001
AVE_MATERIAL
1002
{
1000
*GLOBAL*
1000
1
1000
Global finish.
1002
{
1002
}
1002
{
1070
    63
1002
{
1002
{
1010
-1.0
1020
-1.0
1030
-1.0
1002
}
1040
0.1
1000

1040
0.0
1002
{
1002
}
1040
0.0
1002
{
1002
}
1040
0.0
1002
}
1002
{
1002
{
1010
-1.0
1020
-1.0
1030
-1.0
1002
}
1040
0.7
1000

1040
0.0
1002
{
1002
}
1040
0.0
1002
{
1002
}
1040
0.0
1002
}
1002
{
1002
{
1010
-1.0
1020
-1.0
1030
-1.0
1002
}
1040
0.2
1000

1040
0.0
1002
{
1002
}
1040
0.0
1002
{
1002
}
1040
0.0
1002
}
1002
{
1070
     0
1002
{
1070
     1
1002
{
1040
1.0
1040
1.0
1000

1040
0.0
1002
{
1002
}
1040
0.0
1002
{
1002
}
1040
0.0
1002
}
1002
}
1040
1.0
1040
0.0
1040
0.0
1002
}
1002
{
1040
1.0
1040
1.0
1000

1040
0.0
1002
{
1002
}
1040
0.0
1002
{
1002
}
1040
0.0
1002
}
1002
{
1040
0.5
1040
1.0
1000

1040
0.0
1002
{
1002
}
1040
0.0
1002
{
1002
}
1040
0.0
1002
}
1002
{
1070
     0
1040
0.0
1002
{
1002
}
1040
1.0
1002
{
1002
}
1040
0.0
1002
}
1002
{
1040
0.0
1002
{
1002
{
1010
0.0
1020
0.0
1030
0.0
1002
}
1040
1.0
1000

1040
0.0
1002
{
1002
}
1040
0.0
1002
{
1002
}
1040
0.0
1002
}
1002
}
1002
{
1002
{
1070
     1
1002
{
1040
0.0
1040
1.0
1000

1040
0.0
1002
{
1002
}
1040
0.0
1002
{
1002
}
1040
0.0
1002
}
1002
}
1040
0.0
1002
{
1002
}
1010
1.0
1020
0.0
1030
0.0
1010
0.0
1020
1.0
1030
0.0
1010
0.0
1020
0.0
1030
1.0
1070
     0
1002
}
1002
{
1002
{
1040
1.0
1040
1.0
1002
{
1070
     1
1002
{
1040
1.0
1040
1.0
1000

1040
0.0
1002
{
1002
}
1040
0.0
1002
{
1002
}
1040
0.0
1002
}
1002
}
1002
}
1070
     0
1040
0.0
1002
{
1002
}
1002
}
1002
{
1002
}
1002
}
1002
{
1071
        3
1070
     3
1070
     0
1002
{
1070
     2
1070
     0
1070
     0
1040
0.0
1002
}
1070
     0
1070
     2
1002
{
1002
}
1002
}
1002
{
1040
8030.0
1040
190.300003
1040
0.305
1040
228.0
1040
545.0
1040
14.0
1040
17.4
1040
0.456
1002
}
1002
}
  0
INSERT
  5
30E2
  8
ASHADE
 62
     1
  2
AVE_GLOBAL
 10
0.0
 20
0.0
 30
0.0
1001
AVE_MATERIAL
1002
{
1000
*GLOBAL*
1000
1
1000
Global finish.
1002
{
1002
}
1002
{
1070
    63
1002
{
1002
{
1010
-1.0
1020
-1.0
1030
-1.0
1002
}
1040
0.1
1000

1040
0.0
1002
{
1002
}
1040
0.0
1002
{
1002
}
1040
0.0
1002
}
1002
{
1002
{
1010
-1.0
1020
-1.0
1030
-1.0
1002
}
1040
0.7
1000

1040
0.0
1002
{
1002
}
1040
0.0
1002
{
1002
}
1040
0.0
1002
}
1002
{
1002
{
1010
-1.0
1020
-1.0
1030
-1.0
1002
}
1040
0.2
1000

1040
0.0
1002
{
1002
}
1040
0.0
1002
{
1002
}
1040
0.0
1002
}
1002
{
1070
     0
1002
{
1070
     1
1002
{
1040
1.0
1040
1.0
1000

1040
0.0
1002
{
1002
}
1040
0.0
1002
{
1002
}
1040
0.0
1002
}
1002
}
1040
1.0
1040
0.0
1040
0.0
1002
}
1002
{
1040
1.0
1040
1.0
1000

1040
0.0
1002
{
1002
}
1040
0.0
1002
{
1002
}
1040
0.0
1002
}
1002
{
1040
0.5
1040
1.0
1000

1040
0.0
1002
{
1002
}
1040
0.0
1002
{
1002
}
1040
0.0
1002
}
1002
{
1070
     0
1040
0.0
1002
{
1002
}
1040
1.0
1002
{
1002
}
1040
0.0
1002
}
1002
{
1040
0.0
1002
{
1002
{
1010
0.0
1020
0.0
1030
0.0
1002
}
1040
1.0
1000

1040
0.0
1002
{
1002
}
1040
0.0
1002
{
1002
}
1040
0.0
1002
}
1002
}
1002
{
1002
{
1070
     1
1002
{
1040
0.0
1040
1.0
1000

1040
0.0
1002
{
1002
}
1040
0.0
1002
{
1002
}
1040
0.0
1002
}
1002
}
1040
0.0
1002
{
1002
}
1010
1.0
1020
0.0
1030
0.0
1010
0.0
1020
1.0
1030
0.0
1010
0.0
1020
0.0
1030
1.0
1070
     0
1002
}
1002
{
1002
{
1040
1.0
1040
1.0
1002
{
1070
     1
1002
{
1040
1.0
1040
1.0
1000

1040
0.0
1002
{
1002
}
1040
0.0
1002
{
1002
}
1040
0.0
1002
}
1002
}
1002
}
1070
     0
1040
0.0
1002
{
1002
}
1002
}
1002
{
1002
}
1002
}
1002
{
1071
        3
1070
     3
1070
     0
1002
{
1070
     2
1070
     0
1070
     0
1040
0.0
1002
}
1070
     0
1070
     2
1002
{
1002
}
1002
}
1002
{
1040
8030.0
1040
190.300003
1040
0.305
1040
228.0
1040
545.0
1040
14.0
1040
17.4
1040
0.456
1002
}
1002
}
  0
INSERT
  5
30E3
  8
ASHADE
 62
     1
  2
AVE_GLOBAL
 10
0.0
 20
0.0
 30
0.0
1001
AVE_MATERIAL
1002
{
1000
*GLOBAL*
1000
1
1000
Global finish.
1002
{
1002
}
1002
{
1070
    63
1002
{
1002
{
1010
-1.0
1020
-1.0
1030
-1.0
1002
}
1040
0.1
1000

1040
0.0
1002
{
1002
}
1040
0.0
1002
{
1002
}
1040
0.0
1002
}
1002
{
1002
{
1010
-1.0
1020
-1.0
1030
-1.0
1002
}
1040
0.7
1000

1040
0.0
1002
{
1002
}
1040
0.0
1002
{
1002
}
1040
0.0
1002
}
1002
{
1002
{
1010
-1.0
1020
-1.0
1030
-1.0
1002
}
1040
0.2
1000

1040
0.0
1002
{
1002
}
1040
0.0
1002
{
1002
}
1040
0.0
1002
}
1002
{
1070
     0
1002
{
1070
     1
1002
{
1040
1.0
1040
1.0
1000

1040
0.0
1002
{
1002
}
1040
0.0
1002
{
1002
}
1040
0.0
1002
}
1002
}
1040
1.0
1040
0.0
1040
0.0
1002
}
1002
{
1040
1.0
1040
1.0
1000

1040
0.0
1002
{
1002
}
1040
0.0
1002
{
1002
}
1040
0.0
1002
}
1002
{
1040
0.5
1040
1.0
1000

1040
0.0
1002
{
1002
}
1040
0.0
1002
{
1002
}
1040
0.0
1002
}
1002
{
1070
     0
1040
0.0
1002
{
1002
}
1040
1.0
1002
{
1002
}
1040
0.0
1002
}
1002
{
1040
0.0
1002
{
1002
{
1010
0.0
1020
0.0
1030
0.0
1002
}
1040
1.0
1000

1040
0.0
1002
{
1002
}
1040
0.0
1002
{
1002
}
1040
0.0
1002
}
1002
}
1002
{
1002
{
1070
     1
1002
{
1040
0.0
1040
1.0
1000

1040
0.0
1002
{
1002
}
1040
0.0
1002
{
1002
}
1040
0.0
1002
}
1002
}
1040
0.0
1002
{
1002
}
1010
1.0
1020
0.0
1030
0.0
1010
0.0
1020
1.0
1030
0.0
1010
0.0
1020
0.0
1030
1.0
1070
     0
1002
}
1002
{
1002
{
1040
1.0
1040
1.0
1002
{
1070
     1
1002
{
1040
1.0
1040
1.0
1000

1040
0.0
1002
{
1002
}
1040
0.0
1002
{
1002
}
1040
0.0
1002
}
1002
}
1002
}
1070
     0
1040
0.0
1002
{
1002
}
1002
}
1002
{
1002
}
1002
}
1002
{
1071
        3
1070
     3
1070
     0
1002
{
1070
     2
1070
     0
1070
     0
1040
0.0
1002
}
1070
     0
1070
     2
1002
{
1002
}
1002
}
1002
{
1040
8030.0
1040
190.300003
1040
0.305
1040
228.0
1040
545.0
1040
14.0
1040
17.4
1040
0.456
1002
}
1002
}
  0
INSERT
  5
30E4
  8
ASHADE
 62
     1
  2
AVE_GLOBAL
 10
0.0
 20
0.0
 30
0.0
1001
AVE_MATERIAL
1002
{
1000
*GLOBAL*
1000
1
1000
Global finish.
1002
{
1002
}
1002
{
1070
    63
1002
{
1002
{
1010
-1.0
1020
-1.0
1030
-1.0
1002
}
1040
0.1
1000

1040
0.0
1002
{
1002
}
1040
0.0
1002
{
1002
}
1040
0.0
1002
}
1002
{
1002
{
1010
-1.0
1020
-1.0
1030
-1.0
1002
}
1040
0.7
1000

1040
0.0
1002
{
1002
}
1040
0.0
1002
{
1002
}
1040
0.0
1002
}
1002
{
1002
{
1010
-1.0
1020
-1.0
1030
-1.0
1002
}
1040
0.2
1000

1040
0.0
1002
{
1002
}
1040
0.0
1002
{
1002
}
1040
0.0
1002
}
1002
{
1070
     0
1002
{
1070
     1
1002
{
1040
1.0
1040
1.0
1000

1040
0.0
1002
{
1002
}
1040
0.0
1002
{
1002
}
1040
0.0
1002
}
1002
}
1040
1.0
1040
0.0
1040
0.0
1002
}
1002
{
1040
1.0
1040
1.0
1000

1040
0.0
1002
{
1002
}
1040
0.0
1002
{
1002
}
1040
0.0
1002
}
1002
{
1040
0.5
1040
1.0
1000

1040
0.0
1002
{
1002
}
1040
0.0
1002
{
1002
}
1040
0.0
1002
}
1002
{
1070
     0
1040
0.0
1002
{
1002
}
1040
1.0
1002
{
1002
}
1040
0.0
1002
}
1002
{
1040
0.0
1002
{
1002
{
1010
0.0
1020
0.0
1030
0.0
1002
}
1040
1.0
1000

1040
0.0
1002
{
1002
}
1040
0.0
1002
{
1002
}
1040
0.0
1002
}
1002
}
1002
{
1002
{
1070
     1
1002
{
1040
0.0
1040
1.0
1000

1040
0.0
1002
{
1002
}
1040
0.0
1002
{
1002
}
1040
0.0
1002
}
1002
}
1040
0.0
1002
{
1002
}
1010
1.0
1020
0.0
1030
0.0
1010
0.0
1020
1.0
1030
0.0
1010
0.0
1020
0.0
1030
1.0
1070
     0
1002
}
1002
{
1002
{
1040
1.0
1040
1.0
1002
{
1070
     1
1002
{
1040
1.0
1040
1.0
1000

1040
0.0
1002
{
1002
}
1040
0.0
1002
{
1002
}
1040
0.0
1002
}
1002
}
1002
}
1070
     0
1040
0.0
1002
{
1002
}
1002
}
1002
{
1002
}
1002
}
1002
{
1071
        3
1070
     3
1070
     0
1002
{
1070
     2
1070
     0
1070
     0
1040
0.0
1002
}
1070
     0
1070
     2
1002
{
1002
}
1002
}
1002
{
1040
8030.0
1040
190.300003
1040
0.305
1040
228.0
1040
545.0
1040
14.0
1040
17.4
1040
0.456
1002
}
1002
}
  0
INSERT
  5
30E5
  8
ASHADE
  6
CONTINUOUS
 62
     1
  2
AVE_GLOBAL
 10
0.0
 20
0.0
 30
0.0
1001
AVE_MATERIAL
1002
{
1000
*GLOBAL*
1000
1
1000
Global finish.
1002
{
1002
}
1002
{
1070
    63
1002
{
1002
{
1010
-1.0
1020
-1.0
1030
-1.0
1002
}
1040
0.1
1000

1040
0.0
1002
{
1002
}
1040
0.0
1002
{
1002
}
1040
0.0
1002
}
1002
{
1002
{
1010
-1.0
1020
-1.0
1030
-1.0
1002
}
1040
0.7
1000

1040
0.0
1002
{
1002
}
1040
0.0
1002
{
1002
}
1040
0.0
1002
}
1002
{
1002
{
1010
-1.0
1020
-1.0
1030
-1.0
1002
}
1040
0.2
1000

1040
0.0
1002
{
1002
}
1040
0.0
1002
{
1002
}
1040
0.0
1002
}
1002
{
1070
     0
1002
{
1070
     1
1002
{
1040
1.0
1040
1.0
1000

1040
0.0
1002
{
1002
}
1040
0.0
1002
{
1002
}
1040
0.0
1002
}
1002
}
1040
1.0
1040
0.0
1040
0.0
1002
}
1002
{
1040
1.0
1040
1.0
1000

1040
0.0
1002
{
1002
}
1040
0.0
1002
{
1002
}
1040
0.0
1002
}
1002
{
1040
0.5
1040
1.0
1000

1040
0.0
1002
{
1002
}
1040
0.0
1002
{
1002
}
1040
0.0
1002
}
1002
{
1070
     0
1040
0.0
1002
{
1002
}
1040
1.0
1002
{
1002
}
1040
0.0
1002
}
1002
{
1040
0.0
1002
{
1002
{
1010
0.0
1020
0.0
1030
0.0
1002
}
1040
1.0
1000

1040
0.0
1002
{
1002
}
1040
0.0
1002
{
1002
}
1040
0.0
1002
}
1002
}
1002
{
1002
{
1070
     1
1002
{
1040
0.0
1040
1.0
1000

1040
0.0
1002
{
1002
}
1040
0.0
1002
{
1002
}
1040
0.0
1002
}
1002
}
1040
0.0
1002
{
1002
}
1010
1.0
1020
0.0
1030
0.0
1010
0.0
1020
1.0
1030
0.0
1010
0.0
1020
0.0
1030
1.0
1070
     0
1002
}
1002
{
1002
{
1040
1.0
1040
1.0
1002
{
1070
     1
1002
{
1040
1.0
1040
1.0
1000

1040
0.0
1002
{
1002
}
1040
0.0
1002
{
1002
}
1040
0.0
1002
}
1002
}
1002
}
1070
     0
1040
0.0
1002
{
1002
}
1002
}
1002
{
1002
}
1002
}
1002
{
1071
        3
1070
     3
1070
     0
1002
{
1070
     2
1070
     0
1070
     0
1040
0.0
1002
}
1070
     0
1070
     2
1002
{
1002
}
1002
}
1002
{
1040
8030.0
1040
190.300003
1040
0.305
1040
228.0
1040
545.0
1040
14.0
1040
17.4
1040
0.456
1002
}
1002
}
  0
INSERT
  5
30E6
  8
ASHADE
 62
     1
  2
AVE_GLOBAL
 10
0.0
 20
0.0
 30
0.0
1001
AVE_MATERIAL
1002
{
1000
*GLOBAL*
1000
1
1000
Global finish.
1002
{
1002
}
1002
{
1070
    63
1002
{
1002
{
1010
-1.0
1020
-1.0
1030
-1.0
1002
}
1040
0.1
1000

1040
0.0
1002
{
1002
}
1040
0.0
1002
{
1002
}
1040
0.0
1002
}
1002
{
1002
{
1010
-1.0
1020
-1.0
1030
-1.0
1002
}
1040
0.7
1000

1040
0.0
1002
{
1002
}
1040
0.0
1002
{
1002
}
1040
0.0
1002
}
1002
{
1002
{
1010
-1.0
1020
-1.0
1030
-1.0
1002
}
1040
0.2
1000

1040
0.0
1002
{
1002
}
1040
0.0
1002
{
1002
}
1040
0.0
1002
}
1002
{
1070
     0
1002
{
1070
     1
1002
{
1040
1.0
1040
1.0
1000

1040
0.0
1002
{
1002
}
1040
0.0
1002
{
1002
}
1040
0.0
1002
}
1002
}
1040
1.0
1040
0.0
1040
0.0
1002
}
1002
{
1040
1.0
1040
1.0
1000

1040
0.0
1002
{
1002
}
1040
0.0
1002
{
1002
}
1040
0.0
1002
}
1002
{
1040
0.5
1040
1.0
1000

1040
0.0
1002
{
1002
}
1040
0.0
1002
{
1002
}
1040
0.0
1002
}
1002
{
1070
     0
1040
0.0
1002
{
1002
}
1040
1.0
1002
{
1002
}
1040
0.0
1002
}
1002
{
1040
0.0
1002
{
1002
{
1010
0.0
1020
0.0
1030
0.0
1002
}
1040
1.0
1000

1040
0.0
1002
{
1002
}
1040
0.0
1002
{
1002
}
1040
0.0
1002
}
1002
}
1002
{
1002
{
1070
     1
1002
{
1040
0.0
1040
1.0
1000

1040
0.0
1002
{
1002
}
1040
0.0
1002
{
1002
}
1040
0.0
1002
}
1002
}
1040
0.0
1002
{
1002
}
1010
1.0
1020
0.0
1030
0.0
1010
0.0
1020
1.0
1030
0.0
1010
0.0
1020
0.0
1030
1.0
1070
     0
1002
}
1002
{
1002
{
1040
1.0
1040
1.0
1002
{
1070
     1
1002
{
1040
1.0
1040
1.0
1000

1040
0.0
1002
{
1002
}
1040
0.0
1002
{
1002
}
1040
0.0
1002
}
1002
}
1002
}
1070
     0
1040
0.0
1002
{
1002
}
1002
}
1002
{
1002
}
1002
}
1002
{
1071
        3
1070
     3
1070
     0
1002
{
1070
     2
1070
     0
1070
     0
1040
0.0
1002
}
1070
     0
1070
     2
1002
{
1002
}
1002
}
1002
{
1040
8030.0
1040
190.300003
1040
0.305
1040
228.0
1040
545.0
1040
14.0
1040
17.4
1040
0.456
1002
}
1002
}
  0
INSERT
  5
30E7
  8
ASHADE
 62
     1
  2
AVE_GLOBAL
 10
0.0
 20
0.0
 30
0.0
1001
AVE_MATERIAL
1002
{
1000
*GLOBAL*
1000
1
1000
Global finish.
1002
{
1002
}
1002
{
1070
    63
1002
{
1002
{
1010
-1.0
1020
-1.0
1030
-1.0
1002
}
1040
0.1
1000

1040
0.0
1002
{
1002
}
1040
0.0
1002
{
1002
}
1040
0.0
1002
}
1002
{
1002
{
1010
-1.0
1020
-1.0
1030
-1.0
1002
}
1040
0.7
1000

1040
0.0
1002
{
1002
}
1040
0.0
1002
{
1002
}
1040
0.0
1002
}
1002
{
1002
{
1010
-1.0
1020
-1.0
1030
-1.0
1002
}
1040
0.2
1000

1040
0.0
1002
{
1002
}
1040
0.0
1002
{
1002
}
1040
0.0
1002
}
1002
{
1070
     0
1002
{
1070
     1
1002
{
1040
1.0
1040
1.0
1000

1040
0.0
1002
{
1002
}
1040
0.0
1002
{
1002
}
1040
0.0
1002
}
1002
}
1040
1.0
1040
0.0
1040
0.0
1002
}
1002
{
1040
1.0
1040
1.0
1000

1040
0.0
1002
{
1002
}
1040
0.0
1002
{
1002
}
1040
0.0
1002
}
1002
{
1040
0.5
1040
1.0
1000

1040
0.0
1002
{
1002
}
1040
0.0
1002
{
1002
}
1040
0.0
1002
}
1002
{
1070
     0
1040
0.0
1002
{
1002
}
1040
1.0
1002
{
1002
}
1040
0.0
1002
}
1002
{
1040
0.0
1002
{
1002
{
1010
0.0
1020
0.0
1030
0.0
1002
}
1040
1.0
1000

1040
0.0
1002
{
1002
}
1040
0.0
1002
{
1002
}
1040
0.0
1002
}
1002
}
1002
{
1002
{
1070
     1
1002
{
1040
0.0
1040
1.0
1000

1040
0.0
1002
{
1002
}
1040
0.0
1002
{
1002
}
1040
0.0
1002
}
1002
}
1040
0.0
1002
{
1002
}
1010
1.0
1020
0.0
1030
0.0
1010
0.0
1020
1.0
1030
0.0
1010
0.0
1020
0.0
1030
1.0
1070
     0
1002
}
1002
{
1002
{
1040
1.0
1040
1.0
1002
{
1070
     1
1002
{
1040
1.0
1040
1.0
1000

1040
0.0
1002
{
1002
}
1040
0.0
1002
{
1002
}
1040
0.0
1002
}
1002
}
1002
}
1070
     0
1040
0.0
1002
{
1002
}
1002
}
1002
{
1002
}
1002
}
1002
{
1071
        3
1070
     3
1070
     0
1002
{
1070
     2
1070
     0
1070
     0
1040
0.0
1002
}
1070
     0
1070
     2
1002
{
1002
}
1002
}
1002
{
1040
8030.0
1040
190.300003
1040
0.305
1040
228.0
1040
545.0
1040
14.0
1040
17.4
1040
0.456
1002
}
1002
}
  0
INSERT
  5
30E8
  8
ASHADE
 62
     1
  2
AVE_GLOBAL
 10
0.0
 20
0.0
 30
0.0
1001
AVE_MATERIAL
1002
{
1000
*GLOBAL*
1000
1
1000
Global finish.
1002
{
1002
}
1002
{
1070
    63
1002
{
1002
{
1010
-1.0
1020
-1.0
1030
-1.0
1002
}
1040
0.1
1000

1040
0.0
1002
{
1002
}
1040
0.0
1002
{
1002
}
1040
0.0
1002
}
1002
{
1002
{
1010
-1.0
1020
-1.0
1030
-1.0
1002
}
1040
0.7
1000

1040
0.0
1002
{
1002
}
1040
0.0
1002
{
1002
}
1040
0.0
1002
}
1002
{
1002
{
1010
-1.0
1020
-1.0
1030
-1.0
1002
}
1040
0.2
1000

1040
0.0
1002
{
1002
}
1040
0.0
1002
{
1002
}
1040
0.0
1002
}
1002
{
1070
     0
1002
{
1070
     1
1002
{
1040
1.0
1040
1.0
1000

1040
0.0
1002
{
1002
}
1040
0.0
1002
{
1002
}
1040
0.0
1002
}
1002
}
1040
1.0
1040
0.0
1040
0.0
1002
}
1002
{
1040
1.0
1040
1.0
1000

1040
0.0
1002
{
1002
}
1040
0.0
1002
{
1002
}
1040
0.0
1002
}
1002
{
1040
0.5
1040
1.0
1000

1040
0.0
1002
{
1002
}
1040
0.0
1002
{
1002
}
1040
0.0
1002
}
1002
{
1070
     0
1040
0.0
1002
{
1002
}
1040
1.0
1002
{
1002
}
1040
0.0
1002
}
1002
{
1040
0.0
1002
{
1002
{
1010
0.0
1020
0.0
1030
0.0
1002
}
1040
1.0
1000

1040
0.0
1002
{
1002
}
1040
0.0
1002
{
1002
}
1040
0.0
1002
}
1002
}
1002
{
1002
{
1070
     1
1002
{
1040
0.0
1040
1.0
1000

1040
0.0
1002
{
1002
}
1040
0.0
1002
{
1002
}
1040
0.0
1002
}
1002
}
1040
0.0
1002
{
1002
}
1010
1.0
1020
0.0
1030
0.0
1010
0.0
1020
1.0
1030
0.0
1010
0.0
1020
0.0
1030
1.0
1070
     0
1002
}
1002
{
1002
{
1040
1.0
1040
1.0
1002
{
1070
     1
1002
{
1040
1.0
1040
1.0
1000

1040
0.0
1002
{
1002
}
1040
0.0
1002
{
1002
}
1040
0.0
1002
}
1002
}
1002
}
1070
     0
1040
0.0
1002
{
1002
}
1002
}
1002
{
1002
}
1002
}
1002
{
1071
        3
1070
     3
1070
     0
1002
{
1070
     2
1070
     0
1070
     0
1040
0.0
1002
}
1070
     0
1070
     2
1002
{
1002
}
1002
}
1002
{
1040
8030.0
1040
190.300003
1040
0.305
1040
228.0
1040
545.0
1040
14.0
1040
17.4
1040
0.456
1002
}
1002
}
  0
INSERT
  5
30E9
  8
ASHADE
 62
     1
  2
AVE_GLOBAL
 10
0.0
 20
0.0
 30
0.0
1001
AVE_MATERIAL
1002
{
1000
*GLOBAL*
1000
1
1000
Global finish.
1002
{
1002
}
1002
{
1070
    63
1002
{
1002
{
1010
-1.0
1020
-1.0
1030
-1.0
1002
}
1040
0.1
1000

1040
0.0
1002
{
1002
}
1040
0.0
1002
{
1002
}
1040
0.0
1002
}
1002
{
1002
{
1010
-1.0
1020
-1.0
1030
-1.0
1002
}
1040
0.7
1000

1040
0.0
1002
{
1002
}
1040
0.0
1002
{
1002
}
1040
0.0
1002
}
1002
{
1002
{
1010
-1.0
1020
-1.0
1030
-1.0
1002
}
1040
0.2
1000

1040
0.0
1002
{
1002
}
1040
0.0
1002
{
1002
}
1040
0.0
1002
}
1002
{
1070
     0
1002
{
1070
     1
1002
{
1040
1.0
1040
1.0
1000

1040
0.0
1002
{
1002
}
1040
0.0
1002
{
1002
}
1040
0.0
1002
}
1002
}
1040
1.0
1040
0.0
1040
0.0
1002
}
1002
{
1040
1.0
1040
1.0
1000

1040
0.0
1002
{
1002
}
1040
0.0
1002
{
1002
}
1040
0.0
1002
}
1002
{
1040
0.5
1040
1.0
1000

1040
0.0
1002
{
1002
}
1040
0.0
1002
{
1002
}
1040
0.0
1002
}
1002
{
1070
     0
1040
0.0
1002
{
1002
}
1040
1.0
1002
{
1002
}
1040
0.0
1002
}
1002
{
1040
0.0
1002
{
1002
{
1010
0.0
1020
0.0
1030
0.0
1002
}
1040
1.0
1000

1040
0.0
1002
{
1002
}
1040
0.0
1002
{
1002
}
1040
0.0
1002
}
1002
}
1002
{
1002
{
1070
     1
1002
{
1040
0.0
1040
1.0
1000

1040
0.0
1002
{
1002
}
1040
0.0
1002
{
1002
}
1040
0.0
1002
}
1002
}
1040
0.0
1002
{
1002
}
1010
1.0
1020
0.0
1030
0.0
1010
0.0
1020
1.0
1030
0.0
1010
0.0
1020
0.0
1030
1.0
1070
     0
1002
}
1002
{
1002
{
1040
1.0
1040
1.0
1002
{
1070
     1
1002
{
1040
1.0
1040
1.0
1000

1040
0.0
1002
{
1002
}
1040
0.0
1002
{
1002
}
1040
0.0
1002
}
1002
}
1002
}
1070
     0
1040
0.0
1002
{
1002
}
1002
}
1002
{
1002
}
1002
}
1002
{
1071
        3
1070
     3
1070
     0
1002
{
1070
     2
1070
     0
1070
     0
1040
0.0
1002
}
1070
     0
1070
     2
1002
{
1002
}
1002
}
1002
{
1040
8030.0
1040
190.300003
1040
0.305
1040
228.0
1040
545.0
1040
14.0
1040
17.4
1040
0.456
1002
}
1002
}
  0
INSERT
  5
30EA
  8
ASHADE
 62
     1
  2
AVE_GLOBAL
 10
0.0
 20
0.0
 30
0.0
1001
AVE_MATERIAL
1002
{
1000
*GLOBAL*
1000
1
1000
Global finish.
1002
{
1002
}
1002
{
1070
    63
1002
{
1002
{
1010
-1.0
1020
-1.0
1030
-1.0
1002
}
1040
0.1
1000

1040
0.0
1002
{
1002
}
1040
0.0
1002
{
1002
}
1040
0.0
1002
}
1002
{
1002
{
1010
-1.0
1020
-1.0
1030
-1.0
1002
}
1040
0.7
1000

1040
0.0
1002
{
1002
}
1040
0.0
1002
{
1002
}
1040
0.0
1002
}
1002
{
1002
{
1010
-1.0
1020
-1.0
1030
-1.0
1002
}
1040
0.2
1000

1040
0.0
1002
{
1002
}
1040
0.0
1002
{
1002
}
1040
0.0
1002
}
1002
{
1070
     0
1002
{
1070
     1
1002
{
1040
1.0
1040
1.0
1000

1040
0.0
1002
{
1002
}
1040
0.0
1002
{
1002
}
1040
0.0
1002
}
1002
}
1040
1.0
1040
0.0
1040
0.0
1002
}
1002
{
1040
1.0
1040
1.0
1000

1040
0.0
1002
{
1002
}
1040
0.0
1002
{
1002
}
1040
0.0
1002
}
1002
{
1040
0.5
1040
1.0
1000

1040
0.0
1002
{
1002
}
1040
0.0
1002
{
1002
}
1040
0.0
1002
}
1002
{
1070
     0
1040
0.0
1002
{
1002
}
1040
1.0
1002
{
1002
}
1040
0.0
1002
}
1002
{
1040
0.0
1002
{
1002
{
1010
0.0
1020
0.0
1030
0.0
1002
}
1040
1.0
1000

1040
0.0
1002
{
1002
}
1040
0.0
1002
{
1002
}
1040
0.0
1002
}
1002
}
1002
{
1002
{
1070
     1
1002
{
1040
0.0
1040
1.0
1000

1040
0.0
1002
{
1002
}
1040
0.0
1002
{
1002
}
1040
0.0
1002
}
1002
}
1040
0.0
1002
{
1002
}
1010
1.0
1020
0.0
1030
0.0
1010
0.0
1020
1.0
1030
0.0
1010
0.0
1020
0.0
1030
1.0
1070
     0
1002
}
1002
{
1002
{
1040
1.0
1040
1.0
1002
{
1070
     1
1002
{
1040
1.0
1040
1.0
1000

1040
0.0
1002
{
1002
}
1040
0.0
1002
{
1002
}
1040
0.0
1002
}
1002
}
1002
}
1070
     0
1040
0.0
1002
{
1002
}
1002
}
1002
{
1002
}
1002
}
1002
{
1071
        3
1070
     3
1070
     0
1002
{
1070
     2
1070
     0
1070
     0
1040
0.0
1002
}
1070
     0
1070
     2
1002
{
1002
}
1002
}
1002
{
1040
8030.0
1040
190.300003
1040
0.305
1040
228.0
1040
545.0
1040
14.0
1040
17.4
1040
0.456
1002
}
1002
}
  0
INSERT
  5
30EB
  8
ASHADE
 62
     1
  2
AVE_GLOBAL
 10
0.0
 20
0.0
 30
0.0
1001
AVE_MATERIAL
1002
{
1000
*GLOBAL*
1000
1
1000
Global finish.
1002
{
1002
}
1002
{
1070
    63
1002
{
1002
{
1010
-1.0
1020
-1.0
1030
-1.0
1002
}
1040
0.1
1000

1040
0.0
1002
{
1002
}
1040
0.0
1002
{
1002
}
1040
0.0
1002
}
1002
{
1002
{
1010
-1.0
1020
-1.0
1030
-1.0
1002
}
1040
0.7
1000

1040
0.0
1002
{
1002
}
1040
0.0
1002
{
1002
}
1040
0.0
1002
}
1002
{
1002
{
1010
-1.0
1020
-1.0
1030
-1.0
1002
}
1040
0.2
1000

1040
0.0
1002
{
1002
}
1040
0.0
1002
{
1002
}
1040
0.0
1002
}
1002
{
1070
     0
1002
{
1070
     1
1002
{
1040
1.0
1040
1.0
1000

1040
0.0
1002
{
1002
}
1040
0.0
1002
{
1002
}
1040
0.0
1002
}
1002
}
1040
1.0
1040
0.0
1040
0.0
1002
}
1002
{
1040
1.0
1040
1.0
1000

1040
0.0
1002
{
1002
}
1040
0.0
1002
{
1002
}
1040
0.0
1002
}
1002
{
1040
0.5
1040
1.0
1000

1040
0.0
1002
{
1002
}
1040
0.0
1002
{
1002
}
1040
0.0
1002
}
1002
{
1070
     0
1040
0.0
1002
{
1002
}
1040
1.0
1002
{
1002
}
1040
0.0
1002
}
1002
{
1040
0.0
1002
{
1002
{
1010
0.0
1020
0.0
1030
0.0
1002
}
1040
1.0
1000

1040
0.0
1002
{
1002
}
1040
0.0
1002
{
1002
}
1040
0.0
1002
}
1002
}
1002
{
1002
{
1070
     1
1002
{
1040
0.0
1040
1.0
1000

1040
0.0
1002
{
1002
}
1040
0.0
1002
{
1002
}
1040
0.0
1002
}
1002
}
1040
0.0
1002
{
1002
}
1010
1.0
1020
0.0
1030
0.0
1010
0.0
1020
1.0
1030
0.0
1010
0.0
1020
0.0
1030
1.0
1070
     0
1002
}
1002
{
1002
{
1040
1.0
1040
1.0
1002
{
1070
     1
1002
{
1040
1.0
1040
1.0
1000

1040
0.0
1002
{
1002
}
1040
0.0
1002
{
1002
}
1040
0.0
1002
}
1002
}
1002
}
1070
     0
1040
0.0
1002
{
1002
}
1002
}
1002
{
1002
}
1002
}
1002
{
1071
        3
1070
     3
1070
     0
1002
{
1070
     2
1070
     0
1070
     0
1040
0.0
1002
}
1070
     0
1070
     2
1002
{
1002
}
1002
}
1002
{
1040
8030.0
1040
190.300003
1040
0.305
1040
228.0
1040
545.0
1040
14.0
1040
17.4
1040
0.456
1002
}
1002
}
  0
INSERT
  5
30EC
  8
ASHADE
  6
CONTINUOUS
 62
     1
  2
AVE_GLOBAL
 10
0.0
 20
0.0
 30
0.0
1001
AVE_MATERIAL
1002
{
1000
*GLOBAL*
1000
1
1000
Global finish.
1002
{
1002
}
1002
{
1070
    63
1002
{
1002
{
1010
-1.0
1020
-1.0
1030
-1.0
1002
}
1040
0.1
1000

1040
0.0
1002
{
1002
}
1040
0.0
1002
{
1002
}
1040
0.0
1002
}
1002
{
1002
{
1010
-1.0
1020
-1.0
1030
-1.0
1002
}
1040
0.7
1000

1040
0.0
1002
{
1002
}
1040
0.0
1002
{
1002
}
1040
0.0
1002
}
1002
{
1002
{
1010
-1.0
1020
-1.0
1030
-1.0
1002
}
1040
0.2
1000

1040
0.0
1002
{
1002
}
1040
0.0
1002
{
1002
}
1040
0.0
1002
}
1002
{
1070
     0
1002
{
1070
     1
1002
{
1040
1.0
1040
1.0
1000

1040
0.0
1002
{
1002
}
1040
0.0
1002
{
1002
}
1040
0.0
1002
}
1002
}
1040
1.0
1040
0.0
1040
0.0
1002
}
1002
{
1040
1.0
1040
1.0
1000

1040
0.0
1002
{
1002
}
1040
0.0
1002
{
1002
}
1040
0.0
1002
}
1002
{
1040
0.5
1040
1.0
1000

1040
0.0
1002
{
1002
}
1040
0.0
1002
{
1002
}
1040
0.0
1002
}
1002
{
1070
     0
1040
0.0
1002
{
1002
}
1040
1.0
1002
{
1002
}
1040
0.0
1002
}
1002
{
1040
0.0
1002
{
1002
{
1010
0.0
1020
0.0
1030
0.0
1002
}
1040
1.0
1000

1040
0.0
1002
{
1002
}
1040
0.0
1002
{
1002
}
1040
0.0
1002
}
1002
}
1002
{
1002
{
1070
     1
1002
{
1040
0.0
1040
1.0
1000

1040
0.0
1002
{
1002
}
1040
0.0
1002
{
1002
}
1040
0.0
1002
}
1002
}
1040
0.0
1002
{
1002
}
1010
1.0
1020
0.0
1030
0.0
1010
0.0
1020
1.0
1030
0.0
1010
0.0
1020
0.0
1030
1.0
1070
     0
1002
}
1002
{
1002
{
1040
1.0
1040
1.0
1002
{
1070
     1
1002
{
1040
1.0
1040
1.0
1000

1040
0.0
1002
{
1002
}
1040
0.0
1002
{
1002
}
1040
0.0
1002
}
1002
}
1002
}
1070
     0
1040
0.0
1002
{
1002
}
1002
}
1002
{
1002
}
1002
}
1002
{
1071
        3
1070
     3
1070
     0
1002
{
1070
     2
1070
     0
1070
     0
1040
0.0
1002
}
1070
     0
1070
     2
1002
{
1002
}
1002
}
1002
{
1040
8030.0
1040
190.300003
1040
0.305
1040
228.0
1040
545.0
1040
14.0
1040
17.4
1040
0.456
1002
}
1002
}
  0
INSERT
  5
30ED
  8
ASHADE
 62
     1
  2
AVE_GLOBAL
 10
0.0
 20
0.0
 30
0.0
1001
AVE_MATERIAL
1002
{
1000
*GLOBAL*
1000
1
1000
Global finish.
1002
{
1002
}
1002
{
1070
    63
1002
{
1002
{
1010
-1.0
1020
-1.0
1030
-1.0
1002
}
1040
0.1
1000

1040
0.0
1002
{
1002
}
1040
0.0
1002
{
1002
}
1040
0.0
1002
}
1002
{
1002
{
1010
-1.0
1020
-1.0
1030
-1.0
1002
}
1040
0.7
1000

1040
0.0
1002
{
1002
}
1040
0.0
1002
{
1002
}
1040
0.0
1002
}
1002
{
1002
{
1010
-1.0
1020
-1.0
1030
-1.0
1002
}
1040
0.2
1000

1040
0.0
1002
{
1002
}
1040
0.0
1002
{
1002
}
1040
0.0
1002
}
1002
{
1070
     0
1002
{
1070
     1
1002
{
1040
1.0
1040
1.0
1000

1040
0.0
1002
{
1002
}
1040
0.0
1002
{
1002
}
1040
0.0
1002
}
1002
}
1040
1.0
1040
0.0
1040
0.0
1002
}
1002
{
1040
1.0
1040
1.0
1000

1040
0.0
1002
{
1002
}
1040
0.0
1002
{
1002
}
1040
0.0
1002
}
1002
{
1040
0.5
1040
1.0
1000

1040
0.0
1002
{
1002
}
1040
0.0
1002
{
1002
}
1040
0.0
1002
}
1002
{
1070
     0
1040
0.0
1002
{
1002
}
1040
1.0
1002
{
1002
}
1040
0.0
1002
}
1002
{
1040
0.0
1002
{
1002
{
1010
0.0
1020
0.0
1030
0.0
1002
}
1040
1.0
1000

1040
0.0
1002
{
1002
}
1040
0.0
1002
{
1002
}
1040
0.0
1002
}
1002
}
1002
{
1002
{
1070
     1
1002
{
1040
0.0
1040
1.0
1000

1040
0.0
1002
{
1002
}
1040
0.0
1002
{
1002
}
1040
0.0
1002
}
1002
}
1040
0.0
1002
{
1002
}
1010
1.0
1020
0.0
1030
0.0
1010
0.0
1020
1.0
1030
0.0
1010
0.0
1020
0.0
1030
1.0
1070
     0
1002
}
1002
{
1002
{
1040
1.0
1040
1.0
1002
{
1070
     1
1002
{
1040
1.0
1040
1.0
1000

1040
0.0
1002
{
1002
}
1040
0.0
1002
{
1002
}
1040
0.0
1002
}
1002
}
1002
}
1070
     0
1040
0.0
1002
{
1002
}
1002
}
1002
{
1002
}
1002
}
1002
{
1071
        3
1070
     3
1070
     0
1002
{
1070
     2
1070
     0
1070
     0
1040
0.0
1002
}
1070
     0
1070
     2
1002
{
1002
}
1002
}
1002
{
1040
8030.0
1040
190.300003
1040
0.305
1040
228.0
1040
545.0
1040
14.0
1040
17.4
1040
0.456
1002
}
1002
}
  0
INSERT
  5
30EE
  8
ASHADE
 62
     1
  2
AVE_GLOBAL
 10
0.0
 20
0.0
 30
0.0
1001
AVE_MATERIAL
1002
{
1000
*GLOBAL*
1000
1
1000
Global finish.
1002
{
1002
}
1002
{
1070
    63
1002
{
1002
{
1010
-1.0
1020
-1.0
1030
-1.0
1002
}
1040
0.1
1000

1040
0.0
1002
{
1002
}
1040
0.0
1002
{
1002
}
1040
0.0
1002
}
1002
{
1002
{
1010
-1.0
1020
-1.0
1030
-1.0
1002
}
1040
0.7
1000

1040
0.0
1002
{
1002
}
1040
0.0
1002
{
1002
}
1040
0.0
1002
}
1002
{
1002
{
1010
-1.0
1020
-1.0
1030
-1.0
1002
}
1040
0.2
1000

1040
0.0
1002
{
1002
}
1040
0.0
1002
{
1002
}
1040
0.0
1002
}
1002
{
1070
     0
1002
{
1070
     1
1002
{
1040
1.0
1040
1.0
1000

1040
0.0
1002
{
1002
}
1040
0.0
1002
{
1002
}
1040
0.0
1002
}
1002
}
1040
1.0
1040
0.0
1040
0.0
1002
}
1002
{
1040
1.0
1040
1.0
1000

1040
0.0
1002
{
1002
}
1040
0.0
1002
{
1002
}
1040
0.0
1002
}
1002
{
1040
0.5
1040
1.0
1000

1040
0.0
1002
{
1002
}
1040
0.0
1002
{
1002
}
1040
0.0
1002
}
1002
{
1070
     0
1040
0.0
1002
{
1002
}
1040
1.0
1002
{
1002
}
1040
0.0
1002
}
1002
{
1040
0.0
1002
{
1002
{
1010
0.0
1020
0.0
1030
0.0
1002
}
1040
1.0
1000

1040
0.0
1002
{
1002
}
1040
0.0
1002
{
1002
}
1040
0.0
1002
}
1002
}
1002
{
1002
{
1070
     1
1002
{
1040
0.0
1040
1.0
1000

1040
0.0
1002
{
1002
}
1040
0.0
1002
{
1002
}
1040
0.0
1002
}
1002
}
1040
0.0
1002
{
1002
}
1010
1.0
1020
0.0
1030
0.0
1010
0.0
1020
1.0
1030
0.0
1010
0.0
1020
0.0
1030
1.0
1070
     0
1002
}
1002
{
1002
{
1040
1.0
1040
1.0
1002
{
1070
     1
1002
{
1040
1.0
1040
1.0
1000

1040
0.0
1002
{
1002
}
1040
0.0
1002
{
1002
}
1040
0.0
1002
}
1002
}
1002
}
1070
     0
1040
0.0
1002
{
1002
}
1002
}
1002
{
1002
}
1002
}
1002
{
1071
        3
1070
     3
1070
     0
1002
{
1070
     2
1070
     0
1070
     0
1040
0.0
1002
}
1070
     0
1070
     2
1002
{
1002
}
1002
}
1002
{
1040
8030.0
1040
190.300003
1040
0.305
1040
228.0
1040
545.0
1040
14.0
1040
17.4
1040
0.456
1002
}
1002
}
  0
INSERT
  5
30EF
  8
ASHADE
 62
     1
  2
AVE_GLOBAL
 10
0.0
 20
0.0
 30
0.0
1001
AVE_MATERIAL
1002
{
1000
*GLOBAL*
1000
1
1000
Global finish.
1002
{
1002
}
1002
{
1070
    63
1002
{
1002
{
1010
-1.0
1020
-1.0
1030
-1.0
1002
}
1040
0.1
1000

1040
0.0
1002
{
1002
}
1040
0.0
1002
{
1002
}
1040
0.0
1002
}
1002
{
1002
{
1010
-1.0
1020
-1.0
1030
-1.0
1002
}
1040
0.7
1000

1040
0.0
1002
{
1002
}
1040
0.0
1002
{
1002
}
1040
0.0
1002
}
1002
{
1002
{
1010
-1.0
1020
-1.0
1030
-1.0
1002
}
1040
0.2
1000

1040
0.0
1002
{
1002
}
1040
0.0
1002
{
1002
}
1040
0.0
1002
}
1002
{
1070
     0
1002
{
1070
     1
1002
{
1040
1.0
1040
1.0
1000

1040
0.0
1002
{
1002
}
1040
0.0
1002
{
1002
}
1040
0.0
1002
}
1002
}
1040
1.0
1040
0.0
1040
0.0
1002
}
1002
{
1040
1.0
1040
1.0
1000

1040
0.0
1002
{
1002
}
1040
0.0
1002
{
1002
}
1040
0.0
1002
}
1002
{
1040
0.5
1040
1.0
1000

1040
0.0
1002
{
1002
}
1040
0.0
1002
{
1002
}
1040
0.0
1002
}
1002
{
1070
     0
1040
0.0
1002
{
1002
}
1040
1.0
1002
{
1002
}
1040
0.0
1002
}
1002
{
1040
0.0
1002
{
1002
{
1010
0.0
1020
0.0
1030
0.0
1002
}
1040
1.0
1000

1040
0.0
1002
{
1002
}
1040
0.0
1002
{
1002
}
1040
0.0
1002
}
1002
}
1002
{
1002
{
1070
     1
1002
{
1040
0.0
1040
1.0
1000

1040
0.0
1002
{
1002
}
1040
0.0
1002
{
1002
}
1040
0.0
1002
}
1002
}
1040
0.0
1002
{
1002
}
1010
1.0
1020
0.0
1030
0.0
1010
0.0
1020
1.0
1030
0.0
1010
0.0
1020
0.0
1030
1.0
1070
     0
1002
}
1002
{
1002
{
1040
1.0
1040
1.0
1002
{
1070
     1
1002
{
1040
1.0
1040
1.0
1000

1040
0.0
1002
{
1002
}
1040
0.0
1002
{
1002
}
1040
0.0
1002
}
1002
}
1002
}
1070
     0
1040
0.0
1002
{
1002
}
1002
}
1002
{
1002
}
1002
}
1002
{
1071
        3
1070
     3
1070
     0
1002
{
1070
     2
1070
     0
1070
     0
1040
0.0
1002
}
1070
     0
1070
     2
1002
{
1002
}
1002
}
1002
{
1040
8030.0
1040
190.300003
1040
0.305
1040
228.0
1040
545.0
1040
14.0
1040
17.4
1040
0.456
1002
}
1002
}
  0
INSERT
  5
30F0
  8
ASHADE
 62
     1
  2
AVE_GLOBAL
 10
0.0
 20
0.0
 30
0.0
1001
AVE_MATERIAL
1002
{
1000
*GLOBAL*
1000
1
1000
Global finish.
1002
{
1002
}
1002
{
1070
    63
1002
{
1002
{
1010
-1.0
1020
-1.0
1030
-1.0
1002
}
1040
0.1
1000

1040
0.0
1002
{
1002
}
1040
0.0
1002
{
1002
}
1040
0.0
1002
}
1002
{
1002
{
1010
-1.0
1020
-1.0
1030
-1.0
1002
}
1040
0.7
1000

1040
0.0
1002
{
1002
}
1040
0.0
1002
{
1002
}
1040
0.0
1002
}
1002
{
1002
{
1010
-1.0
1020
-1.0
1030
-1.0
1002
}
1040
0.2
1000

1040
0.0
1002
{
1002
}
1040
0.0
1002
{
1002
}
1040
0.0
1002
}
1002
{
1070
     0
1002
{
1070
     1
1002
{
1040
1.0
1040
1.0
1000

1040
0.0
1002
{
1002
}
1040
0.0
1002
{
1002
}
1040
0.0
1002
}
1002
}
1040
1.0
1040
0.0
1040
0.0
1002
}
1002
{
1040
1.0
1040
1.0
1000

1040
0.0
1002
{
1002
}
1040
0.0
1002
{
1002
}
1040
0.0
1002
}
1002
{
1040
0.5
1040
1.0
1000

1040
0.0
1002
{
1002
}
1040
0.0
1002
{
1002
}
1040
0.0
1002
}
1002
{
1070
     0
1040
0.0
1002
{
1002
}
1040
1.0
1002
{
1002
}
1040
0.0
1002
}
1002
{
1040
0.0
1002
{
1002
{
1010
0.0
1020
0.0
1030
0.0
1002
}
1040
1.0
1000

1040
0.0
1002
{
1002
}
1040
0.0
1002
{
1002
}
1040
0.0
1002
}
1002
}
1002
{
1002
{
1070
     1
1002
{
1040
0.0
1040
1.0
1000

1040
0.0
1002
{
1002
}
1040
0.0
1002
{
1002
}
1040
0.0
1002
}
1002
}
1040
0.0
1002
{
1002
}
1010
1.0
1020
0.0
1030
0.0
1010
0.0
1020
1.0
1030
0.0
1010
0.0
1020
0.0
1030
1.0
1070
     0
1002
}
1002
{
1002
{
1040
1.0
1040
1.0
1002
{
1070
     1
1002
{
1040
1.0
1040
1.0
1000

1040
0.0
1002
{
1002
}
1040
0.0
1002
{
1002
}
1040
0.0
1002
}
1002
}
1002
}
1070
     0
1040
0.0
1002
{
1002
}
1002
}
1002
{
1002
}
1002
}
1002
{
1071
        3
1070
     3
1070
     0
1002
{
1070
     2
1070
     0
1070
     0
1040
0.0
1002
}
1070
     0
1070
     2
1002
{
1002
}
1002
}
1002
{
1040
8030.0
1040
190.300003
1040
0.305
1040
228.0
1040
545.0
1040
14.0
1040
17.4
1040
0.456
1002
}
1002
}
  0
INSERT
  5
30F1
  8
ASHADE
 62
     1
  2
AVE_GLOBAL
 10
0.0
 20
0.0
 30
0.0
1001
AVE_MATERIAL
1002
{
1000
*GLOBAL*
1000
1
1000
Global finish.
1002
{
1002
}
1002
{
1070
    63
1002
{
1002
{
1010
-1.0
1020
-1.0
1030
-1.0
1002
}
1040
0.1
1000

1040
0.0
1002
{
1002
}
1040
0.0
1002
{
1002
}
1040
0.0
1002
}
1002
{
1002
{
1010
-1.0
1020
-1.0
1030
-1.0
1002
}
1040
0.7
1000

1040
0.0
1002
{
1002
}
1040
0.0
1002
{
1002
}
1040
0.0
1002
}
1002
{
1002
{
1010
-1.0
1020
-1.0
1030
-1.0
1002
}
1040
0.2
1000

1040
0.0
1002
{
1002
}
1040
0.0
1002
{
1002
}
1040
0.0
1002
}
1002
{
1070
     0
1002
{
1070
     1
1002
{
1040
1.0
1040
1.0
1000

1040
0.0
1002
{
1002
}
1040
0.0
1002
{
1002
}
1040
0.0
1002
}
1002
}
1040
1.0
1040
0.0
1040
0.0
1002
}
1002
{
1040
1.0
1040
1.0
1000

1040
0.0
1002
{
1002
}
1040
0.0
1002
{
1002
}
1040
0.0
1002
}
1002
{
1040
0.5
1040
1.0
1000

1040
0.0
1002
{
1002
}
1040
0.0
1002
{
1002
}
1040
0.0
1002
}
1002
{
1070
     0
1040
0.0
1002
{
1002
}
1040
1.0
1002
{
1002
}
1040
0.0
1002
}
1002
{
1040
0.0
1002
{
1002
{
1010
0.0
1020
0.0
1030
0.0
1002
}
1040
1.0
1000

1040
0.0
1002
{
1002
}
1040
0.0
1002
{
1002
}
1040
0.0
1002
}
1002
}
1002
{
1002
{
1070
     1
1002
{
1040
0.0
1040
1.0
1000

1040
0.0
1002
{
1002
}
1040
0.0
1002
{
1002
}
1040
0.0
1002
}
1002
}
1040
0.0
1002
{
1002
}
1010
1.0
1020
0.0
1030
0.0
1010
0.0
1020
1.0
1030
0.0
1010
0.0
1020
0.0
1030
1.0
1070
     0
1002
}
1002
{
1002
{
1040
1.0
1040
1.0
1002
{
1070
     1
1002
{
1040
1.0
1040
1.0
1000

1040
0.0
1002
{
1002
}
1040
0.0
1002
{
1002
}
1040
0.0
1002
}
1002
}
1002
}
1070
     0
1040
0.0
1002
{
1002
}
1002
}
1002
{
1002
}
1002
}
1002
{
1071
        3
1070
     3
1070
     0
1002
{
1070
     2
1070
     0
1070
     0
1040
0.0
1002
}
1070
     0
1070
     2
1002
{
1002
}
1002
}
1002
{
1040
8030.0
1040
190.300003
1040
0.305
1040
228.0
1040
545.0
1040
14.0
1040
17.4
1040
0.456
1002
}
1002
}
  0
INSERT
  5
30F2
  8
ASHADE
 62
     1
  2
AVE_GLOBAL
 10
0.0
 20
0.0
 30
0.0
1001
AVE_MATERIAL
1002
{
1000
*GLOBAL*
1000
1
1000
Global finish.
1002
{
1002
}
1002
{
1070
    63
1002
{
1002
{
1010
-1.0
1020
-1.0
1030
-1.0
1002
}
1040
0.1
1000

1040
0.0
1002
{
1002
}
1040
0.0
1002
{
1002
}
1040
0.0
1002
}
1002
{
1002
{
1010
-1.0
1020
-1.0
1030
-1.0
1002
}
1040
0.7
1000

1040
0.0
1002
{
1002
}
1040
0.0
1002
{
1002
}
1040
0.0
1002
}
1002
{
1002
{
1010
-1.0
1020
-1.0
1030
-1.0
1002
}
1040
0.2
1000

1040
0.0
1002
{
1002
}
1040
0.0
1002
{
1002
}
1040
0.0
1002
}
1002
{
1070
     0
1002
{
1070
     1
1002
{
1040
1.0
1040
1.0
1000

1040
0.0
1002
{
1002
}
1040
0.0
1002
{
1002
}
1040
0.0
1002
}
1002
}
1040
1.0
1040
0.0
1040
0.0
1002
}
1002
{
1040
1.0
1040
1.0
1000

1040
0.0
1002
{
1002
}
1040
0.0
1002
{
1002
}
1040
0.0
1002
}
1002
{
1040
0.5
1040
1.0
1000

1040
0.0
1002
{
1002
}
1040
0.0
1002
{
1002
}
1040
0.0
1002
}
1002
{
1070
     0
1040
0.0
1002
{
1002
}
1040
1.0
1002
{
1002
}
1040
0.0
1002
}
1002
{
1040
0.0
1002
{
1002
{
1010
0.0
1020
0.0
1030
0.0
1002
}
1040
1.0
1000

1040
0.0
1002
{
1002
}
1040
0.0
1002
{
1002
}
1040
0.0
1002
}
1002
}
1002
{
1002
{
1070
     1
1002
{
1040
0.0
1040
1.0
1000

1040
0.0
1002
{
1002
}
1040
0.0
1002
{
1002
}
1040
0.0
1002
}
1002
}
1040
0.0
1002
{
1002
}
1010
1.0
1020
0.0
1030
0.0
1010
0.0
1020
1.0
1030
0.0
1010
0.0
1020
0.0
1030
1.0
1070
     0
1002
}
1002
{
1002
{
1040
1.0
1040
1.0
1002
{
1070
     1
1002
{
1040
1.0
1040
1.0
1000

1040
0.0
1002
{
1002
}
1040
0.0
1002
{
1002
}
1040
0.0
1002
}
1002
}
1002
}
1070
     0
1040
0.0
1002
{
1002
}
1002
}
1002
{
1002
}
1002
}
1002
{
1071
        3
1070
     3
1070
     0
1002
{
1070
     2
1070
     0
1070
     0
1040
0.0
1002
}
1070
     0
1070
     2
1002
{
1002
}
1002
}
1002
{
1040
8030.0
1040
190.300003
1040
0.305
1040
228.0
1040
545.0
1040
14.0
1040
17.4
1040
0.456
1002
}
1002
}
  0
INSERT
  5
30F3
  8
ASHADE
 62
     1
  2
AVE_GLOBAL
 10
0.0
 20
0.0
 30
0.0
1001
AVE_MATERIAL
1002
{
1000
*GLOBAL*
1000
1
1000
Global finish.
1002
{
1002
}
1002
{
1070
    63
1002
{
1002
{
1010
-1.0
1020
-1.0
1030
-1.0
1002
}
1040
0.1
1000

1040
0.0
1002
{
1002
}
1040
0.0
1002
{
1002
}
1040
0.0
1002
}
1002
{
1002
{
1010
-1.0
1020
-1.0
1030
-1.0
1002
}
1040
0.7
1000

1040
0.0
1002
{
1002
}
1040
0.0
1002
{
1002
}
1040
0.0
1002
}
1002
{
1002
{
1010
-1.0
1020
-1.0
1030
-1.0
1002
}
1040
0.2
1000

1040
0.0
1002
{
1002
}
1040
0.0
1002
{
1002
}
1040
0.0
1002
}
1002
{
1070
     0
1002
{
1070
     1
1002
{
1040
1.0
1040
1.0
1000

1040
0.0
1002
{
1002
}
1040
0.0
1002
{
1002
}
1040
0.0
1002
}
1002
}
1040
1.0
1040
0.0
1040
0.0
1002
}
1002
{
1040
1.0
1040
1.0
1000

1040
0.0
1002
{
1002
}
1040
0.0
1002
{
1002
}
1040
0.0
1002
}
1002
{
1040
0.5
1040
1.0
1000

1040
0.0
1002
{
1002
}
1040
0.0
1002
{
1002
}
1040
0.0
1002
}
1002
{
1070
     0
1040
0.0
1002
{
1002
}
1040
1.0
1002
{
1002
}
1040
0.0
1002
}
1002
{
1040
0.0
1002
{
1002
{
1010
0.0
1020
0.0
1030
0.0
1002
}
1040
1.0
1000

1040
0.0
1002
{
1002
}
1040
0.0
1002
{
1002
}
1040
0.0
1002
}
1002
}
1002
{
1002
{
1070
     1
1002
{
1040
0.0
1040
1.0
1000

1040
0.0
1002
{
1002
}
1040
0.0
1002
{
1002
}
1040
0.0
1002
}
1002
}
1040
0.0
1002
{
1002
}
1010
1.0
1020
0.0
1030
0.0
1010
0.0
1020
1.0
1030
0.0
1010
0.0
1020
0.0
1030
1.0
1070
     0
1002
}
1002
{
1002
{
1040
1.0
1040
1.0
1002
{
1070
     1
1002
{
1040
1.0
1040
1.0
1000

1040
0.0
1002
{
1002
}
1040
0.0
1002
{
1002
}
1040
0.0
1002
}
1002
}
1002
}
1070
     0
1040
0.0
1002
{
1002
}
1002
}
1002
{
1002
}
1002
}
1002
{
1071
        3
1070
     3
1070
     0
1002
{
1070
     2
1070
     0
1070
     0
1040
0.0
1002
}
1070
     0
1070
     2
1002
{
1002
}
1002
}
1002
{
1040
8030.0
1040
190.300003
1040
0.305
1040
228.0
1040
545.0
1040
14.0
1040
17.4
1040
0.456
1002
}
1002
}
  0
INSERT
  5
30F4
  8
ASHADE
 62
     1
  2
AVE_GLOBAL
 10
0.0
 20
0.0
 30
0.0
1001
AVE_MATERIAL
1002
{
1000
*GLOBAL*
1000
1
1000
Global finish.
1002
{
1002
}
1002
{
1070
    63
1002
{
1002
{
1010
-1.0
1020
-1.0
1030
-1.0
1002
}
1040
0.1
1000

1040
0.0
1002
{
1002
}
1040
0.0
1002
{
1002
}
1040
0.0
1002
}
1002
{
1002
{
1010
-1.0
1020
-1.0
1030
-1.0
1002
}
1040
0.7
1000

1040
0.0
1002
{
1002
}
1040
0.0
1002
{
1002
}
1040
0.0
1002
}
1002
{
1002
{
1010
-1.0
1020
-1.0
1030
-1.0
1002
}
1040
0.2
1000

1040
0.0
1002
{
1002
}
1040
0.0
1002
{
1002
}
1040
0.0
1002
}
1002
{
1070
     0
1002
{
1070
     1
1002
{
1040
1.0
1040
1.0
1000

1040
0.0
1002
{
1002
}
1040
0.0
1002
{
1002
}
1040
0.0
1002
}
1002
}
1040
1.0
1040
0.0
1040
0.0
1002
}
1002
{
1040
1.0
1040
1.0
1000

1040
0.0
1002
{
1002
}
1040
0.0
1002
{
1002
}
1040
0.0
1002
}
1002
{
1040
0.5
1040
1.0
1000

1040
0.0
1002
{
1002
}
1040
0.0
1002
{
1002
}
1040
0.0
1002
}
1002
{
1070
     0
1040
0.0
1002
{
1002
}
1040
1.0
1002
{
1002
}
1040
0.0
1002
}
1002
{
1040
0.0
1002
{
1002
{
1010
0.0
1020
0.0
1030
0.0
1002
}
1040
1.0
1000

1040
0.0
1002
{
1002
}
1040
0.0
1002
{
1002
}
1040
0.0
1002
}
1002
}
1002
{
1002
{
1070
     1
1002
{
1040
0.0
1040
1.0
1000

1040
0.0
1002
{
1002
}
1040
0.0
1002
{
1002
}
1040
0.0
1002
}
1002
}
1040
0.0
1002
{
1002
}
1010
1.0
1020
0.0
1030
0.0
1010
0.0
1020
1.0
1030
0.0
1010
0.0
1020
0.0
1030
1.0
1070
     0
1002
}
1002
{
1002
{
1040
1.0
1040
1.0
1002
{
1070
     1
1002
{
1040
1.0
1040
1.0
1000

1040
0.0
1002
{
1002
}
1040
0.0
1002
{
1002
}
1040
0.0
1002
}
1002
}
1002
}
1070
     0
1040
0.0
1002
{
1002
}
1002
}
1002
{
1002
}
1002
}
1002
{
1071
        3
1070
     3
1070
     0
1002
{
1070
     2
1070
     0
1070
     0
1040
0.0
1002
}
1070
     0
1070
     2
1002
{
1002
}
1002
}
1002
{
1040
8030.0
1040
190.300003
1040
0.305
1040
228.0
1040
545.0
1040
14.0
1040
17.4
1040
0.456
1002
}
1002
}
  0
INSERT
  5
30F5
  8
ASHADE
  6
CONTINUOUS
 62
     1
  2
AVE_GLOBAL
 10
0.0
 20
0.0
 30
0.0
1001
AVE_MATERIAL
1002
{
1000
*GLOBAL*
1000
1
1000
Global finish.
1002
{
1002
}
1002
{
1070
    63
1002
{
1002
{
1010
-1.0
1020
-1.0
1030
-1.0
1002
}
1040
0.1
1000

1040
0.0
1002
{
1002
}
1040
0.0
1002
{
1002
}
1040
0.0
1002
}
1002
{
1002
{
1010
-1.0
1020
-1.0
1030
-1.0
1002
}
1040
0.7
1000

1040
0.0
1002
{
1002
}
1040
0.0
1002
{
1002
}
1040
0.0
1002
}
1002
{
1002
{
1010
-1.0
1020
-1.0
1030
-1.0
1002
}
1040
0.2
1000

1040
0.0
1002
{
1002
}
1040
0.0
1002
{
1002
}
1040
0.0
1002
}
1002
{
1070
     0
1002
{
1070
     1
1002
{
1040
1.0
1040
1.0
1000

1040
0.0
1002
{
1002
}
1040
0.0
1002
{
1002
}
1040
0.0
1002
}
1002
}
1040
1.0
1040
0.0
1040
0.0
1002
}
1002
{
1040
1.0
1040
1.0
1000

1040
0.0
1002
{
1002
}
1040
0.0
1002
{
1002
}
1040
0.0
1002
}
1002
{
1040
0.5
1040
1.0
1000

1040
0.0
1002
{
1002
}
1040
0.0
1002
{
1002
}
1040
0.0
1002
}
1002
{
1070
     0
1040
0.0
1002
{
1002
}
1040
1.0
1002
{
1002
}
1040
0.0
1002
}
1002
{
1040
0.0
1002
{
1002
{
1010
0.0
1020
0.0
1030
0.0
1002
}
1040
1.0
1000

1040
0.0
1002
{
1002
}
1040
0.0
1002
{
1002
}
1040
0.0
1002
}
1002
}
1002
{
1002
{
1070
     1
1002
{
1040
0.0
1040
1.0
1000

1040
0.0
1002
{
1002
}
1040
0.0
1002
{
1002
}
1040
0.0
1002
}
1002
}
1040
0.0
1002
{
1002
}
1010
1.0
1020
0.0
1030
0.0
1010
0.0
1020
1.0
1030
0.0
1010
0.0
1020
0.0
1030
1.0
1070
     0
1002
}
1002
{
1002
{
1040
1.0
1040
1.0
1002
{
1070
     1
1002
{
1040
1.0
1040
1.0
1000

1040
0.0
1002
{
1002
}
1040
0.0
1002
{
1002
}
1040
0.0
1002
}
1002
}
1002
}
1070
     0
1040
0.0
1002
{
1002
}
1002
}
1002
{
1002
}
1002
}
1002
{
1071
        3
1070
     3
1070
     0
1002
{
1070
     2
1070
     0
1070
     0
1040
0.0
1002
}
1070
     0
1070
     2
1002
{
1002
}
1002
}
1002
{
1040
8030.0
1040
190.300003
1040
0.305
1040
228.0
1040
545.0
1040
14.0
1040
17.4
1040
0.456
1002
}
1002
}
  0
INSERT
  5
30F6
  8
ASHADE
 62
     1
  2
AVE_GLOBAL
 10
0.0
 20
0.0
 30
0.0
1001
AVE_MATERIAL
1002
{
1000
*GLOBAL*
1000
1
1000
Global finish.
1002
{
1002
}
1002
{
1070
    63
1002
{
1002
{
1010
-1.0
1020
-1.0
1030
-1.0
1002
}
1040
0.1
1000

1040
0.0
1002
{
1002
}
1040
0.0
1002
{
1002
}
1040
0.0
1002
}
1002
{
1002
{
1010
-1.0
1020
-1.0
1030
-1.0
1002
}
1040
0.7
1000

1040
0.0
1002
{
1002
}
1040
0.0
1002
{
1002
}
1040
0.0
1002
}
1002
{
1002
{
1010
-1.0
1020
-1.0
1030
-1.0
1002
}
1040
0.2
1000

1040
0.0
1002
{
1002
}
1040
0.0
1002
{
1002
}
1040
0.0
1002
}
1002
{
1070
     0
1002
{
1070
     1
1002
{
1040
1.0
1040
1.0
1000

1040
0.0
1002
{
1002
}
1040
0.0
1002
{
1002
}
1040
0.0
1002
}
1002
}
1040
1.0
1040
0.0
1040
0.0
1002
}
1002
{
1040
1.0
1040
1.0
1000

1040
0.0
1002
{
1002
}
1040
0.0
1002
{
1002
}
1040
0.0
1002
}
1002
{
1040
0.5
1040
1.0
1000

1040
0.0
1002
{
1002
}
1040
0.0
1002
{
1002
}
1040
0.0
1002
}
1002
{
1070
     0
1040
0.0
1002
{
1002
}
1040
1.0
1002
{
1002
}
1040
0.0
1002
}
1002
{
1040
0.0
1002
{
1002
{
1010
0.0
1020
0.0
1030
0.0
1002
}
1040
1.0
1000

1040
0.0
1002
{
1002
}
1040
0.0
1002
{
1002
}
1040
0.0
1002
}
1002
}
1002
{
1002
{
1070
     1
1002
{
1040
0.0
1040
1.0
1000

1040
0.0
1002
{
1002
}
1040
0.0
1002
{
1002
}
1040
0.0
1002
}
1002
}
1040
0.0
1002
{
1002
}
1010
1.0
1020
0.0
1030
0.0
1010
0.0
1020
1.0
1030
0.0
1010
0.0
1020
0.0
1030
1.0
1070
     0
1002
}
1002
{
1002
{
1040
1.0
1040
1.0
1002
{
1070
     1
1002
{
1040
1.0
1040
1.0
1000

1040
0.0
1002
{
1002
}
1040
0.0
1002
{
1002
}
1040
0.0
1002
}
1002
}
1002
}
1070
     0
1040
0.0
1002
{
1002
}
1002
}
1002
{
1002
}
1002
}
1002
{
1071
        3
1070
     3
1070
     0
1002
{
1070
     2
1070
     0
1070
     0
1040
0.0
1002
}
1070
     0
1070
     2
1002
{
1002
}
1002
}
1002
{
1040
8030.0
1040
190.300003
1040
0.305
1040
228.0
1040
545.0
1040
14.0
1040
17.4
1040
0.456
1002
}
1002
}
  0
INSERT
  5
30F7
  8
ASHADE
 62
     1
  2
AVE_GLOBAL
 10
0.0
 20
0.0
 30
0.0
1001
AVE_MATERIAL
1002
{
1000
*GLOBAL*
1000
1
1000
Global finish.
1002
{
1002
}
1002
{
1070
    63
1002
{
1002
{
1010
-1.0
1020
-1.0
1030
-1.0
1002
}
1040
0.1
1000

1040
0.0
1002
{
1002
}
1040
0.0
1002
{
1002
}
1040
0.0
1002
}
1002
{
1002
{
1010
-1.0
1020
-1.0
1030
-1.0
1002
}
1040
0.7
1000

1040
0.0
1002
{
1002
}
1040
0.0
1002
{
1002
}
1040
0.0
1002
}
1002
{
1002
{
1010
-1.0
1020
-1.0
1030
-1.0
1002
}
1040
0.2
1000

1040
0.0
1002
{
1002
}
1040
0.0
1002
{
1002
}
1040
0.0
1002
}
1002
{
1070
     0
1002
{
1070
     1
1002
{
1040
1.0
1040
1.0
1000

1040
0.0
1002
{
1002
}
1040
0.0
1002
{
1002
}
1040
0.0
1002
}
1002
}
1040
1.0
1040
0.0
1040
0.0
1002
}
1002
{
1040
1.0
1040
1.0
1000

1040
0.0
1002
{
1002
}
1040
0.0
1002
{
1002
}
1040
0.0
1002
}
1002
{
1040
0.5
1040
1.0
1000

1040
0.0
1002
{
1002
}
1040
0.0
1002
{
1002
}
1040
0.0
1002
}
1002
{
1070
     0
1040
0.0
1002
{
1002
}
1040
1.0
1002
{
1002
}
1040
0.0
1002
}
1002
{
1040
0.0
1002
{
1002
{
1010
0.0
1020
0.0
1030
0.0
1002
}
1040
1.0
1000

1040
0.0
1002
{
1002
}
1040
0.0
1002
{
1002
}
1040
0.0
1002
}
1002
}
1002
{
1002
{
1070
     1
1002
{
1040
0.0
1040
1.0
1000

1040
0.0
1002
{
1002
}
1040
0.0
1002
{
1002
}
1040
0.0
1002
}
1002
}
1040
0.0
1002
{
1002
}
1010
1.0
1020
0.0
1030
0.0
1010
0.0
1020
1.0
1030
0.0
1010
0.0
1020
0.0
1030
1.0
1070
     0
1002
}
1002
{
1002
{
1040
1.0
1040
1.0
1002
{
1070
     1
1002
{
1040
1.0
1040
1.0
1000

1040
0.0
1002
{
1002
}
1040
0.0
1002
{
1002
}
1040
0.0
1002
}
1002
}
1002
}
1070
     0
1040
0.0
1002
{
1002
}
1002
}
1002
{
1002
}
1002
}
1002
{
1071
        3
1070
     3
1070
     0
1002
{
1070
     2
1070
     0
1070
     0
1040
0.0
1002
}
1070
     0
1070
     2
1002
{
1002
}
1002
}
1002
{
1040
8030.0
1040
190.300003
1040
0.305
1040
228.0
1040
545.0
1040
14.0
1040
17.4
1040
0.456
1002
}
1002
}
  0
INSERT
  5
30F8
  8
ASHADE
 62
     1
  2
AVE_GLOBAL
 10
0.0
 20
0.0
 30
0.0
1001
AVE_MATERIAL
1002
{
1000
*GLOBAL*
1000
1
1000
Global finish.
1002
{
1002
}
1002
{
1070
    63
1002
{
1002
{
1010
-1.0
1020
-1.0
1030
-1.0
1002
}
1040
0.1
1000

1040
0.0
1002
{
1002
}
1040
0.0
1002
{
1002
}
1040
0.0
1002
}
1002
{
1002
{
1010
-1.0
1020
-1.0
1030
-1.0
1002
}
1040
0.7
1000

1040
0.0
1002
{
1002
}
1040
0.0
1002
{
1002
}
1040
0.0
1002
}
1002
{
1002
{
1010
-1.0
1020
-1.0
1030
-1.0
1002
}
1040
0.2
1000

1040
0.0
1002
{
1002
}
1040
0.0
1002
{
1002
}
1040
0.0
1002
}
1002
{
1070
     0
1002
{
1070
     1
1002
{
1040
1.0
1040
1.0
1000

1040
0.0
1002
{
1002
}
1040
0.0
1002
{
1002
}
1040
0.0
1002
}
1002
}
1040
1.0
1040
0.0
1040
0.0
1002
}
1002
{
1040
1.0
1040
1.0
1000

1040
0.0
1002
{
1002
}
1040
0.0
1002
{
1002
}
1040
0.0
1002
}
1002
{
1040
0.5
1040
1.0
1000

1040
0.0
1002
{
1002
}
1040
0.0
1002
{
1002
}
1040
0.0
1002
}
1002
{
1070
     0
1040
0.0
1002
{
1002
}
1040
1.0
1002
{
1002
}
1040
0.0
1002
}
1002
{
1040
0.0
1002
{
1002
{
1010
0.0
1020
0.0
1030
0.0
1002
}
1040
1.0
1000

1040
0.0
1002
{
1002
}
1040
0.0
1002
{
1002
}
1040
0.0
1002
}
1002
}
1002
{
1002
{
1070
     1
1002
{
1040
0.0
1040
1.0
1000

1040
0.0
1002
{
1002
}
1040
0.0
1002
{
1002
}
1040
0.0
1002
}
1002
}
1040
0.0
1002
{
1002
}
1010
1.0
1020
0.0
1030
0.0
1010
0.0
1020
1.0
1030
0.0
1010
0.0
1020
0.0
1030
1.0
1070
     0
1002
}
1002
{
1002
{
1040
1.0
1040
1.0
1002
{
1070
     1
1002
{
1040
1.0
1040
1.0
1000

1040
0.0
1002
{
1002
}
1040
0.0
1002
{
1002
}
1040
0.0
1002
}
1002
}
1002
}
1070
     0
1040
0.0
1002
{
1002
}
1002
}
1002
{
1002
}
1002
}
1002
{
1071
        3
1070
     3
1070
     0
1002
{
1070
     2
1070
     0
1070
     0
1040
0.0
1002
}
1070
     0
1070
     2
1002
{
1002
}
1002
}
1002
{
1040
8030.0
1040
190.300003
1040
0.305
1040
228.0
1040
545.0
1040
14.0
1040
17.4
1040
0.456
1002
}
1002
}
  0
INSERT
  5
30F9
  8
ASHADE
 62
     1
  2
AVE_GLOBAL
 10
0.0
 20
0.0
 30
0.0
1001
AVE_MATERIAL
1002
{
1000
*GLOBAL*
1000
1
1000
Global finish.
1002
{
1002
}
1002
{
1070
    63
1002
{
1002
{
1010
-1.0
1020
-1.0
1030
-1.0
1002
}
1040
0.1
1000

1040
0.0
1002
{
1002
}
1040
0.0
1002
{
1002
}
1040
0.0
1002
}
1002
{
1002
{
1010
-1.0
1020
-1.0
1030
-1.0
1002
}
1040
0.7
1000

1040
0.0
1002
{
1002
}
1040
0.0
1002
{
1002
}
1040
0.0
1002
}
1002
{
1002
{
1010
-1.0
1020
-1.0
1030
-1.0
1002
}
1040
0.2
1000

1040
0.0
1002
{
1002
}
1040
0.0
1002
{
1002
}
1040
0.0
1002
}
1002
{
1070
     0
1002
{
1070
     1
1002
{
1040
1.0
1040
1.0
1000

1040
0.0
1002
{
1002
}
1040
0.0
1002
{
1002
}
1040
0.0
1002
}
1002
}
1040
1.0
1040
0.0
1040
0.0
1002
}
1002
{
1040
1.0
1040
1.0
1000

1040
0.0
1002
{
1002
}
1040
0.0
1002
{
1002
}
1040
0.0
1002
}
1002
{
1040
0.5
1040
1.0
1000

1040
0.0
1002
{
1002
}
1040
0.0
1002
{
1002
}
1040
0.0
1002
}
1002
{
1070
     0
1040
0.0
1002
{
1002
}
1040
1.0
1002
{
1002
}
1040
0.0
1002
}
1002
{
1040
0.0
1002
{
1002
{
1010
0.0
1020
0.0
1030
0.0
1002
}
1040
1.0
1000

1040
0.0
1002
{
1002
}
1040
0.0
1002
{
1002
}
1040
0.0
1002
}
1002
}
1002
{
1002
{
1070
     1
1002
{
1040
0.0
1040
1.0
1000

1040
0.0
1002
{
1002
}
1040
0.0
1002
{
1002
}
1040
0.0
1002
}
1002
}
1040
0.0
1002
{
1002
}
1010
1.0
1020
0.0
1030
0.0
1010
0.0
1020
1.0
1030
0.0
1010
0.0
1020
0.0
1030
1.0
1070
     0
1002
}
1002
{
1002
{
1040
1.0
1040
1.0
1002
{
1070
     1
1002
{
1040
1.0
1040
1.0
1000

1040
0.0
1002
{
1002
}
1040
0.0
1002
{
1002
}
1040
0.0
1002
}
1002
}
1002
}
1070
     0
1040
0.0
1002
{
1002
}
1002
}
1002
{
1002
}
1002
}
1002
{
1071
        3
1070
     3
1070
     0
1002
{
1070
     2
1070
     0
1070
     0
1040
0.0
1002
}
1070
     0
1070
     2
1002
{
1002
}
1002
}
1002
{
1040
8030.0
1040
190.300003
1040
0.305
1040
228.0
1040
545.0
1040
14.0
1040
17.4
1040
0.456
1002
}
1002
}
  0
INSERT
  5
30FA
  8
ASHADE
 62
     1
  2
AVE_GLOBAL
 10
0.0
 20
0.0
 30
0.0
1001
AVE_MATERIAL
1002
{
1000
*GLOBAL*
1000
1
1000
Global finish.
1002
{
1002
}
1002
{
1070
    63
1002
{
1002
{
1010
-1.0
1020
-1.0
1030
-1.0
1002
}
1040
0.1
1000

1040
0.0
1002
{
1002
}
1040
0.0
1002
{
1002
}
1040
0.0
1002
}
1002
{
1002
{
1010
-1.0
1020
-1.0
1030
-1.0
1002
}
1040
0.7
1000

1040
0.0
1002
{
1002
}
1040
0.0
1002
{
1002
}
1040
0.0
1002
}
1002
{
1002
{
1010
-1.0
1020
-1.0
1030
-1.0
1002
}
1040
0.2
1000

1040
0.0
1002
{
1002
}
1040
0.0
1002
{
1002
}
1040
0.0
1002
}
1002
{
1070
     0
1002
{
1070
     1
1002
{
1040
1.0
1040
1.0
1000

1040
0.0
1002
{
1002
}
1040
0.0
1002
{
1002
}
1040
0.0
1002
}
1002
}
1040
1.0
1040
0.0
1040
0.0
1002
}
1002
{
1040
1.0
1040
1.0
1000

1040
0.0
1002
{
1002
}
1040
0.0
1002
{
1002
}
1040
0.0
1002
}
1002
{
1040
0.5
1040
1.0
1000

1040
0.0
1002
{
1002
}
1040
0.0
1002
{
1002
}
1040
0.0
1002
}
1002
{
1070
     0
1040
0.0
1002
{
1002
}
1040
1.0
1002
{
1002
}
1040
0.0
1002
}
1002
{
1040
0.0
1002
{
1002
{
1010
0.0
1020
0.0
1030
0.0
1002
}
1040
1.0
1000

1040
0.0
1002
{
1002
}
1040
0.0
1002
{
1002
}
1040
0.0
1002
}
1002
}
1002
{
1002
{
1070
     1
1002
{
1040
0.0
1040
1.0
1000

1040
0.0
1002
{
1002
}
1040
0.0
1002
{
1002
}
1040
0.0
1002
}
1002
}
1040
0.0
1002
{
1002
}
1010
1.0
1020
0.0
1030
0.0
1010
0.0
1020
1.0
1030
0.0
1010
0.0
1020
0.0
1030
1.0
1070
     0
1002
}
1002
{
1002
{
1040
1.0
1040
1.0
1002
{
1070
     1
1002
{
1040
1.0
1040
1.0
1000

1040
0.0
1002
{
1002
}
1040
0.0
1002
{
1002
}
1040
0.0
1002
}
1002
}
1002
}
1070
     0
1040
0.0
1002
{
1002
}
1002
}
1002
{
1002
}
1002
}
1002
{
1071
        3
1070
     3
1070
     0
1002
{
1070
     2
1070
     0
1070
     0
1040
0.0
1002
}
1070
     0
1070
     2
1002
{
1002
}
1002
}
1002
{
1040
8030.0
1040
190.300003
1040
0.305
1040
228.0
1040
545.0
1040
14.0
1040
17.4
1040
0.456
1002
}
1002
}
  0
INSERT
  5
30FB
  8
ASHADE
 62
     1
  2
AVE_GLOBAL
 10
0.0
 20
0.0
 30
0.0
1001
AVE_MATERIAL
1002
{
1000
*GLOBAL*
1000
1
1000
Global finish.
1002
{
1002
}
1002
{
1070
    63
1002
{
1002
{
1010
-1.0
1020
-1.0
1030
-1.0
1002
}
1040
0.1
1000

1040
0.0
1002
{
1002
}
1040
0.0
1002
{
1002
}
1040
0.0
1002
}
1002
{
1002
{
1010
-1.0
1020
-1.0
1030
-1.0
1002
}
1040
0.7
1000

1040
0.0
1002
{
1002
}
1040
0.0
1002
{
1002
}
1040
0.0
1002
}
1002
{
1002
{
1010
-1.0
1020
-1.0
1030
-1.0
1002
}
1040
0.2
1000

1040
0.0
1002
{
1002
}
1040
0.0
1002
{
1002
}
1040
0.0
1002
}
1002
{
1070
     0
1002
{
1070
     1
1002
{
1040
1.0
1040
1.0
1000

1040
0.0
1002
{
1002
}
1040
0.0
1002
{
1002
}
1040
0.0
1002
}
1002
}
1040
1.0
1040
0.0
1040
0.0
1002
}
1002
{
1040
1.0
1040
1.0
1000

1040
0.0
1002
{
1002
}
1040
0.0
1002
{
1002
}
1040
0.0
1002
}
1002
{
1040
0.5
1040
1.0
1000

1040
0.0
1002
{
1002
}
1040
0.0
1002
{
1002
}
1040
0.0
1002
}
1002
{
1070
     0
1040
0.0
1002
{
1002
}
1040
1.0
1002
{
1002
}
1040
0.0
1002
}
1002
{
1040
0.0
1002
{
1002
{
1010
0.0
1020
0.0
1030
0.0
1002
}
1040
1.0
1000

1040
0.0
1002
{
1002
}
1040
0.0
1002
{
1002
}
1040
0.0
1002
}
1002
}
1002
{
1002
{
1070
     1
1002
{
1040
0.0
1040
1.0
1000

1040
0.0
1002
{
1002
}
1040
0.0
1002
{
1002
}
1040
0.0
1002
}
1002
}
1040
0.0
1002
{
1002
}
1010
1.0
1020
0.0
1030
0.0
1010
0.0
1020
1.0
1030
0.0
1010
0.0
1020
0.0
1030
1.0
1070
     0
1002
}
1002
{
1002
{
1040
1.0
1040
1.0
1002
{
1070
     1
1002
{
1040
1.0
1040
1.0
1000

1040
0.0
1002
{
1002
}
1040
0.0
1002
{
1002
}
1040
0.0
1002
}
1002
}
1002
}
1070
     0
1040
0.0
1002
{
1002
}
1002
}
1002
{
1002
}
1002
}
1002
{
1071
        3
1070
     3
1070
     0
1002
{
1070
     2
1070
     0
1070
     0
1040
0.0
1002
}
1070
     0
1070
     2
1002
{
1002
}
1002
}
1002
{
1040
8030.0
1040
190.300003
1040
0.305
1040
228.0
1040
545.0
1040
14.0
1040
17.4
1040
0.456
1002
}
1002
}
  0
INSERT
  5
30FC
  8
ASHADE
 62
     1
  2
AVE_GLOBAL
 10
0.0
 20
0.0
 30
0.0
1001
AVE_MATERIAL
1002
{
1000
*GLOBAL*
1000
1
1000
Global finish.
1002
{
1002
}
1002
{
1070
    63
1002
{
1002
{
1010
-1.0
1020
-1.0
1030
-1.0
1002
}
1040
0.1
1000

1040
0.0
1002
{
1002
}
1040
0.0
1002
{
1002
}
1040
0.0
1002
}
1002
{
1002
{
1010
-1.0
1020
-1.0
1030
-1.0
1002
}
1040
0.7
1000

1040
0.0
1002
{
1002
}
1040
0.0
1002
{
1002
}
1040
0.0
1002
}
1002
{
1002
{
1010
-1.0
1020
-1.0
1030
-1.0
1002
}
1040
0.2
1000

1040
0.0
1002
{
1002
}
1040
0.0
1002
{
1002
}
1040
0.0
1002
}
1002
{
1070
     0
1002
{
1070
     1
1002
{
1040
1.0
1040
1.0
1000

1040
0.0
1002
{
1002
}
1040
0.0
1002
{
1002
}
1040
0.0
1002
}
1002
}
1040
1.0
1040
0.0
1040
0.0
1002
}
1002
{
1040
1.0
1040
1.0
1000

1040
0.0
1002
{
1002
}
1040
0.0
1002
{
1002
}
1040
0.0
1002
}
1002
{
1040
0.5
1040
1.0
1000

1040
0.0
1002
{
1002
}
1040
0.0
1002
{
1002
}
1040
0.0
1002
}
1002
{
1070
     0
1040
0.0
1002
{
1002
}
1040
1.0
1002
{
1002
}
1040
0.0
1002
}
1002
{
1040
0.0
1002
{
1002
{
1010
0.0
1020
0.0
1030
0.0
1002
}
1040
1.0
1000

1040
0.0
1002
{
1002
}
1040
0.0
1002
{
1002
}
1040
0.0
1002
}
1002
}
1002
{
1002
{
1070
     1
1002
{
1040
0.0
1040
1.0
1000

1040
0.0
1002
{
1002
}
1040
0.0
1002
{
1002
}
1040
0.0
1002
}
1002
}
1040
0.0
1002
{
1002
}
1010
1.0
1020
0.0
1030
0.0
1010
0.0
1020
1.0
1030
0.0
1010
0.0
1020
0.0
1030
1.0
1070
     0
1002
}
1002
{
1002
{
1040
1.0
1040
1.0
1002
{
1070
     1
1002
{
1040
1.0
1040
1.0
1000

1040
0.0
1002
{
1002
}
1040
0.0
1002
{
1002
}
1040
0.0
1002
}
1002
}
1002
}
1070
     0
1040
0.0
1002
{
1002
}
1002
}
1002
{
1002
}
1002
}
1002
{
1071
        3
1070
     3
1070
     0
1002
{
1070
     2
1070
     0
1070
     0
1040
0.0
1002
}
1070
     0
1070
     2
1002
{
1002
}
1002
}
1002
{
1040
8030.0
1040
190.300003
1040
0.305
1040
228.0
1040
545.0
1040
14.0
1040
17.4
1040
0.456
1002
}
1002
}
  0
INSERT
  5
30FD
  8
ASHADE
 62
     1
  2
AVE_GLOBAL
 10
0.0
 20
0.0
 30
0.0
1001
AVE_MATERIAL
1002
{
1000
*GLOBAL*
1000
1
1000
Global finish.
1002
{
1002
}
1002
{
1070
    63
1002
{
1002
{
1010
-1.0
1020
-1.0
1030
-1.0
1002
}
1040
0.1
1000

1040
0.0
1002
{
1002
}
1040
0.0
1002
{
1002
}
1040
0.0
1002
}
1002
{
1002
{
1010
-1.0
1020
-1.0
1030
-1.0
1002
}
1040
0.7
1000

1040
0.0
1002
{
1002
}
1040
0.0
1002
{
1002
}
1040
0.0
1002
}
1002
{
1002
{
1010
-1.0
1020
-1.0
1030
-1.0
1002
}
1040
0.2
1000

1040
0.0
1002
{
1002
}
1040
0.0
1002
{
1002
}
1040
0.0
1002
}
1002
{
1070
     0
1002
{
1070
     1
1002
{
1040
1.0
1040
1.0
1000

1040
0.0
1002
{
1002
}
1040
0.0
1002
{
1002
}
1040
0.0
1002
}
1002
}
1040
1.0
1040
0.0
1040
0.0
1002
}
1002
{
1040
1.0
1040
1.0
1000

1040
0.0
1002
{
1002
}
1040
0.0
1002
{
1002
}
1040
0.0
1002
}
1002
{
1040
0.5
1040
1.0
1000

1040
0.0
1002
{
1002
}
1040
0.0
1002
{
1002
}
1040
0.0
1002
}
1002
{
1070
     0
1040
0.0
1002
{
1002
}
1040
1.0
1002
{
1002
}
1040
0.0
1002
}
1002
{
1040
0.0
1002
{
1002
{
1010
0.0
1020
0.0
1030
0.0
1002
}
1040
1.0
1000

1040
0.0
1002
{
1002
}
1040
0.0
1002
{
1002
}
1040
0.0
1002
}
1002
}
1002
{
1002
{
1070
     1
1002
{
1040
0.0
1040
1.0
1000

1040
0.0
1002
{
1002
}
1040
0.0
1002
{
1002
}
1040
0.0
1002
}
1002
}
1040
0.0
1002
{
1002
}
1010
1.0
1020
0.0
1030
0.0
1010
0.0
1020
1.0
1030
0.0
1010
0.0
1020
0.0
1030
1.0
1070
     0
1002
}
1002
{
1002
{
1040
1.0
1040
1.0
1002
{
1070
     1
1002
{
1040
1.0
1040
1.0
1000

1040
0.0
1002
{
1002
}
1040
0.0
1002
{
1002
}
1040
0.0
1002
}
1002
}
1002
}
1070
     0
1040
0.0
1002
{
1002
}
1002
}
1002
{
1002
}
1002
}
1002
{
1071
        3
1070
     3
1070
     0
1002
{
1070
     2
1070
     0
1070
     0
1040
0.0
1002
}
1070
     0
1070
     2
1002
{
1002
}
1002
}
1002
{
1040
8030.0
1040
190.300003
1040
0.305
1040
228.0
1040
545.0
1040
14.0
1040
17.4
1040
0.456
1002
}
1002
}
  0
INSERT
  5
30FE
  8
ASHADE
 62
     1
  2
AVE_GLOBAL
 10
0.0
 20
0.0
 30
0.0
1001
AVE_MATERIAL
1002
{
1000
*GLOBAL*
1000
1
1000
Global finish.
1002
{
1002
}
1002
{
1070
    63
1002
{
1002
{
1010
-1.0
1020
-1.0
1030
-1.0
1002
}
1040
0.1
1000

1040
0.0
1002
{
1002
}
1040
0.0
1002
{
1002
}
1040
0.0
1002
}
1002
{
1002
{
1010
-1.0
1020
-1.0
1030
-1.0
1002
}
1040
0.7
1000

1040
0.0
1002
{
1002
}
1040
0.0
1002
{
1002
}
1040
0.0
1002
}
1002
{
1002
{
1010
-1.0
1020
-1.0
1030
-1.0
1002
}
1040
0.2
1000

1040
0.0
1002
{
1002
}
1040
0.0
1002
{
1002
}
1040
0.0
1002
}
1002
{
1070
     0
1002
{
1070
     1
1002
{
1040
1.0
1040
1.0
1000

1040
0.0
1002
{
1002
}
1040
0.0
1002
{
1002
}
1040
0.0
1002
}
1002
}
1040
1.0
1040
0.0
1040
0.0
1002
}
1002
{
1040
1.0
1040
1.0
1000

1040
0.0
1002
{
1002
}
1040
0.0
1002
{
1002
}
1040
0.0
1002
}
1002
{
1040
0.5
1040
1.0
1000

1040
0.0
1002
{
1002
}
1040
0.0
1002
{
1002
}
1040
0.0
1002
}
1002
{
1070
     0
1040
0.0
1002
{
1002
}
1040
1.0
1002
{
1002
}
1040
0.0
1002
}
1002
{
1040
0.0
1002
{
1002
{
1010
0.0
1020
0.0
1030
0.0
1002
}
1040
1.0
1000

1040
0.0
1002
{
1002
}
1040
0.0
1002
{
1002
}
1040
0.0
1002
}
1002
}
1002
{
1002
{
1070
     1
1002
{
1040
0.0
1040
1.0
1000

1040
0.0
1002
{
1002
}
1040
0.0
1002
{
1002
}
1040
0.0
1002
}
1002
}
1040
0.0
1002
{
1002
}
1010
1.0
1020
0.0
1030
0.0
1010
0.0
1020
1.0
1030
0.0
1010
0.0
1020
0.0
1030
1.0
1070
     0
1002
}
1002
{
1002
{
1040
1.0
1040
1.0
1002
{
1070
     1
1002
{
1040
1.0
1040
1.0
1000

1040
0.0
1002
{
1002
}
1040
0.0
1002
{
1002
}
1040
0.0
1002
}
1002
}
1002
}
1070
     0
1040
0.0
1002
{
1002
}
1002
}
1002
{
1002
}
1002
}
1002
{
1071
        3
1070
     3
1070
     0
1002
{
1070
     2
1070
     0
1070
     0
1040
0.0
1002
}
1070
     0
1070
     2
1002
{
1002
}
1002
}
1002
{
1040
8030.0
1040
190.300003
1040
0.305
1040
228.0
1040
545.0
1040
14.0
1040
17.4
1040
0.456
1002
}
1002
}
  0
INSERT
  5
30FF
  8
ASHADE
 62
     1
  2
AVE_GLOBAL
 10
0.0
 20
0.0
 30
0.0
1001
AVE_MATERIAL
1002
{
1000
*GLOBAL*
1000
1
1000
Global finish.
1002
{
1002
}
1002
{
1070
    63
1002
{
1002
{
1010
-1.0
1020
-1.0
1030
-1.0
1002
}
1040
0.1
1000

1040
0.0
1002
{
1002
}
1040
0.0
1002
{
1002
}
1040
0.0
1002
}
1002
{
1002
{
1010
-1.0
1020
-1.0
1030
-1.0
1002
}
1040
0.7
1000

1040
0.0
1002
{
1002
}
1040
0.0
1002
{
1002
}
1040
0.0
1002
}
1002
{
1002
{
1010
-1.0
1020
-1.0
1030
-1.0
1002
}
1040
0.2
1000

1040
0.0
1002
{
1002
}
1040
0.0
1002
{
1002
}
1040
0.0
1002
}
1002
{
1070
     0
1002
{
1070
     1
1002
{
1040
1.0
1040
1.0
1000

1040
0.0
1002
{
1002
}
1040
0.0
1002
{
1002
}
1040
0.0
1002
}
1002
}
1040
1.0
1040
0.0
1040
0.0
1002
}
1002
{
1040
1.0
1040
1.0
1000

1040
0.0
1002
{
1002
}
1040
0.0
1002
{
1002
}
1040
0.0
1002
}
1002
{
1040
0.5
1040
1.0
1000

1040
0.0
1002
{
1002
}
1040
0.0
1002
{
1002
}
1040
0.0
1002
}
1002
{
1070
     0
1040
0.0
1002
{
1002
}
1040
1.0
1002
{
1002
}
1040
0.0
1002
}
1002
{
1040
0.0
1002
{
1002
{
1010
0.0
1020
0.0
1030
0.0
1002
}
1040
1.0
1000

1040
0.0
1002
{
1002
}
1040
0.0
1002
{
1002
}
1040
0.0
1002
}
1002
}
1002
{
1002
{
1070
     1
1002
{
1040
0.0
1040
1.0
1000

1040
0.0
1002
{
1002
}
1040
0.0
1002
{
1002
}
1040
0.0
1002
}
1002
}
1040
0.0
1002
{
1002
}
1010
1.0
1020
0.0
1030
0.0
1010
0.0
1020
1.0
1030
0.0
1010
0.0
1020
0.0
1030
1.0
1070
     0
1002
}
1002
{
1002
{
1040
1.0
1040
1.0
1002
{
1070
     1
1002
{
1040
1.0
1040
1.0
1000

1040
0.0
1002
{
1002
}
1040
0.0
1002
{
1002
}
1040
0.0
1002
}
1002
}
1002
}
1070
     0
1040
0.0
1002
{
1002
}
1002
}
1002
{
1002
}
1002
}
1002
{
1071
        3
1070
     3
1070
     0
1002
{
1070
     2
1070
     0
1070
     0
1040
0.0
1002
}
1070
     0
1070
     2
1002
{
1002
}
1002
}
1002
{
1040
8030.0
1040
190.300003
1040
0.305
1040
228.0
1040
545.0
1040
14.0
1040
17.4
1040
0.456
1002
}
1002
}
  0
INSERT
  5
31F6
  8
ASHADE
 62
     1
  2
AVE_GLOBAL
 10
0.0
 20
0.0
 30
0.0
1001
AVE_MATERIAL
1002
{
1000
*GLOBAL*
1000
1
1000
Global finish.
1002
{
1002
}
1002
{
1070
    63
1002
{
1002
{
1010
-1.0
1020
-1.0
1030
-1.0
1002
}
1040
0.1
1000

1040
0.0
1002
{
1002
}
1040
0.0
1002
{
1002
}
1040
0.0
1002
}
1002
{
1002
{
1010
-1.0
1020
-1.0
1030
-1.0
1002
}
1040
0.7
1000

1040
0.0
1002
{
1002
}
1040
0.0
1002
{
1002
}
1040
0.0
1002
}
1002
{
1002
{
1010
-1.0
1020
-1.0
1030
-1.0
1002
}
1040
0.2
1000

1040
0.0
1002
{
1002
}
1040
0.0
1002
{
1002
}
1040
0.0
1002
}
1002
{
1070
     0
1002
{
1070
     1
1002
{
1040
1.0
1040
1.0
1000

1040
0.0
1002
{
1002
}
1040
0.0
1002
{
1002
}
1040
0.0
1002
}
1002
}
1040
1.0
1040
0.0
1040
0.0
1002
}
1002
{
1040
1.0
1040
1.0
1000

1040
0.0
1002
{
1002
}
1040
0.0
1002
{
1002
}
1040
0.0
1002
}
1002
{
1040
0.5
1040
1.0
1000

1040
0.0
1002
{
1002
}
1040
0.0
1002
{
1002
}
1040
0.0
1002
}
1002
{
1070
     0
1040
0.0
1002
{
1002
}
1040
1.0
1002
{
1002
}
1040
0.0
1002
}
1002
{
1040
0.0
1002
{
1002
{
1010
0.0
1020
0.0
1030
0.0
1002
}
1040
1.0
1000

1040
0.0
1002
{
1002
}
1040
0.0
1002
{
1002
}
1040
0.0
1002
}
1002
}
1002
{
1002
{
1070
     1
1002
{
1040
0.0
1040
1.0
1000

1040
0.0
1002
{
1002
}
1040
0.0
1002
{
1002
}
1040
0.0
1002
}
1002
}
1040
0.0
1002
{
1002
}
1010
1.0
1020
0.0
1030
0.0
1010
0.0
1020
1.0
1030
0.0
1010
0.0
1020
0.0
1030
1.0
1070
     0
1002
}
1002
{
1002
{
1040
1.0
1040
1.0
1002
{
1070
     1
1002
{
1040
1.0
1040
1.0
1000

1040
0.0
1002
{
1002
}
1040
0.0
1002
{
1002
}
1040
0.0
1002
}
1002
}
1002
}
1070
     0
1040
0.0
1002
{
1002
}
1002
}
1002
{
1002
}
1002
}
1002
{
1071
        3
1070
     3
1070
     0
1002
{
1070
     2
1070
     0
1070
     0
1040
0.0
1002
}
1070
     0
1070
     2
1002
{
1002
}
1002
}
1002
{
1040
8030.0
1040
190.300003
1040
0.305
1040
228.0
1040
545.0
1040
14.0
1040
17.4
1040
0.456
1002
}
1002
}
  0
INSERT
  5
31F7
  8
ASHADE
 62
     1
  2
AVE_GLOBAL
 10
0.0
 20
0.0
 30
0.0
1001
AVE_MATERIAL
1002
{
1000
*GLOBAL*
1000
1
1000
Global finish.
1002
{
1002
}
1002
{
1070
    63
1002
{
1002
{
1010
-1.0
1020
-1.0
1030
-1.0
1002
}
1040
0.1
1000

1040
0.0
1002
{
1002
}
1040
0.0
1002
{
1002
}
1040
0.0
1002
}
1002
{
1002
{
1010
-1.0
1020
-1.0
1030
-1.0
1002
}
1040
0.7
1000

1040
0.0
1002
{
1002
}
1040
0.0
1002
{
1002
}
1040
0.0
1002
}
1002
{
1002
{
1010
-1.0
1020
-1.0
1030
-1.0
1002
}
1040
0.2
1000

1040
0.0
1002
{
1002
}
1040
0.0
1002
{
1002
}
1040
0.0
1002
}
1002
{
1070
     0
1002
{
1070
     1
1002
{
1040
1.0
1040
1.0
1000

1040
0.0
1002
{
1002
}
1040
0.0
1002
{
1002
}
1040
0.0
1002
}
1002
}
1040
1.0
1040
0.0
1040
0.0
1002
}
1002
{
1040
1.0
1040
1.0
1000

1040
0.0
1002
{
1002
}
1040
0.0
1002
{
1002
}
1040
0.0
1002
}
1002
{
1040
0.5
1040
1.0
1000

1040
0.0
1002
{
1002
}
1040
0.0
1002
{
1002
}
1040
0.0
1002
}
1002
{
1070
     0
1040
0.0
1002
{
1002
}
1040
1.0
1002
{
1002
}
1040
0.0
1002
}
1002
{
1040
0.0
1002
{
1002
{
1010
0.0
1020
0.0
1030
0.0
1002
}
1040
1.0
1000

1040
0.0
1002
{
1002
}
1040
0.0
1002
{
1002
}
1040
0.0
1002
}
1002
}
1002
{
1002
{
1070
     1
1002
{
1040
0.0
1040
1.0
1000

1040
0.0
1002
{
1002
}
1040
0.0
1002
{
1002
}
1040
0.0
1002
}
1002
}
1040
0.0
1002
{
1002
}
1010
1.0
1020
0.0
1030
0.0
1010
0.0
1020
1.0
1030
0.0
1010
0.0
1020
0.0
1030
1.0
1070
     0
1002
}
1002
{
1002
{
1040
1.0
1040
1.0
1002
{
1070
     1
1002
{
1040
1.0
1040
1.0
1000

1040
0.0
1002
{
1002
}
1040
0.0
1002
{
1002
}
1040
0.0
1002
}
1002
}
1002
}
1070
     0
1040
0.0
1002
{
1002
}
1002
}
1002
{
1002
}
1002
}
1002
{
1071
        3
1070
     3
1070
     0
1002
{
1070
     2
1070
     0
1070
     0
1040
0.0
1002
}
1070
     0
1070
     2
1002
{
1002
}
1002
}
1002
{
1040
8030.0
1040
190.300003
1040
0.305
1040
228.0
1040
545.0
1040
14.0
1040
17.4
1040
0.456
1002
}
1002
}
  0
POLYLINE
  5
31F8
  8
0
 66
     1
 10
0.0
 20
0.0
 30
0.0
 70
    16
 71
     3
 72
     7
  0
VERTEX
  5
31F9
  8
0
 10
84.5
 20
55.4
 30
147.0
 70
    64
  0
VERTEX
  5
31FA
  8
0
 10
84.5
 20
53.1
 30
146.7
 70
    64
  0
VERTEX
  5
31FB
  8
0
 10
84.5
 20
50.9
 30
145.8
 70
    64
  0
VERTEX
  5
31FC
  8
0
 10
84.5
 20
49.0
 30
144.4
 70
    64
  0
VERTEX
  5
31FD
  8
0
 10
84.5
 20
47.6
 30
142.5
 70
    64
  0
VERTEX
  5
31FE
  8
0
 10
84.5
 20
46.7
 30
140.3
 70
    64
  0
VERTEX
  5
31FF
  8
0
 10
84.5
 20
46.4
 30
138.0
 70
    64
  0
VERTEX
  5
3200
  8
0
 10
93.5
 20
55.4
 30
147.0
 70
    64
  0
VERTEX
  5
3201
  8
0
 10
93.5
 20
53.1
 30
146.7
 70
    64
  0
VERTEX
  5
3202
  8
0
 10
93.5
 20
50.9
 30
145.8
 70
    64
  0
VERTEX
  5
3203
  8
0
 10
93.5
 20
49.0
 30
144.4
 70
    64
  0
VERTEX
  5
3204
  8
0
 10
93.5
 20
47.6
 30
142.5
 70
    64
  0
VERTEX
  5
3205
  8
0
 10
93.5
 20
46.7
 30
140.3
 70
    64
  0
VERTEX
  5
3206
  8
0
 10
93.5
 20
46.4
 30
138.0
 70
    64
  0
VERTEX
  5
3207
  8
0
 10
93.5
 20
55.4
 30
138.0
 70
    64
  0
VERTEX
  5
3208
  8
0
 10
93.5
 20
55.4
 30
138.0
 70
    64
  0
VERTEX
  5
3209
  8
0
 10
93.5
 20
55.4
 30
138.0
 70
    64
  0
VERTEX
  5
320A
  8
0
 10
93.5
 20
55.4
 30
138.0
 70
    64
  0
VERTEX
  5
320B
  8
0
 10
93.5
 20
55.4
 30
138.0
 70
    64
  0
VERTEX
  5
320C
  8
0
 10
93.5
 20
55.4
 30
138.0
 70
    64
  0
VERTEX
  5
320D
  8
0
 10
93.5
 20
55.4
 30
138.0
 70
    64
  0
SEQEND
  5
320E
  8
0
  0
POLYLINE
  5
320F
  8
0
 66
     1
 10
0.0
 20
0.0
 30
0.0
 70
    16
 71
     2
 72
     4
  0
VERTEX
  5
3210
  8
0
 10
93.5
 20
55.4
 30
138.0
 70
    64
  0
VERTEX
  5
3211
  8
0
 10
93.5
 20
55.4
 30
138.0
 70
    64
  0
VERTEX
  5
3212
  8
0
 10
93.5
 20
55.4
 30
129.0
 70
    64
  0
VERTEX
  5
3213
  8
0
 10
84.5
 20
55.4
 30
129.0
 70
    64
  0
VERTEX
  5
3214
  8
0
 10
93.5
 20
73.0
 30
138.0
 70
    64
  0
VERTEX
  5
3215
  8
0
 10
93.5
 20
73.0
 30
138.0
 70
    64
  0
VERTEX
  5
3216
  8
0
 10
93.5
 20
73.0
 30
129.0
 70
    64
  0
VERTEX
  5
3217
  8
0
 10
84.5
 20
73.0
 30
129.0
 70
    64
  0
SEQEND
  5
3218
  8
0
  0
POLYLINE
  5
3219
  8
0
 66
     1
 10
0.0
 20
0.0
 30
0.0
 70
    16
 71
     3
 72
     7
  0
VERTEX
  5
321A
  8
0
 10
84.5
 20
55.4
 30
129.0
 70
    64
  0
VERTEX
  5
321B
  8
0
 10
84.5
 20
53.1
 30
129.3
 70
    64
  0
VERTEX
  5
321C
  8
0
 10
84.5
 20
50.9
 30
130.2
 70
    64
  0
VERTEX
  5
321D
  8
0
 10
84.5
 20
49.0
 30
131.6
 70
    64
  0
VERTEX
  5
321E
  8
0
 10
84.5
 20
47.6
 30
133.5
 70
    64
  0
VERTEX
  5
321F
  8
0
 10
84.5
 20
46.7
 30
135.7
 70
    64
  0
VERTEX
  5
3220
  8
0
 10
84.5
 20
46.4
 30
138.0
 70
    64
  0
VERTEX
  5
3221
  8
0
 10
93.5
 20
55.4
 30
129.0
 70
    64
  0
VERTEX
  5
3222
  8
0
 10
93.5
 20
53.1
 30
129.3
 70
    64
  0
VERTEX
  5
3223
  8
0
 10
93.5
 20
50.9
 30
130.2
 70
    64
  0
VERTEX
  5
3224
  8
0
 10
93.5
 20
49.0
 30
131.6
 70
    64
  0
VERTEX
  5
3225
  8
0
 10
93.5
 20
47.6
 30
133.5
 70
    64
  0
VERTEX
  5
3226
  8
0
 10
93.5
 20
46.7
 30
135.7
 70
    64
  0
VERTEX
  5
3227
  8
0
 10
93.5
 20
46.4
 30
138.0
 70
    64
  0
VERTEX
  5
3228
  8
0
 10
93.5
 20
55.4
 30
138.0
 70
    64
  0
VERTEX
  5
3229
  8
0
 10
93.5
 20
55.4
 30
138.0
 70
    64
  0
VERTEX
  5
322A
  8
0
 10
93.5
 20
55.4
 30
138.0
 70
    64
  0
VERTEX
  5
322B
  8
0
 10
93.5
 20
55.4
 30
138.0
 70
    64
  0
VERTEX
  5
322C
  8
0
 10
93.5
 20
55.4
 30
138.0
 70
    64
  0
VERTEX
  5
322D
  8
0
 10
93.5
 20
55.4
 30
138.0
 70
    64
  0
VERTEX
  5
322E
  8
0
 10
93.5
 20
55.4
 30
138.0
 70
    64
  0
SEQEND
  5
322F
  8
0
  0
POLYLINE
  5
3230
  8
0
 66
     1
 10
0.0
 20
0.0
 30
0.0
 70
    16
 71
     3
 72
     7
  0
VERTEX
  5
3231
  8
0
 10
84.5
 20
55.4
 30
129.0
 70
    64
  0
VERTEX
  5
3232
  8
0
 10
84.5
 20
53.1
 30
129.3
 70
    64
  0
VERTEX
  5
3233
  8
0
 10
84.5
 20
50.9
 30
130.2
 70
    64
  0
VERTEX
  5
3234
  8
0
 10
84.5
 20
49.0
 30
131.6
 70
    64
  0
VERTEX
  5
3235
  8
0
 10
84.5
 20
47.6
 30
133.5
 70
    64
  0
VERTEX
  5
3236
  8
0
 10
84.5
 20
46.7
 30
135.7
 70
    64
  0
VERTEX
  5
3237
  8
0
 10
84.5
 20
46.4
 30
138.0
 70
    64
  0
VERTEX
  5
3238
  8
0
 10
75.5
 20
55.4
 30
129.0
 70
    64
  0
VERTEX
  5
3239
  8
0
 10
75.5
 20
53.1
 30
129.3
 70
    64
  0
VERTEX
  5
323A
  8
0
 10
75.5
 20
50.9
 30
130.2
 70
    64
  0
VERTEX
  5
323B
  8
0
 10
75.5
 20
49.0
 30
131.6
 70
    64
  0
VERTEX
  5
323C
  8
0
 10
75.5
 20
47.6
 30
133.5
 70
    64
  0
VERTEX
  5
323D
  8
0
 10
75.5
 20
46.7
 30
135.7
 70
    64
  0
VERTEX
  5
323E
  8
0
 10
75.5
 20
46.4
 30
138.0
 70
    64
  0
VERTEX
  5
323F
  8
0
 10
75.5
 20
55.4
 30
138.0
 70
    64
  0
VERTEX
  5
3240
  8
0
 10
75.5
 20
55.4
 30
138.0
 70
    64
  0
VERTEX
  5
3241
  8
0
 10
75.5
 20
55.4
 30
138.0
 70
    64
  0
VERTEX
  5
3242
  8
0
 10
75.5
 20
55.4
 30
138.0
 70
    64
  0
VERTEX
  5
3243
  8
0
 10
75.5
 20
55.4
 30
138.0
 70
    64
  0
VERTEX
  5
3244
  8
0
 10
75.5
 20
55.4
 30
138.0
 70
    64
  0
VERTEX
  5
3245
  8
0
 10
75.5
 20
55.4
 30
138.0
 70
    64
  0
SEQEND
  5
3246
  8
0
  0
POLYLINE
  5
3247
  8
0
 66
     1
 10
0.0
 20
0.0
 30
0.0
 70
    16
 71
     3
 72
     7
  0
VERTEX
  5
3248
  8
0
 10
84.5
 20
55.4
 30
147.0
 70
    64
  0
VERTEX
  5
3249
  8
0
 10
84.5
 20
53.1
 30
146.7
 70
    64
  0
VERTEX
  5
324A
  8
0
 10
84.5
 20
50.9
 30
145.8
 70
    64
  0
VERTEX
  5
324B
  8
0
 10
84.5
 20
49.0
 30
144.4
 70
    64
  0
VERTEX
  5
324C
  8
0
 10
84.5
 20
47.6
 30
142.5
 70
    64
  0
VERTEX
  5
324D
  8
0
 10
84.5
 20
46.7
 30
140.3
 70
    64
  0
VERTEX
  5
324E
  8
0
 10
84.5
 20
46.4
 30
138.0
 70
    64
  0
VERTEX
  5
324F
  8
0
 10
75.5
 20
55.4
 30
147.0
 70
    64
  0
VERTEX
  5
3250
  8
0
 10
75.5
 20
53.1
 30
146.7
 70
    64
  0
VERTEX
  5
3251
  8
0
 10
75.5
 20
50.9
 30
145.8
 70
    64
  0
VERTEX
  5
3252
  8
0
 10
75.5
 20
49.0
 30
144.4
 70
    64
  0
VERTEX
  5
3253
  8
0
 10
75.5
 20
47.6
 30
142.5
 70
    64
  0
VERTEX
  5
3254
  8
0
 10
75.5
 20
46.7
 30
140.3
 70
    64
  0
VERTEX
  5
3255
  8
0
 10
75.5
 20
46.4
 30
138.0
 70
    64
  0
VERTEX
  5
3256
  8
0
 10
75.5
 20
55.4
 30
138.0
 70
    64
  0
VERTEX
  5
3257
  8
0
 10
75.5
 20
55.4
 30
138.0
 70
    64
  0
VERTEX
  5
3258
  8
0
 10
75.5
 20
55.4
 30
138.0
 70
    64
  0
VERTEX
  5
3259
  8
0
 10
75.5
 20
55.4
 30
138.0
 70
    64
  0
VERTEX
  5
325A
  8
0
 10
75.5
 20
55.4
 30
138.0
 70
    64
  0
VERTEX
  5
325B
  8
0
 10
75.5
 20
55.4
 30
138.0
 70
    64
  0
VERTEX
  5
325C
  8
0
 10
75.5
 20
55.4
 30
138.0
 70
    64
  0
SEQEND
  5
325D
  8
0
  0
POLYLINE
  5
327E
  8
0
 66
     1
 10
0.0
 20
0.0
 30
0.0
 70
    16
 71
     2
 72
     5
  0
VERTEX
  5
327F
  8
0
 10
74.0
 20
46.7
 30
143.0
 70
    64
  0
VERTEX
  5
3280
  8
0
 10
75.0
 20
44.0
 30
139.05
 70
    64
  0
VERTEX
  5
3281
  8
0
 10
77.6
 20
42.5
 30
136.87
 70
    64
  0
VERTEX
  5
3282
  8
0
 10
81.2
 20
41.7
 30
135.7
 70
    64
  0
VERTEX
  5
3283
  8
0
 10
84.5
 20
41.6
 30
135.55
 70
    64
  0
VERTEX
  5
3284
  8
0
 10
74.0
 20
46.7
 30
143.0
 70
    64
  0
VERTEX
  5
3285
  8
0
 10
74.0
 20
33.7
 30
124.0
 70
    64
  0
VERTEX
  5
3286
  8
0
 10
74.0
 20
33.7
 30
124.0
 70
    64
  0
VERTEX
  5
3287
  8
0
 10
74.0
 20
33.7
 30
124.0
 70
    64
  0
VERTEX
  5
3288
  8
0
 10
84.5
 20
33.7
 30
124.0
 70
    64
  0
SEQEND
  5
3289
  8
0
  0
POLYLINE
  5
328A
  8
0
 66
     1
 10
0.0
 20
0.0
 30
0.0
 70
    16
 71
     2
 72
     2
  0
VERTEX
  5
328B
  8
0
 10
74.0
 20
33.7
 30
124.0
 70
    64
  0
VERTEX
  5
328C
  8
0
 10
84.5
 20
33.7
 30
124.0
 70
    64
  0
VERTEX
  5
328D
  8
0
 10
84.5
 20
29.5
 30
116.8
 70
    64
  0
VERTEX
  5
328E
  8
0
 10
84.5
 20
29.5
 30
116.8
 70
    64
  0
SEQEND
  5
328F
  8
0
  0
POLYLINE
  5
3290
  8
0
 66
     1
 10
0.0
 20
0.0
 30
0.0
 70
    16
 71
     2
 72
     2
  0
VERTEX
  5
3291
  8
0
 10
74.0
 20
35.7
 30
124.0
 70
    64
  0
VERTEX
  5
3292
  8
0
 10
74.0
 20
35.7
 30
124.0
 70
    64
  0
VERTEX
  5
3293
  8
0
 10
84.5
 20
35.7
 30
124.0
 70
    64
  0
VERTEX
  5
3294
  8
0
 10
84.5
 20
31.5
 30
116.8
 70
    64
  0
SEQEND
  5
3295
  8
0
  0
POLYLINE
  5
3296
  8
0
 66
     1
 10
0.0
 20
0.0
 30
0.0
 70
    16
 71
     2
 72
     5
  0
VERTEX
  5
3297
  8
0
 10
74.0
 20
48.5
 30
142.0
 70
    64
  0
VERTEX
  5
3298
  8
0
 10
75.0
 20
44.55
 30
136.48
 70
    64
  0
VERTEX
  5
3299
  8
0
 10
77.6
 20
43.44
 30
134.8
 70
    64
  0
VERTEX
  5
329A
  8
0
 10
81.2
 20
42.54
 30
133.7
 70
    64
  0
VERTEX
  5
329B
  8
0
 10
84.5
 20
42.5
 30
133.5
 70
    64
  0
VERTEX
  5
329C
  8
0
 10
74.0
 20
35.7
 30
124.0
 70
    64
  0
VERTEX
  5
329D
  8
0
 10
74.0
 20
35.7
 30
124.0
 70
    64
  0
VERTEX
  5
329E
  8
0
 10
74.0
 20
35.7
 30
124.0
 70
    64
  0
VERTEX
  5
329F
  8
0
 10
74.0
 20
35.7
 30
124.0
 70
    64
  0
VERTEX
  5
32A0
  8
0
 10
84.5
 20
35.7
 30
124.0
 70
    64
  0
SEQEND
  5
32A1
  8
0
  0
POLYLINE
  5
32A2
  8
0
 66
     1
 10
0.0
 20
0.0
 30
0.0
 70
    16
 71
     4
 72
    32
  0
VERTEX
  5
32A3
  8
0
 10
95.0
 20
45.8
 30
135.4
 70
    64
  0
VERTEX
  5
32A4
  8
0
 10
95.0
 20
46.7
 30
133.0
 70
    64
  0
VERTEX
  5
32A5
  8
0
 10
95.0
 20
48.3
 30
130.9
 70
    64
  0
VERTEX
  5
32A6
  8
0
 10
95.0
 20
50.4
 30
129.3
 70
    64
  0
VERTEX
  5
32A7
  8
0
 10
95.0
 20
52.8
 30
128.4
 70
    64
  0
VERTEX
  5
32A8
  8
0
 10
95.0
 20
55.4
 30
128.0
 70
    64
  0
VERTEX
  5
32A9
  8
0
 10
95.0
 20
58.0
 30
128.4
 70
    64
  0
VERTEX
  5
32AA
  8
0
 10
95.0
 20
60.4
 30
129.3
 70
    64
  0
VERTEX
  5
32AB
  8
0
 10
95.0
 20
62.5
 30
130.9
 70
    64
  0
VERTEX
  5
32AC
  8
0
 10
95.0
 20
64.1
 30
133.0
 70
    64
  0
VERTEX
  5
32AD
  8
0
 10
95.0
 20
65.0
 30
135.4
 70
    64
  0
VERTEX
  5
32AE
  8
0
 10
95.0
 20
65.4
 30
138.0
 70
    64
  0
VERTEX
  5
32AF
  8
0
 10
95.0
 20
65.0
 30
140.6
 70
    64
  0
VERTEX
  5
32B0
  8
0
 10
95.0
 20
64.1
 30
143.0
 70
    64
  0
VERTEX
  5
32B1
  8
0
 10
95.0
 20
62.5
 30
145.1
 70
    64
  0
VERTEX
  5
32B2
  8
0
 10
95.0
 20
60.4
 30
146.7
 70
    64
  0
VERTEX
  5
32B3
  8
0
 10
95.0
 20
58.0
 30
147.6
 70
    64
  0
VERTEX
  5
32B4
  8
0
 10
95.0
 20
55.4
 30
148.0
 70
    64
  0
VERTEX
  5
32B5
  8
0
 10
95.0
 20
52.8
 30
147.6
 70
    64
  0
VERTEX
  5
32B6
  8
0
 10
95.0
 20
50.4
 30
146.7
 70
    64
  0
VERTEX
  5
32B7
  8
0
 10
95.0
 20
48.3
 30
145.1
 70
    64
  0
VERTEX
  5
32B8
  8
0
 10
95.0
 20
46.7
 30
143.0
 70
    64
  0
VERTEX
  5
32B9
  8
0
 10
95.0
 20
33.7
 30
124.0
 70
    64
  0
VERTEX
  5
32BA
  8
0
 10
84.5
 20
29.5
 30
116.8
 70
    64
  0
VERTEX
  5
32BB
  8
0
 10
84.5
 20
26.4
 30
111.5
 70
    64
  0
VERTEX
  5
32BC
  8
0
 10
84.5
 20
25.2
 30
109.5
 70
    64
  0
VERTEX
  5
32BD
  8
0
 10
84.5
 20
16.1
 30
94.0
 70
    64
  0
VERTEX
  5
32BE
  8
0
 10
84.5
 20
4.8
 30
68.9
 70
    64
  0
VERTEX
  5
32BF
  8
0
 10
84.5
 20
1.3
 30
55.2
 70
    64
  0
VERTEX
  5
32C0
  8
0
 10
84.5
 20
0.7
 30
52.9
 70
    64
  0
VERTEX
  5
32C1
  8
0
 10
84.5
 20
0.2
 30
51.0
 70
    64
  0
VERTEX
  5
32C2
  8
0
 10
84.5
 20
0.0
 30
50.3
 70
    64
  0
VERTEX
  5
32C3
  8
0
 10
142.0
 20
45.8
 30
135.4
 70
    64
  0
VERTEX
  5
32C4
  8
0
 10
142.0
 20
46.7
 30
133.0
 70
    64
  0
VERTEX
  5
32C5
  8
0
 10
142.0
 20
48.3
 30
130.9
 70
    64
  0
VERTEX
  5
32C6
  8
0
 10
142.0
 20
50.4
 30
129.3
 70
    64
  0
VERTEX
  5
32C7
  8
0
 10
142.0
 20
52.8
 30
128.4
 70
    64
  0
VERTEX
  5
32C8
  8
0
 10
142.0
 20
55.4
 30
128.0
 70
    64
  0
VERTEX
  5
32C9
  8
0
 10
142.0
 20
58.0
 30
128.4
 70
    64
  0
VERTEX
  5
32CA
  8
0
 10
142.0
 20
60.4
 30
129.3
 70
    64
  0
VERTEX
  5
32CB
  8
0
 10
142.0
 20
62.5
 30
130.9
 70
    64
  0
VERTEX
  5
32CC
  8
0
 10
142.0
 20
64.1
 30
133.0
 70
    64
  0
VERTEX
  5
32CD
  8
0
 10
142.0
 20
65.0
 30
135.4
 70
    64
  0
VERTEX
  5
32CE
  8
0
 10
142.0
 20
65.4
 30
138.0
 70
    64
  0
VERTEX
  5
32CF
  8
0
 10
142.0
 20
65.0
 30
140.6
 70
    64
  0
VERTEX
  5
32D0
  8
0
 10
142.0
 20
64.1
 30
143.0
 70
    64
  0
VERTEX
  5
32D1
  8
0
 10
142.0
 20
62.5
 30
145.1
 70
    64
  0
VERTEX
  5
32D2
  8
0
 10
142.0
 20
60.4
 30
146.7
 70
    64
  0
VERTEX
  5
32D3
  8
0
 10
142.0
 20
58.0
 30
147.6
 70
    64
  0
VERTEX
  5
32D4
  8
0
 10
142.0
 20
55.4
 30
148.0
 70
    64
  0
VERTEX
  5
32D5
  8
0
 10
142.0
 20
52.8
 30
147.6
 70
    64
  0
VERTEX
  5
32D6
  8
0
 10
142.0
 20
50.4
 30
146.7
 70
    64
  0
VERTEX
  5
32D7
  8
0
 10
142.0
 20
48.3
 30
145.1
 70
    64
  0
VERTEX
  5
32D8
  8
0
 10
142.0
 20
46.7
 30
143.0
 70
    64
  0
VERTEX
  5
32D9
  8
0
 10
142.0
 20
33.7
 30
124.0
 70
    64
  0
VERTEX
  5
32DA
  8
0
 10
142.0
 20
29.5
 30
116.8
 70
    64
  0
VERTEX
  5
32DB
  8
0
 10
142.0
 20
26.4
 30
111.5
 70
    64
  0
VERTEX
  5
32DC
  8
0
 10
142.0
 20
25.2
 30
109.5
 70
    64
  0
VERTEX
  5
32DD
  8
0
 10
142.0
 20
16.1
 30
94.0
 70
    64
  0
VERTEX
  5
32DE
  8
0
 10
142.0
 20
4.8
 30
68.9
 70
    64
  0
VERTEX
  5
32DF
  8
0
 10
142.0
 20
1.3
 30
55.2
 70
    64
  0
VERTEX
  5
32E0
  8
0
 10
141.3
 20
0.7
 30
52.9
 70
    64
  0
VERTEX
  5
32E1
  8
0
 10
139.4
 20
0.2
 30
51.0
 70
    64
  0
VERTEX
  5
32E2
  8
0
 10
137.1
 20
0.0
 30
50.3
 70
    64
  0
VERTEX
  5
32E3
  8
0
 10
142.0
 20
47.7
 30
135.9
 70
    64
  0
VERTEX
  5
32E4
  8
0
 10
142.0
 20
48.5
 30
134.0
 70
    64
  0
VERTEX
  5
32E5
  8
0
 10
142.0
 20
49.8
 30
132.4
 70
    64
  0
VERTEX
  5
32E6
  8
0
 10
142.0
 20
51.4
 30
131.1
 70
    64
  0
VERTEX
  5
32E7
  8
0
 10
142.0
 20
53.3
 30
130.3
 70
    64
  0
VERTEX
  5
32E8
  8
0
 10
142.0
 20
55.4
 30
130.0
 70
    64
  0
VERTEX
  5
32E9
  8
0
 10
142.0
 20
57.5
 30
130.3
 70
    64
  0
VERTEX
  5
32EA
  8
0
 10
142.0
 20
59.4
 30
131.1
 70
    64
  0
VERTEX
  5
32EB
  8
0
 10
142.0
 20
61.0
 30
132.4
 70
    64
  0
VERTEX
  5
32EC
  8
0
 10
142.0
 20
62.3
 30
134.0
 70
    64
  0
VERTEX
  5
32ED
  8
0
 10
142.0
 20
63.1
 30
135.9
 70
    64
  0
VERTEX
  5
32EE
  8
0
 10
142.0
 20
63.4
 30
138.0
 70
    64
  0
VERTEX
  5
32EF
  8
0
 10
142.0
 20
63.1
 30
140.1
 70
    64
  0
VERTEX
  5
32F0
  8
0
 10
142.0
 20
62.3
 30
142.0
 70
    64
  0
VERTEX
  5
32F1
  8
0
 10
142.0
 20
61.0
 30
143.6
 70
    64
  0
VERTEX
  5
32F2
  8
0
 10
142.0
 20
59.4
 30
144.9
 70
    64
  0
VERTEX
  5
32F3
  8
0
 10
142.0
 20
57.5
 30
145.7
 70
    64
  0
VERTEX
  5
32F4
  8
0
 10
142.0
 20
55.4
 30
146.0
 70
    64
  0
VERTEX
  5
32F5
  8
0
 10
142.0
 20
53.3
 30
145.7
 70
    64
  0
VERTEX
  5
32F6
  8
0
 10
142.0
 20
51.4
 30
144.9
 70
    64
  0
VERTEX
  5
32F7
  8
0
 10
142.0
 20
49.8
 30
143.6
 70
    64
  0
VERTEX
  5
32F8
  8
0
 10
142.0
 20
48.5
 30
142.0
 70
    64
  0
VERTEX
  5
32F9
  8
0
 10
142.0
 20
35.7
 30
124.0
 70
    64
  0
VERTEX
  5
32FA
  8
0
 10
142.0
 20
31.5
 30
116.8
 70
    64
  0
VERTEX
  5
32FB
  8
0
 10
142.0
 20
28.4
 30
111.5
 70
    64
  0
VERTEX
  5
32FC
  8
0
 10
142.0
 20
27.2
 30
109.5
 70
    64
  0
VERTEX
  5
32FD
  8
0
 10
142.0
 20
18.1
 30
94.0
 70
    64
  0
VERTEX
  5
32FE
  8
0
 10
142.0
 20
6.8
 30
68.9
 70
    64
  0
VERTEX
  5
32FF
  8
0
 10
142.0
 20
3.6
 30
55.2
 70
    64
  0
VERTEX
  5
3300
  8
0
 10
141.3
 20
2.8
 30
52.9
 70
    64
  0
VERTEX
  5
3301
  8
0
 10
139.4
 20
2.3
 30
51.0
 70
    64
  0
VERTEX
  5
3302
  8
0
 10
137.1
 20
2.1
 30
50.3
 70
    64
  0
VERTEX
  5
3303
  8
0
 10
95.0
 20
47.7
 30
135.9
 70
    64
  0
VERTEX
  5
3304
  8
0
 10
95.0
 20
48.5
 30
134.0
 70
    64
  0
VERTEX
  5
3305
  8
0
 10
95.0
 20
49.8
 30
132.4
 70
    64
  0
VERTEX
  5
3306
  8
0
 10
95.0
 20
51.4
 30
131.1
 70
    64
  0
VERTEX
  5
3307
  8
0
 10
95.0
 20
53.3
 30
130.3
 70
    64
  0
VERTEX
  5
3308
  8
0
 10
95.0
 20
55.4
 30
130.0
 70
    64
  0
VERTEX
  5
3309
  8
0
 10
95.0
 20
57.5
 30
130.3
 70
    64
  0
VERTEX
  5
330A
  8
0
 10
95.0
 20
59.7
 30
131.1
 70
    64
  0
VERTEX
  5
330B
  8
0
 10
95.0
 20
61.0
 30
132.4
 70
    64
  0
VERTEX
  5
330C
  8
0
 10
95.0
 20
62.3
 30
134.0
 70
    64
  0
VERTEX
  5
330D
  8
0
 10
95.0
 20
63.1
 30
135.9
 70
    64
  0
VERTEX
  5
330E
  8
0
 10
95.0
 20
63.4
 30
138.0
 70
    64
  0
VERTEX
  5
330F
  8
0
 10
95.0
 20
63.1
 30
140.1
 70
    64
  0
VERTEX
  5
3310
  8
0
 10
95.0
 20
62.3
 30
142.0
 70
    64
  0
VERTEX
  5
3311
  8
0
 10
95.0
 20
61.0
 30
143.6
 70
    64
  0
VERTEX
  5
3312
  8
0
 10
95.0
 20
59.4
 30
144.9
 70
    64
  0
VERTEX
  5
3313
  8
0
 10
95.0
 20
57.5
 30
145.7
 70
    64
  0
VERTEX
  5
3314
  8
0
 10
95.0
 20
55.4
 30
146.0
 70
    64
  0
VERTEX
  5
3315
  8
0
 10
95.0
 20
53.3
 30
145.7
 70
    64
  0
VERTEX
  5
3316
  8
0
 10
95.0
 20
51.4
 30
144.9
 70
    64
  0
VERTEX
  5
3317
  8
0
 10
95.0
 20
49.8
 30
143.6
 70
    64
  0
VERTEX
  5
3318
  8
0
 10
95.0
 20
48.5
 30
142.0
 70
    64
  0
VERTEX
  5
3319
  8
0
 10
95.0
 20
35.7
 30
124.0
 70
    64
  0
VERTEX
  5
331A
  8
0
 10
84.5
 20
31.5
 30
116.8
 70
    64
  0
VERTEX
  5
331B
  8
0
 10
84.5
 20
28.4
 30
111.5
 70
    64
  0
VERTEX
  5
331C
  8
0
 10
84.5
 20
27.2
 30
109.5
 70
    64
  0
VERTEX
  5
331D
  8
0
 10
84.5
 20
18.1
 30
94.0
 70
    64
  0
VERTEX
  5
331E
  8
0
 10
84.5
 20
6.8
 30
68.9
 70
    64
  0
VERTEX
  5
331F
  8
0
 10
84.5
 20
3.6
 30
55.2
 70
    64
  0
VERTEX
  5
3320
  8
0
 10
84.5
 20
2.8
 30
52.9
 70
    64
  0
VERTEX
  5
3321
  8
0
 10
84.5
 20
2.3
 30
51.0
 70
    64
  0
VERTEX
  5
3322
  8
0
 10
84.5
 20
2.1
 30
50.3
 70
    64
  0
SEQEND
  5
3323
  8
0
  0
POLYLINE
  5
3324
  8
0
 66
     1
 10
0.0
 20
0.0
 30
0.0
 70
    16
 71
     2
 72
     5
  0
VERTEX
  5
3325
  8
0
 10
95.0
 20
46.7
 30
143.0
 70
    64
  0
VERTEX
  5
3326
  8
0
 10
94.0
 20
44.0
 30
139.05
 70
    64
  0
VERTEX
  5
3327
  8
0
 10
91.4
 20
42.5
 30
136.87
 70
    64
  0
VERTEX
  5
3328
  8
0
 10
87.8
 20
41.7
 30
135.7
 70
    64
  0
VERTEX
  5
3329
  8
0
 10
84.5
 20
41.6
 30
135.55
 70
    64
  0
VERTEX
  5
332A
  8
0
 10
95.0
 20
46.7
 30
143.0
 70
    64
  0
VERTEX
  5
332B
  8
0
 10
95.0
 20
33.7
 30
124.0
 70
    64
  0
VERTEX
  5
332C
  8
0
 10
95.0
 20
33.7
 30
124.0
 70
    64
  0
VERTEX
  5
332D
  8
0
 10
95.0
 20
33.7
 30
124.0
 70
    64
  0
VERTEX
  5
332E
  8
0
 10
84.5
 20
33.7
 30
124.0
 70
    64
  0
SEQEND
  5
332F
  8
0
  0
POLYLINE
  5
3330
  8
0
 66
     1
 10
0.0
 20
0.0
 30
0.0
 70
    16
 71
     2
 72
     5
  0
VERTEX
  5
3331
  8
0
 10
95.0
 20
48.5
 30
142.0
 70
    64
  0
VERTEX
  5
3332
  8
0
 10
94.0
 20
44.55
 30
136.48
 70
    64
  0
VERTEX
  5
3333
  8
0
 10
91.4
 20
43.44
 30
134.8
 70
    64
  0
VERTEX
  5
3334
  8
0
 10
87.8
 20
42.54
 30
133.7
 70
    64
  0
VERTEX
  5
3335
  8
0
 10
84.5
 20
42.5
 30
133.5
 70
    64
  0
VERTEX
  5
3336
  8
0
 10
95.0
 20
35.7
 30
124.0
 70
    64
  0
VERTEX
  5
3337
  8
0
 10
95.0
 20
35.7
 30
124.0
 70
    64
  0
VERTEX
  5
3338
  8
0
 10
95.0
 20
35.7
 30
124.0
 70
    64
  0
VERTEX
  5
3339
  8
0
 10
95.0
 20
35.7
 30
124.0
 70
    64
  0
VERTEX
  5
333A
  8
0
 10
84.5
 20
35.7
 30
124.0
 70
    64
  0
SEQEND
  5
333B
  8
0
  0
POLYLINE
  5
333C
  8
0
 66
     1
 10
0.0
 20
0.0
 30
0.0
 70
    16
 71
     2
 72
     2
  0
VERTEX
  5
333D
  8
0
 10
95.0
 20
35.7
 30
124.0
 70
    64
  0
VERTEX
  5
333E
  8
0
 10
95.0
 20
35.7
 30
124.0
 70
    64
  0
VERTEX
  5
333F
  8
0
 10
84.5
 20
35.7
 30
124.0
 70
    64
  0
VERTEX
  5
3340
  8
0
 10
84.5
 20
31.5
 30
116.8
 70
    64
  0
SEQEND
  5
3341
  8
0
  0
POLYLINE
  5
3342
  8
0
 66
     1
 10
0.0
 20
0.0
 30
0.0
 70
    16
 71
     2
 72
     2
  0
VERTEX
  5
3343
  8
0
 10
95.0
 20
33.7
 30
124.0
 70
    64
  0
VERTEX
  5
3344
  8
0
 10
84.5
 20
33.7
 30
124.0
 70
    64
  0
VERTEX
  5
3345
  8
0
 10
84.5
 20
29.5
 30
116.8
 70
    64
  0
VERTEX
  5
3346
  8
0
 10
84.5
 20
29.5
 30
116.8
 70
    64
  0
SEQEND
  5
3347
  8
0
  0
INSERT
  5
334E
  8
ASHADE
 62
     1
  2
AVE_RENDER
 10
0.0
 20
0.0
 30
0.0
1001
AVE_RENDER
1002
{
1070
     7
1000
Pref
1070
    30
1070
    20
1070
     1
1070
     0
1000

1070
    10
1070
     1
1070
    10
1040
1.0
1070
     1
1040
0.3
1040
0.7
1040
0.0
1040
10.0
1010
-1.0
1020
-1.0
1030
-1.0
1040
0.3
1070
    49
1070
     0
1070
     0
1010
1.0
1020
1.0
1030
1.0
1040
45.0
1070
     1
1070
     0
1000
WCS
1040
0.0
1070
     0
1040
10.0
1002
}
  0
INSERT
  5
334F
  8
ASHADE
 62
     3
  2
AVE_RENDER
 10
0.0
 20
0.0
 30
0.0
1001
AVE_RENDER
1002
{
1070
     0
1000
Full Opt
1070
     0
1070
     1
1070
     1
1070
     1
1070
     0
1070
     0
1070
     0
1070
     1
1070
     1
1040
0.0001
1040
0.0001
1002
}
  0
INSERT
  5
3350
  8
ASHADE
 62
     4
  2
AVE_RENDER
 10
0.0
 20
0.0
 30
0.0
1001
AVE_RENDER
1002
{
1070
     0
1000
Quick Opt
1070
     0
1070
     1
1070
     1
1070
     1
1070
     0
1070
     0
1070
     1
1002
}
  0
INSERT
  5
3351
  8
ASHADE
 62
     5
  2
AVE_RENDER
 10
0.0
 20
0.0
 30
0.0
1001
AVE_RENDER
1002
{
1070
     1
1000
Scanl Opt
1070
     2
1070
     0
1070
     2
1040
2.0
1040
4.0
1070
     0
1070
     1
1070
     0
1040
0.03
1002
}
  0
INSERT
  5
3352
  8
ASHADE
 62
     6
  2
AVE_RENDER
 10
0.0
 20
0.0
 30
0.0
1001
AVE_RENDER
1002
{
1070
     2
1000
Raytr Opt
1070
     2
1070
     0
1070
     2
1040
2.0
1040
4.0
1070
     0
1070
     1
1070
     1
1040
0.03
1070
     3
1040
0.03
1002
}
  0
INSERT
  5
3353
  8
ASHADE
 62
     7
  2
AVE_RENDER
 10
0.0
 20
0.0
 30
0.0
1001
AVE_RENDER
1002
{
1070
     0
1000
RFile Opt
1070
     1
1070
   640
1070
   480
1070
 10000
1070
     1
1070
     8
1070
     8
1070
     0
1070
     0
1070
     0
1070
     0
1070
     0
1070
     0
1070
     0
1002
}
  0
INSERT
  5
3354
  8
ASHADE
 62
     8
  2
AVE_RENDER
 10
0.0
 20
0.0
 30
0.0
1001
AVE_RENDER
1002
{
1070
     0
1000
Fog Opt
1070
     0
1070
     0
1040
0.0
1040
1.0
1040
0.0
1040
1.0
1010
0.5
1020
0.5
1030
0.5
1002
}
  0
INSERT
  5
3355
  8
ASHADE
 62
     9
  2
AVE_RENDER
 10
0.0
 20
0.0
 30
0.0
1001
AVE_RENDER
1002
{
1070
     0
1000
BG Opt
1070
     0
1070
     1
1010
0.0
1020
0.0
1030
0.0
1010
1.0
1020
0.0
1030
0.0
1010
0.0
1020
1.0
1030
0.0
1010
0.0
1020
0.0
1030
1.0
1040
0.5
1040
0.33
1040
0.0
1000

1070
     1
1000

1070
     1
1070
     1
1040
1.0
1040
1.0
1040
0.0
1040
0.0
1070
     0
1002
}
  0
INSERT
  5
3356
  8
ASHADE
 62
     1
  2
AVE_GLOBAL
 10
0.0
 20
0.0
 30
0.0
1001
AVE_MATERIAL
1002
{
1000
*GLOBAL*
1000
1
1000
Global finish.
1002
{
1002
}
1002
{
1070
    63
1002
{
1002
{
1010
-1.0
1020
-1.0
1030
-1.0
1002
}
1040
0.1
1000

1040
0.0
1002
{
1002
}
1040
0.0
1002
{
1002
}
1040
0.0
1002
}
1002
{
1002
{
1010
-1.0
1020
-1.0
1030
-1.0
1002
}
1040
0.7
1000

1040
0.0
1002
{
1002
}
1040
0.0
1002
{
1002
}
1040
0.0
1002
}
1002
{
1002
{
1010
-1.0
1020
-1.0
1030
-1.0
1002
}
1040
0.2
1000

1040
0.0
1002
{
1002
}
1040
0.0
1002
{
1002
}
1040
0.0
1002
}
1002
{
1070
     0
1002
{
1070
     1
1002
{
1040
1.0
1040
1.0
1000

1040
0.0
1002
{
1002
}
1040
0.0
1002
{
1002
}
1040
0.0
1002
}
1002
}
1040
1.0
1040
0.0
1040
0.0
1002
}
1002
{
1040
1.0
1040
1.0
1000

1040
0.0
1002
{
1002
}
1040
0.0
1002
{
1002
}
1040
0.0
1002
}
1002
{
1040
0.5
1040
1.0
1000

1040
0.0
1002
{
1002
}
1040
0.0
1002
{
1002
}
1040
0.0
1002
}
1002
{
1070
     0
1040
0.0
1002
{
1002
}
1040
1.0
1002
{
1002
}
1040
0.0
1002
}
1002
{
1040
0.0
1002
{
1002
{
1010
0.0
1020
0.0
1030
0.0
1002
}
1040
1.0
1000

1040
0.0
1002
{
1002
}
1040
0.0
1002
{
1002
}
1040
0.0
1002
}
1002
}
1002
{
1002
{
1070
     1
1002
{
1040
0.0
1040
1.0
1000

1040
0.0
1002
{
1002
}
1040
0.0
1002
{
1002
}
1040
0.0
1002
}
1002
}
1040
0.0
1002
{
1002
}
1010
1.0
1020
0.0
1030
0.0
1010
0.0
1020
1.0
1030
0.0
1010
0.0
1020
0.0
1030
1.0
1070
     0
1002
}
1002
{
1002
{
1040
1.0
1040
1.0
1002
{
1070
     1
1002
{
1040
1.0
1040
1.0
1000

1040
0.0
1002
{
1002
}
1040
0.0
1002
{
1002
}
1040
0.0
1002
}
1002
}
1002
}
1070
     0
1040
0.0
1002
{
1002
}
1002
}
1002
{
1002
}
1002
}
1002
{
1071
        3
1070
     3
1070
     0
1002
{
1070
     2
1070
     0
1070
     0
1040
0.0
1002
}
1070
     0
1070
     2
1002
{
1002
}
1002
}
1002
{
1040
8030.0
1040
190.300003
1040
0.305
1040
228.0
1040
545.0
1040
14.0
1040
17.4
1040
0.456
1002
}
1002
}
  0
INSERT
  5
3357
  8
ASHADE
 62
     1
  2
AVE_GLOBAL
 10
0.0
 20
0.0
 30
0.0
1001
AVE_MATERIAL
1002
{
1000
*GLOBAL*
1000
1
1000
Global finish.
1002
{
1002
}
1002
{
1070
    63
1002
{
1002
{
1010
-1.0
1020
-1.0
1030
-1.0
1002
}
1040
0.1
1000

1040
0.0
1002
{
1002
}
1040
0.0
1002
{
1002
}
1040
0.0
1002
}
1002
{
1002
{
1010
-1.0
1020
-1.0
1030
-1.0
1002
}
1040
0.7
1000

1040
0.0
1002
{
1002
}
1040
0.0
1002
{
1002
}
1040
0.0
1002
}
1002
{
1002
{
1010
-1.0
1020
-1.0
1030
-1.0
1002
}
1040
0.2
1000

1040
0.0
1002
{
1002
}
1040
0.0
1002
{
1002
}
1040
0.0
1002
}
1002
{
1070
     0
1002
{
1070
     1
1002
{
1040
1.0
1040
1.0
1000

1040
0.0
1002
{
1002
}
1040
0.0
1002
{
1002
}
1040
0.0
1002
}
1002
}
1040
1.0
1040
0.0
1040
0.0
1002
}
1002
{
1040
1.0
1040
1.0
1000

1040
0.0
1002
{
1002
}
1040
0.0
1002
{
1002
}
1040
0.0
1002
}
1002
{
1040
0.5
1040
1.0
1000

1040
0.0
1002
{
1002
}
1040
0.0
1002
{
1002
}
1040
0.0
1002
}
1002
{
1070
     0
1040
0.0
1002
{
1002
}
1040
1.0
1002
{
1002
}
1040
0.0
1002
}
1002
{
1040
0.0
1002
{
1002
{
1010
0.0
1020
0.0
1030
0.0
1002
}
1040
1.0
1000

1040
0.0
1002
{
1002
}
1040
0.0
1002
{
1002
}
1040
0.0
1002
}
1002
}
1002
{
1002
{
1070
     1
1002
{
1040
0.0
1040
1.0
1000

1040
0.0
1002
{
1002
}
1040
0.0
1002
{
1002
}
1040
0.0
1002
}
1002
}
1040
0.0
1002
{
1002
}
1010
1.0
1020
0.0
1030
0.0
1010
0.0
1020
1.0
1030
0.0
1010
0.0
1020
0.0
1030
1.0
1070
     0
1002
}
1002
{
1002
{
1040
1.0
1040
1.0
1002
{
1070
     1
1002
{
1040
1.0
1040
1.0
1000

1040
0.0
1002
{
1002
}
1040
0.0
1002
{
1002
}
1040
0.0
1002
}
1002
}
1002
}
1070
     0
1040
0.0
1002
{
1002
}
1002
}
1002
{
1002
}
1002
}
1002
{
1071
        3
1070
     3
1070
     0
1002
{
1070
     2
1070
     0
1070
     0
1040
0.0
1002
}
1070
     0
1070
     2
1002
{
1002
}
1002
}
1002
{
1040
8030.0
1040
190.300003
1040
0.305
1040
228.0
1040
545.0
1040
14.0
1040
17.4
1040
0.456
1002
}
1002
}
  0
INSERT
  5
3358
  8
ASHADE
 62
     1
  2
AVE_GLOBAL
 10
0.0
 20
0.0
 30
0.0
1001
AVE_MATERIAL
1002
{
1000
*GLOBAL*
1000
1
1000
Global finish.
1002
{
1002
}
1002
{
1070
    63
1002
{
1002
{
1010
-1.0
1020
-1.0
1030
-1.0
1002
}
1040
0.1
1000

1040
0.0
1002
{
1002
}
1040
0.0
1002
{
1002
}
1040
0.0
1002
}
1002
{
1002
{
1010
-1.0
1020
-1.0
1030
-1.0
1002
}
1040
0.7
1000

1040
0.0
1002
{
1002
}
1040
0.0
1002
{
1002
}
1040
0.0
1002
}
1002
{
1002
{
1010
-1.0
1020
-1.0
1030
-1.0
1002
}
1040
0.2
1000

1040
0.0
1002
{
1002
}
1040
0.0
1002
{
1002
}
1040
0.0
1002
}
1002
{
1070
     0
1002
{
1070
     1
1002
{
1040
1.0
1040
1.0
1000

1040
0.0
1002
{
1002
}
1040
0.0
1002
{
1002
}
1040
0.0
1002
}
1002
}
1040
1.0
1040
0.0
1040
0.0
1002
}
1002
{
1040
1.0
1040
1.0
1000

1040
0.0
1002
{
1002
}
1040
0.0
1002
{
1002
}
1040
0.0
1002
}
1002
{
1040
0.5
1040
1.0
1000

1040
0.0
1002
{
1002
}
1040
0.0
1002
{
1002
}
1040
0.0
1002
}
1002
{
1070
     0
1040
0.0
1002
{
1002
}
1040
1.0
1002
{
1002
}
1040
0.0
1002
}
1002
{
1040
0.0
1002
{
1002
{
1010
0.0
1020
0.0
1030
0.0
1002
}
1040
1.0
1000

1040
0.0
1002
{
1002
}
1040
0.0
1002
{
1002
}
1040
0.0
1002
}
1002
}
1002
{
1002
{
1070
     1
1002
{
1040
0.0
1040
1.0
1000

1040
0.0
1002
{
1002
}
1040
0.0
1002
{
1002
}
1040
0.0
1002
}
1002
}
1040
0.0
1002
{
1002
}
1010
1.0
1020
0.0
1030
0.0
1010
0.0
1020
1.0
1030
0.0
1010
0.0
1020
0.0
1030
1.0
1070
     0
1002
}
1002
{
1002
{
1040
1.0
1040
1.0
1002
{
1070
     1
1002
{
1040
1.0
1040
1.0
1000

1040
0.0
1002
{
1002
}
1040
0.0
1002
{
1002
}
1040
0.0
1002
}
1002
}
1002
}
1070
     0
1040
0.0
1002
{
1002
}
1002
}
1002
{
1002
}
1002
}
1002
{
1071
        3
1070
     3
1070
     0
1002
{
1070
     2
1070
     0
1070
     0
1040
0.0
1002
}
1070
     0
1070
     2
1002
{
1002
}
1002
}
1002
{
1040
8030.0
1040
190.300003
1040
0.305
1040
228.0
1040
545.0
1040
14.0
1040
17.4
1040
0.456
1002
}
1002
}
  0
INSERT
  5
3359
  8
ASHADE
 62
     1
  2
AVE_GLOBAL
 10
0.0
 20
0.0
 30
0.0
1001
AVE_MATERIAL
1002
{
1000
*GLOBAL*
1000
1
1000
Global finish.
1002
{
1002
}
1002
{
1070
    63
1002
{
1002
{
1010
-1.0
1020
-1.0
1030
-1.0
1002
}
1040
0.1
1000

1040
0.0
1002
{
1002
}
1040
0.0
1002
{
1002
}
1040
0.0
1002
}
1002
{
1002
{
1010
-1.0
1020
-1.0
1030
-1.0
1002
}
1040
0.7
1000

1040
0.0
1002
{
1002
}
1040
0.0
1002
{
1002
}
1040
0.0
1002
}
1002
{
1002
{
1010
-1.0
1020
-1.0
1030
-1.0
1002
}
1040
0.2
1000

1040
0.0
1002
{
1002
}
1040
0.0
1002
{
1002
}
1040
0.0
1002
}
1002
{
1070
     0
1002
{
1070
     1
1002
{
1040
1.0
1040
1.0
1000

1040
0.0
1002
{
1002
}
1040
0.0
1002
{
1002
}
1040
0.0
1002
}
1002
}
1040
1.0
1040
0.0
1040
0.0
1002
}
1002
{
1040
1.0
1040
1.0
1000

1040
0.0
1002
{
1002
}
1040
0.0
1002
{
1002
}
1040
0.0
1002
}
1002
{
1040
0.5
1040
1.0
1000

1040
0.0
1002
{
1002
}
1040
0.0
1002
{
1002
}
1040
0.0
1002
}
1002
{
1070
     0
1040
0.0
1002
{
1002
}
1040
1.0
1002
{
1002
}
1040
0.0
1002
}
1002
{
1040
0.0
1002
{
1002
{
1010
0.0
1020
0.0
1030
0.0
1002
}
1040
1.0
1000

1040
0.0
1002
{
1002
}
1040
0.0
1002
{
1002
}
1040
0.0
1002
}
1002
}
1002
{
1002
{
1070
     1
1002
{
1040
0.0
1040
1.0
1000

1040
0.0
1002
{
1002
}
1040
0.0
1002
{
1002
}
1040
0.0
1002
}
1002
}
1040
0.0
1002
{
1002
}
1010
1.0
1020
0.0
1030
0.0
1010
0.0
1020
1.0
1030
0.0
1010
0.0
1020
0.0
1030
1.0
1070
     0
1002
}
1002
{
1002
{
1040
1.0
1040
1.0
1002
{
1070
     1
1002
{
1040
1.0
1040
1.0
1000

1040
0.0
1002
{
1002
}
1040
0.0
1002
{
1002
}
1040
0.0
1002
}
1002
}
1002
}
1070
     0
1040
0.0
1002
{
1002
}
1002
}
1002
{
1002
}
1002
}
1002
{
1071
        3
1070
     3
1070
     0
1002
{
1070
     2
1070
     0
1070
     0
1040
0.0
1002
}
1070
     0
1070
     2
1002
{
1002
}
1002
}
1002
{
1040
8030.0
1040
190.300003
1040
0.305
1040
228.0
1040
545.0
1040
14.0
1040
17.4
1040
0.456
1002
}
1002
}
  0
INSERT
  5
335A
  8
ASHADE
 62
     1
  2
AVE_GLOBAL
 10
0.0
 20
0.0
 30
0.0
1001
AVE_MATERIAL
1002
{
1000
*GLOBAL*
1000
1
1000
Global finish.
1002
{
1002
}
1002
{
1070
    63
1002
{
1002
{
1010
-1.0
1020
-1.0
1030
-1.0
1002
}
1040
0.1
1000

1040
0.0
1002
{
1002
}
1040
0.0
1002
{
1002
}
1040
0.0
1002
}
1002
{
1002
{
1010
-1.0
1020
-1.0
1030
-1.0
1002
}
1040
0.7
1000

1040
0.0
1002
{
1002
}
1040
0.0
1002
{
1002
}
1040
0.0
1002
}
1002
{
1002
{
1010
-1.0
1020
-1.0
1030
-1.0
1002
}
1040
0.2
1000

1040
0.0
1002
{
1002
}
1040
0.0
1002
{
1002
}
1040
0.0
1002
}
1002
{
1070
     0
1002
{
1070
     1
1002
{
1040
1.0
1040
1.0
1000

1040
0.0
1002
{
1002
}
1040
0.0
1002
{
1002
}
1040
0.0
1002
}
1002
}
1040
1.0
1040
0.0
1040
0.0
1002
}
1002
{
1040
1.0
1040
1.0
1000

1040
0.0
1002
{
1002
}
1040
0.0
1002
{
1002
}
1040
0.0
1002
}
1002
{
1040
0.5
1040
1.0
1000

1040
0.0
1002
{
1002
}
1040
0.0
1002
{
1002
}
1040
0.0
1002
}
1002
{
1070
     0
1040
0.0
1002
{
1002
}
1040
1.0
1002
{
1002
}
1040
0.0
1002
}
1002
{
1040
0.0
1002
{
1002
{
1010
0.0
1020
0.0
1030
0.0
1002
}
1040
1.0
1000

1040
0.0
1002
{
1002
}
1040
0.0
1002
{
1002
}
1040
0.0
1002
}
1002
}
1002
{
1002
{
1070
     1
1002
{
1040
0.0
1040
1.0
1000

1040
0.0
1002
{
1002
}
1040
0.0
1002
{
1002
}
1040
0.0
1002
}
1002
}
1040
0.0
1002
{
1002
}
1010
1.0
1020
0.0
1030
0.0
1010
0.0
1020
1.0
1030
0.0
1010
0.0
1020
0.0
1030
1.0
1070
     0
1002
}
1002
{
1002
{
1040
1.0
1040
1.0
1002
{
1070
     1
1002
{
1040
1.0
1040
1.0
1000

1040
0.0
1002
{
1002
}
1040
0.0
1002
{
1002
}
1040
0.0
1002
}
1002
}
1002
}
1070
     0
1040
0.0
1002
{
1002
}
1002
}
1002
{
1002
}
1002
}
1002
{
1071
        3
1070
     3
1070
     0
1002
{
1070
     2
1070
     0
1070
     0
1040
0.0
1002
}
1070
     0
1070
     2
1002
{
1002
}
1002
}
1002
{
1040
8030.0
1040
190.300003
1040
0.305
1040
228.0
1040
545.0
1040
14.0
1040
17.4
1040
0.456
1002
}
1002
}
  0
INSERT
  5
335B
  8
ASHADE
 62
     1
  2
AVE_RENDER
 10
0.0
 20
0.0
 30
0.0
1001
AVE_RENDER
1002
{
1070
     7
1000
Pref
1070
    30
1070
    20
1070
     1
1070
     0
1000

1070
    10
1070
     1
1070
    10
1040
1.0
1070
     1
1040
0.3
1040
0.7
1040
0.0
1040
10.0
1010
-1.0
1020
-1.0
1030
-1.0
1040
0.3
1070
    49
1070
     0
1070
     0
1010
1.0
1020
1.0
1030
1.0
1040
45.0
1070
     1
1070
     0
1000
WCS
1040
0.0
1070
     0
1040
10.0
1002
}
  0
INSERT
  5
335C
  8
ASHADE
 62
     3
  2
AVE_RENDER
 10
0.0
 20
0.0
 30
0.0
1001
AVE_RENDER
1002
{
1070
     0
1000
Full Opt
1070
     0
1070
     1
1070
     1
1070
     1
1070
     0
1070
     0
1070
     0
1070
     1
1070
     1
1040
0.0001
1040
0.0001
1002
}
  0
INSERT
  5
335D
  8
ASHADE
 62
     4
  2
AVE_RENDER
 10
0.0
 20
0.0
 30
0.0
1001
AVE_RENDER
1002
{
1070
     0
1000
Quick Opt
1070
     0
1070
     1
1070
     1
1070
     1
1070
     0
1070
     0
1070
     1
1002
}
  0
INSERT
  5
335E
  8
ASHADE
 62
     5
  2
AVE_RENDER
 10
0.0
 20
0.0
 30
0.0
1001
AVE_RENDER
1002
{
1070
     1
1000
Scanl Opt
1070
     2
1070
     0
1070
     2
1040
2.0
1040
4.0
1070
     0
1070
     1
1070
     0
1040
0.03
1002
}
  0
INSERT
  5
335F
  8
ASHADE
 62
     6
  2
AVE_RENDER
 10
0.0
 20
0.0
 30
0.0
1001
AVE_RENDER
1002
{
1070
     2
1000
Raytr Opt
1070
     2
1070
     0
1070
     2
1040
2.0
1040
4.0
1070
     0
1070
     1
1070
     1
1040
0.03
1070
     3
1040
0.03
1002
}
  0
INSERT
  5
3360
  8
ASHADE
 62
     7
  2
AVE_RENDER
 10
0.0
 20
0.0
 30
0.0
1001
AVE_RENDER
1002
{
1070
     0
1000
RFile Opt
1070
     1
1070
   640
1070
   480
1070
 10000
1070
     1
1070
     8
1070
     8
1070
     0
1070
     0
1070
     0
1070
     0
1070
     0
1070
     0
1070
     0
1002
}
  0
INSERT
  5
3361
  8
ASHADE
 62
     8
  2
AVE_RENDER
 10
0.0
 20
0.0
 30
0.0
1001
AVE_RENDER
1002
{
1070
     0
1000
Fog Opt
1070
     0
1070
     0
1040
0.0
1040
1.0
1040
0.0
1040
1.0
1010
0.5
1020
0.5
1030
0.5
1002
}
  0
INSERT
  5
3362
  8
ASHADE
 62
     9
  2
AVE_RENDER
 10
0.0
 20
0.0
 30
0.0
1001
AVE_RENDER
1002
{
1070
     0
1000
BG Opt
1070
     0
1070
     1
1010
0.0
1020
0.0
1030
0.0
1010
1.0
1020
0.0
1030
0.0
1010
0.0
1020
1.0
1030
0.0
1010
0.0
1020
0.0
1030
1.0
1040
0.5
1040
0.33
1040
0.0
1000

1070
     1
1000

1070
     1
1070
     1
1040
1.0
1040
1.0
1040
0.0
1040
0.0
1070
     0
1002
}
  0
INSERT
  5
3363
  8
ASHADE
 62
     1
  2
AVE_GLOBAL
 10
0.0
 20
0.0
 30
0.0
1001
AVE_MATERIAL
1002
{
1000
*GLOBAL*
1000
1
1000
Global finish.
1002
{
1002
}
1002
{
1070
    63
1002
{
1002
{
1010
-1.0
1020
-1.0
1030
-1.0
1002
}
1040
0.1
1000

1040
0.0
1002
{
1002
}
1040
0.0
1002
{
1002
}
1040
0.0
1002
}
1002
{
1002
{
1010
-1.0
1020
-1.0
1030
-1.0
1002
}
1040
0.7
1000

1040
0.0
1002
{
1002
}
1040
0.0
1002
{
1002
}
1040
0.0
1002
}
1002
{
1002
{
1010
-1.0
1020
-1.0
1030
-1.0
1002
}
1040
0.2
1000

1040
0.0
1002
{
1002
}
1040
0.0
1002
{
1002
}
1040
0.0
1002
}
1002
{
1070
     0
1002
{
1070
     1
1002
{
1040
1.0
1040
1.0
1000

1040
0.0
1002
{
1002
}
1040
0.0
1002
{
1002
}
1040
0.0
1002
}
1002
}
1040
1.0
1040
0.0
1040
0.0
1002
}
1002
{
1040
1.0
1040
1.0
1000

1040
0.0
1002
{
1002
}
1040
0.0
1002
{
1002
}
1040
0.0
1002
}
1002
{
1040
0.5
1040
1.0
1000

1040
0.0
1002
{
1002
}
1040
0.0
1002
{
1002
}
1040
0.0
1002
}
1002
{
1070
     0
1040
0.0
1002
{
1002
}
1040
1.0
1002
{
1002
}
1040
0.0
1002
}
1002
{
1040
0.0
1002
{
1002
{
1010
0.0
1020
0.0
1030
0.0
1002
}
1040
1.0
1000

1040
0.0
1002
{
1002
}
1040
0.0
1002
{
1002
}
1040
0.0
1002
}
1002
}
1002
{
1002
{
1070
     1
1002
{
1040
0.0
1040
1.0
1000

1040
0.0
1002
{
1002
}
1040
0.0
1002
{
1002
}
1040
0.0
1002
}
1002
}
1040
0.0
1002
{
1002
}
1010
1.0
1020
0.0
1030
0.0
1010
0.0
1020
1.0
1030
0.0
1010
0.0
1020
0.0
1030
1.0
1070
     0
1002
}
1002
{
1002
{
1040
1.0
1040
1.0
1002
{
1070
     1
1002
{
1040
1.0
1040
1.0
1000

1040
0.0
1002
{
1002
}
1040
0.0
1002
{
1002
}
1040
0.0
1002
}
1002
}
1002
}
1070
     0
1040
0.0
1002
{
1002
}
1002
}
1002
{
1002
}
1002
}
1002
{
1071
        3
1070
     3
1070
     0
1002
{
1070
     2
1070
     0
1070
     0
1040
0.0
1002
}
1070
     0
1070
     2
1002
{
1002
}
1002
}
1002
{
1040
8030.0
1040
190.300003
1040
0.305
1040
228.0
1040
545.0
1040
14.0
1040
17.4
1040
0.456
1002
}
1002
}
  0
POLYLINE
  5
3364
  8
0
 66
     1
 10
0.0
 20
0.0
 30
0.0
 70
    16
 71
     5
 72
     7
  0
VERTEX
  5
3365
  8
0
 10
84.5
 20
106.0
 30
138.0
 70
    64
  0
VERTEX
  5
3366
  8
0
 10
84.5
 20
106.0
 30
138.0
 70
    64
  0
VERTEX
  5
3367
  8
0
 10
84.5
 20
106.0
 30
138.0
 70
    64
  0
VERTEX
  5
3368
  8
0
 10
84.5
 20
106.0
 30
138.0
 70
    64
  0
VERTEX
  5
3369
  8
0
 10
84.5
 20
106.0
 30
138.0
 70
    64
  0
VERTEX
  5
336A
  8
0
 10
84.5
 20
106.0
 30
138.0
 70
    64
  0
VERTEX
  5
336B
  8
0
 10
84.5
 20
106.0
 30
138.0
 70
    64
  0
VERTEX
  5
336C
  8
0
 10
48.0
 20
106.0
 30
138.0
 70
    64
  0
VERTEX
  5
336D
  8
0
 10
49.4
 20
106.0
 30
128.6
 70
    64
  0
VERTEX
  5
336E
  8
0
 10
52.9
 20
106.0
 30
119.9
 70
    64
  0
VERTEX
  5
336F
  8
0
 10
58.8
 20
106.0
 30
112.3
 70
    64
  0
VERTEX
  5
3370
  8
0
 10
66.4
 20
106.0
 30
106.4
 70
    64
  0
VERTEX
  5
3371
  8
0
 10
75.1
 20
106.0
 30
102.9
 70
    64
  0
VERTEX
  5
3372
  8
0
 10
84.5
 20
106.0
 30
101.5
 70
    64
  0
VERTEX
  5
3373
  8
0
 10
47.0
 20
105.0
 30
138.0
 70
    64
  0
VERTEX
  5
3374
  8
0
 10
48.3
 20
105.0
 30
128.4
 70
    64
  0
VERTEX
  5
3375
  8
0
 10
52.0
 20
105.0
 30
119.4
 70
    64
  0
VERTEX
  5
3376
  8
0
 10
58.0
 20
105.0
 30
111.5
 70
    64
  0
VERTEX
  5
3377
  8
0
 10
65.9
 20
105.0
 30
105.5
 70
    64
  0
VERTEX
  5
3378
  8
0
 10
74.9
 20
105.0
 30
101.8
 70
    64
  0
VERTEX
  5
3379
  8
0
 10
84.5
 20
105.0
 30
100.5
 70
    64
  0
VERTEX
  5
337A
  8
0
 10
47.0
 20
104.0
 30
138.0
 70
    64
  0
VERTEX
  5
337B
  8
0
 10
48.3
 20
104.0
 30
128.4
 70
    64
  0
VERTEX
  5
337C
  8
0
 10
52.0
 20
104.0
 30
119.4
 70
    64
  0
VERTEX
  5
337D
  8
0
 10
58.0
 20
104.0
 30
111.5
 70
    64
  0
VERTEX
  5
337E
  8
0
 10
65.9
 20
104.0
 30
105.5
 70
    64
  0
VERTEX
  5
337F
  8
0
 10
74.9
 20
104.0
 30
101.8
 70
    64
  0
VERTEX
  5
3380
  8
0
 10
84.5
 20
104.0
 30
100.5
 70
    64
  0
VERTEX
  5
3381
  8
0
 10
48.0
 20
103.0
 30
138.0
 70
    64
  0
VERTEX
  5
3382
  8
0
 10
49.4
 20
103.0
 30
128.6
 70
    64
  0
VERTEX
  5
3383
  8
0
 10
52.9
 20
103.0
 30
119.9
 70
    64
  0
VERTEX
  5
3384
  8
0
 10
58.8
 20
103.0
 30
112.3
 70
    64
  0
VERTEX
  5
3385
  8
0
 10
66.4
 20
103.0
 30
106.4
 70
    64
  0
VERTEX
  5
3386
  8
0
 10
75.1
 20
103.0
 30
102.9
 70
    64
  0
VERTEX
  5
3387
  8
0
 10
84.5
 20
103.0
 30
101.5
 70
    64
  0
SEQEND
  5
3388
  8
0
  0
POLYLINE
  5
3389
  8
0
 66
     1
 10
0.0
 20
0.0
 30
0.0
 70
    16
 71
     5
 72
     7
  0
VERTEX
  5
338A
  8
0
 10
84.5
 20
106.0
 30
138.0
 70
    64
  0
VERTEX
  5
338B
  8
0
 10
84.5
 20
106.0
 30
138.0
 70
    64
  0
VERTEX
  5
338C
  8
0
 10
84.5
 20
106.0
 30
138.0
 70
    64
  0
VERTEX
  5
338D
  8
0
 10
84.5
 20
106.0
 30
138.0
 70
    64
  0
VERTEX
  5
338E
  8
0
 10
84.5
 20
106.0
 30
138.0
 70
    64
  0
VERTEX
  5
338F
  8
0
 10
84.5
 20
106.0
 30
138.0
 70
    64
  0
VERTEX
  5
3390
  8
0
 10
84.5
 20
106.0
 30
138.0
 70
    64
  0
VERTEX
  5
3391
  8
0
 10
48.0
 20
106.0
 30
138.0
 70
    64
  0
VERTEX
  5
3392
  8
0
 10
49.4
 20
106.0
 30
128.6
 70
    64
  0
VERTEX
  5
3393
  8
0
 10
52.9
 20
106.0
 30
119.9
 70
    64
  0
VERTEX
  5
3394
  8
0
 10
58.8
 20
106.0
 30
112.3
 70
    64
  0
VERTEX
  5
3395
  8
0
 10
66.4
 20
106.0
 30
106.4
 70
    64
  0
VERTEX
  5
3396
  8
0
 10
75.1
 20
106.0
 30
102.9
 70
    64
  0
VERTEX
  5
3397
  8
0
 10
84.5
 20
106.0
 30
101.5
 70
    64
  0
VERTEX
  5
3398
  8
0
 10
47.0
 20
105.0
 30
138.0
 70
    64
  0
VERTEX
  5
3399
  8
0
 10
48.3
 20
105.0
 30
128.4
 70
    64
  0
VERTEX
  5
339A
  8
0
 10
52.0
 20
105.0
 30
119.4
 70
    64
  0
VERTEX
  5
339B
  8
0
 10
58.0
 20
105.0
 30
111.5
 70
    64
  0
VERTEX
  5
339C
  8
0
 10
65.9
 20
105.0
 30
105.5
 70
    64
  0
VERTEX
  5
339D
  8
0
 10
74.9
 20
105.0
 30
101.8
 70
    64
  0
VERTEX
  5
339E
  8
0
 10
84.5
 20
105.0
 30
100.5
 70
    64
  0
VERTEX
  5
339F
  8
0
 10
47.0
 20
104.0
 30
138.0
 70
    64
  0
VERTEX
  5
33A0
  8
0
 10
48.3
 20
104.0
 30
128.4
 70
    64
  0
VERTEX
  5
33A1
  8
0
 10
52.0
 20
104.0
 30
119.4
 70
    64
  0
VERTEX
  5
33A2
  8
0
 10
58.0
 20
104.0
 30
111.5
 70
    64
  0
VERTEX
  5
33A3
  8
0
 10
65.9
 20
104.0
 30
105.5
 70
    64
  0
VERTEX
  5
33A4
  8
0
 10
74.9
 20
104.0
 30
101.8
 70
    64
  0
VERTEX
  5
33A5
  8
0
 10
84.5
 20
104.0
 30
100.5
 70
    64
  0
VERTEX
  5
33A6
  8
0
 10
48.0
 20
103.0
 30
138.0
 70
    64
  0
VERTEX
  5
33A7
  8
0
 10
49.4
 20
103.0
 30
128.6
 70
    64
  0
VERTEX
  5
33A8
  8
0
 10
52.9
 20
103.0
 30
119.9
 70
    64
  0
VERTEX
  5
33A9
  8
0
 10
58.8
 20
103.0
 30
112.3
 70
    64
  0
VERTEX
  5
33AA
  8
0
 10
66.4
 20
103.0
 30
106.4
 70
    64
  0
VERTEX
  5
33AB
  8
0
 10
75.1
 20
103.0
 30
102.9
 70
    64
  0
VERTEX
  5
33AC
  8
0
 10
84.5
 20
103.0
 30
101.5
 70
    64
  0
SEQEND
  5
33AD
  8
0
  0
POLYLINE
  5
33AE
  8
0
 66
     1
 10
0.0
 20
0.0
 30
0.0
 70
    16
 71
     5
 72
     7
  0
VERTEX
  5
33AF
  8
0
 10
48.0
 20
103.0
 30
138.0
 70
    64
  0
VERTEX
  5
33B0
  8
0
 10
49.4
 20
103.0
 30
128.6
 70
    64
  0
VERTEX
  5
33B1
  8
0
 10
52.9
 20
103.0
 30
119.9
 70
    64
  0
VERTEX
  5
33B2
  8
0
 10
58.8
 20
103.0
 30
112.3
 70
    64
  0
VERTEX
  5
33B3
  8
0
 10
66.4
 20
103.0
 30
106.4
 70
    64
  0
VERTEX
  5
33B4
  8
0
 10
75.1
 20
103.0
 30
102.9
 70
    64
  0
VERTEX
  5
33B5
  8
0
 10
84.5
 20
103.0
 30
101.5
 70
    64
  0
VERTEX
  5
33B6
  8
0
 10
47.0
 20
102.0
 30
138.0
 70
    64
  0
VERTEX
  5
33B7
  8
0
 10
48.3
 20
102.0
 30
128.4
 70
    64
  0
VERTEX
  5
33B8
  8
0
 10
52.0
 20
102.0
 30
119.4
 70
    64
  0
VERTEX
  5
33B9
  8
0
 10
58.0
 20
102.0
 30
111.5
 70
    64
  0
VERTEX
  5
33BA
  8
0
 10
65.9
 20
102.0
 30
105.5
 70
    64
  0
VERTEX
  5
33BB
  8
0
 10
74.9
 20
102.0
 30
101.8
 70
    64
  0
VERTEX
  5
33BC
  8
0
 10
84.5
 20
102.0
 30
100.5
 70
    64
  0
VERTEX
  5
33BD
  8
0
 10
47.0
 20
101.0
 30
138.0
 70
    64
  0
VERTEX
  5
33BE
  8
0
 10
48.3
 20
101.0
 30
128.4
 70
    64
  0
VERTEX
  5
33BF
  8
0
 10
52.0
 20
101.0
 30
119.4
 70
    64
  0
VERTEX
  5
33C0
  8
0
 10
58.0
 20
101.0
 30
111.5
 70
    64
  0
VERTEX
  5
33C1
  8
0
 10
65.9
 20
101.0
 30
105.5
 70
    64
  0
VERTEX
  5
33C2
  8
0
 10
74.9
 20
101.0
 30
101.8
 70
    64
  0
VERTEX
  5
33C3
  8
0
 10
84.5
 20
101.0
 30
100.5
 70
    64
  0
VERTEX
  5
33C4
  8
0
 10
48.0
 20
100.0
 30
138.0
 70
    64
  0
VERTEX
  5
33C5
  8
0
 10
49.4
 20
100.0
 30
128.6
 70
    64
  0
VERTEX
  5
33C6
  8
0
 10
52.9
 20
100.0
 30
119.9
 70
    64
  0
VERTEX
  5
33C7
  8
0
 10
58.8
 20
100.0
 30
112.3
 70
    64
  0
VERTEX
  5
33C8
  8
0
 10
66.4
 20
100.0
 30
106.4
 70
    64
  0
VERTEX
  5
33C9
  8
0
 10
75.1
 20
100.0
 30
102.9
 70
    64
  0
VERTEX
  5
33CA
  8
0
 10
84.5
 20
100.0
 30
101.5
 70
    64
  0
VERTEX
  5
33CB
  8
0
 10
49.0
 20
100.0
 30
138.0
 70
    64
  0
VERTEX
  5
33CC
  8
0
 10
50.3
 20
100.0
 30
128.9
 70
    64
  0
VERTEX
  5
33CD
  8
0
 10
53.8
 20
100.0
 30
120.4
 70
    64
  0
VERTEX
  5
33CE
  8
0
 10
59.5
 20
100.0
 30
113.0
 70
    64
  0
VERTEX
  5
33CF
  8
0
 10
66.9
 20
100.0
 30
107.3
 70
    64
  0
VERTEX
  5
33D0
  8
0
 10
75.4
 20
100.0
 30
103.8
 70
    64
  0
VERTEX
  5
33D1
  8
0
 10
84.5
 20
100.0
 30
102.5
 70
    64
  0
SEQEND
  5
33D2
  8
0
  0
POLYLINE
  5
33D3
  8
0
 66
     1
 10
0.0
 20
0.0
 30
0.0
 70
    16
 71
     8
 72
     7
  0
VERTEX
  5
33D4
  8
0
 10
49.0
 20
100.0
 30
138.0
 70
    64
  0
VERTEX
  5
33D5
  8
0
 10
50.3
 20
100.0
 30
128.9
 70
    64
  0
VERTEX
  5
33D6
  8
0
 10
53.8
 20
100.0
 30
120.4
 70
    64
  0
VERTEX
  5
33D7
  8
0
 10
59.5
 20
100.0
 30
113.0
 70
    64
  0
VERTEX
  5
33D8
  8
0
 10
66.9
 20
100.0
 30
107.3
 70
    64
  0
VERTEX
  5
33D9
  8
0
 10
75.4
 20
100.0
 30
103.8
 70
    64
  0
VERTEX
  5
33DA
  8
0
 10
84.5
 20
100.0
 30
102.5
 70
    64
  0
VERTEX
  5
33DB
  8
0
 10
50.0
 20
93.0
 30
138.0
 70
    64
  0
VERTEX
  5
33DC
  8
0
 10
51.3
 20
93.0
 30
129.1
 70
    64
  0
VERTEX
  5
33DD
  8
0
 10
54.7
 20
93.0
 30
120.8
 70
    64
  0
VERTEX
  5
33DE
  8
0
 10
60.2
 20
93.0
 30
113.7
 70
    64
  0
VERTEX
  5
33DF
  8
0
 10
67.3
 20
93.0
 30
108.2
 70
    64
  0
VERTEX
  5
33E0
  8
0
 10
75.6
 20
93.0
 30
104.8
 70
    64
  0
VERTEX
  5
33E1
  8
0
 10
84.5
 20
93.0
 30
103.5
 70
    64
  0
VERTEX
  5
33E2
  8
0
 10
53.0
 20
86.0
 30
138.0
 70
    64
  0
VERTEX
  5
33E3
  8
0
 10
54.2
 20
86.0
 30
129.9
 70
    64
  0
VERTEX
  5
33E4
  8
0
 10
57.3
 20
86.0
 30
122.3
 70
    64
  0
VERTEX
  5
33E5
  8
0
 10
62.3
 20
86.0
 30
115.8
 70
    64
  0
VERTEX
  5
33E6
  8
0
 10
68.8
 20
86.0
 30
110.8
 70
    64
  0
VERTEX
  5
33E7
  8
0
 10
76.4
 20
86.0
 30
107.7
 70
    64
  0
VERTEX
  5
33E8
  8
0
 10
84.5
 20
86.0
 30
106.5
 70
    64
  0
VERTEX
  5
33E9
  8
0
 10
58.0
 20
80.0
 30
138.0
 70
    64
  0
VERTEX
  5
33EA
  8
0
 10
59.0
 20
80.0
 30
131.2
 70
    64
  0
VERTEX
  5
33EB
  8
0
 10
61.6
 20
80.0
 30
124.8
 70
    64
  0
VERTEX
  5
33EC
  8
0
 10
65.8
 20
80.0
 30
119.3
 70
    64
  0
VERTEX
  5
33ED
  8
0
 10
71.3
 20
80.0
 30
115.1
 70
    64
  0
VERTEX
  5
33EE
  8
0
 10
77.7
 20
80.0
 30
112.5
 70
    64
  0
VERTEX
  5
33EF
  8
0
 10
84.5
 20
80.0
 30
111.5
 70
    64
  0
VERTEX
  5
33F0
  8
0
 10
64.0
 20
75.5
 30
138.0
 70
    64
  0
VERTEX
  5
33F1
  8
0
 10
64.8
 20
75.5
 30
132.7
 70
    64
  0
VERTEX
  5
33F2
  8
0
 10
66.8
 20
75.5
 30
127.8
 70
    64
  0
VERTEX
  5
33F3
  8
0
 10
70.0
 20
75.5
 30
123.5
 70
    64
  0
VERTEX
  5
33F4
  8
0
 10
74.3
 20
75.5
 30
120.3
 70
    64
  0
VERTEX
  5
33F5
  8
0
 10
79.2
 20
75.5
 30
118.3
 70
    64
  0
VERTEX
  5
33F6
  8
0
 10
84.5
 20
75.5
 30
117.5
 70
    64
  0
VERTEX
  5
33F7
  8
0
 10
70.5
 20
72.5
 30
138.0
 70
    64
  0
VERTEX
  5
33F8
  8
0
 10
71.0
 20
72.5
 30
134.4
 70
    64
  0
VERTEX
  5
33F9
  8
0
 10
72.4
 20
72.5
 30
131.0
 70
    64
  0
VERTEX
  5
33FA
  8
0
 10
74.6
 20
72.5
 30
128.1
 70
    64
  0
VERTEX
  5
33FB
  8
0
 10
77.5
 20
72.5
 30
125.9
 70
    64
  0
VERTEX
  5
33FC
  8
0
 10
80.9
 20
72.5
 30
124.5
 70
    64
  0
VERTEX
  5
33FD
  8
0
 10
84.5
 20
72.5
 30
124.0
 70
    64
  0
VERTEX
  5
33FE
  8
0
 10
76.5
 20
70.7
 30
138.0
 70
    64
  0
VERTEX
  5
33FF
  8
0
 10
76.8
 20
70.7
 30
135.9
 70
    64
  0
VERTEX
  5
3400
  8
0
 10
77.6
 20
70.7
 30
134.0
 70
    64
  0
VERTEX
  5
3401
  8
0
 10
78.9
 20
70.7
 30
132.4
 70
    64
  0
VERTEX
  5
3402
  8
0
 10
80.5
 20
70.7
 30
131.1
 70
    64
  0
VERTEX
  5
3403
  8
0
 10
82.4
 20
70.7
 30
130.3
 70
    64
  0
VERTEX
  5
3404
  8
0
 10
84.5
 20
70.7
 30
130.0
 70
    64
  0
VERTEX
  5
3405
  8
0
 10
84.5
 20
70.0
 30
138.0
 70
    64
  0
VERTEX
  5
3406
  8
0
 10
84.5
 20
70.0
 30
138.0
 70
    64
  0
VERTEX
  5
3407
  8
0
 10
84.5
 20
70.0
 30
138.0
 70
    64
  0
VERTEX
  5
3408
  8
0
 10
84.5
 20
70.0
 30
138.0
 70
    64
  0
VERTEX
  5
3409
  8
0
 10
84.5
 20
70.0
 30
138.0
 70
    64
  0
VERTEX
  5
340A
  8
0
 10
84.5
 20
70.0
 30
138.0
 70
    64
  0
VERTEX
  5
340B
  8
0
 10
84.5
 20
70.0
 30
138.0
 70
    64
  0
SEQEND
  5
340C
  8
0
  0
POLYLINE
  5
340D
  8
0
 66
     1
 10
0.0
 20
0.0
 30
0.0
 70
    16
 71
     8
 72
     7
  0
VERTEX
  5
340E
  8
0
 10
120.0
 20
100.0
 30
138.0
 70
    64
  0
VERTEX
  5
340F
  8
0
 10
118.7
 20
100.0
 30
128.9
 70
    64
  0
VERTEX
  5
3410
  8
0
 10
115.2
 20
100.0
 30
120.4
 70
    64
  0
VERTEX
  5
3411
  8
0
 10
109.5
 20
100.0
 30
113.0
 70
    64
  0
VERTEX
  5
3412
  8
0
 10
102.1
 20
100.0
 30
107.3
 70
    64
  0
VERTEX
  5
3413
  8
0
 10
93.6
 20
100.0
 30
103.8
 70
    64
  0
VERTEX
  5
3414
  8
0
 10
84.5
 20
100.0
 30
102.5
 70
    64
  0
VERTEX
  5
3415
  8
0
 10
119.0
 20
93.0
 30
138.0
 70
    64
  0
VERTEX
  5
3416
  8
0
 10
117.7
 20
93.0
 30
129.1
 70
    64
  0
VERTEX
  5
3417
  8
0
 10
114.3
 20
93.0
 30
120.8
 70
    64
  0
VERTEX
  5
3418
  8
0
 10
108.8
 20
93.0
 30
113.7
 70
    64
  0
VERTEX
  5
3419
  8
0
 10
101.7
 20
93.0
 30
108.2
 70
    64
  0
VERTEX
  5
341A
  8
0
 10
93.4
 20
93.0
 30
104.8
 70
    64
  0
VERTEX
  5
341B
  8
0
 10
84.5
 20
93.0
 30
103.5
 70
    64
  0
VERTEX
  5
341C
  8
0
 10
116.0
 20
86.0
 30
138.0
 70
    64
  0
VERTEX
  5
341D
  8
0
 10
114.8
 20
86.0
 30
129.9
 70
    64
  0
VERTEX
  5
341E
  8
0
 10
111.7
 20
86.0
 30
122.3
 70
    64
  0
VERTEX
  5
341F
  8
0
 10
106.7
 20
86.0
 30
115.8
 70
    64
  0
VERTEX
  5
3420
  8
0
 10
100.2
 20
86.0
 30
110.8
 70
    64
  0
VERTEX
  5
3421
  8
0
 10
92.6
 20
86.0
 30
107.7
 70
    64
  0
VERTEX
  5
3422
  8
0
 10
84.5
 20
86.0
 30
106.5
 70
    64
  0
VERTEX
  5
3423
  8
0
 10
111.0
 20
80.0
 30
138.0
 70
    64
  0
VERTEX
  5
3424
  8
0
 10
110.0
 20
80.0
 30
131.2
 70
    64
  0
VERTEX
  5
3425
  8
0
 10
107.4
 20
80.0
 30
124.8
 70
    64
  0
VERTEX
  5
3426
  8
0
 10
103.2
 20
80.0
 30
119.3
 70
    64
  0
VERTEX
  5
3427
  8
0
 10
97.7
 20
80.0
 30
115.1
 70
    64
  0
VERTEX
  5
3428
  8
0
 10
91.3
 20
80.0
 30
112.5
 70
    64
  0
VERTEX
  5
3429
  8
0
 10
84.5
 20
80.0
 30
111.5
 70
    64
  0
VERTEX
  5
342A
  8
0
 10
105.0
 20
75.5
 30
138.0
 70
    64
  0
VERTEX
  5
342B
  8
0
 10
104.2
 20
75.5
 30
132.7
 70
    64
  0
VERTEX
  5
342C
  8
0
 10
102.2
 20
75.5
 30
127.8
 70
    64
  0
VERTEX
  5
342D
  8
0
 10
99.0
 20
75.5
 30
123.5
 70
    64
  0
VERTEX
  5
342E
  8
0
 10
94.7
 20
75.5
 30
120.3
 70
    64
  0
VERTEX
  5
342F
  8
0
 10
89.8
 20
75.5
 30
118.3
 70
    64
  0
VERTEX
  5
3430
  8
0
 10
84.5
 20
75.5
 30
117.5
 70
    64
  0
VERTEX
  5
3431
  8
0
 10
98.5
 20
72.5
 30
138.0
 70
    64
  0
VERTEX
  5
3432
  8
0
 10
98.0
 20
72.5
 30
134.4
 70
    64
  0
VERTEX
  5
3433
  8
0
 10
96.6
 20
72.5
 30
131.0
 70
    64
  0
VERTEX
  5
3434
  8
0
 10
94.4
 20
72.5
 30
128.1
 70
    64
  0
VERTEX
  5
3435
  8
0
 10
91.5
 20
72.5
 30
125.9
 70
    64
  0
VERTEX
  5
3436
  8
0
 10
88.1
 20
72.5
 30
124.5
 70
    64
  0
VERTEX
  5
3437
  8
0
 10
84.5
 20
72.5
 30
124.0
 70
    64
  0
VERTEX
  5
3438
  8
0
 10
92.5
 20
70.7
 30
138.0
 70
    64
  0
VERTEX
  5
3439
  8
0
 10
92.2
 20
70.7
 30
135.9
 70
    64
  0
VERTEX
  5
343A
  8
0
 10
91.4
 20
70.7
 30
134.0
 70
    64
  0
VERTEX
  5
343B
  8
0
 10
90.1
 20
70.7
 30
132.4
 70
    64
  0
VERTEX
  5
343C
  8
0
 10
88.5
 20
70.7
 30
131.1
 70
    64
  0
VERTEX
  5
343D
  8
0
 10
86.6
 20
70.7
 30
130.3
 70
    64
  0
VERTEX
  5
343E
  8
0
 10
84.5
 20
70.7
 30
130.0
 70
    64
  0
VERTEX
  5
343F
  8
0
 10
84.5
 20
70.0
 30
138.0
 70
    64
  0
VERTEX
  5
3440
  8
0
 10
84.5
 20
70.0
 30
138.0
 70
    64
  0
VERTEX
  5
3441
  8
0
 10
84.5
 20
70.0
 30
138.0
 70
    64
  0
VERTEX
  5
3442
  8
0
 10
84.5
 20
70.0
 30
138.0
 70
    64
  0
VERTEX
  5
3443
  8
0
 10
84.5
 20
70.0
 30
138.0
 70
    64
  0
VERTEX
  5
3444
  8
0
 10
84.5
 20
70.0
 30
138.0
 70
    64
  0
VERTEX
  5
3445
  8
0
 10
84.5
 20
70.0
 30
138.0
 70
    64
  0
SEQEND
  5
3446
  8
0
  0
POLYLINE
  5
3447
  8
0
 66
     1
 10
0.0
 20
0.0
 30
0.0
 70
    16
 71
     5
 72
     7
  0
VERTEX
  5
3448
  8
0
 10
121.0
 20
103.0
 30
138.0
 70
    64
  0
VERTEX
  5
3449
  8
0
 10
119.6
 20
103.0
 30
128.6
 70
    64
  0
VERTEX
  5
344A
  8
0
 10
116.1
 20
103.0
 30
119.9
 70
    64
  0
VERTEX
  5
344B
  8
0
 10
110.2
 20
103.0
 30
112.3
 70
    64
  0
VERTEX
  5
344C
  8
0
 10
102.6
 20
103.0
 30
106.4
 70
    64
  0
VERTEX
  5
344D
  8
0
 10
93.9
 20
103.0
 30
102.9
 70
    64
  0
VERTEX
  5
344E
  8
0
 10
84.5
 20
103.0
 30
101.5
 70
    64
  0
VERTEX
  5
344F
  8
0
 10
122.0
 20
102.0
 30
138.0
 70
    64
  0
VERTEX
  5
3450
  8
0
 10
120.7
 20
102.0
 30
128.4
 70
    64
  0
VERTEX
  5
3451
  8
0
 10
117.0
 20
102.0
 30
119.4
 70
    64
  0
VERTEX
  5
3452
  8
0
 10
111.0
 20
102.0
 30
111.5
 70
    64
  0
VERTEX
  5
3453
  8
0
 10
103.1
 20
102.0
 30
105.5
 70
    64
  0
VERTEX
  5
3454
  8
0
 10
94.1
 20
102.0
 30
101.8
 70
    64
  0
VERTEX
  5
3455
  8
0
 10
84.5
 20
102.0
 30
100.5
 70
    64
  0
VERTEX
  5
3456
  8
0
 10
122.0
 20
101.0
 30
138.0
 70
    64
  0
VERTEX
  5
3457
  8
0
 10
120.7
 20
101.0
 30
128.4
 70
    64
  0
VERTEX
  5
3458
  8
0
 10
117.0
 20
101.0
 30
119.4
 70
    64
  0
VERTEX
  5
3459
  8
0
 10
111.0
 20
101.0
 30
111.5
 70
    64
  0
VERTEX
  5
345A
  8
0
 10
103.1
 20
101.0
 30
105.5
 70
    64
  0
VERTEX
  5
345B
  8
0
 10
94.1
 20
101.0
 30
101.8
 70
    64
  0
VERTEX
  5
345C
  8
0
 10
84.5
 20
101.0
 30
100.5
 70
    64
  0
VERTEX
  5
345D
  8
0
 10
121.0
 20
100.0
 30
138.0
 70
    64
  0
VERTEX
  5
345E
  8
0
 10
119.6
 20
100.0
 30
128.6
 70
    64
  0
VERTEX
  5
345F
  8
0
 10
116.1
 20
100.0
 30
119.9
 70
    64
  0
VERTEX
  5
3460
  8
0
 10
110.2
 20
100.0
 30
112.3
 70
    64
  0
VERTEX
  5
3461
  8
0
 10
102.6
 20
100.0
 30
106.4
 70
    64
  0
VERTEX
  5
3462
  8
0
 10
93.9
 20
100.0
 30
102.9
 70
    64
  0
VERTEX
  5
3463
  8
0
 10
84.5
 20
100.0
 30
101.5
 70
    64
  0
VERTEX
  5
3464
  8
0
 10
120.0
 20
100.0
 30
138.0
 70
    64
  0
VERTEX
  5
3465
  8
0
 10
118.7
 20
100.0
 30
128.9
 70
    64
  0
VERTEX
  5
3466
  8
0
 10
115.2
 20
100.0
 30
120.4
 70
    64
  0
VERTEX
  5
3467
  8
0
 10
109.5
 20
100.0
 30
113.0
 70
    64
  0
VERTEX
  5
3468
  8
0
 10
102.1
 20
100.0
 30
107.3
 70
    64
  0
VERTEX
  5
3469
  8
0
 10
93.6
 20
100.0
 30
103.8
 70
    64
  0
VERTEX
  5
346A
  8
0
 10
84.5
 20
100.0
 30
102.5
 70
    64
  0
SEQEND
  5
346B
  8
0
  0
POLYLINE
  5
346C
  8
0
 66
     1
 10
0.0
 20
0.0
 30
0.0
 70
    16
 71
     5
 72
     7
  0
VERTEX
  5
346D
  8
0
 10
84.5
 20
106.0
 30
138.0
 70
    64
  0
VERTEX
  5
346E
  8
0
 10
84.5
 20
106.0
 30
138.0
 70
    64
  0
VERTEX
  5
346F
  8
0
 10
84.5
 20
106.0
 30
138.0
 70
    64
  0
VERTEX
  5
3470
  8
0
 10
84.5
 20
106.0
 30
138.0
 70
    64
  0
VERTEX
  5
3471
  8
0
 10
84.5
 20
106.0
 30
138.0
 70
    64
  0
VERTEX
  5
3472
  8
0
 10
84.5
 20
106.0
 30
138.0
 70
    64
  0
VERTEX
  5
3473
  8
0
 10
84.5
 20
106.0
 30
138.0
 70
    64
  0
VERTEX
  5
3474
  8
0
 10
121.0
 20
106.0
 30
138.0
 70
    64
  0
VERTEX
  5
3475
  8
0
 10
119.6
 20
106.0
 30
128.6
 70
    64
  0
VERTEX
  5
3476
  8
0
 10
116.1
 20
106.0
 30
119.9
 70
    64
  0
VERTEX
  5
3477
  8
0
 10
110.2
 20
106.0
 30
112.3
 70
    64
  0
VERTEX
  5
3478
  8
0
 10
102.6
 20
106.0
 30
106.4
 70
    64
  0
VERTEX
  5
3479
  8
0
 10
93.9
 20
106.0
 30
102.9
 70
    64
  0
VERTEX
  5
347A
  8
0
 10
84.5
 20
106.0
 30
101.5
 70
    64
  0
VERTEX
  5
347B
  8
0
 10
122.0
 20
105.0
 30
138.0
 70
    64
  0
VERTEX
  5
347C
  8
0
 10
120.7
 20
105.0
 30
128.4
 70
    64
  0
VERTEX
  5
347D
  8
0
 10
117.0
 20
105.0
 30
119.4
 70
    64
  0
VERTEX
  5
347E
  8
0
 10
111.0
 20
105.0
 30
111.5
 70
    64
  0
VERTEX
  5
347F
  8
0
 10
103.1
 20
105.0
 30
105.5
 70
    64
  0
VERTEX
  5
3480
  8
0
 10
94.1
 20
105.0
 30
101.8
 70
    64
  0
VERTEX
  5
3481
  8
0
 10
84.5
 20
105.0
 30
100.5
 70
    64
  0
VERTEX
  5
3482
  8
0
 10
122.0
 20
104.0
 30
138.0
 70
    64
  0
VERTEX
  5
3483
  8
0
 10
120.7
 20
104.0
 30
128.4
 70
    64
  0
VERTEX
  5
3484
  8
0
 10
117.0
 20
104.0
 30
119.4
 70
    64
  0
VERTEX
  5
3485
  8
0
 10
111.0
 20
104.0
 30
111.5
 70
    64
  0
VERTEX
  5
3486
  8
0
 10
103.1
 20
104.0
 30
105.5
 70
    64
  0
VERTEX
  5
3487
  8
0
 10
94.1
 20
104.0
 30
101.8
 70
    64
  0
VERTEX
  5
3488
  8
0
 10
84.5
 20
104.0
 30
100.5
 70
    64
  0
VERTEX
  5
3489
  8
0
 10
121.0
 20
103.0
 30
138.0
 70
    64
  0
VERTEX
  5
348A
  8
0
 10
119.6
 20
103.0
 30
128.6
 70
    64
  0
VERTEX
  5
348B
  8
0
 10
116.1
 20
103.0
 30
119.9
 70
    64
  0
VERTEX
  5
348C
  8
0
 10
110.2
 20
103.0
 30
112.3
 70
    64
  0
VERTEX
  5
348D
  8
0
 10
102.6
 20
103.0
 30
106.4
 70
    64
  0
VERTEX
  5
348E
  8
0
 10
93.9
 20
103.0
 30
102.9
 70
    64
  0
VERTEX
  5
348F
  8
0
 10
84.5
 20
103.0
 30
101.5
 70
    64
  0
SEQEND
  5
3490
  8
0
  0
POLYLINE
  5
3491
  8
0
 66
     1
 10
0.0
 20
0.0
 30
0.0
 70
    16
 71
     5
 72
     7
  0
VERTEX
  5
3492
  8
0
 10
84.5
 20
106.0
 30
138.0
 70
    64
  0
VERTEX
  5
3493
  8
0
 10
84.5
 20
106.0
 30
138.0
 70
    64
  0
VERTEX
  5
3494
  8
0
 10
84.5
 20
106.0
 30
138.0
 70
    64
  0
VERTEX
  5
3495
  8
0
 10
84.5
 20
106.0
 30
138.0
 70
    64
  0
VERTEX
  5
3496
  8
0
 10
84.5
 20
106.0
 30
138.0
 70
    64
  0
VERTEX
  5
3497
  8
0
 10
84.5
 20
106.0
 30
138.0
 70
    64
  0
VERTEX
  5
3498
  8
0
 10
84.5
 20
106.0
 30
138.0
 70
    64
  0
VERTEX
  5
3499
  8
0
 10
121.0
 20
106.0
 30
138.0
 70
    64
  0
VERTEX
  5
349A
  8
0
 10
119.6
 20
106.0
 30
128.6
 70
    64
  0
VERTEX
  5
349B
  8
0
 10
116.1
 20
106.0
 30
119.9
 70
    64
  0
VERTEX
  5
349C
  8
0
 10
110.2
 20
106.0
 30
112.3
 70
    64
  0
VERTEX
  5
349D
  8
0
 10
102.6
 20
106.0
 30
106.4
 70
    64
  0
VERTEX
  5
349E
  8
0
 10
93.9
 20
106.0
 30
102.9
 70
    64
  0
VERTEX
  5
349F
  8
0
 10
84.5
 20
106.0
 30
101.5
 70
    64
  0
VERTEX
  5
34A0
  8
0
 10
122.0
 20
105.0
 30
138.0
 70
    64
  0
VERTEX
  5
34A1
  8
0
 10
120.7
 20
105.0
 30
128.4
 70
    64
  0
VERTEX
  5
34A2
  8
0
 10
117.0
 20
105.0
 30
119.4
 70
    64
  0
VERTEX
  5
34A3
  8
0
 10
111.0
 20
105.0
 30
111.5
 70
    64
  0
VERTEX
  5
34A4
  8
0
 10
103.1
 20
105.0
 30
105.5
 70
    64
  0
VERTEX
  5
34A5
  8
0
 10
94.1
 20
105.0
 30
101.8
 70
    64
  0
VERTEX
  5
34A6
  8
0
 10
84.5
 20
105.0
 30
100.5
 70
    64
  0
VERTEX
  5
34A7
  8
0
 10
122.0
 20
104.0
 30
138.0
 70
    64
  0
VERTEX
  5
34A8
  8
0
 10
120.7
 20
104.0
 30
128.4
 70
    64
  0
VERTEX
  5
34A9
  8
0
 10
117.0
 20
104.0
 30
119.4
 70
    64
  0
VERTEX
  5
34AA
  8
0
 10
111.0
 20
104.0
 30
111.5
 70
    64
  0
VERTEX
  5
34AB
  8
0
 10
103.1
 20
104.0
 30
105.5
 70
    64
  0
VERTEX
  5
34AC
  8
0
 10
94.1
 20
104.0
 30
101.8
 70
    64
  0
VERTEX
  5
34AD
  8
0
 10
84.5
 20
104.0
 30
100.5
 70
    64
  0
VERTEX
  5
34AE
  8
0
 10
121.0
 20
103.0
 30
138.0
 70
    64
  0
VERTEX
  5
34AF
  8
0
 10
119.6
 20
103.0
 30
128.6
 70
    64
  0
VERTEX
  5
34B0
  8
0
 10
116.1
 20
103.0
 30
119.9
 70
    64
  0
VERTEX
  5
34B1
  8
0
 10
110.2
 20
103.0
 30
112.3
 70
    64
  0
VERTEX
  5
34B2
  8
0
 10
102.6
 20
103.0
 30
106.4
 70
    64
  0
VERTEX
  5
34B3
  8
0
 10
93.9
 20
103.0
 30
102.9
 70
    64
  0
VERTEX
  5
34B4
  8
0
 10
84.5
 20
103.0
 30
101.5
 70
    64
  0
SEQEND
  5
34B5
  8
0
  0
POLYLINE
  5
34B6
  8
0
 66
     1
 10
0.0
 20
0.0
 30
0.0
 70
    16
 71
     8
 72
     7
  0
VERTEX
  5
34B7
  8
0
 10
49.0
 20
100.0
 30
138.0
 70
    64
  0
VERTEX
  5
34B8
  8
0
 10
50.3
 20
100.0
 30
147.1
 70
    64
  0
VERTEX
  5
34B9
  8
0
 10
53.8
 20
100.0
 30
155.6
 70
    64
  0
VERTEX
  5
34BA
  8
0
 10
59.5
 20
100.0
 30
163.0
 70
    64
  0
VERTEX
  5
34BB
  8
0
 10
66.9
 20
100.0
 30
168.7
 70
    64
  0
VERTEX
  5
34BC
  8
0
 10
75.4
 20
100.0
 30
172.2
 70
    64
  0
VERTEX
  5
34BD
  8
0
 10
84.5
 20
100.0
 30
173.5
 70
    64
  0
VERTEX
  5
34BE
  8
0
 10
50.0
 20
93.0
 30
138.0
 70
    64
  0
VERTEX
  5
34BF
  8
0
 10
51.3
 20
93.0
 30
146.9
 70
    64
  0
VERTEX
  5
34C0
  8
0
 10
54.7
 20
93.0
 30
155.2
 70
    64
  0
VERTEX
  5
34C1
  8
0
 10
60.2
 20
93.0
 30
162.3
 70
    64
  0
VERTEX
  5
34C2
  8
0
 10
67.3
 20
93.0
 30
167.8
 70
    64
  0
VERTEX
  5
34C3
  8
0
 10
75.6
 20
93.0
 30
171.2
 70
    64
  0
VERTEX
  5
34C4
  8
0
 10
84.5
 20
93.0
 30
172.5
 70
    64
  0
VERTEX
  5
34C5
  8
0
 10
53.0
 20
86.0
 30
138.0
 70
    64
  0
VERTEX
  5
34C6
  8
0
 10
54.2
 20
86.0
 30
146.1
 70
    64
  0
VERTEX
  5
34C7
  8
0
 10
57.3
 20
86.0
 30
153.7
 70
    64
  0
VERTEX
  5
34C8
  8
0
 10
62.3
 20
86.0
 30
160.2
 70
    64
  0
VERTEX
  5
34C9
  8
0
 10
68.8
 20
86.0
 30
165.2
 70
    64
  0
VERTEX
  5
34CA
  8
0
 10
76.4
 20
86.0
 30
168.3
 70
    64
  0
VERTEX
  5
34CB
  8
0
 10
84.5
 20
86.0
 30
169.5
 70
    64
  0
VERTEX
  5
34CC
  8
0
 10
58.0
 20
80.0
 30
138.0
 70
    64
  0
VERTEX
  5
34CD
  8
0
 10
59.0
 20
80.0
 30
144.8
 70
    64
  0
VERTEX
  5
34CE
  8
0
 10
61.6
 20
80.0
 30
151.2
 70
    64
  0
VERTEX
  5
34CF
  8
0
 10
65.8
 20
80.0
 30
156.7
 70
    64
  0
VERTEX
  5
34D0
  8
0
 10
71.3
 20
80.0
 30
160.9
 70
    64
  0
VERTEX
  5
34D1
  8
0
 10
77.7
 20
80.0
 30
163.5
 70
    64
  0
VERTEX
  5
34D2
  8
0
 10
84.5
 20
80.0
 30
164.5
 70
    64
  0
VERTEX
  5
34D3
  8
0
 10
64.0
 20
75.5
 30
138.0
 70
    64
  0
VERTEX
  5
34D4
  8
0
 10
64.8
 20
75.5
 30
143.3
 70
    64
  0
VERTEX
  5
34D5
  8
0
 10
66.8
 20
75.5
 30
148.2
 70
    64
  0
VERTEX
  5
34D6
  8
0
 10
70.0
 20
75.5
 30
152.5
 70
    64
  0
VERTEX
  5
34D7
  8
0
 10
74.3
 20
75.5
 30
155.7
 70
    64
  0
VERTEX
  5
34D8
  8
0
 10
79.2
 20
75.5
 30
157.7
 70
    64
  0
VERTEX
  5
34D9
  8
0
 10
84.5
 20
75.5
 30
158.5
 70
    64
  0
VERTEX
  5
34DA
  8
0
 10
70.5
 20
72.5
 30
138.0
 70
    64
  0
VERTEX
  5
34DB
  8
0
 10
71.0
 20
72.5
 30
141.6
 70
    64
  0
VERTEX
  5
34DC
  8
0
 10
72.4
 20
72.5
 30
145.0
 70
    64
  0
VERTEX
  5
34DD
  8
0
 10
74.6
 20
72.5
 30
147.9
 70
    64
  0
VERTEX
  5
34DE
  8
0
 10
77.5
 20
72.5
 30
150.1
 70
    64
  0
VERTEX
  5
34DF
  8
0
 10
80.9
 20
72.5
 30
151.5
 70
    64
  0
VERTEX
  5
34E0
  8
0
 10
84.5
 20
72.5
 30
152.0
 70
    64
  0
VERTEX
  5
34E1
  8
0
 10
76.5
 20
70.7
 30
138.0
 70
    64
  0
VERTEX
  5
34E2
  8
0
 10
76.8
 20
70.7
 30
140.1
 70
    64
  0
VERTEX
  5
34E3
  8
0
 10
77.6
 20
70.7
 30
142.0
 70
    64
  0
VERTEX
  5
34E4
  8
0
 10
78.9
 20
70.7
 30
143.6
 70
    64
  0
VERTEX
  5
34E5
  8
0
 10
80.5
 20
70.7
 30
144.9
 70
    64
  0
VERTEX
  5
34E6
  8
0
 10
82.4
 20
70.7
 30
145.7
 70
    64
  0
VERTEX
  5
34E7
  8
0
 10
84.5
 20
70.7
 30
146.0
 70
    64
  0
VERTEX
  5
34E8
  8
0
 10
84.5
 20
70.0
 30
138.0
 70
    64
  0
VERTEX
  5
34E9
  8
0
 10
84.5
 20
70.0
 30
138.0
 70
    64
  0
VERTEX
  5
34EA
  8
0
 10
84.5
 20
70.0
 30
138.0
 70
    64
  0
VERTEX
  5
34EB
  8
0
 10
84.5
 20
70.0
 30
138.0
 70
    64
  0
VERTEX
  5
34EC
  8
0
 10
84.5
 20
70.0
 30
138.0
 70
    64
  0
VERTEX
  5
34ED
  8
0
 10
84.5
 20
70.0
 30
138.0
 70
    64
  0
VERTEX
  5
34EE
  8
0
 10
84.5
 20
70.0
 30
138.0
 70
    64
  0
SEQEND
  5
34EF
  8
0
  0
POLYLINE
  5
34F0
  8
0
 66
     1
 10
0.0
 20
0.0
 30
0.0
 70
    16
 71
     5
 72
     7
  0
VERTEX
  5
34F1
  8
0
 10
48.0
 20
103.0
 30
138.0
 70
    64
  0
VERTEX
  5
34F2
  8
0
 10
49.4
 20
103.0
 30
147.4
 70
    64
  0
VERTEX
  5
34F3
  8
0
 10
52.9
 20
103.0
 30
156.1
 70
    64
  0
VERTEX
  5
34F4
  8
0
 10
58.8
 20
103.0
 30
163.7
 70
    64
  0
VERTEX
  5
34F5
  8
0
 10
66.4
 20
103.0
 30
169.6
 70
    64
  0
VERTEX
  5
34F6
  8
0
 10
75.1
 20
103.0
 30
173.1
 70
    64
  0
VERTEX
  5
34F7
  8
0
 10
84.5
 20
103.0
 30
174.5
 70
    64
  0
VERTEX
  5
34F8
  8
0
 10
47.0
 20
102.0
 30
138.0
 70
    64
  0
VERTEX
  5
34F9
  8
0
 10
48.3
 20
102.0
 30
147.6
 70
    64
  0
VERTEX
  5
34FA
  8
0
 10
52.0
 20
102.0
 30
156.6
 70
    64
  0
VERTEX
  5
34FB
  8
0
 10
58.0
 20
102.0
 30
164.5
 70
    64
  0
VERTEX
  5
34FC
  8
0
 10
65.9
 20
102.0
 30
170.5
 70
    64
  0
VERTEX
  5
34FD
  8
0
 10
74.9
 20
102.0
 30
174.2
 70
    64
  0
VERTEX
  5
34FE
  8
0
 10
84.5
 20
102.0
 30
175.5
 70
    64
  0
VERTEX
  5
34FF
  8
0
 10
47.0
 20
101.0
 30
138.0
 70
    64
  0
VERTEX
  5
3500
  8
0
 10
48.3
 20
101.0
 30
147.6
 70
    64
  0
VERTEX
  5
3501
  8
0
 10
52.0
 20
101.0
 30
156.6
 70
    64
  0
VERTEX
  5
3502
  8
0
 10
58.0
 20
101.0
 30
164.5
 70
    64
  0
VERTEX
  5
3503
  8
0
 10
65.9
 20
101.0
 30
170.5
 70
    64
  0
VERTEX
  5
3504
  8
0
 10
74.9
 20
101.0
 30
174.2
 70
    64
  0
VERTEX
  5
3505
  8
0
 10
84.5
 20
101.0
 30
175.5
 70
    64
  0
VERTEX
  5
3506
  8
0
 10
48.0
 20
100.0
 30
138.0
 70
    64
  0
VERTEX
  5
3507
  8
0
 10
49.4
 20
100.0
 30
147.4
 70
    64
  0
VERTEX
  5
3508
  8
0
 10
52.9
 20
100.0
 30
156.1
 70
    64
  0
VERTEX
  5
3509
  8
0
 10
58.8
 20
100.0
 30
163.7
 70
    64
  0
VERTEX
  5
350A
  8
0
 10
66.4
 20
100.0
 30
169.6
 70
    64
  0
VERTEX
  5
350B
  8
0
 10
75.1
 20
100.0
 30
173.1
 70
    64
  0
VERTEX
  5
350C
  8
0
 10
84.5
 20
100.0
 30
174.5
 70
    64
  0
VERTEX
  5
350D
  8
0
 10
49.0
 20
100.0
 30
138.0
 70
    64
  0
VERTEX
  5
350E
  8
0
 10
50.3
 20
100.0
 30
147.1
 70
    64
  0
VERTEX
  5
350F
  8
0
 10
53.8
 20
100.0
 30
155.6
 70
    64
  0
VERTEX
  5
3510
  8
0
 10
59.5
 20
100.0
 30
163.0
 70
    64
  0
VERTEX
  5
3511
  8
0
 10
66.9
 20
100.0
 30
168.7
 70
    64
  0
VERTEX
  5
3512
  8
0
 10
75.4
 20
100.0
 30
172.2
 70
    64
  0
VERTEX
  5
3513
  8
0
 10
84.5
 20
100.0
 30
173.5
 70
    64
  0
SEQEND
  5
3514
  8
0
  0
POLYLINE
  5
3515
  8
0
 66
     1
 10
0.0
 20
0.0
 30
0.0
 70
    16
 71
     5
 72
     7
  0
VERTEX
  5
3516
  8
0
 10
84.5
 20
106.0
 30
138.0
 70
    64
  0
VERTEX
  5
3517
  8
0
 10
84.5
 20
106.0
 30
138.0
 70
    64
  0
VERTEX
  5
3518
  8
0
 10
84.5
 20
106.0
 30
138.0
 70
    64
  0
VERTEX
  5
3519
  8
0
 10
84.5
 20
106.0
 30
138.0
 70
    64
  0
VERTEX
  5
351A
  8
0
 10
84.5
 20
106.0
 30
138.0
 70
    64
  0
VERTEX
  5
351B
  8
0
 10
84.5
 20
106.0
 30
138.0
 70
    64
  0
VERTEX
  5
351C
  8
0
 10
84.5
 20
106.0
 30
138.0
 70
    64
  0
VERTEX
  5
351D
  8
0
 10
48.0
 20
106.0
 30
138.0
 70
    64
  0
VERTEX
  5
351E
  8
0
 10
49.4
 20
106.0
 30
147.4
 70
    64
  0
VERTEX
  5
351F
  8
0
 10
52.9
 20
106.0
 30
156.1
 70
    64
  0
VERTEX
  5
3520
  8
0
 10
58.8
 20
106.0
 30
163.7
 70
    64
  0
VERTEX
  5
3521
  8
0
 10
66.4
 20
106.0
 30
169.6
 70
    64
  0
VERTEX
  5
3522
  8
0
 10
75.1
 20
106.0
 30
173.1
 70
    64
  0
VERTEX
  5
3523
  8
0
 10
84.5
 20
106.0
 30
174.5
 70
    64
  0
VERTEX
  5
3524
  8
0
 10
47.0
 20
105.0
 30
138.0
 70
    64
  0
VERTEX
  5
3525
  8
0
 10
48.3
 20
105.0
 30
147.6
 70
    64
  0
VERTEX
  5
3526
  8
0
 10
52.0
 20
105.0
 30
156.6
 70
    64
  0
VERTEX
  5
3527
  8
0
 10
58.0
 20
105.0
 30
164.5
 70
    64
  0
VERTEX
  5
3528
  8
0
 10
65.9
 20
105.0
 30
170.5
 70
    64
  0
VERTEX
  5
3529
  8
0
 10
74.9
 20
105.0
 30
174.2
 70
    64
  0
VERTEX
  5
352A
  8
0
 10
84.5
 20
105.0
 30
175.5
 70
    64
  0
VERTEX
  5
352B
  8
0
 10
47.0
 20
104.0
 30
138.0
 70
    64
  0
VERTEX
  5
352C
  8
0
 10
48.3
 20
104.0
 30
147.6
 70
    64
  0
VERTEX
  5
352D
  8
0
 10
52.0
 20
104.0
 30
156.6
 70
    64
  0
VERTEX
  5
352E
  8
0
 10
58.0
 20
104.0
 30
164.5
 70
    64
  0
VERTEX
  5
352F
  8
0
 10
65.9
 20
104.0
 30
170.5
 70
    64
  0
VERTEX
  5
3530
  8
0
 10
74.9
 20
104.0
 30
174.2
 70
    64
  0
VERTEX
  5
3531
  8
0
 10
84.5
 20
104.0
 30
175.5
 70
    64
  0
VERTEX
  5
3532
  8
0
 10
48.0
 20
103.0
 30
138.0
 70
    64
  0
VERTEX
  5
3533
  8
0
 10
49.4
 20
103.0
 30
147.4
 70
    64
  0
VERTEX
  5
3534
  8
0
 10
52.9
 20
103.0
 30
156.1
 70
    64
  0
VERTEX
  5
3535
  8
0
 10
58.8
 20
103.0
 30
163.7
 70
    64
  0
VERTEX
  5
3536
  8
0
 10
66.4
 20
103.0
 30
169.6
 70
    64
  0
VERTEX
  5
3537
  8
0
 10
75.1
 20
103.0
 30
173.1
 70
    64
  0
VERTEX
  5
3538
  8
0
 10
84.5
 20
103.0
 30
174.5
 70
    64
  0
SEQEND
  5
3539
  8
0
  0
POLYLINE
  5
353A
  8
0
 66
     1
 10
0.0
 20
0.0
 30
0.0
 70
    16
 71
     5
 72
     7
  0
VERTEX
  5
353B
  8
0
 10
84.5
 20
106.0
 30
138.0
 70
    64
  0
VERTEX
  5
353C
  8
0
 10
84.5
 20
106.0
 30
138.0
 70
    64
  0
VERTEX
  5
353D
  8
0
 10
84.5
 20
106.0
 30
138.0
 70
    64
  0
VERTEX
  5
353E
  8
0
 10
84.5
 20
106.0
 30
138.0
 70
    64
  0
VERTEX
  5
353F
  8
0
 10
84.5
 20
106.0
 30
138.0
 70
    64
  0
VERTEX
  5
3540
  8
0
 10
84.5
 20
106.0
 30
138.0
 70
    64
  0
VERTEX
  5
3541
  8
0
 10
84.5
 20
106.0
 30
138.0
 70
    64
  0
VERTEX
  5
3542
  8
0
 10
48.0
 20
106.0
 30
138.0
 70
    64
  0
VERTEX
  5
3543
  8
0
 10
49.4
 20
106.0
 30
147.4
 70
    64
  0
VERTEX
  5
3544
  8
0
 10
52.9
 20
106.0
 30
156.1
 70
    64
  0
VERTEX
  5
3545
  8
0
 10
58.8
 20
106.0
 30
163.7
 70
    64
  0
VERTEX
  5
3546
  8
0
 10
66.4
 20
106.0
 30
169.6
 70
    64
  0
VERTEX
  5
3547
  8
0
 10
75.1
 20
106.0
 30
173.1
 70
    64
  0
VERTEX
  5
3548
  8
0
 10
84.5
 20
106.0
 30
174.5
 70
    64
  0
VERTEX
  5
3549
  8
0
 10
47.0
 20
105.0
 30
138.0
 70
    64
  0
VERTEX
  5
354A
  8
0
 10
48.3
 20
105.0
 30
147.6
 70
    64
  0
VERTEX
  5
354B
  8
0
 10
52.0
 20
105.0
 30
156.6
 70
    64
  0
VERTEX
  5
354C
  8
0
 10
58.0
 20
105.0
 30
164.5
 70
    64
  0
VERTEX
  5
354D
  8
0
 10
65.9
 20
105.0
 30
170.5
 70
    64
  0
VERTEX
  5
354E
  8
0
 10
74.9
 20
105.0
 30
174.2
 70
    64
  0
VERTEX
  5
354F
  8
0
 10
84.5
 20
105.0
 30
175.5
 70
    64
  0
VERTEX
  5
3550
  8
0
 10
47.0
 20
104.0
 30
138.0
 70
    64
  0
VERTEX
  5
3551
  8
0
 10
48.3
 20
104.0
 30
147.6
 70
    64
  0
VERTEX
  5
3552
  8
0
 10
52.0
 20
104.0
 30
156.6
 70
    64
  0
VERTEX
  5
3553
  8
0
 10
58.0
 20
104.0
 30
164.5
 70
    64
  0
VERTEX
  5
3554
  8
0
 10
65.9
 20
104.0
 30
170.5
 70
    64
  0
VERTEX
  5
3555
  8
0
 10
74.9
 20
104.0
 30
174.2
 70
    64
  0
VERTEX
  5
3556
  8
0
 10
84.5
 20
104.0
 30
175.5
 70
    64
  0
VERTEX
  5
3557
  8
0
 10
48.0
 20
103.0
 30
138.0
 70
    64
  0
VERTEX
  5
3558
  8
0
 10
49.4
 20
103.0
 30
147.4
 70
    64
  0
VERTEX
  5
3559
  8
0
 10
52.9
 20
103.0
 30
156.1
 70
    64
  0
VERTEX
  5
355A
  8
0
 10
58.8
 20
103.0
 30
163.7
 70
    64
  0
VERTEX
  5
355B
  8
0
 10
66.4
 20
103.0
 30
169.6
 70
    64
  0
VERTEX
  5
355C
  8
0
 10
75.1
 20
103.0
 30
173.1
 70
    64
  0
VERTEX
  5
355D
  8
0
 10
84.5
 20
103.0
 30
174.5
 70
    64
  0
SEQEND
  5
355E
  8
0
  0
POLYLINE
  5
355F
  8
0
 66
     1
 10
0.0
 20
0.0
 30
0.0
 70
    16
 71
     5
 72
     7
  0
VERTEX
  5
3560
  8
0
 10
84.5
 20
106.0
 30
138.0
 70
    64
  0
VERTEX
  5
3561
  8
0
 10
84.5
 20
106.0
 30
138.0
 70
    64
  0
VERTEX
  5
3562
  8
0
 10
84.5
 20
106.0
 30
138.0
 70
    64
  0
VERTEX
  5
3563
  8
0
 10
84.5
 20
106.0
 30
138.0
 70
    64
  0
VERTEX
  5
3564
  8
0
 10
84.5
 20
106.0
 30
138.0
 70
    64
  0
VERTEX
  5
3565
  8
0
 10
84.5
 20
106.0
 30
138.0
 70
    64
  0
VERTEX
  5
3566
  8
0
 10
84.5
 20
106.0
 30
138.0
 70
    64
  0
VERTEX
  5
3567
  8
0
 10
121.0
 20
106.0
 30
138.0
 70
    64
  0
VERTEX
  5
3568
  8
0
 10
119.6
 20
106.0
 30
147.4
 70
    64
  0
VERTEX
  5
3569
  8
0
 10
116.1
 20
106.0
 30
156.1
 70
    64
  0
VERTEX
  5
356A
  8
0
 10
110.2
 20
106.0
 30
163.7
 70
    64
  0
VERTEX
  5
356B
  8
0
 10
102.6
 20
106.0
 30
169.6
 70
    64
  0
VERTEX
  5
356C
  8
0
 10
93.9
 20
106.0
 30
173.1
 70
    64
  0
VERTEX
  5
356D
  8
0
 10
84.5
 20
106.0
 30
174.5
 70
    64
  0
VERTEX
  5
356E
  8
0
 10
122.0
 20
105.0
 30
138.0
 70
    64
  0
VERTEX
  5
356F
  8
0
 10
120.7
 20
105.0
 30
147.6
 70
    64
  0
VERTEX
  5
3570
  8
0
 10
117.0
 20
105.0
 30
156.6
 70
    64
  0
VERTEX
  5
3571
  8
0
 10
111.0
 20
105.0
 30
164.5
 70
    64
  0
VERTEX
  5
3572
  8
0
 10
103.1
 20
105.0
 30
170.5
 70
    64
  0
VERTEX
  5
3573
  8
0
 10
94.1
 20
105.0
 30
174.2
 70
    64
  0
VERTEX
  5
3574
  8
0
 10
84.5
 20
105.0
 30
175.5
 70
    64
  0
VERTEX
  5
3575
  8
0
 10
122.0
 20
104.0
 30
138.0
 70
    64
  0
VERTEX
  5
3576
  8
0
 10
120.7
 20
104.0
 30
147.6
 70
    64
  0
VERTEX
  5
3577
  8
0
 10
117.0
 20
104.0
 30
156.6
 70
    64
  0
VERTEX
  5
3578
  8
0
 10
111.0
 20
104.0
 30
164.5
 70
    64
  0
VERTEX
  5
3579
  8
0
 10
103.1
 20
104.0
 30
170.5
 70
    64
  0
VERTEX
  5
357A
  8
0
 10
94.1
 20
104.0
 30
174.2
 70
    64
  0
VERTEX
  5
357B
  8
0
 10
84.5
 20
104.0
 30
175.5
 70
    64
  0
VERTEX
  5
357C
  8
0
 10
121.0
 20
103.0
 30
138.0
 70
    64
  0
VERTEX
  5
357D
  8
0
 10
119.6
 20
103.0
 30
147.4
 70
    64
  0
VERTEX
  5
357E
  8
0
 10
116.1
 20
103.0
 30
156.1
 70
    64
  0
VERTEX
  5
357F
  8
0
 10
110.2
 20
103.0
 30
163.7
 70
    64
  0
VERTEX
  5
3580
  8
0
 10
102.6
 20
103.0
 30
169.6
 70
    64
  0
VERTEX
  5
3581
  8
0
 10
93.9
 20
103.0
 30
173.1
 70
    64
  0
VERTEX
  5
3582
  8
0
 10
84.5
 20
103.0
 30
174.5
 70
    64
  0
SEQEND
  5
3583
  8
0
  0
POLYLINE
  5
3584
  8
0
 66
     1
 10
0.0
 20
0.0
 30
0.0
 70
    16
 71
     5
 72
     7
  0
VERTEX
  5
3585
  8
0
 10
84.5
 20
106.0
 30
138.0
 70
    64
  0
VERTEX
  5
3586
  8
0
 10
84.5
 20
106.0
 30
138.0
 70
    64
  0
VERTEX
  5
3587
  8
0
 10
84.5
 20
106.0
 30
138.0
 70
    64
  0
VERTEX
  5
3588
  8
0
 10
84.5
 20
106.0
 30
138.0
 70
    64
  0
VERTEX
  5
3589
  8
0
 10
84.5
 20
106.0
 30
138.0
 70
    64
  0
VERTEX
  5
358A
  8
0
 10
84.5
 20
106.0
 30
138.0
 70
    64
  0
VERTEX
  5
358B
  8
0
 10
84.5
 20
106.0
 30
138.0
 70
    64
  0
VERTEX
  5
358C
  8
0
 10
121.0
 20
106.0
 30
138.0
 70
    64
  0
VERTEX
  5
358D
  8
0
 10
119.6
 20
106.0
 30
147.4
 70
    64
  0
VERTEX
  5
358E
  8
0
 10
116.1
 20
106.0
 30
156.1
 70
    64
  0
VERTEX
  5
358F
  8
0
 10
110.2
 20
106.0
 30
163.7
 70
    64
  0
VERTEX
  5
3590
  8
0
 10
102.6
 20
106.0
 30
169.6
 70
    64
  0
VERTEX
  5
3591
  8
0
 10
93.9
 20
106.0
 30
173.1
 70
    64
  0
VERTEX
  5
3592
  8
0
 10
84.5
 20
106.0
 30
174.5
 70
    64
  0
VERTEX
  5
3593
  8
0
 10
122.0
 20
105.0
 30
138.0
 70
    64
  0
VERTEX
  5
3594
  8
0
 10
120.7
 20
105.0
 30
147.6
 70
    64
  0
VERTEX
  5
3595
  8
0
 10
117.0
 20
105.0
 30
156.6
 70
    64
  0
VERTEX
  5
3596
  8
0
 10
111.0
 20
105.0
 30
164.5
 70
    64
  0
VERTEX
  5
3597
  8
0
 10
103.1
 20
105.0
 30
170.5
 70
    64
  0
VERTEX
  5
3598
  8
0
 10
94.1
 20
105.0
 30
174.2
 70
    64
  0
VERTEX
  5
3599
  8
0
 10
84.5
 20
105.0
 30
175.5
 70
    64
  0
VERTEX
  5
359A
  8
0
 10
122.0
 20
104.0
 30
138.0
 70
    64
  0
VERTEX
  5
359B
  8
0
 10
120.7
 20
104.0
 30
147.6
 70
    64
  0
VERTEX
  5
359C
  8
0
 10
117.0
 20
104.0
 30
156.6
 70
    64
  0
VERTEX
  5
359D
  8
0
 10
111.0
 20
104.0
 30
164.5
 70
    64
  0
VERTEX
  5
359E
  8
0
 10
103.1
 20
104.0
 30
170.5
 70
    64
  0
VERTEX
  5
359F
  8
0
 10
94.1
 20
104.0
 30
174.2
 70
    64
  0
VERTEX
  5
35A0
  8
0
 10
84.5
 20
104.0
 30
175.5
 70
    64
  0
VERTEX
  5
35A1
  8
0
 10
121.0
 20
103.0
 30
138.0
 70
    64
  0
VERTEX
  5
35A2
  8
0
 10
119.6
 20
103.0
 30
147.4
 70
    64
  0
VERTEX
  5
35A3
  8
0
 10
116.1
 20
103.0
 30
156.1
 70
    64
  0
VERTEX
  5
35A4
  8
0
 10
110.2
 20
103.0
 30
163.7
 70
    64
  0
VERTEX
  5
35A5
  8
0
 10
102.6
 20
103.0
 30
169.6
 70
    64
  0
VERTEX
  5
35A6
  8
0
 10
93.9
 20
103.0
 30
173.1
 70
    64
  0
VERTEX
  5
35A7
  8
0
 10
84.5
 20
103.0
 30
174.5
 70
    64
  0
SEQEND
  5
35A8
  8
0
  0
POLYLINE
  5
35A9
  8
0
 66
     1
 10
0.0
 20
0.0
 30
0.0
 70
    16
 71
     5
 72
     7
  0
VERTEX
  5
35AA
  8
0
 10
121.0
 20
103.0
 30
138.0
 70
    64
  0
VERTEX
  5
35AB
  8
0
 10
119.6
 20
103.0
 30
147.4
 70
    64
  0
VERTEX
  5
35AC
  8
0
 10
116.1
 20
103.0
 30
156.1
 70
    64
  0
VERTEX
  5
35AD
  8
0
 10
110.2
 20
103.0
 30
163.7
 70
    64
  0
VERTEX
  5
35AE
  8
0
 10
102.6
 20
103.0
 30
169.6
 70
    64
  0
VERTEX
  5
35AF
  8
0
 10
93.9
 20
103.0
 30
173.1
 70
    64
  0
VERTEX
  5
35B0
  8
0
 10
84.5
 20
103.0
 30
174.5
 70
    64
  0
VERTEX
  5
35B1
  8
0
 10
122.0
 20
102.0
 30
138.0
 70
    64
  0
VERTEX
  5
35B2
  8
0
 10
120.7
 20
102.0
 30
147.6
 70
    64
  0
VERTEX
  5
35B3
  8
0
 10
117.0
 20
102.0
 30
156.6
 70
    64
  0
VERTEX
  5
35B4
  8
0
 10
111.0
 20
102.0
 30
164.5
 70
    64
  0
VERTEX
  5
35B5
  8
0
 10
103.1
 20
102.0
 30
170.5
 70
    64
  0
VERTEX
  5
35B6
  8
0
 10
94.1
 20
102.0
 30
174.2
 70
    64
  0
VERTEX
  5
35B7
  8
0
 10
84.5
 20
102.0
 30
175.5
 70
    64
  0
VERTEX
  5
35B8
  8
0
 10
122.0
 20
101.0
 30
138.0
 70
    64
  0
VERTEX
  5
35B9
  8
0
 10
120.7
 20
101.0
 30
147.6
 70
    64
  0
VERTEX
  5
35BA
  8
0
 10
117.0
 20
101.0
 30
156.6
 70
    64
  0
VERTEX
  5
35BB
  8
0
 10
111.0
 20
101.0
 30
164.5
 70
    64
  0
VERTEX
  5
35BC
  8
0
 10
103.1
 20
101.0
 30
170.5
 70
    64
  0
VERTEX
  5
35BD
  8
0
 10
94.1
 20
101.0
 30
174.2
 70
    64
  0
VERTEX
  5
35BE
  8
0
 10
84.5
 20
101.0
 30
175.5
 70
    64
  0
VERTEX
  5
35BF
  8
0
 10
121.0
 20
100.0
 30
138.0
 70
    64
  0
VERTEX
  5
35C0
  8
0
 10
119.6
 20
100.0
 30
147.4
 70
    64
  0
VERTEX
  5
35C1
  8
0
 10
116.1
 20
100.0
 30
156.1
 70
    64
  0
VERTEX
  5
35C2
  8
0
 10
110.2
 20
100.0
 30
163.7
 70
    64
  0
VERTEX
  5
35C3
  8
0
 10
102.6
 20
100.0
 30
169.6
 70
    64
  0
VERTEX
  5
35C4
  8
0
 10
93.9
 20
100.0
 30
173.1
 70
    64
  0
VERTEX
  5
35C5
  8
0
 10
84.5
 20
100.0
 30
174.5
 70
    64
  0
VERTEX
  5
35C6
  8
0
 10
120.0
 20
100.0
 30
138.0
 70
    64
  0
VERTEX
  5
35C7
  8
0
 10
118.7
 20
100.0
 30
147.1
 70
    64
  0
VERTEX
  5
35C8
  8
0
 10
115.2
 20
100.0
 30
155.6
 70
    64
  0
VERTEX
  5
35C9
  8
0
 10
109.5
 20
100.0
 30
163.0
 70
    64
  0
VERTEX
  5
35CA
  8
0
 10
102.1
 20
100.0
 30
168.7
 70
    64
  0
VERTEX
  5
35CB
  8
0
 10
93.6
 20
100.0
 30
172.2
 70
    64
  0
VERTEX
  5
35CC
  8
0
 10
84.5
 20
100.0
 30
173.5
 70
    64
  0
SEQEND
  5
35CD
  8
0
  0
POLYLINE
  5
35CE
  8
0
 66
     1
 10
0.0
 20
0.0
 30
0.0
 70
    16
 71
     8
 72
     7
  0
VERTEX
  5
35CF
  8
0
 10
120.0
 20
100.0
 30
138.0
 70
    64
  0
VERTEX
  5
35D0
  8
0
 10
118.7
 20
100.0
 30
147.1
 70
    64
  0
VERTEX
  5
35D1
  8
0
 10
115.2
 20
100.0
 30
155.6
 70
    64
  0
VERTEX
  5
35D2
  8
0
 10
109.5
 20
100.0
 30
163.0
 70
    64
  0
VERTEX
  5
35D3
  8
0
 10
102.1
 20
100.0
 30
168.7
 70
    64
  0
VERTEX
  5
35D4
  8
0
 10
93.6
 20
100.0
 30
172.2
 70
    64
  0
VERTEX
  5
35D5
  8
0
 10
84.5
 20
100.0
 30
173.5
 70
    64
  0
VERTEX
  5
35D6
  8
0
 10
119.0
 20
93.0
 30
138.0
 70
    64
  0
VERTEX
  5
35D7
  8
0
 10
117.7
 20
93.0
 30
146.9
 70
    64
  0
VERTEX
  5
35D8
  8
0
 10
114.3
 20
93.0
 30
155.2
 70
    64
  0
VERTEX
  5
35D9
  8
0
 10
108.8
 20
93.0
 30
162.3
 70
    64
  0
VERTEX
  5
35DA
  8
0
 10
101.7
 20
93.0
 30
167.8
 70
    64
  0
VERTEX
  5
35DB
  8
0
 10
93.4
 20
93.0
 30
171.2
 70
    64
  0
VERTEX
  5
35DC
  8
0
 10
84.5
 20
93.0
 30
172.5
 70
    64
  0
VERTEX
  5
35DD
  8
0
 10
116.0
 20
86.0
 30
138.0
 70
    64
  0
VERTEX
  5
35DE
  8
0
 10
114.8
 20
86.0
 30
146.1
 70
    64
  0
VERTEX
  5
35DF
  8
0
 10
111.7
 20
86.0
 30
153.7
 70
    64
  0
VERTEX
  5
35E0
  8
0
 10
106.7
 20
86.0
 30
160.2
 70
    64
  0
VERTEX
  5
35E1
  8
0
 10
100.2
 20
86.0
 30
165.2
 70
    64
  0
VERTEX
  5
35E2
  8
0
 10
92.6
 20
86.0
 30
168.3
 70
    64
  0
VERTEX
  5
35E3
  8
0
 10
84.5
 20
86.0
 30
169.5
 70
    64
  0
VERTEX
  5
35E4
  8
0
 10
111.0
 20
80.0
 30
138.0
 70
    64
  0
VERTEX
  5
35E5
  8
0
 10
110.0
 20
80.0
 30
144.8
 70
    64
  0
VERTEX
  5
35E6
  8
0
 10
107.4
 20
80.0
 30
151.2
 70
    64
  0
VERTEX
  5
35E7
  8
0
 10
103.2
 20
80.0
 30
156.7
 70
    64
  0
VERTEX
  5
35E8
  8
0
 10
97.7
 20
80.0
 30
160.9
 70
    64
  0
VERTEX
  5
35E9
  8
0
 10
91.3
 20
80.0
 30
163.5
 70
    64
  0
VERTEX
  5
35EA
  8
0
 10
84.5
 20
80.0
 30
164.5
 70
    64
  0
VERTEX
  5
35EB
  8
0
 10
105.0
 20
75.5
 30
138.0
 70
    64
  0
VERTEX
  5
35EC
  8
0
 10
104.2
 20
75.5
 30
143.3
 70
    64
  0
VERTEX
  5
35ED
  8
0
 10
102.2
 20
75.5
 30
148.2
 70
    64
  0
VERTEX
  5
35EE
  8
0
 10
99.0
 20
75.5
 30
152.5
 70
    64
  0
VERTEX
  5
35EF
  8
0
 10
94.7
 20
75.5
 30
155.7
 70
    64
  0
VERTEX
  5
35F0
  8
0
 10
89.8
 20
75.5
 30
157.7
 70
    64
  0
VERTEX
  5
35F1
  8
0
 10
84.5
 20
75.5
 30
158.5
 70
    64
  0
VERTEX
  5
35F2
  8
0
 10
98.5
 20
72.5
 30
138.0
 70
    64
  0
VERTEX
  5
35F3
  8
0
 10
98.0
 20
72.5
 30
141.6
 70
    64
  0
VERTEX
  5
35F4
  8
0
 10
96.6
 20
72.5
 30
145.0
 70
    64
  0
VERTEX
  5
35F5
  8
0
 10
94.4
 20
72.5
 30
147.9
 70
    64
  0
VERTEX
  5
35F6
  8
0
 10
91.5
 20
72.5
 30
150.1
 70
    64
  0
VERTEX
  5
35F7
  8
0
 10
88.1
 20
72.5
 30
151.5
 70
    64
  0
VERTEX
  5
35F8
  8
0
 10
84.5
 20
72.5
 30
152.0
 70
    64
  0
VERTEX
  5
35F9
  8
0
 10
92.5
 20
70.7
 30
138.0
 70
    64
  0
VERTEX
  5
35FA
  8
0
 10
92.2
 20
70.7
 30
140.1
 70
    64
  0
VERTEX
  5
35FB
  8
0
 10
91.4
 20
70.7
 30
142.0
 70
    64
  0
VERTEX
  5
35FC
  8
0
 10
90.1
 20
70.7
 30
143.6
 70
    64
  0
VERTEX
  5
35FD
  8
0
 10
88.5
 20
70.7
 30
144.9
 70
    64
  0
VERTEX
  5
35FE
  8
0
 10
86.6
 20
70.7
 30
145.7
 70
    64
  0
VERTEX
  5
35FF
  8
0
 10
84.5
 20
70.7
 30
146.0
 70
    64
  0
VERTEX
  5
3600
  8
0
 10
84.5
 20
70.0
 30
138.0
 70
    64
  0
VERTEX
  5
3601
  8
0
 10
84.5
 20
70.0
 30
138.0
 70
    64
  0
VERTEX
  5
3602
  8
0
 10
84.5
 20
70.0
 30
138.0
 70
    64
  0
VERTEX
  5
3603
  8
0
 10
84.5
 20
70.0
 30
138.0
 70
    64
  0
VERTEX
  5
3604
  8
0
 10
84.5
 20
70.0
 30
138.0
 70
    64
  0
VERTEX
  5
3605
  8
0
 10
84.5
 20
70.0
 30
138.0
 70
    64
  0
VERTEX
  5
3606
  8
0
 10
84.5
 20
70.0
 30
138.0
 70
    64
  0
SEQEND
  5
3607
  8
0
  0
POLYLINE
  5
3608
  8
0
 66
     1
 10
0.0
 20
0.0
 30
0.0
 70
    16
 71
     2
 72
     4
  0
VERTEX
  5
3609
  8
0
 10
75.5
 20
55.4
 30
138.0
 70
    64
  0
VERTEX
  5
360A
  8
0
 10
75.5
 20
55.4
 30
138.0
 70
    64
  0
VERTEX
  5
360B
  8
0
 10
75.5
 20
55.4
 30
147.0
 70
    64
  0
VERTEX
  5
360C
  8
0
 10
84.5
 20
55.4
 30
147.0
 70
    64
  0
VERTEX
  5
360D
  8
0
 10
75.5
 20
73.0
 30
138.0
 70
    64
  0
VERTEX
  5
360E
  8
0
 10
75.5
 20
73.0
 30
138.0
 70
    64
  0
VERTEX
  5
360F
  8
0
 10
75.5
 20
73.0
 30
147.0
 70
    64
  0
VERTEX
  5
3610
  8
0
 10
84.5
 20
73.0
 30
147.0
 70
    64
  0
SEQEND
  5
3611
  8
0
  0
POLYLINE
  5
3612
  8
0
 66
     1
 10
0.0
 20
0.0
 30
0.0
 70
    16
 71
     2
 72
     4
  0
VERTEX
  5
3613
  8
0
 10
75.5
 20
55.4
 30
138.0
 70
    64
  0
VERTEX
  5
3614
  8
0
 10
75.5
 20
55.4
 30
138.0
 70
    64
  0
VERTEX
  5
3615
  8
0
 10
75.5
 20
55.4
 30
129.0
 70
    64
  0
VERTEX
  5
3616
  8
0
 10
84.5
 20
55.4
 30
129.0
 70
    64
  0
VERTEX
  5
3617
  8
0
 10
75.5
 20
73.0
 30
138.0
 70
    64
  0
VERTEX
  5
3618
  8
0
 10
75.5
 20
73.0
 30
138.0
 70
    64
  0
VERTEX
  5
3619
  8
0
 10
75.5
 20
73.0
 30
129.0
 70
    64
  0
VERTEX
  5
361A
  8
0
 10
84.5
 20
73.0
 30
129.0
 70
    64
  0
SEQEND
  5
361B
  8
0
  0
ENDSEC
  0
EOF
