  0
SECTION
  2
HEADER
  9
$ACADVER
  1
AC1009
  9
$INSBASE
 10
0.0
 20
0.0
 30
0.0
  9
$EXTMIN
 10
-0.003357
 20
-0.004272
 30
-0.153884
  9
$EXTMAX
 10
110.003357
 20
140.004273
 30
368.483776
  9
$LIMMIN
 10
0.0
 20
0.0
  9
$LIMMAX
 10
12.0
 20
9.0
  9
$ORTHOMODE
 70
     0
  9
$REGENMODE
 70
     1
  9
$FILLMODE
 70
     1
  9
$QTEXTMODE
 70
     0
  9
$MIRRTEXT
 70
     1
  9
$DRAGMODE
 70
     2
  9
$LTSCALE
 40
1.0
  9
$OSMODE
 70
     0
  9
$ATTMODE
 70
     1
  9
$TEXTSIZE
 40
0.2
  9
$TRACEWID
 40
0.05
  9
$TEXTSTYLE
  7
STANDARD
  9
$CLAYER
  8
0
  9
$CELTYPE
  6
BYLAYER
  9
$CECOLOR
 62
   256
  9
$DIMSCALE
 40
1.0
  9
$DIMASZ
 40
0.18
  9
$DIMEXO
 40
0.0625
  9
$DIMDLI
 40
0.38
  9
$DIMRND
 40
0.0
  9
$DIMDLE
 40
0.0
  9
$DIMEXE
 40
0.18
  9
$DIMTP
 40
0.0
  9
$DIMTM
 40
0.0
  9
$DIMTXT
 40
0.18
  9
$DIMCEN
 40
0.09
  9
$DIMTSZ
 40
0.0
  9
$DIMTOL
 70
     0
  9
$DIMLIM
 70
     0
  9
$DIMTIH
 70
     1
  9
$DIMTOH
 70
     1
  9
$DIMSE1
 70
     0
  9
$DIMSE2
 70
     0
  9
$DIMTAD
 70
     0
  9
$DIMZIN
 70
     0
  9
$DIMBLK
  1

  9
$DIMASO
 70
     1
  9
$DIMSHO
 70
     1
  9
$DIMPOST
  1

  9
$DIMAPOST
  1

  9
$DIMALT
 70
     0
  9
$DIMALTD
 70
     2
  9
$DIMALTF
 40
25.4
  9
$DIMLFAC
 40
1.0
  9
$DIMTOFL
 70
     0
  9
$DIMTVP
 40
0.0
  9
$DIMTIX
 70
     0
  9
$DIMSOXD
 70
     0
  9
$DIMSAH
 70
     0
  9
$DIMBLK1
  1

  9
$DIMBLK2
  1

  9
$DIMSTYLE
  2
STANDARD
  9
$DIMCLRD
 70
     0
  9
$DIMCLRE
 70
     0
  9
$DIMCLRT
 70
     0
  9
$DIMTFAC
 40
1.0
  9
$DIMGAP
 40
0.09
  9
$LUNITS
 70
     2
  9
$LUPREC
 70
     4
  9
$SKETCHINC
 40
0.1
  9
$FILLETRAD
 40
0.5
  9
$AUNITS
 70
     0
  9
$AUPREC
 70
     0
  9
$MENU
  1
.
  9
$ELEVATION
 40
0.0
  9
$PELEVATION
 40
0.0
  9
$THICKNESS
 40
0.0
  9
$LIMCHECK
 70
     0
  9
$BLIPMODE
 70
     0
  9
$CHAMFERA
 40
0.5
  9
$CHAMFERB
 40
0.5
  9
$SKPOLY
 70
     1
  9
$TDCREATE
 40
2451432.822028
  9
$TDUPDATE
 40
2451665.764897
  9
$TDINDWG
 40
0.520704
  9
$TDUSRTIMER
 40
0.520704
  9
$USRTIMER
 70
     1
  9
$ANGBASE
 50
0.0
  9
$ANGDIR
 70
     0
  9
$PDMODE
 70
     0
  9
$PDSIZE
 40
0.0
  9
$PLINEWID
 40
0.0
  9
$COORDS
 70
     1
  9
$SPLFRAME
 70
     0
  9
$SPLINETYPE
 70
     6
  9
$SPLINESEGS
 70
     8
  9
$ATTDIA
 70
     0
  9
$ATTREQ
 70
     1
  9
$HANDLING
 70
     1
  9
$HANDSEED
  5
3D0C
  9
$SURFTAB1
 70
     6
  9
$SURFTAB2
 70
     6
  9
$SURFTYPE
 70
     6
  9
$SURFU
 70
     6
  9
$SURFV
 70
     6
  9
$UCSNAME
  2

  9
$UCSORG
 10
0.0
 20
0.0
 30
0.0
  9
$UCSXDIR
 10
1.0
 20
0.0
 30
0.0
  9
$UCSYDIR
 10
0.0
 20
1.0
 30
0.0
  9
$PUCSNAME
  2

  9
$PUCSORG
 10
0.0
 20
0.0
 30
0.0
  9
$PUCSXDIR
 10
1.0
 20
0.0
 30
0.0
  9
$PUCSYDIR
 10
0.0
 20
1.0
 30
0.0
  9
$USERI1
 70
     0
  9
$USERI2
 70
     0
  9
$USERI3
 70
     0
  9
$USERI4
 70
     0
  9
$USERI5
 70
     0
  9
$USERR1
 40
0.0
  9
$USERR2
 40
0.0
  9
$USERR3
 40
0.0
  9
$USERR4
 40
0.0
  9
$USERR5
 40
0.0
  9
$WORLDVIEW
 70
     1
  9
$SHADEDGE
 70
     3
  9
$SHADEDIF
 70
    70
  9
$TILEMODE
 70
     1
  9
$MAXACTVP
 70
    48
  9
$PLIMCHECK
 70
     0
  9
$PEXTMIN
 10
1.000000E+020
 20
1.000000E+020
 30
1.000000E+020
  9
$PEXTMAX
 10
-1.000000E+020
 20
-1.000000E+020
 30
-1.000000E+020
  9
$PLIMMIN
 10
0.0
 20
0.0
  9
$PLIMMAX
 10
12.0
 20
9.0
  9
$UNITMODE
 70
     0
  9
$VISRETAIN
 70
     1
  9
$PLINEGEN
 70
     0
  9
$PSLTSCALE
 70
     1
  0
ENDSEC
  0
SECTION
  2
TABLES
  0
TABLE
  2
VPORT
 70
     4
  0
VPORT
  2
*ACTIVE
 70
     0
 10
0.0
 20
0.0
 11
1.0
 21
1.0
 12
-10.606602
 22
201.401085
 13
0.0
 23
0.0
 14
0.5
 24
0.5
 15
0.5
 25
0.5
 16
-1.0
 26
-1.0
 36
1.0
 17
0.0
 27
0.0
 37
0.0
 40
408.066644
 41
1.991701
 42
50.0
 43
0.0
 44
0.0
 50
0.0
 51
0.0
 71
     0
 72
   100
 73
     1
 74
     1
 75
     0
 76
     0
 77
     0
 78
     0
  0
ENDTAB
  0
TABLE
  2
LTYPE
 70
     1
  0
LTYPE
  2
CONTINUOUS
 70
     0
  3
Solid line
 72
    65
 73
     0
 40
0.0
  0
ENDTAB
  0
TABLE
  2
LAYER
 70
     2
  0
LAYER
  2
0
 70
     0
 62
     7
  6
CONTINUOUS
  0
LAYER
  2
ASHADE
 70
     4
 62
     7
  6
CONTINUOUS
  0
ENDTAB
  0
TABLE
  2
STYLE
 70
     2
  0
STYLE
  2
STANDARD
 70
     0
 40
0.0
 41
1.0
 50
0.0
 71
     0
 42
0.2
  3
txt
  4

  0
STYLE
  2
ASHADE
 70
     0
 40
0.2
 41
1.0
 50
0.0
 71
     0
 42
0.2
  3
simplex.shx
  4

  0
ENDTAB
  0
TABLE
  2
VIEW
 70
     0
  0
ENDTAB
  0
TABLE
  2
UCS
 70
     0
  0
ENDTAB
  0
TABLE
  2
APPID
 70
     6
  0
APPID
  2
ACAD
 70
     0
  0
APPID
  2
AVE_RENDER
 70
     0
  0
APPID
  2
AVE_ENTITY_MATERIAL
 70
     0
  0
APPID
  2
AVE_FINISH
 70
     0
  0
APPID
  2
AVE_MATERIAL
 70
     0
  0
APPID
  2
AVE_GLOBAL
 70
     0
  0
ENDTAB
  0
TABLE
  2
DIMSTYLE
 70
     1
  0
DIMSTYLE
  2
STANDARD
 70
     0
  3

  4

  5

  6

  7

 40
1.0
 41
0.18
 42
0.0625
 43
0.38
 44
0.18
 45
0.0
 46
0.0
 47
0.0
 48
0.0
140
0.18
141
0.09
142
0.0
143
25.4
144
1.0
145
0.0
146
1.0
147
0.09
 71
     0
 72
     0
 73
     1
 74
     1
 75
     0
 76
     0
 77
     0
 78
     0
170
     0
171
     2
172
     0
173
     0
174
     0
175
     0
176
     0
177
     0
178
     0
  0
ENDTAB
  0
ENDSEC
  0
SECTION
  2
BLOCKS
  0
BLOCK
  8
0
  2
$MODEL_SPACE
 70
     0
 10
0.0
 20
0.0
 30
0.0
  3
$MODEL_SPACE
  1

  0
ENDBLK
  5
1B
  8
0
  0
BLOCK
 67
     1
  8
0
  2
$PAPER_SPACE
 70
     0
 10
0.0
 20
0.0
 30
0.0
  3
$PAPER_SPACE
  1

  0
ENDBLK
  5
18
 67
     1
  8
0
  0
BLOCK
  8
ASHADE
  2
AVE_RENDER
 70
     0
 10
0.0
 20
0.0
 30
0.0
  3
AVE_RENDER
  1
AVE_RENDER
  0
ENDBLK
  5
22C
  8
0
  0
BLOCK
  8
ASHADE
  2
AVE_GLOBAL
 70
     0
 10
0.0
 20
0.0
 30
0.0
  3
AVE_GLOBAL
  1
AVE_GLOBAL
  0
ENDBLK
  5
23A
  8
0
  0
ENDSEC
  0
SECTION
  2
ENTITIES
  0
INSERT
  5
22D
  8
ASHADE
 62
     1
  2
AVE_RENDER
 10
0.0
 20
0.0
 30
0.0
1001
AVE_RENDER
1002
{
1070
     7
1000
Pref
1070
    30
1070
    20
1070
     1
1070
     0
1000

1070
    10
1070
     1
1070
    10
1040
1.0
1070
     1
1040
0.3
1040
0.7
1040
0.0
1040
10.0
1010
-1.0
1020
-1.0
1030
-1.0
1040
0.3
1070
    49
1070
     0
1070
     0
1010
1.0
1020
1.0
1030
1.0
1040
45.0
1070
     1
1070
     0
1000
WCS
1040
0.0
1070
     0
1040
10.0
1002
}
  0
INSERT
  5
22E
  8
ASHADE
 62
     3
  2
AVE_RENDER
 10
0.0
 20
0.0
 30
0.0
1001
AVE_RENDER
1002
{
1070
     0
1000
Full Opt
1070
     0
1070
     1
1070
     1
1070
     1
1070
     0
1070
     0
1070
     0
1070
     1
1070
     1
1040
0.0001
1040
0.0001
1002
}
  0
INSERT
  5
22F
  8
ASHADE
 62
     4
  2
AVE_RENDER
 10
0.0
 20
0.0
 30
0.0
1001
AVE_RENDER
1002
{
1070
     0
1000
Quick Opt
1070
     0
1070
     1
1070
     1
1070
     1
1070
     0
1070
     0
1070
     1
1002
}
  0
INSERT
  5
230
  8
ASHADE
 62
     5
  2
AVE_RENDER
 10
0.0
 20
0.0
 30
0.0
1001
AVE_RENDER
1002
{
1070
     1
1000
Scanl Opt
1070
     2
1070
     0
1070
     2
1040
2.0
1040
4.0
1070
     0
1070
     1
1070
     0
1040
0.03
1002
}
  0
INSERT
  5
231
  8
ASHADE
 62
     6
  2
AVE_RENDER
 10
0.0
 20
0.0
 30
0.0
1001
AVE_RENDER
1002
{
1070
     2
1000
Raytr Opt
1070
     2
1070
     0
1070
     2
1040
2.0
1040
4.0
1070
     0
1070
     1
1070
     1
1040
0.03
1070
     3
1040
0.03
1002
}
  0
INSERT
  5
232
  8
ASHADE
 62
     7
  2
AVE_RENDER
 10
0.0
 20
0.0
 30
0.0
1001
AVE_RENDER
1002
{
1070
     0
1000
RFile Opt
1070
     1
1070
   640
1070
   480
1070
 10000
1070
     1
1070
     8
1070
     8
1070
     0
1070
     0
1070
     0
1070
     0
1070
     0
1070
     0
1070
     0
1002
}
  0
INSERT
  5
233
  8
ASHADE
 62
     8
  2
AVE_RENDER
 10
0.0
 20
0.0
 30
0.0
1001
AVE_RENDER
1002
{
1070
     0
1000
Fog Opt
1070
     0
1070
     0
1040
0.0
1040
1.0
1040
0.0
1040
1.0
1010
0.5
1020
0.5
1030
0.5
1002
}
  0
INSERT
  5
234
  8
ASHADE
 62
     9
  2
AVE_RENDER
 10
0.0
 20
0.0
 30
0.0
1001
AVE_RENDER
1002
{
1070
     0
1000
BG Opt
1070
     0
1070
     1
1010
0.0
1020
0.0
1030
0.0
1010
1.0
1020
0.0
1030
0.0
1010
0.0
1020
1.0
1030
0.0
1010
0.0
1020
0.0
1030
1.0
1040
0.5
1040
0.33
1040
0.0
1000

1070
     1
1000

1070
     1
1070
     1
1040
1.0
1040
1.0
1040
0.0
1040
0.0
1070
     0
1002
}
  0
INSERT
  5
23B
  8
ASHADE
 62
     1
  2
AVE_GLOBAL
 10
0.0
 20
0.0
 30
0.0
1001
AVE_MATERIAL
1002
{
1000
*GLOBAL*
1000
1
1000
Global finish.
1002
{
1002
}
1002
{
1070
    63
1002
{
1002
{
1010
-1.0
1020
-1.0
1030
-1.0
1002
}
1040
0.1
1000

1040
0.0
1002
{
1002
}
1040
0.0
1002
{
1002
}
1040
0.0
1002
}
1002
{
1002
{
1010
-1.0
1020
-1.0
1030
-1.0
1002
}
1040
0.7
1000

1040
0.0
1002
{
1002
}
1040
0.0
1002
{
1002
}
1040
0.0
1002
}
1002
{
1002
{
1010
-1.0
1020
-1.0
1030
-1.0
1002
}
1040
0.2
1000

1040
0.0
1002
{
1002
}
1040
0.0
1002
{
1002
}
1040
0.0
1002
}
1002
{
1070
     0
1002
{
1070
     1
1002
{
1040
1.0
1040
1.0
1000

1040
0.0
1002
{
1002
}
1040
0.0
1002
{
1002
}
1040
0.0
1002
}
1002
}
1040
1.0
1040
0.0
1040
0.0
1002
}
1002
{
1040
1.0
1040
1.0
1000

1040
0.0
1002
{
1002
}
1040
0.0
1002
{
1002
}
1040
0.0
1002
}
1002
{
1040
0.5
1040
1.0
1000

1040
0.0
1002
{
1002
}
1040
0.0
1002
{
1002
}
1040
0.0
1002
}
1002
{
1070
     0
1040
0.0
1002
{
1002
}
1040
1.0
1002
{
1002
}
1040
0.0
1002
}
1002
{
1040
0.0
1002
{
1002
{
1010
0.0
1020
0.0
1030
0.0
1002
}
1040
1.0
1000

1040
0.0
1002
{
1002
}
1040
0.0
1002
{
1002
}
1040
0.0
1002
}
1002
}
1002
{
1002
{
1070
     1
1002
{
1040
0.0
1040
1.0
1000

1040
0.0
1002
{
1002
}
1040
0.0
1002
{
1002
}
1040
0.0
1002
}
1002
}
1040
0.0
1002
{
1002
}
1010
1.0
1020
0.0
1030
0.0
1010
0.0
1020
1.0
1030
0.0
1010
0.0
1020
0.0
1030
1.0
1070
     0
1002
}
1002
{
1002
{
1040
1.0
1040
1.0
1002
{
1070
     1
1002
{
1040
1.0
1040
1.0
1000

1040
0.0
1002
{
1002
}
1040
0.0
1002
{
1002
}
1040
0.0
1002
}
1002
}
1002
}
1070
     0
1040
0.0
1002
{
1002
}
1002
}
1002
{
1002
}
1002
}
1002
{
1071
        3
1070
     3
1070
     0
1002
{
1070
     2
1070
     0
1070
     0
1040
0.0
1002
}
1070
     0
1070
     2
1002
{
1002
}
1002
}
1002
{
1040
8030.0
1040
190.300003
1040
0.305
1040
228.0
1040
545.0
1040
14.0
1040
17.4
1040
0.456
1002
}
1002
}
  0
POLYLINE
  5
32DD
  8
0
 66
     1
 10
0.0
 20
0.0
 30
0.0
 70
    16
 71
     3
 72
     9
  0
VERTEX
  5
32DE
  8
0
 10
55.0
 20
134.0
 30
187.6
 70
    64
  0
VERTEX
  5
32DF
  8
0
 10
53.5
 20
134.0
 30
188.0
 70
    64
  0
VERTEX
  5
32E0
  8
0
 10
52.2
 20
134.0
 30
189.0
 70
    64
  0
VERTEX
  5
32E1
  8
0
 10
51.3
 20
134.0
 30
190.6
 70
    64
  0
VERTEX
  5
32E2
  8
0
 10
51.0
 20
134.0
 30
192.5
 70
    64
  0
VERTEX
  5
32E3
  8
0
 10
51.3
 20
134.0
 30
194.4
 70
    64
  0
VERTEX
  5
32E4
  8
0
 10
52.2
 20
134.0
 30
195.9
 70
    64
  0
VERTEX
  5
32E5
  8
0
 10
53.5
 20
134.0
 30
197.0
 70
    64
  0
VERTEX
  5
32E6
  8
0
 10
55.0
 20
134.0
 30
197.4
 70
    64
  0
VERTEX
  5
32E7
  8
0
 10
55.0
 20
109.0
 30
205.0
 70
    64
  0
VERTEX
  5
32E8
  8
0
 10
53.5
 20
109.0
 30
205.54
 70
    64
  0
VERTEX
  5
32E9
  8
0
 10
52.2
 20
109.0
 30
206.6
 70
    64
  0
VERTEX
  5
32EA
  8
0
 10
51.3
 20
109.0
 30
208.0
 70
    64
  0
VERTEX
  5
32EB
  8
0
 10
51.0
 20
109.0
 30
209.8
 70
    64
  0
VERTEX
  5
32EC
  8
0
 10
51.3
 20
109.0
 30
211.8
 70
    64
  0
VERTEX
  5
32ED
  8
0
 10
52.2
 20
109.0
 30
213.2
 70
    64
  0
VERTEX
  5
32EE
  8
0
 10
53.5
 20
109.0
 30
214.65
 70
    64
  0
VERTEX
  5
32EF
  8
0
 10
55.0
 20
109.0
 30
215.0
 70
    64
  0
VERTEX
  5
32F0
  8
0
 10
55.0
 20
109.0
 30
209.8
 70
    64
  0
VERTEX
  5
32F1
  8
0
 10
55.0
 20
109.0
 30
209.8
 70
    64
  0
VERTEX
  5
32F2
  8
0
 10
55.0
 20
109.0
 30
209.8
 70
    64
  0
VERTEX
  5
32F3
  8
0
 10
55.0
 20
109.0
 30
209.8
 70
    64
  0
VERTEX
  5
32F4
  8
0
 10
55.0
 20
109.0
 30
209.8
 70
    64
  0
VERTEX
  5
32F5
  8
0
 10
55.0
 20
109.0
 30
209.8
 70
    64
  0
VERTEX
  5
32F6
  8
0
 10
55.0
 20
109.0
 30
209.8
 70
    64
  0
VERTEX
  5
32F7
  8
0
 10
55.0
 20
109.0
 30
209.8
 70
    64
  0
VERTEX
  5
32F8
  8
0
 10
55.0
 20
109.0
 30
209.8
 70
    64
  0
SEQEND
  5
32F9
  8
0
  0
POLYLINE
  5
33EF
  8
0
 66
     1
 10
0.0
 20
0.0
 30
0.0
 70
    16
 71
    10
 72
     7
  0
VERTEX
  5
33F0
  8
0
 10
55.0
 20
140.0
 30
192.5
 70
    64
  0
VERTEX
  5
33F1
  8
0
 10
55.0
 20
140.0
 30
192.5
 70
    64
  0
VERTEX
  5
33F2
  8
0
 10
55.0
 20
140.0
 30
192.5
 70
    64
  0
VERTEX
  5
33F3
  8
0
 10
55.0
 20
140.0
 30
192.5
 70
    64
  0
VERTEX
  5
33F4
  8
0
 10
55.0
 20
140.0
 30
192.5
 70
    64
  0
VERTEX
  5
33F5
  8
0
 10
55.0
 20
140.0
 30
192.5
 70
    64
  0
VERTEX
  5
33F6
  8
0
 10
55.0
 20
140.0
 30
192.5
 70
    64
  0
VERTEX
  5
33F7
  8
0
 10
27.5
 20
140.0
 30
192.5
 70
    64
  0
VERTEX
  5
33F8
  8
0
 10
28.4
 20
140.0
 30
185.5
 70
    64
  0
VERTEX
  5
33F9
  8
0
 10
31.1
 20
140.0
 30
178.9
 70
    64
  0
VERTEX
  5
33FA
  8
0
 10
35.5
 20
140.0
 30
173.0
 70
    64
  0
VERTEX
  5
33FB
  8
0
 10
41.4
 20
140.0
 30
168.6
 70
    64
  0
VERTEX
  5
33FC
  8
0
 10
48.0
 20
140.0
 30
165.9
 70
    64
  0
VERTEX
  5
33FD
  8
0
 10
55.0
 20
140.0
 30
165.0
 70
    64
  0
VERTEX
  5
33FE
  8
0
 10
27.5
 20
131.5
 30
192.5
 70
    64
  0
VERTEX
  5
33FF
  8
0
 10
28.4
 20
131.5
 30
185.5
 70
    64
  0
VERTEX
  5
3400
  8
0
 10
31.1
 20
131.5
 30
178.9
 70
    64
  0
VERTEX
  5
3401
  8
0
 10
35.5
 20
131.5
 30
173.0
 70
    64
  0
VERTEX
  5
3402
  8
0
 10
41.4
 20
131.5
 30
168.6
 70
    64
  0
VERTEX
  5
3403
  8
0
 10
48.0
 20
131.5
 30
165.9
 70
    64
  0
VERTEX
  5
3404
  8
0
 10
55.0
 20
131.5
 30
165.0
 70
    64
  0
VERTEX
  5
3405
  8
0
 10
29.0
 20
130.0
 30
192.5
 70
    64
  0
VERTEX
  5
3406
  8
0
 10
29.9
 20
130.0
 30
185.8
 70
    64
  0
VERTEX
  5
3407
  8
0
 10
32.4
 20
130.0
 30
179.6
 70
    64
  0
VERTEX
  5
3408
  8
0
 10
36.6
 20
130.0
 30
174.1
 70
    64
  0
VERTEX
  5
3409
  8
0
 10
42.1
 20
130.0
 30
169.9
 70
    64
  0
VERTEX
  5
340A
  8
0
 10
48.3
 20
130.0
 30
167.4
 70
    64
  0
VERTEX
  5
340B
  8
0
 10
55.0
 20
130.0
 30
166.5
 70
    64
  0
VERTEX
  5
340C
  8
0
 10
31.0
 20
130.0
 30
192.5
 70
    64
  0
VERTEX
  5
340D
  8
0
 10
31.8
 20
130.0
 30
186.3
 70
    64
  0
VERTEX
  5
340E
  8
0
 10
34.1
 20
130.0
 30
180.5
 70
    64
  0
VERTEX
  5
340F
  8
0
 10
38.0
 20
130.0
 30
175.5
 70
    64
  0
VERTEX
  5
3410
  8
0
 10
43.0
 20
130.0
 30
171.6
 70
    64
  0
VERTEX
  5
3411
  8
0
 10
48.8
 20
130.0
 30
169.3
 70
    64
  0
VERTEX
  5
3412
  8
0
 10
55.0
 20
130.0
 30
168.5
 70
    64
  0
VERTEX
  5
3413
  8
0
 10
33.0
 20
130.5
 30
192.5
 70
    64
  0
VERTEX
  5
3414
  8
0
 10
33.8
 20
130.5
 30
186.8
 70
    64
  0
VERTEX
  5
3415
  8
0
 10
35.9
 20
130.5
 30
181.5
 70
    64
  0
VERTEX
  5
3416
  8
0
 10
39.5
 20
130.5
 30
177.0
 70
    64
  0
VERTEX
  5
3417
  8
0
 10
44.0
 20
130.5
 30
173.4
 70
    64
  0
VERTEX
  5
3418
  8
0
 10
49.3
 20
130.5
 30
171.3
 70
    64
  0
VERTEX
  5
3419
  8
0
 10
55.0
 20
130.5
 30
170.5
 70
    64
  0
VERTEX
  5
341A
  8
0
 10
36.5
 20
132.0
 30
192.5
 70
    64
  0
VERTEX
  5
341B
  8
0
 10
37.2
 20
132.0
 30
187.7
 70
    64
  0
VERTEX
  5
341C
  8
0
 10
39.0
 20
132.0
 30
183.3
 70
    64
  0
VERTEX
  5
341D
  8
0
 10
41.9
 20
132.0
 30
179.4
 70
    64
  0
VERTEX
  5
341E
  8
0
 10
45.8
 20
132.0
 30
176.5
 70
    64
  0
VERTEX
  5
341F
  8
0
 10
50.2
 20
132.0
 30
174.7
 70
    64
  0
VERTEX
  5
3420
  8
0
 10
55.0
 20
132.0
 30
174.0
 70
    64
  0
VERTEX
  5
3421
  8
0
 10
39.0
 20
133.5
 30
192.5
 70
    64
  0
VERTEX
  5
3422
  8
0
 10
39.6
 20
133.5
 30
188.4
 70
    64
  0
VERTEX
  5
3423
  8
0
 10
41.1
 20
133.5
 30
184.5
 70
    64
  0
VERTEX
  5
3424
  8
0
 10
43.7
 20
133.5
 30
181.2
 70
    64
  0
VERTEX
  5
3425
  8
0
 10
47.0
 20
133.5
 30
178.6
 70
    64
  0
VERTEX
  5
3426
  8
0
 10
50.9
 20
133.5
 30
177.1
 70
    64
  0
VERTEX
  5
3427
  8
0
 10
55.0
 20
133.5
 30
176.5
 70
    64
  0
VERTEX
  5
3428
  8
0
 10
41.0
 20
134.0
 30
192.5
 70
    64
  0
VERTEX
  5
3429
  8
0
 10
41.5
 20
134.0
 30
188.9
 70
    64
  0
VERTEX
  5
342A
  8
0
 10
42.9
 20
134.0
 30
185.5
 70
    64
  0
VERTEX
  5
342B
  8
0
 10
45.1
 20
134.0
 30
182.6
 70
    64
  0
VERTEX
  5
342C
  8
0
 10
48.0
 20
134.0
 30
180.4
 70
    64
  0
VERTEX
  5
342D
  8
0
 10
51.4
 20
134.0
 30
179.0
 70
    64
  0
VERTEX
  5
342E
  8
0
 10
55.0
 20
134.0
 30
178.5
 70
    64
  0
VERTEX
  5
342F
  8
0
 10
55.0
 20
134.0
 30
192.5
 70
    64
  0
VERTEX
  5
3430
  8
0
 10
55.0
 20
134.0
 30
192.5
 70
    64
  0
VERTEX
  5
3431
  8
0
 10
55.0
 20
134.0
 30
192.5
 70
    64
  0
VERTEX
  5
3432
  8
0
 10
55.0
 20
134.0
 30
192.5
 70
    64
  0
VERTEX
  5
3433
  8
0
 10
55.0
 20
134.0
 30
192.5
 70
    64
  0
VERTEX
  5
3434
  8
0
 10
55.0
 20
134.0
 30
192.5
 70
    64
  0
VERTEX
  5
3435
  8
0
 10
55.0
 20
134.0
 30
192.5
 70
    64
  0
SEQEND
  5
3436
  8
0
  0
POLYLINE
  5
3437
  8
0
 66
     1
 10
0.0
 20
0.0
 30
0.0
 70
    16
 71
    10
 72
     7
  0
VERTEX
  5
3438
  8
0
 10
55.0
 20
140.0
 30
192.5
 70
    64
  0
VERTEX
  5
3439
  8
0
 10
55.0
 20
140.0
 30
192.5
 70
    64
  0
VERTEX
  5
343A
  8
0
 10
55.0
 20
140.0
 30
192.5
 70
    64
  0
VERTEX
  5
343B
  8
0
 10
55.0
 20
140.0
 30
192.5
 70
    64
  0
VERTEX
  5
343C
  8
0
 10
55.0
 20
140.0
 30
192.5
 70
    64
  0
VERTEX
  5
343D
  8
0
 10
55.0
 20
140.0
 30
192.5
 70
    64
  0
VERTEX
  5
343E
  8
0
 10
55.0
 20
140.0
 30
192.5
 70
    64
  0
VERTEX
  5
343F
  8
0
 10
82.5
 20
140.0
 30
192.5
 70
    64
  0
VERTEX
  5
3440
  8
0
 10
81.6
 20
140.0
 30
185.5
 70
    64
  0
VERTEX
  5
3441
  8
0
 10
78.9
 20
140.0
 30
178.9
 70
    64
  0
VERTEX
  5
3442
  8
0
 10
74.5
 20
140.0
 30
173.0
 70
    64
  0
VERTEX
  5
3443
  8
0
 10
68.6
 20
140.0
 30
168.6
 70
    64
  0
VERTEX
  5
3444
  8
0
 10
62.0
 20
140.0
 30
165.9
 70
    64
  0
VERTEX
  5
3445
  8
0
 10
55.0
 20
140.0
 30
165.0
 70
    64
  0
VERTEX
  5
3446
  8
0
 10
82.5
 20
131.5
 30
192.5
 70
    64
  0
VERTEX
  5
3447
  8
0
 10
81.6
 20
131.5
 30
185.5
 70
    64
  0
VERTEX
  5
3448
  8
0
 10
78.9
 20
131.5
 30
178.9
 70
    64
  0
VERTEX
  5
3449
  8
0
 10
74.5
 20
131.5
 30
173.0
 70
    64
  0
VERTEX
  5
344A
  8
0
 10
68.6
 20
131.5
 30
168.6
 70
    64
  0
VERTEX
  5
344B
  8
0
 10
62.0
 20
131.5
 30
165.9
 70
    64
  0
VERTEX
  5
344C
  8
0
 10
55.0
 20
131.5
 30
165.0
 70
    64
  0
VERTEX
  5
344D
  8
0
 10
81.0
 20
130.0
 30
192.5
 70
    64
  0
VERTEX
  5
344E
  8
0
 10
80.1
 20
130.0
 30
185.8
 70
    64
  0
VERTEX
  5
344F
  8
0
 10
77.6
 20
130.0
 30
179.6
 70
    64
  0
VERTEX
  5
3450
  8
0
 10
73.4
 20
130.0
 30
174.1
 70
    64
  0
VERTEX
  5
3451
  8
0
 10
67.9
 20
130.0
 30
169.9
 70
    64
  0
VERTEX
  5
3452
  8
0
 10
61.7
 20
130.0
 30
167.4
 70
    64
  0
VERTEX
  5
3453
  8
0
 10
55.0
 20
130.0
 30
166.5
 70
    64
  0
VERTEX
  5
3454
  8
0
 10
79.0
 20
130.0
 30
192.5
 70
    64
  0
VERTEX
  5
3455
  8
0
 10
78.2
 20
130.0
 30
186.3
 70
    64
  0
VERTEX
  5
3456
  8
0
 10
75.9
 20
130.0
 30
180.5
 70
    64
  0
VERTEX
  5
3457
  8
0
 10
72.0
 20
130.0
 30
175.5
 70
    64
  0
VERTEX
  5
3458
  8
0
 10
67.0
 20
130.0
 30
171.6
 70
    64
  0
VERTEX
  5
3459
  8
0
 10
61.2
 20
130.0
 30
169.3
 70
    64
  0
VERTEX
  5
345A
  8
0
 10
55.0
 20
130.0
 30
168.5
 70
    64
  0
VERTEX
  5
345B
  8
0
 10
77.0
 20
130.5
 30
192.5
 70
    64
  0
VERTEX
  5
345C
  8
0
 10
76.2
 20
130.5
 30
186.8
 70
    64
  0
VERTEX
  5
345D
  8
0
 10
74.1
 20
130.5
 30
181.5
 70
    64
  0
VERTEX
  5
345E
  8
0
 10
70.5
 20
130.5
 30
177.0
 70
    64
  0
VERTEX
  5
345F
  8
0
 10
66.0
 20
130.5
 30
173.4
 70
    64
  0
VERTEX
  5
3460
  8
0
 10
60.7
 20
130.5
 30
171.3
 70
    64
  0
VERTEX
  5
3461
  8
0
 10
55.0
 20
130.5
 30
170.5
 70
    64
  0
VERTEX
  5
3462
  8
0
 10
73.5
 20
132.0
 30
192.5
 70
    64
  0
VERTEX
  5
3463
  8
0
 10
72.8
 20
132.0
 30
187.7
 70
    64
  0
VERTEX
  5
3464
  8
0
 10
71.0
 20
132.0
 30
183.3
 70
    64
  0
VERTEX
  5
3465
  8
0
 10
68.1
 20
132.0
 30
179.4
 70
    64
  0
VERTEX
  5
3466
  8
0
 10
64.2
 20
132.0
 30
176.5
 70
    64
  0
VERTEX
  5
3467
  8
0
 10
59.8
 20
132.0
 30
174.7
 70
    64
  0
VERTEX
  5
3468
  8
0
 10
55.0
 20
132.0
 30
174.0
 70
    64
  0
VERTEX
  5
3469
  8
0
 10
71.0
 20
133.5
 30
192.5
 70
    64
  0
VERTEX
  5
346A
  8
0
 10
70.4
 20
133.5
 30
188.4
 70
    64
  0
VERTEX
  5
346B
  8
0
 10
68.9
 20
133.5
 30
184.5
 70
    64
  0
VERTEX
  5
346C
  8
0
 10
66.3
 20
133.5
 30
181.2
 70
    64
  0
VERTEX
  5
346D
  8
0
 10
63.0
 20
133.5
 30
178.6
 70
    64
  0
VERTEX
  5
346E
  8
0
 10
59.1
 20
133.5
 30
177.1
 70
    64
  0
VERTEX
  5
346F
  8
0
 10
55.0
 20
133.5
 30
176.5
 70
    64
  0
VERTEX
  5
3470
  8
0
 10
69.0
 20
134.0
 30
192.5
 70
    64
  0
VERTEX
  5
3471
  8
0
 10
68.5
 20
134.0
 30
188.9
 70
    64
  0
VERTEX
  5
3472
  8
0
 10
67.1
 20
134.0
 30
185.5
 70
    64
  0
VERTEX
  5
3473
  8
0
 10
64.9
 20
134.0
 30
182.6
 70
    64
  0
VERTEX
  5
3474
  8
0
 10
62.0
 20
134.0
 30
180.4
 70
    64
  0
VERTEX
  5
3475
  8
0
 10
58.6
 20
134.0
 30
179.0
 70
    64
  0
VERTEX
  5
3476
  8
0
 10
55.0
 20
134.0
 30
178.5
 70
    64
  0
VERTEX
  5
3477
  8
0
 10
55.0
 20
134.0
 30
192.5
 70
    64
  0
VERTEX
  5
3478
  8
0
 10
55.0
 20
134.0
 30
192.5
 70
    64
  0
VERTEX
  5
3479
  8
0
 10
55.0
 20
134.0
 30
192.5
 70
    64
  0
VERTEX
  5
347A
  8
0
 10
55.0
 20
134.0
 30
192.5
 70
    64
  0
VERTEX
  5
347B
  8
0
 10
55.0
 20
134.0
 30
192.5
 70
    64
  0
VERTEX
  5
347C
  8
0
 10
55.0
 20
134.0
 30
192.5
 70
    64
  0
VERTEX
  5
347D
  8
0
 10
55.0
 20
134.0
 30
192.5
 70
    64
  0
SEQEND
  5
347E
  8
0
  0
POLYLINE
  5
347F
  8
0
 66
     1
 10
0.0
 20
0.0
 30
0.0
 70
    16
 71
    10
 72
     7
  0
VERTEX
  5
3480
  8
0
 10
55.0
 20
140.0
 30
192.5
 70
    64
  0
VERTEX
  5
3481
  8
0
 10
55.0
 20
140.0
 30
192.5
 70
    64
  0
VERTEX
  5
3482
  8
0
 10
55.0
 20
140.0
 30
192.5
 70
    64
  0
VERTEX
  5
3483
  8
0
 10
55.0
 20
140.0
 30
192.5
 70
    64
  0
VERTEX
  5
3484
  8
0
 10
55.0
 20
140.0
 30
192.5
 70
    64
  0
VERTEX
  5
3485
  8
0
 10
55.0
 20
140.0
 30
192.5
 70
    64
  0
VERTEX
  5
3486
  8
0
 10
55.0
 20
140.0
 30
192.5
 70
    64
  0
VERTEX
  5
3487
  8
0
 10
82.5
 20
140.0
 30
192.5
 70
    64
  0
VERTEX
  5
3488
  8
0
 10
81.6
 20
140.0
 30
199.5
 70
    64
  0
VERTEX
  5
3489
  8
0
 10
78.9
 20
140.0
 30
206.1
 70
    64
  0
VERTEX
  5
348A
  8
0
 10
74.5
 20
140.0
 30
212.0
 70
    64
  0
VERTEX
  5
348B
  8
0
 10
68.6
 20
140.0
 30
216.4
 70
    64
  0
VERTEX
  5
348C
  8
0
 10
62.0
 20
140.0
 30
219.1
 70
    64
  0
VERTEX
  5
348D
  8
0
 10
55.0
 20
140.0
 30
220.0
 70
    64
  0
VERTEX
  5
348E
  8
0
 10
82.5
 20
131.5
 30
192.5
 70
    64
  0
VERTEX
  5
348F
  8
0
 10
81.6
 20
131.5
 30
199.5
 70
    64
  0
VERTEX
  5
3490
  8
0
 10
78.9
 20
131.5
 30
206.1
 70
    64
  0
VERTEX
  5
3491
  8
0
 10
74.5
 20
131.5
 30
212.0
 70
    64
  0
VERTEX
  5
3492
  8
0
 10
68.6
 20
131.5
 30
216.4
 70
    64
  0
VERTEX
  5
3493
  8
0
 10
62.0
 20
131.5
 30
219.1
 70
    64
  0
VERTEX
  5
3494
  8
0
 10
55.0
 20
131.5
 30
220.0
 70
    64
  0
VERTEX
  5
3495
  8
0
 10
81.0
 20
130.0
 30
192.5
 70
    64
  0
VERTEX
  5
3496
  8
0
 10
80.1
 20
130.0
 30
199.2
 70
    64
  0
VERTEX
  5
3497
  8
0
 10
77.6
 20
130.0
 30
205.4
 70
    64
  0
VERTEX
  5
3498
  8
0
 10
73.4
 20
130.0
 30
210.9
 70
    64
  0
VERTEX
  5
3499
  8
0
 10
67.9
 20
130.0
 30
215.1
 70
    64
  0
VERTEX
  5
349A
  8
0
 10
61.7
 20
130.0
 30
217.6
 70
    64
  0
VERTEX
  5
349B
  8
0
 10
55.0
 20
130.0
 30
218.5
 70
    64
  0
VERTEX
  5
349C
  8
0
 10
79.0
 20
130.0
 30
192.5
 70
    64
  0
VERTEX
  5
349D
  8
0
 10
78.2
 20
130.0
 30
198.7
 70
    64
  0
VERTEX
  5
349E
  8
0
 10
75.9
 20
130.0
 30
204.5
 70
    64
  0
VERTEX
  5
349F
  8
0
 10
72.0
 20
130.0
 30
209.5
 70
    64
  0
VERTEX
  5
34A0
  8
0
 10
67.0
 20
130.0
 30
213.4
 70
    64
  0
VERTEX
  5
34A1
  8
0
 10
61.2
 20
130.0
 30
215.7
 70
    64
  0
VERTEX
  5
34A2
  8
0
 10
55.0
 20
130.0
 30
216.5
 70
    64
  0
VERTEX
  5
34A3
  8
0
 10
77.0
 20
130.5
 30
192.5
 70
    64
  0
VERTEX
  5
34A4
  8
0
 10
76.2
 20
130.5
 30
198.2
 70
    64
  0
VERTEX
  5
34A5
  8
0
 10
74.1
 20
130.5
 30
203.5
 70
    64
  0
VERTEX
  5
34A6
  8
0
 10
70.5
 20
130.5
 30
208.0
 70
    64
  0
VERTEX
  5
34A7
  8
0
 10
66.0
 20
130.5
 30
211.6
 70
    64
  0
VERTEX
  5
34A8
  8
0
 10
60.7
 20
130.5
 30
213.7
 70
    64
  0
VERTEX
  5
34A9
  8
0
 10
55.0
 20
130.5
 30
214.5
 70
    64
  0
VERTEX
  5
34AA
  8
0
 10
73.5
 20
132.0
 30
192.5
 70
    64
  0
VERTEX
  5
34AB
  8
0
 10
72.8
 20
132.0
 30
197.3
 70
    64
  0
VERTEX
  5
34AC
  8
0
 10
71.0
 20
132.0
 30
201.7
 70
    64
  0
VERTEX
  5
34AD
  8
0
 10
68.1
 20
132.0
 30
205.6
 70
    64
  0
VERTEX
  5
34AE
  8
0
 10
64.2
 20
132.0
 30
208.5
 70
    64
  0
VERTEX
  5
34AF
  8
0
 10
59.8
 20
132.0
 30
210.3
 70
    64
  0
VERTEX
  5
34B0
  8
0
 10
55.0
 20
132.0
 30
211.0
 70
    64
  0
VERTEX
  5
34B1
  8
0
 10
71.0
 20
133.5
 30
192.5
 70
    64
  0
VERTEX
  5
34B2
  8
0
 10
70.4
 20
133.5
 30
196.6
 70
    64
  0
VERTEX
  5
34B3
  8
0
 10
68.9
 20
133.5
 30
200.5
 70
    64
  0
VERTEX
  5
34B4
  8
0
 10
66.3
 20
133.5
 30
203.8
 70
    64
  0
VERTEX
  5
34B5
  8
0
 10
63.0
 20
133.5
 30
206.4
 70
    64
  0
VERTEX
  5
34B6
  8
0
 10
59.1
 20
133.5
 30
207.9
 70
    64
  0
VERTEX
  5
34B7
  8
0
 10
55.0
 20
133.5
 30
208.5
 70
    64
  0
VERTEX
  5
34B8
  8
0
 10
69.0
 20
134.0
 30
192.5
 70
    64
  0
VERTEX
  5
34B9
  8
0
 10
68.5
 20
134.0
 30
196.1
 70
    64
  0
VERTEX
  5
34BA
  8
0
 10
67.1
 20
134.0
 30
199.5
 70
    64
  0
VERTEX
  5
34BB
  8
0
 10
64.9
 20
134.0
 30
202.4
 70
    64
  0
VERTEX
  5
34BC
  8
0
 10
62.0
 20
134.0
 30
204.6
 70
    64
  0
VERTEX
  5
34BD
  8
0
 10
58.6
 20
134.0
 30
206.0
 70
    64
  0
VERTEX
  5
34BE
  8
0
 10
55.0
 20
134.0
 30
206.5
 70
    64
  0
VERTEX
  5
34BF
  8
0
 10
55.0
 20
134.0
 30
192.5
 70
    64
  0
VERTEX
  5
34C0
  8
0
 10
55.0
 20
134.0
 30
192.5
 70
    64
  0
VERTEX
  5
34C1
  8
0
 10
55.0
 20
134.0
 30
192.5
 70
    64
  0
VERTEX
  5
34C2
  8
0
 10
55.0
 20
134.0
 30
192.5
 70
    64
  0
VERTEX
  5
34C3
  8
0
 10
55.0
 20
134.0
 30
192.5
 70
    64
  0
VERTEX
  5
34C4
  8
0
 10
55.0
 20
134.0
 30
192.5
 70
    64
  0
VERTEX
  5
34C5
  8
0
 10
55.0
 20
134.0
 30
192.5
 70
    64
  0
SEQEND
  5
34C6
  8
0
  0
POLYLINE
  5
34C7
  8
0
 66
     1
 10
0.0
 20
0.0
 30
0.0
 70
    16
 71
    10
 72
     7
  0
VERTEX
  5
34C8
  8
0
 10
55.0
 20
140.0
 30
192.5
 70
    64
  0
VERTEX
  5
34C9
  8
0
 10
55.0
 20
140.0
 30
192.5
 70
    64
  0
VERTEX
  5
34CA
  8
0
 10
55.0
 20
140.0
 30
192.5
 70
    64
  0
VERTEX
  5
34CB
  8
0
 10
55.0
 20
140.0
 30
192.5
 70
    64
  0
VERTEX
  5
34CC
  8
0
 10
55.0
 20
140.0
 30
192.5
 70
    64
  0
VERTEX
  5
34CD
  8
0
 10
55.0
 20
140.0
 30
192.5
 70
    64
  0
VERTEX
  5
34CE
  8
0
 10
55.0
 20
140.0
 30
192.5
 70
    64
  0
VERTEX
  5
34CF
  8
0
 10
27.5
 20
140.0
 30
192.5
 70
    64
  0
VERTEX
  5
34D0
  8
0
 10
28.4
 20
140.0
 30
199.5
 70
    64
  0
VERTEX
  5
34D1
  8
0
 10
31.1
 20
140.0
 30
206.1
 70
    64
  0
VERTEX
  5
34D2
  8
0
 10
35.5
 20
140.0
 30
212.0
 70
    64
  0
VERTEX
  5
34D3
  8
0
 10
41.4
 20
140.0
 30
216.4
 70
    64
  0
VERTEX
  5
34D4
  8
0
 10
48.0
 20
140.0
 30
219.1
 70
    64
  0
VERTEX
  5
34D5
  8
0
 10
55.0
 20
140.0
 30
220.0
 70
    64
  0
VERTEX
  5
34D6
  8
0
 10
27.5
 20
131.5
 30
192.5
 70
    64
  0
VERTEX
  5
34D7
  8
0
 10
28.4
 20
131.5
 30
199.5
 70
    64
  0
VERTEX
  5
34D8
  8
0
 10
31.1
 20
131.5
 30
206.1
 70
    64
  0
VERTEX
  5
34D9
  8
0
 10
35.5
 20
131.5
 30
212.0
 70
    64
  0
VERTEX
  5
34DA
  8
0
 10
41.4
 20
131.5
 30
216.4
 70
    64
  0
VERTEX
  5
34DB
  8
0
 10
48.0
 20
131.5
 30
219.1
 70
    64
  0
VERTEX
  5
34DC
  8
0
 10
55.0
 20
131.5
 30
220.0
 70
    64
  0
VERTEX
  5
34DD
  8
0
 10
29.0
 20
130.0
 30
192.5
 70
    64
  0
VERTEX
  5
34DE
  8
0
 10
29.9
 20
130.0
 30
199.2
 70
    64
  0
VERTEX
  5
34DF
  8
0
 10
32.4
 20
130.0
 30
205.4
 70
    64
  0
VERTEX
  5
34E0
  8
0
 10
36.6
 20
130.0
 30
210.9
 70
    64
  0
VERTEX
  5
34E1
  8
0
 10
42.1
 20
130.0
 30
215.1
 70
    64
  0
VERTEX
  5
34E2
  8
0
 10
48.3
 20
130.0
 30
217.6
 70
    64
  0
VERTEX
  5
34E3
  8
0
 10
55.0
 20
130.0
 30
218.5
 70
    64
  0
VERTEX
  5
34E4
  8
0
 10
31.0
 20
130.0
 30
192.5
 70
    64
  0
VERTEX
  5
34E5
  8
0
 10
31.8
 20
130.0
 30
198.7
 70
    64
  0
VERTEX
  5
34E6
  8
0
 10
34.1
 20
130.0
 30
204.5
 70
    64
  0
VERTEX
  5
34E7
  8
0
 10
38.0
 20
130.0
 30
209.5
 70
    64
  0
VERTEX
  5
34E8
  8
0
 10
43.0
 20
130.0
 30
213.4
 70
    64
  0
VERTEX
  5
34E9
  8
0
 10
48.8
 20
130.0
 30
215.7
 70
    64
  0
VERTEX
  5
34EA
  8
0
 10
55.0
 20
130.0
 30
216.5
 70
    64
  0
VERTEX
  5
34EB
  8
0
 10
33.0
 20
130.5
 30
192.5
 70
    64
  0
VERTEX
  5
34EC
  8
0
 10
33.8
 20
130.5
 30
198.2
 70
    64
  0
VERTEX
  5
34ED
  8
0
 10
35.9
 20
130.5
 30
203.5
 70
    64
  0
VERTEX
  5
34EE
  8
0
 10
39.5
 20
130.5
 30
208.0
 70
    64
  0
VERTEX
  5
34EF
  8
0
 10
44.0
 20
130.5
 30
211.6
 70
    64
  0
VERTEX
  5
34F0
  8
0
 10
49.3
 20
130.5
 30
213.7
 70
    64
  0
VERTEX
  5
34F1
  8
0
 10
55.0
 20
130.5
 30
214.5
 70
    64
  0
VERTEX
  5
34F2
  8
0
 10
36.5
 20
132.0
 30
192.5
 70
    64
  0
VERTEX
  5
34F3
  8
0
 10
37.2
 20
132.0
 30
197.3
 70
    64
  0
VERTEX
  5
34F4
  8
0
 10
39.0
 20
132.0
 30
201.7
 70
    64
  0
VERTEX
  5
34F5
  8
0
 10
41.9
 20
132.0
 30
205.6
 70
    64
  0
VERTEX
  5
34F6
  8
0
 10
45.8
 20
132.0
 30
208.5
 70
    64
  0
VERTEX
  5
34F7
  8
0
 10
50.2
 20
132.0
 30
210.3
 70
    64
  0
VERTEX
  5
34F8
  8
0
 10
55.0
 20
132.0
 30
211.0
 70
    64
  0
VERTEX
  5
34F9
  8
0
 10
39.0
 20
133.5
 30
192.5
 70
    64
  0
VERTEX
  5
34FA
  8
0
 10
39.6
 20
133.5
 30
196.6
 70
    64
  0
VERTEX
  5
34FB
  8
0
 10
41.1
 20
133.5
 30
200.5
 70
    64
  0
VERTEX
  5
34FC
  8
0
 10
43.7
 20
133.5
 30
203.8
 70
    64
  0
VERTEX
  5
34FD
  8
0
 10
47.0
 20
133.5
 30
206.4
 70
    64
  0
VERTEX
  5
34FE
  8
0
 10
50.9
 20
133.5
 30
207.9
 70
    64
  0
VERTEX
  5
34FF
  8
0
 10
55.0
 20
133.5
 30
208.5
 70
    64
  0
VERTEX
  5
3500
  8
0
 10
41.0
 20
134.0
 30
192.5
 70
    64
  0
VERTEX
  5
3501
  8
0
 10
41.5
 20
134.0
 30
196.1
 70
    64
  0
VERTEX
  5
3502
  8
0
 10
42.9
 20
134.0
 30
199.5
 70
    64
  0
VERTEX
  5
3503
  8
0
 10
45.1
 20
134.0
 30
202.4
 70
    64
  0
VERTEX
  5
3504
  8
0
 10
48.0
 20
134.0
 30
204.6
 70
    64
  0
VERTEX
  5
3505
  8
0
 10
51.4
 20
134.0
 30
206.0
 70
    64
  0
VERTEX
  5
3506
  8
0
 10
55.0
 20
134.0
 30
206.5
 70
    64
  0
VERTEX
  5
3507
  8
0
 10
55.0
 20
134.0
 30
192.5
 70
    64
  0
VERTEX
  5
3508
  8
0
 10
55.0
 20
134.0
 30
192.5
 70
    64
  0
VERTEX
  5
3509
  8
0
 10
55.0
 20
134.0
 30
192.5
 70
    64
  0
VERTEX
  5
350A
  8
0
 10
55.0
 20
134.0
 30
192.5
 70
    64
  0
VERTEX
  5
350B
  8
0
 10
55.0
 20
134.0
 30
192.5
 70
    64
  0
VERTEX
  5
350C
  8
0
 10
55.0
 20
134.0
 30
192.5
 70
    64
  0
VERTEX
  5
350D
  8
0
 10
55.0
 20
134.0
 30
192.5
 70
    64
  0
SEQEND
  5
350E
  8
0
  0
POLYLINE
  5
3B19
  8
0
 66
     1
 10
0.0
 20
0.0
 30
0.0
 70
    16
 71
     7
 72
    10
  0
VERTEX
  5
3B1A
  8
0
 10
55.0
 20
103.079586
 30
6.155994
 70
    64
  0
VERTEX
  5
3B1B
  8
0
 10
55.0
 20
103.079586
 30
6.155994
 70
    64
  0
VERTEX
  5
3B1C
  8
0
 10
55.0
 20
103.079586
 30
6.155994
 70
    64
  0
VERTEX
  5
3B1D
  8
0
 10
55.0
 20
103.079586
 30
6.155994
 70
    64
  0
VERTEX
  5
3B1E
  8
0
 10
55.0
 20
103.079586
 30
6.155994
 70
    64
  0
VERTEX
  5
3B1F
  8
0
 10
55.0
 20
103.079586
 30
6.155994
 70
    64
  0
VERTEX
  5
3B20
  8
0
 10
55.0
 20
103.079586
 30
6.155994
 70
    64
  0
VERTEX
  5
3B21
  8
0
 10
55.0
 20
103.079586
 30
6.155994
 70
    64
  0
VERTEX
  5
3B22
  8
0
 10
55.0
 20
103.079586
 30
6.155994
 70
    64
  0
VERTEX
  5
3B23
  8
0
 10
55.0
 20
103.079586
 30
6.155994
 70
    64
  0
VERTEX
  5
3B24
  8
0
 10
27.0
 20
103.079586
 30
6.155994
 70
    64
  0
VERTEX
  5
3B25
  8
0
 10
27.5
 20
98.402609
 30
5.076229
 70
    64
  0
VERTEX
  5
3B26
  8
0
 10
28.7
 20
93.725633
 30
3.996464
 70
    64
  0
VERTEX
  5
3B27
  8
0
 10
30.8
 20
89.438405
 30
3.006679
 70
    64
  0
VERTEX
  5
3B28
  8
0
 10
33.6
 20
85.540924
 30
2.106875
 70
    64
  0
VERTEX
  5
3B29
  8
0
 10
37.0
 20
82.228066
 30
1.342041
 70
    64
  0
VERTEX
  5
3B2A
  8
0
 10
41.0
 20
79.49983
 30
0.712178
 70
    64
  0
VERTEX
  5
3B2B
  8
0
 10
45.4
 20
77.453653
 30
0.239781
 70
    64
  0
VERTEX
  5
3B2C
  8
0
 10
50.2
 20
76.284409
 30
-0.03016
 70
    64
  0
VERTEX
  5
3B2D
  8
0
 10
55.0
 20
75.797224
 30
-0.142636
 70
    64
  0
VERTEX
  5
3B2E
  8
0
 10
25.0
 20
102.629683
 30
8.104734
 70
    64
  0
VERTEX
  5
3B2F
  8
0
 10
25.5
 20
97.562959
 30
6.934988
 70
    64
  0
VERTEX
  5
3B30
  8
0
 10
26.9
 20
92.593672
 30
5.787738
 70
    64
  0
VERTEX
  5
3B31
  8
0
 10
29.0
 20
88.014132
 30
4.730468
 70
    64
  0
VERTEX
  5
3B32
  8
0
 10
32.0
 20
83.824341
 30
3.763179
 70
    64
  0
VERTEX
  5
3B33
  8
0
 10
35.7
 20
80.219172
 30
2.93086
 70
    64
  0
VERTEX
  5
3B34
  8
0
 10
40.0
 20
77.296062
 30
2.256006
 70
    64
  0
VERTEX
  5
3B35
  8
0
 10
44.7
 20
75.249885
 30
1.783609
 70
    64
  0
VERTEX
  5
3B36
  8
0
 10
49.8
 20
73.885766
 30
1.468678
 70
    64
  0
VERTEX
  5
3B37
  8
0
 10
55.0
 20
73.398581
 30
1.356202
 70
    64
  0
VERTEX
  5
3B38
  8
0
 10
0.0
 20
53.590354
 30
220.517408
 70
    64
  0
VERTEX
  5
3B39
  8
0
 10
0.9
 20
44.333838
 30
218.380373
 70
    64
  0
VERTEX
  5
3B3A
  8
0
 10
3.4
 20
35.272196
 30
216.288328
 70
    64
  0
VERTEX
  5
3B3B
  8
0
 10
7.4
 20
26.892614
 30
214.353749
 70
    64
  0
VERTEX
  5
3B3C
  8
0
 10
12.9
 20
19.19509
 30
212.576636
 70
    64
  0
VERTEX
  5
3B3D
  8
0
 10
19.7
 20
12.569374
 30
211.046969
 70
    64
  0
VERTEX
  5
3B3E
  8
0
 10
27.6
 20
7.210338
 30
209.809738
 70
    64
  0
VERTEX
  5
3B3F
  8
0
 10
36.2
 20
3.312858
 30
208.909934
 70
    64
  0
VERTEX
  5
3B40
  8
0
 10
45.5
 20
0.876933
 30
208.347556
 70
    64
  0
VERTEX
  5
3B41
  8
0
 10
55.0
 20
0.0
 30
208.1451
 70
    64
  0
VERTEX
  5
3B42
  8
0
 10
2.0
 20
53.590354
 30
220.517408
 70
    64
  0
VERTEX
  5
3B43
  8
0
 10
2.9
 20
44.723586
 30
218.470353
 70
    64
  0
VERTEX
  5
3B44
  8
0
 10
5.3
 20
35.954255
 30
216.445794
 70
    64
  0
VERTEX
  5
3B45
  8
0
 10
9.1
 20
27.866984
 30
214.5787
 70
    64
  0
VERTEX
  5
3B46
  8
0
 10
14.4
 20
20.461771
 30
212.869072
 70
    64
  0
VERTEX
  5
3B47
  8
0
 10
21.0
 20
14.030929
 30
211.384395
 70
    64
  0
VERTEX
  5
3B48
  8
0
 10
28.6
 20
8.866768
 30
210.192155
 70
    64
  0
VERTEX
  5
3B49
  8
0
 10
36.9
 20
5.164161
 30
209.337341
 70
    64
  0
VERTEX
  5
3B4A
  8
0
 10
45.9
 20
2.825673
 30
208.797458
 70
    64
  0
VERTEX
  5
3B4B
  8
0
 10
55.0
 20
1.94874
 30
208.595002
 70
    64
  0
VERTEX
  5
3B4C
  8
0
 10
27.0
 20
101.95483
 30
11.027844
 70
    64
  0
VERTEX
  5
3B4D
  8
0
 10
27.5
 20
97.277854
 30
9.948079
 70
    64
  0
VERTEX
  5
3B4E
  8
0
 10
28.7
 20
92.600878
 30
8.868314
 70
    64
  0
VERTEX
  5
3B4F
  8
0
 10
30.8
 20
88.313649
 30
7.878529
 70
    64
  0
VERTEX
  5
3B50
  8
0
 10
33.6
 20
84.416169
 30
6.978725
 70
    64
  0
VERTEX
  5
3B51
  8
0
 10
37.0
 20
81.103311
 30
6.213891
 70
    64
  0
VERTEX
  5
3B52
  8
0
 10
41.0
 20
78.375075
 30
5.584029
 70
    64
  0
VERTEX
  5
3B53
  8
0
 10
45.4
 20
76.328898
 30
5.111631
 70
    64
  0
VERTEX
  5
3B54
  8
0
 10
50.2
 20
75.159653
 30
4.84169
 70
    64
  0
VERTEX
  5
3B55
  8
0
 10
55.0
 20
74.672468
 30
4.729215
 70
    64
  0
VERTEX
  5
3B56
  8
0
 10
55.0
 20
101.95483
 30
11.027844
 70
    64
  0
VERTEX
  5
3B57
  8
0
 10
55.0
 20
101.95483
 30
11.027844
 70
    64
  0
VERTEX
  5
3B58
  8
0
 10
55.0
 20
101.95483
 30
11.027844
 70
    64
  0
VERTEX
  5
3B59
  8
0
 10
55.0
 20
101.95483
 30
11.027844
 70
    64
  0
VERTEX
  5
3B5A
  8
0
 10
55.0
 20
101.95483
 30
11.027844
 70
    64
  0
VERTEX
  5
3B5B
  8
0
 10
55.0
 20
101.95483
 30
11.027844
 70
    64
  0
VERTEX
  5
3B5C
  8
0
 10
55.0
 20
101.95483
 30
11.027844
 70
    64
  0
VERTEX
  5
3B5D
  8
0
 10
55.0
 20
101.95483
 30
11.027844
 70
    64
  0
VERTEX
  5
3B5E
  8
0
 10
55.0
 20
101.95483
 30
11.027844
 70
    64
  0
VERTEX
  5
3B5F
  8
0
 10
55.0
 20
101.95483
 30
11.027844
 70
    64
  0
SEQEND
  5
3B60
  8
0
  0
POLYLINE
  5
3B61
  8
0
 66
     1
 10
0.0
 20
0.0
 30
0.0
 70
    16
 71
     3
 72
     7
  0
VERTEX
  5
3B62
  8
0
 10
47.0
 20
76.085459
 30
123.080402
 70
    64
  0
VERTEX
  5
3B63
  8
0
 10
47.3
 20
74.039282
 30
122.608004
 70
    64
  0
VERTEX
  5
3B64
  8
0
 10
48.1
 20
72.187979
 30
122.180597
 70
    64
  0
VERTEX
  5
3B65
  8
0
 10
49.4
 20
70.628987
 30
121.820676
 70
    64
  0
VERTEX
  5
3B66
  8
0
 10
51.0
 20
69.362306
 30
121.528239
 70
    64
  0
VERTEX
  5
3B67
  8
0
 10
52.9
 20
68.582809
 30
121.348278
 70
    64
  0
VERTEX
  5
3B68
  8
0
 10
55.0
 20
68.290498
 30
121.280793
 70
    64
  0
VERTEX
  5
3B69
  8
0
 10
47.0
 20
19.847695
 30
366.672918
 70
    64
  0
VERTEX
  5
3B6A
  8
0
 10
47.3
 20
17.801518
 30
366.20052
 70
    64
  0
VERTEX
  5
3B6B
  8
0
 10
48.1
 20
15.950215
 30
365.773113
 70
    64
  0
VERTEX
  5
3B6C
  8
0
 10
49.4
 20
14.391223
 30
365.413192
 70
    64
  0
VERTEX
  5
3B6D
  8
0
 10
51.0
 20
13.124542
 30
365.120755
 70
    64
  0
VERTEX
  5
3B6E
  8
0
 10
52.9
 20
12.345046
 30
364.940795
 70
    64
  0
VERTEX
  5
3B6F
  8
0
 10
55.0
 20
12.052735
 30
364.873309
 70
    64
  0
VERTEX
  5
3B70
  8
0
 10
55.0
 20
19.847695
 30
366.672918
 70
    64
  0
VERTEX
  5
3B71
  8
0
 10
55.0
 20
19.847695
 30
366.672918
 70
    64
  0
VERTEX
  5
3B72
  8
0
 10
55.0
 20
19.847695
 30
366.672918
 70
    64
  0
VERTEX
  5
3B73
  8
0
 10
55.0
 20
19.847695
 30
366.672918
 70
    64
  0
VERTEX
  5
3B74
  8
0
 10
55.0
 20
19.847695
 30
366.672918
 70
    64
  0
VERTEX
  5
3B75
  8
0
 10
55.0
 20
19.847695
 30
366.672918
 70
    64
  0
VERTEX
  5
3B76
  8
0
 10
55.0
 20
19.847695
 30
366.672918
 70
    64
  0
SEQEND
  5
3B77
  8
0
  0
POLYLINE
  5
3B78
  8
0
 66
     1
 10
0.0
 20
0.0
 30
0.0
 70
    16
 71
     2
 72
    10
  0
VERTEX
  5
3B79
  8
0
 10
55.0
 20
76.085459
 30
123.080402
 70
    64
  0
VERTEX
  5
3B7A
  8
0
 10
55.0
 20
76.085459
 30
123.080402
 70
    64
  0
VERTEX
  5
3B7B
  8
0
 10
55.0
 20
76.085459
 30
123.080402
 70
    64
  0
VERTEX
  5
3B7C
  8
0
 10
55.0
 20
76.085459
 30
123.080402
 70
    64
  0
VERTEX
  5
3B7D
  8
0
 10
55.0
 20
76.085459
 30
123.080402
 70
    64
  0
VERTEX
  5
3B7E
  8
0
 10
55.0
 20
76.085459
 30
123.080402
 70
    64
  0
VERTEX
  5
3B7F
  8
0
 10
55.0
 20
76.085459
 30
123.080402
 70
    64
  0
VERTEX
  5
3B80
  8
0
 10
55.0
 20
76.085459
 30
123.080402
 70
    64
  0
VERTEX
  5
3B81
  8
0
 10
55.0
 20
76.085459
 30
123.080402
 70
    64
  0
VERTEX
  5
3B82
  8
0
 10
55.0
 20
76.085459
 30
123.080402
 70
    64
  0
VERTEX
  5
3B83
  8
0
 10
14.0
 20
76.085459
 30
123.080402
 70
    64
  0
VERTEX
  5
3B84
  8
0
 10
14.7
 20
69.167432
 30
121.483249
 70
    64
  0
VERTEX
  5
3B85
  8
0
 10
16.6
 20
62.444278
 30
119.931087
 70
    64
  0
VERTEX
  5
3B86
  8
0
 10
19.5
 20
56.20831
 30
118.4914
 70
    64
  0
VERTEX
  5
3B87
  8
0
 10
23.6
 20
50.459526
 30
117.164189
 70
    64
  0
VERTEX
  5
3B88
  8
0
 10
28.7
 20
45.490239
 30
116.016938
 70
    64
  0
VERTEX
  5
3B89
  8
0
 10
34.6
 20
41.495322
 30
115.094639
 70
    64
  0
VERTEX
  5
3B8A
  8
0
 10
41.0
 20
38.669649
 30
114.442281
 70
    64
  0
VERTEX
  5
3B8B
  8
0
 10
47.9
 20
36.818345
 30
114.014874
 70
    64
  0
VERTEX
  5
3B8C
  8
0
 10
55.0
 20
36.136286
 30
113.857408
 70
    64
  0
SEQEND
  5
3B8D
  8
0
  0
POLYLINE
  5
3B8E
  8
0
 66
     1
 10
0.0
 20
0.0
 30
0.0
 70
    16
 71
     2
 72
    10
  0
VERTEX
  5
3B8F
  8
0
 10
55.0
 20
76.085459
 30
123.080402
 70
    64
  0
VERTEX
  5
3B90
  8
0
 10
55.0
 20
76.085459
 30
123.080402
 70
    64
  0
VERTEX
  5
3B91
  8
0
 10
55.0
 20
76.085459
 30
123.080402
 70
    64
  0
VERTEX
  5
3B92
  8
0
 10
55.0
 20
76.085459
 30
123.080402
 70
    64
  0
VERTEX
  5
3B93
  8
0
 10
55.0
 20
76.085459
 30
123.080402
 70
    64
  0
VERTEX
  5
3B94
  8
0
 10
55.0
 20
76.085459
 30
123.080402
 70
    64
  0
VERTEX
  5
3B95
  8
0
 10
55.0
 20
76.085459
 30
123.080402
 70
    64
  0
VERTEX
  5
3B96
  8
0
 10
55.0
 20
76.085459
 30
123.080402
 70
    64
  0
VERTEX
  5
3B97
  8
0
 10
55.0
 20
76.085459
 30
123.080402
 70
    64
  0
VERTEX
  5
3B98
  8
0
 10
55.0
 20
76.085459
 30
123.080402
 70
    64
  0
VERTEX
  5
3B99
  8
0
 10
96.0
 20
76.085459
 30
123.080402
 70
    64
  0
VERTEX
  5
3B9A
  8
0
 10
95.3
 20
69.167432
 30
121.483249
 70
    64
  0
VERTEX
  5
3B9B
  8
0
 10
93.4
 20
62.444278
 30
119.931087
 70
    64
  0
VERTEX
  5
3B9C
  8
0
 10
90.5
 20
56.20831
 30
118.4914
 70
    64
  0
VERTEX
  5
3B9D
  8
0
 10
86.4
 20
50.459526
 30
117.164189
 70
    64
  0
VERTEX
  5
3B9E
  8
0
 10
81.3
 20
45.490239
 30
116.016938
 70
    64
  0
VERTEX
  5
3B9F
  8
0
 10
75.4
 20
41.495322
 30
115.094639
 70
    64
  0
VERTEX
  5
3BA0
  8
0
 10
69.0
 20
38.669649
 30
114.442281
 70
    64
  0
VERTEX
  5
3BA1
  8
0
 10
62.1
 20
36.818345
 30
114.014874
 70
    64
  0
VERTEX
  5
3BA2
  8
0
 10
55.0
 20
36.136286
 30
113.857408
 70
    64
  0
SEQEND
  5
3BA3
  8
0
  0
POLYLINE
  5
3BA4
  8
0
 66
     1
 10
0.0
 20
0.0
 30
0.0
 70
    16
 71
     7
 72
    10
  0
VERTEX
  5
3BA5
  8
0
 10
55.0
 20
103.079586
 30
6.155994
 70
    64
  0
VERTEX
  5
3BA6
  8
0
 10
55.0
 20
103.079586
 30
6.155994
 70
    64
  0
VERTEX
  5
3BA7
  8
0
 10
55.0
 20
103.079586
 30
6.155994
 70
    64
  0
VERTEX
  5
3BA8
  8
0
 10
55.0
 20
103.079586
 30
6.155994
 70
    64
  0
VERTEX
  5
3BA9
  8
0
 10
55.0
 20
103.079586
 30
6.155994
 70
    64
  0
VERTEX
  5
3BAA
  8
0
 10
55.0
 20
103.079586
 30
6.155994
 70
    64
  0
VERTEX
  5
3BAB
  8
0
 10
55.0
 20
103.079586
 30
6.155994
 70
    64
  0
VERTEX
  5
3BAC
  8
0
 10
55.0
 20
103.079586
 30
6.155994
 70
    64
  0
VERTEX
  5
3BAD
  8
0
 10
55.0
 20
103.079586
 30
6.155994
 70
    64
  0
VERTEX
  5
3BAE
  8
0
 10
55.0
 20
103.079586
 30
6.155994
 70
    64
  0
VERTEX
  5
3BAF
  8
0
 10
83.0
 20
103.079586
 30
6.155994
 70
    64
  0
VERTEX
  5
3BB0
  8
0
 10
82.5
 20
98.402609
 30
5.076229
 70
    64
  0
VERTEX
  5
3BB1
  8
0
 10
81.3
 20
93.725633
 30
3.996464
 70
    64
  0
VERTEX
  5
3BB2
  8
0
 10
79.2
 20
89.438405
 30
3.006679
 70
    64
  0
VERTEX
  5
3BB3
  8
0
 10
76.4
 20
85.540924
 30
2.106875
 70
    64
  0
VERTEX
  5
3BB4
  8
0
 10
73.0
 20
82.228066
 30
1.342041
 70
    64
  0
VERTEX
  5
3BB5
  8
0
 10
69.0
 20
79.49983
 30
0.712178
 70
    64
  0
VERTEX
  5
3BB6
  8
0
 10
64.6
 20
77.453653
 30
0.239781
 70
    64
  0
VERTEX
  5
3BB7
  8
0
 10
59.8
 20
76.284409
 30
-0.03016
 70
    64
  0
VERTEX
  5
3BB8
  8
0
 10
55.0
 20
75.797224
 30
-0.142636
 70
    64
  0
VERTEX
  5
3BB9
  8
0
 10
85.0
 20
102.629683
 30
8.104734
 70
    64
  0
VERTEX
  5
3BBA
  8
0
 10
84.5
 20
97.562959
 30
6.934988
 70
    64
  0
VERTEX
  5
3BBB
  8
0
 10
83.1
 20
92.593672
 30
5.787738
 70
    64
  0
VERTEX
  5
3BBC
  8
0
 10
81.0
 20
88.014132
 30
4.730468
 70
    64
  0
VERTEX
  5
3BBD
  8
0
 10
78.0
 20
83.824341
 30
3.763179
 70
    64
  0
VERTEX
  5
3BBE
  8
0
 10
74.3
 20
80.219172
 30
2.93086
 70
    64
  0
VERTEX
  5
3BBF
  8
0
 10
70.0
 20
77.296062
 30
2.256006
 70
    64
  0
VERTEX
  5
3BC0
  8
0
 10
65.3
 20
75.249885
 30
1.783609
 70
    64
  0
VERTEX
  5
3BC1
  8
0
 10
60.2
 20
73.885766
 30
1.468678
 70
    64
  0
VERTEX
  5
3BC2
  8
0
 10
55.0
 20
73.398581
 30
1.356202
 70
    64
  0
VERTEX
  5
3BC3
  8
0
 10
110.0
 20
53.590354
 30
220.517408
 70
    64
  0
VERTEX
  5
3BC4
  8
0
 10
109.1
 20
44.333838
 30
218.380373
 70
    64
  0
VERTEX
  5
3BC5
  8
0
 10
106.6
 20
35.272196
 30
216.288328
 70
    64
  0
VERTEX
  5
3BC6
  8
0
 10
102.6
 20
26.892614
 30
214.353749
 70
    64
  0
VERTEX
  5
3BC7
  8
0
 10
97.1
 20
19.19509
 30
212.576636
 70
    64
  0
VERTEX
  5
3BC8
  8
0
 10
90.3
 20
12.569374
 30
211.046969
 70
    64
  0
VERTEX
  5
3BC9
  8
0
 10
82.4
 20
7.210338
 30
209.809738
 70
    64
  0
VERTEX
  5
3BCA
  8
0
 10
73.8
 20
3.312858
 30
208.909934
 70
    64
  0
VERTEX
  5
3BCB
  8
0
 10
64.5
 20
0.876933
 30
208.347556
 70
    64
  0
VERTEX
  5
3BCC
  8
0
 10
55.0
 20
0.0
 30
208.1451
 70
    64
  0
VERTEX
  5
3BCD
  8
0
 10
108.0
 20
53.590354
 30
220.517408
 70
    64
  0
VERTEX
  5
3BCE
  8
0
 10
107.1
 20
44.723586
 30
218.470353
 70
    64
  0
VERTEX
  5
3BCF
  8
0
 10
104.7
 20
35.954255
 30
216.445794
 70
    64
  0
VERTEX
  5
3BD0
  8
0
 10
100.9
 20
27.866984
 30
214.5787
 70
    64
  0
VERTEX
  5
3BD1
  8
0
 10
95.6
 20
20.461771
 30
212.869072
 70
    64
  0
VERTEX
  5
3BD2
  8
0
 10
89.0
 20
14.030929
 30
211.384395
 70
    64
  0
VERTEX
  5
3BD3
  8
0
 10
81.4
 20
8.866768
 30
210.192155
 70
    64
  0
VERTEX
  5
3BD4
  8
0
 10
73.1
 20
5.164161
 30
209.337341
 70
    64
  0
VERTEX
  5
3BD5
  8
0
 10
64.1
 20
2.825673
 30
208.797458
 70
    64
  0
VERTEX
  5
3BD6
  8
0
 10
55.0
 20
1.94874
 30
208.595002
 70
    64
  0
VERTEX
  5
3BD7
  8
0
 10
83.0
 20
101.95483
 30
11.027844
 70
    64
  0
VERTEX
  5
3BD8
  8
0
 10
82.5
 20
97.277854
 30
9.948079
 70
    64
  0
VERTEX
  5
3BD9
  8
0
 10
81.3
 20
92.600878
 30
8.868314
 70
    64
  0
VERTEX
  5
3BDA
  8
0
 10
79.2
 20
88.313649
 30
7.878529
 70
    64
  0
VERTEX
  5
3BDB
  8
0
 10
76.4
 20
84.416169
 30
6.978725
 70
    64
  0
VERTEX
  5
3BDC
  8
0
 10
73.0
 20
81.103311
 30
6.213891
 70
    64
  0
VERTEX
  5
3BDD
  8
0
 10
69.0
 20
78.375075
 30
5.584029
 70
    64
  0
VERTEX
  5
3BDE
  8
0
 10
64.6
 20
76.328898
 30
5.111631
 70
    64
  0
VERTEX
  5
3BDF
  8
0
 10
59.8
 20
75.159653
 30
4.84169
 70
    64
  0
VERTEX
  5
3BE0
  8
0
 10
55.0
 20
74.672468
 30
4.729215
 70
    64
  0
VERTEX
  5
3BE1
  8
0
 10
55.0
 20
101.95483
 30
11.027844
 70
    64
  0
VERTEX
  5
3BE2
  8
0
 10
55.0
 20
101.95483
 30
11.027844
 70
    64
  0
VERTEX
  5
3BE3
  8
0
 10
55.0
 20
101.95483
 30
11.027844
 70
    64
  0
VERTEX
  5
3BE4
  8
0
 10
55.0
 20
101.95483
 30
11.027844
 70
    64
  0
VERTEX
  5
3BE5
  8
0
 10
55.0
 20
101.95483
 30
11.027844
 70
    64
  0
VERTEX
  5
3BE6
  8
0
 10
55.0
 20
101.95483
 30
11.027844
 70
    64
  0
VERTEX
  5
3BE7
  8
0
 10
55.0
 20
101.95483
 30
11.027844
 70
    64
  0
VERTEX
  5
3BE8
  8
0
 10
55.0
 20
101.95483
 30
11.027844
 70
    64
  0
VERTEX
  5
3BE9
  8
0
 10
55.0
 20
101.95483
 30
11.027844
 70
    64
  0
VERTEX
  5
3BEA
  8
0
 10
55.0
 20
101.95483
 30
11.027844
 70
    64
  0
SEQEND
  5
3BEB
  8
0
  0
POLYLINE
  5
3BEC
  8
0
 66
     1
 10
0.0
 20
0.0
 30
0.0
 70
    16
 71
     3
 72
     7
  0
VERTEX
  5
3BED
  8
0
 10
63.0
 20
76.085459
 30
123.080402
 70
    64
  0
VERTEX
  5
3BEE
  8
0
 10
62.7
 20
74.039282
 30
122.608004
 70
    64
  0
VERTEX
  5
3BEF
  8
0
 10
61.9
 20
72.187979
 30
122.180597
 70
    64
  0
VERTEX
  5
3BF0
  8
0
 10
60.6
 20
70.628987
 30
121.820676
 70
    64
  0
VERTEX
  5
3BF1
  8
0
 10
59.0
 20
69.362306
 30
121.528239
 70
    64
  0
VERTEX
  5
3BF2
  8
0
 10
57.1
 20
68.582809
 30
121.348278
 70
    64
  0
VERTEX
  5
3BF3
  8
0
 10
55.0
 20
68.290498
 30
121.280793
 70
    64
  0
VERTEX
  5
3BF4
  8
0
 10
63.0
 20
19.847695
 30
366.672918
 70
    64
  0
VERTEX
  5
3BF5
  8
0
 10
62.7
 20
17.801518
 30
366.20052
 70
    64
  0
VERTEX
  5
3BF6
  8
0
 10
61.9
 20
15.950215
 30
365.773113
 70
    64
  0
VERTEX
  5
3BF7
  8
0
 10
60.6
 20
14.391223
 30
365.413192
 70
    64
  0
VERTEX
  5
3BF8
  8
0
 10
59.0
 20
13.124542
 30
365.120755
 70
    64
  0
VERTEX
  5
3BF9
  8
0
 10
57.1
 20
12.345046
 30
364.940795
 70
    64
  0
VERTEX
  5
3BFA
  8
0
 10
55.0
 20
12.052735
 30
364.873309
 70
    64
  0
VERTEX
  5
3BFB
  8
0
 10
55.0
 20
19.847695
 30
366.672918
 70
    64
  0
VERTEX
  5
3BFC
  8
0
 10
55.0
 20
19.847695
 30
366.672918
 70
    64
  0
VERTEX
  5
3BFD
  8
0
 10
55.0
 20
19.847695
 30
366.672918
 70
    64
  0
VERTEX
  5
3BFE
  8
0
 10
55.0
 20
19.847695
 30
366.672918
 70
    64
  0
VERTEX
  5
3BFF
  8
0
 10
55.0
 20
19.847695
 30
366.672918
 70
    64
  0
VERTEX
  5
3C00
  8
0
 10
55.0
 20
19.847695
 30
366.672918
 70
    64
  0
VERTEX
  5
3C01
  8
0
 10
55.0
 20
19.847695
 30
366.672918
 70
    64
  0
SEQEND
  5
3C02
  8
0
  0
POLYLINE
  5
3C03
  8
0
 66
     1
 10
0.0
 20
0.0
 30
0.0
 70
    16
 71
     2
 72
    10
  0
VERTEX
  5
3C04
  8
0
 10
55.0
 20
76.085459
 30
123.080402
 70
    64
  0
VERTEX
  5
3C05
  8
0
 10
55.0
 20
76.085459
 30
123.080402
 70
    64
  0
VERTEX
  5
3C06
  8
0
 10
55.0
 20
76.085459
 30
123.080402
 70
    64
  0
VERTEX
  5
3C07
  8
0
 10
55.0
 20
76.085459
 30
123.080402
 70
    64
  0
VERTEX
  5
3C08
  8
0
 10
55.0
 20
76.085459
 30
123.080402
 70
    64
  0
VERTEX
  5
3C09
  8
0
 10
55.0
 20
76.085459
 30
123.080402
 70
    64
  0
VERTEX
  5
3C0A
  8
0
 10
55.0
 20
76.085459
 30
123.080402
 70
    64
  0
VERTEX
  5
3C0B
  8
0
 10
55.0
 20
76.085459
 30
123.080402
 70
    64
  0
VERTEX
  5
3C0C
  8
0
 10
55.0
 20
76.085459
 30
123.080402
 70
    64
  0
VERTEX
  5
3C0D
  8
0
 10
55.0
 20
76.085459
 30
123.080402
 70
    64
  0
VERTEX
  5
3C0E
  8
0
 10
14.0
 20
76.085459
 30
123.080402
 70
    64
  0
VERTEX
  5
3C0F
  8
0
 10
14.7
 20
83.003486
 30
124.677554
 70
    64
  0
VERTEX
  5
3C10
  8
0
 10
16.6
 20
89.72664
 30
126.229716
 70
    64
  0
VERTEX
  5
3C11
  8
0
 10
19.5
 20
95.962608
 30
127.669403
 70
    64
  0
VERTEX
  5
3C12
  8
0
 10
23.6
 20
101.711392
 30
128.996614
 70
    64
  0
VERTEX
  5
3C13
  8
0
 10
28.7
 20
106.680679
 30
130.143865
 70
    64
  0
VERTEX
  5
3C14
  8
0
 10
34.6
 20
110.675596
 30
131.066164
 70
    64
  0
VERTEX
  5
3C15
  8
0
 10
41.0
 20
113.501269
 30
131.718522
 70
    64
  0
VERTEX
  5
3C16
  8
0
 10
47.9
 20
115.352573
 30
132.145929
 70
    64
  0
VERTEX
  5
3C17
  8
0
 10
55.0
 20
116.034632
 30
132.303395
 70
    64
  0
SEQEND
  5
3C18
  8
0
  0
POLYLINE
  5
3C19
  8
0
 66
     1
 10
0.0
 20
0.0
 30
0.0
 70
    16
 71
     7
 72
    10
  0
VERTEX
  5
3C1A
  8
0
 10
55.0
 20
103.079586
 30
6.155994
 70
    64
  0
VERTEX
  5
3C1B
  8
0
 10
55.0
 20
103.079586
 30
6.155994
 70
    64
  0
VERTEX
  5
3C1C
  8
0
 10
55.0
 20
103.079586
 30
6.155994
 70
    64
  0
VERTEX
  5
3C1D
  8
0
 10
55.0
 20
103.079586
 30
6.155994
 70
    64
  0
VERTEX
  5
3C1E
  8
0
 10
55.0
 20
103.079586
 30
6.155994
 70
    64
  0
VERTEX
  5
3C1F
  8
0
 10
55.0
 20
103.079586
 30
6.155994
 70
    64
  0
VERTEX
  5
3C20
  8
0
 10
55.0
 20
103.079586
 30
6.155994
 70
    64
  0
VERTEX
  5
3C21
  8
0
 10
55.0
 20
103.079586
 30
6.155994
 70
    64
  0
VERTEX
  5
3C22
  8
0
 10
55.0
 20
103.079586
 30
6.155994
 70
    64
  0
VERTEX
  5
3C23
  8
0
 10
55.0
 20
103.079586
 30
6.155994
 70
    64
  0
VERTEX
  5
3C24
  8
0
 10
27.0
 20
103.079586
 30
6.155994
 70
    64
  0
VERTEX
  5
3C25
  8
0
 10
27.5
 20
107.756562
 30
7.235759
 70
    64
  0
VERTEX
  5
3C26
  8
0
 10
28.7
 20
112.433538
 30
8.315524
 70
    64
  0
VERTEX
  5
3C27
  8
0
 10
30.8
 20
116.720766
 30
9.305308
 70
    64
  0
VERTEX
  5
3C28
  8
0
 10
33.6
 20
120.618247
 30
10.205113
 70
    64
  0
VERTEX
  5
3C29
  8
0
 10
37.0
 20
123.931105
 30
10.969946
 70
    64
  0
VERTEX
  5
3C2A
  8
0
 10
41.0
 20
126.659341
 30
11.599809
 70
    64
  0
VERTEX
  5
3C2B
  8
0
 10
45.4
 20
128.705518
 30
12.072206
 70
    64
  0
VERTEX
  5
3C2C
  8
0
 10
50.2
 20
129.874762
 30
12.342148
 70
    64
  0
VERTEX
  5
3C2D
  8
0
 10
55.0
 20
130.361947
 30
12.454623
 70
    64
  0
VERTEX
  5
3C2E
  8
0
 10
25.0
 20
102.629683
 30
8.104734
 70
    64
  0
VERTEX
  5
3C2F
  8
0
 10
25.5
 20
107.696408
 30
9.274479
 70
    64
  0
VERTEX
  5
3C30
  8
0
 10
26.9
 20
112.665695
 30
10.42173
 70
    64
  0
VERTEX
  5
3C31
  8
0
 10
29.0
 20
117.245234
 30
11.479
 70
    64
  0
VERTEX
  5
3C32
  8
0
 10
32.0
 20
121.435026
 30
12.446289
 70
    64
  0
VERTEX
  5
3C33
  8
0
 10
35.7
 20
125.040195
 30
13.278608
 70
    64
  0
VERTEX
  5
3C34
  8
0
 10
40.0
 20
127.963305
 30
13.953461
 70
    64
  0
VERTEX
  5
3C35
  8
0
 10
44.7
 20
130.009482
 30
14.425858
 70
    64
  0
VERTEX
  5
3C36
  8
0
 10
49.8
 20
131.3736
 30
14.74079
 70
    64
  0
VERTEX
  5
3C37
  8
0
 10
55.0
 20
131.860785
 30
14.853265
 70
    64
  0
VERTEX
  5
3C38
  8
0
 10
0.0
 20
53.590354
 30
220.517408
 70
    64
  0
VERTEX
  5
3C39
  8
0
 10
0.9
 20
62.846869
 30
222.654443
 70
    64
  0
VERTEX
  5
3C3A
  8
0
 10
3.4
 20
71.908511
 30
224.746488
 70
    64
  0
VERTEX
  5
3C3B
  8
0
 10
7.4
 20
80.288093
 30
226.681067
 70
    64
  0
VERTEX
  5
3C3C
  8
0
 10
12.9
 20
87.985617
 30
228.45818
 70
    64
  0
VERTEX
  5
3C3D
  8
0
 10
19.7
 20
94.611333
 30
229.987847
 70
    64
  0
VERTEX
  5
3C3E
  8
0
 10
27.6
 20
99.970369
 30
231.225078
 70
    64
  0
VERTEX
  5
3C3F
  8
0
 10
36.2
 20
103.867849
 30
232.124882
 70
    64
  0
VERTEX
  5
3C40
  8
0
 10
45.5
 20
106.303774
 30
232.68726
 70
    64
  0
VERTEX
  5
3C41
  8
0
 10
55.0
 20
107.180707
 30
232.889716
 70
    64
  0
VERTEX
  5
3C42
  8
0
 10
2.0
 20
53.590354
 30
220.517408
 70
    64
  0
VERTEX
  5
3C43
  8
0
 10
2.9
 20
62.457121
 30
222.564463
 70
    64
  0
VERTEX
  5
3C44
  8
0
 10
5.3
 20
71.226452
 30
224.589022
 70
    64
  0
VERTEX
  5
3C45
  8
0
 10
9.1
 20
79.313723
 30
226.456116
 70
    64
  0
VERTEX
  5
3C46
  8
0
 10
14.4
 20
86.718936
 30
228.165744
 70
    64
  0
VERTEX
  5
3C47
  8
0
 10
21.0
 20
93.149778
 30
229.650421
 70
    64
  0
VERTEX
  5
3C48
  8
0
 10
28.6
 20
98.31394
 30
230.842661
 70
    64
  0
VERTEX
  5
3C49
  8
0
 10
36.9
 20
102.016546
 30
231.697475
 70
    64
  0
VERTEX
  5
3C4A
  8
0
 10
45.9
 20
104.355034
 30
232.237358
 70
    64
  0
VERTEX
  5
3C4B
  8
0
 10
55.0
 20
105.231967
 30
232.439814
 70
    64
  0
VERTEX
  5
3C4C
  8
0
 10
27.0
 20
101.95483
 30
11.027844
 70
    64
  0
VERTEX
  5
3C4D
  8
0
 10
27.5
 20
106.631807
 30
12.107609
 70
    64
  0
VERTEX
  5
3C4E
  8
0
 10
28.7
 20
111.308783
 30
13.187374
 70
    64
  0
VERTEX
  5
3C4F
  8
0
 10
30.8
 20
115.596011
 30
14.177159
 70
    64
  0
VERTEX
  5
3C50
  8
0
 10
33.6
 20
119.493491
 30
15.076963
 70
    64
  0
VERTEX
  5
3C51
  8
0
 10
37.0
 20
122.80635
 30
15.841797
 70
    64
  0
VERTEX
  5
3C52
  8
0
 10
41.0
 20
125.534586
 30
16.47166
 70
    64
  0
VERTEX
  5
3C53
  8
0
 10
45.4
 20
127.580763
 30
16.944057
 70
    64
  0
VERTEX
  5
3C54
  8
0
 10
50.2
 20
128.750007
 30
17.213998
 70
    64
  0
VERTEX
  5
3C55
  8
0
 10
55.0
 20
129.237192
 30
17.326474
 70
    64
  0
VERTEX
  5
3C56
  8
0
 10
55.0
 20
101.95483
 30
11.027844
 70
    64
  0
VERTEX
  5
3C57
  8
0
 10
55.0
 20
101.95483
 30
11.027844
 70
    64
  0
VERTEX
  5
3C58
  8
0
 10
55.0
 20
101.95483
 30
11.027844
 70
    64
  0
VERTEX
  5
3C59
  8
0
 10
55.0
 20
101.95483
 30
11.027844
 70
    64
  0
VERTEX
  5
3C5A
  8
0
 10
55.0
 20
101.95483
 30
11.027844
 70
    64
  0
VERTEX
  5
3C5B
  8
0
 10
55.0
 20
101.95483
 30
11.027844
 70
    64
  0
VERTEX
  5
3C5C
  8
0
 10
55.0
 20
101.95483
 30
11.027844
 70
    64
  0
VERTEX
  5
3C5D
  8
0
 10
55.0
 20
101.95483
 30
11.027844
 70
    64
  0
VERTEX
  5
3C5E
  8
0
 10
55.0
 20
101.95483
 30
11.027844
 70
    64
  0
VERTEX
  5
3C5F
  8
0
 10
55.0
 20
101.95483
 30
11.027844
 70
    64
  0
SEQEND
  5
3C60
  8
0
  0
POLYLINE
  5
3C61
  8
0
 66
     1
 10
0.0
 20
0.0
 30
0.0
 70
    16
 71
     3
 72
     7
  0
VERTEX
  5
3C62
  8
0
 10
63.0
 20
76.085459
 30
123.080402
 70
    64
  0
VERTEX
  5
3C63
  8
0
 10
62.7
 20
78.131636
 30
123.552799
 70
    64
  0
VERTEX
  5
3C64
  8
0
 10
61.9
 20
79.982939
 30
123.980206
 70
    64
  0
VERTEX
  5
3C65
  8
0
 10
60.6
 20
81.541931
 30
124.340127
 70
    64
  0
VERTEX
  5
3C66
  8
0
 10
59.0
 20
82.808612
 30
124.632564
 70
    64
  0
VERTEX
  5
3C67
  8
0
 10
57.1
 20
83.588108
 30
124.812525
 70
    64
  0
VERTEX
  5
3C68
  8
0
 10
55.0
 20
83.88042
 30
124.88001
 70
    64
  0
VERTEX
  5
3C69
  8
0
 10
63.0
 20
19.847695
 30
366.672918
 70
    64
  0
VERTEX
  5
3C6A
  8
0
 10
62.7
 20
21.893873
 30
367.145315
 70
    64
  0
VERTEX
  5
3C6B
  8
0
 10
61.9
 20
23.745176
 30
367.572722
 70
    64
  0
VERTEX
  5
3C6C
  8
0
 10
60.6
 20
25.304168
 30
367.932644
 70
    64
  0
VERTEX
  5
3C6D
  8
0
 10
59.0
 20
26.570849
 30
368.22508
 70
    64
  0
VERTEX
  5
3C6E
  8
0
 10
57.1
 20
27.350345
 30
368.405041
 70
    64
  0
VERTEX
  5
3C6F
  8
0
 10
55.0
 20
27.642656
 30
368.472526
 70
    64
  0
VERTEX
  5
3C70
  8
0
 10
55.0
 20
19.847695
 30
366.672918
 70
    64
  0
VERTEX
  5
3C71
  8
0
 10
55.0
 20
19.847695
 30
366.672918
 70
    64
  0
VERTEX
  5
3C72
  8
0
 10
55.0
 20
19.847695
 30
366.672918
 70
    64
  0
VERTEX
  5
3C73
  8
0
 10
55.0
 20
19.847695
 30
366.672918
 70
    64
  0
VERTEX
  5
3C74
  8
0
 10
55.0
 20
19.847695
 30
366.672918
 70
    64
  0
VERTEX
  5
3C75
  8
0
 10
55.0
 20
19.847695
 30
366.672918
 70
    64
  0
VERTEX
  5
3C76
  8
0
 10
55.0
 20
19.847695
 30
366.672918
 70
    64
  0
SEQEND
  5
3C77
  8
0
  0
POLYLINE
  5
3C78
  8
0
 66
     1
 10
0.0
 20
0.0
 30
0.0
 70
    16
 71
     7
 72
    10
  0
VERTEX
  5
3C79
  8
0
 10
55.0
 20
103.079586
 30
6.155994
 70
    64
  0
VERTEX
  5
3C7A
  8
0
 10
55.0
 20
103.079586
 30
6.155994
 70
    64
  0
VERTEX
  5
3C7B
  8
0
 10
55.0
 20
103.079586
 30
6.155994
 70
    64
  0
VERTEX
  5
3C7C
  8
0
 10
55.0
 20
103.079586
 30
6.155994
 70
    64
  0
VERTEX
  5
3C7D
  8
0
 10
55.0
 20
103.079586
 30
6.155994
 70
    64
  0
VERTEX
  5
3C7E
  8
0
 10
55.0
 20
103.079586
 30
6.155994
 70
    64
  0
VERTEX
  5
3C7F
  8
0
 10
55.0
 20
103.079586
 30
6.155994
 70
    64
  0
VERTEX
  5
3C80
  8
0
 10
55.0
 20
103.079586
 30
6.155994
 70
    64
  0
VERTEX
  5
3C81
  8
0
 10
55.0
 20
103.079586
 30
6.155994
 70
    64
  0
VERTEX
  5
3C82
  8
0
 10
55.0
 20
103.079586
 30
6.155994
 70
    64
  0
VERTEX
  5
3C83
  8
0
 10
83.0
 20
103.079586
 30
6.155994
 70
    64
  0
VERTEX
  5
3C84
  8
0
 10
82.5
 20
107.756562
 30
7.235759
 70
    64
  0
VERTEX
  5
3C85
  8
0
 10
81.3
 20
112.433538
 30
8.315524
 70
    64
  0
VERTEX
  5
3C86
  8
0
 10
79.2
 20
116.720766
 30
9.305308
 70
    64
  0
VERTEX
  5
3C87
  8
0
 10
76.4
 20
120.618247
 30
10.205113
 70
    64
  0
VERTEX
  5
3C88
  8
0
 10
73.0
 20
123.931105
 30
10.969946
 70
    64
  0
VERTEX
  5
3C89
  8
0
 10
69.0
 20
126.659341
 30
11.599809
 70
    64
  0
VERTEX
  5
3C8A
  8
0
 10
64.6
 20
128.705518
 30
12.072206
 70
    64
  0
VERTEX
  5
3C8B
  8
0
 10
59.8
 20
129.874762
 30
12.342148
 70
    64
  0
VERTEX
  5
3C8C
  8
0
 10
55.0
 20
130.361947
 30
12.454623
 70
    64
  0
VERTEX
  5
3C8D
  8
0
 10
85.0
 20
102.629683
 30
8.104734
 70
    64
  0
VERTEX
  5
3C8E
  8
0
 10
84.5
 20
107.696408
 30
9.274479
 70
    64
  0
VERTEX
  5
3C8F
  8
0
 10
83.1
 20
112.665695
 30
10.42173
 70
    64
  0
VERTEX
  5
3C90
  8
0
 10
81.0
 20
117.245234
 30
11.479
 70
    64
  0
VERTEX
  5
3C91
  8
0
 10
78.0
 20
121.435026
 30
12.446289
 70
    64
  0
VERTEX
  5
3C92
  8
0
 10
74.3
 20
125.040195
 30
13.278608
 70
    64
  0
VERTEX
  5
3C93
  8
0
 10
70.0
 20
127.963305
 30
13.953461
 70
    64
  0
VERTEX
  5
3C94
  8
0
 10
65.3
 20
130.009482
 30
14.425858
 70
    64
  0
VERTEX
  5
3C95
  8
0
 10
60.2
 20
131.3736
 30
14.74079
 70
    64
  0
VERTEX
  5
3C96
  8
0
 10
55.0
 20
131.860785
 30
14.853265
 70
    64
  0
VERTEX
  5
3C97
  8
0
 10
110.0
 20
53.590354
 30
220.517408
 70
    64
  0
VERTEX
  5
3C98
  8
0
 10
109.1
 20
62.846869
 30
222.654443
 70
    64
  0
VERTEX
  5
3C99
  8
0
 10
106.6
 20
71.908511
 30
224.746488
 70
    64
  0
VERTEX
  5
3C9A
  8
0
 10
102.6
 20
80.288093
 30
226.681067
 70
    64
  0
VERTEX
  5
3C9B
  8
0
 10
97.1
 20
87.985617
 30
228.45818
 70
    64
  0
VERTEX
  5
3C9C
  8
0
 10
90.3
 20
94.611333
 30
229.987847
 70
    64
  0
VERTEX
  5
3C9D
  8
0
 10
82.4
 20
99.970369
 30
231.225078
 70
    64
  0
VERTEX
  5
3C9E
  8
0
 10
73.8
 20
103.867849
 30
232.124882
 70
    64
  0
VERTEX
  5
3C9F
  8
0
 10
64.5
 20
106.303774
 30
232.68726
 70
    64
  0
VERTEX
  5
3CA0
  8
0
 10
55.0
 20
107.180707
 30
232.889716
 70
    64
  0
VERTEX
  5
3CA1
  8
0
 10
108.0
 20
53.590354
 30
220.517408
 70
    64
  0
VERTEX
  5
3CA2
  8
0
 10
107.1
 20
62.457121
 30
222.564463
 70
    64
  0
VERTEX
  5
3CA3
  8
0
 10
104.7
 20
71.226452
 30
224.589022
 70
    64
  0
VERTEX
  5
3CA4
  8
0
 10
100.9
 20
79.313723
 30
226.456116
 70
    64
  0
VERTEX
  5
3CA5
  8
0
 10
95.6
 20
86.718936
 30
228.165744
 70
    64
  0
VERTEX
  5
3CA6
  8
0
 10
89.0
 20
93.149778
 30
229.650421
 70
    64
  0
VERTEX
  5
3CA7
  8
0
 10
81.4
 20
98.31394
 30
230.842661
 70
    64
  0
VERTEX
  5
3CA8
  8
0
 10
73.1
 20
102.016546
 30
231.697475
 70
    64
  0
VERTEX
  5
3CA9
  8
0
 10
64.1
 20
104.355034
 30
232.237358
 70
    64
  0
VERTEX
  5
3CAA
  8
0
 10
55.0
 20
105.231967
 30
232.439814
 70
    64
  0
VERTEX
  5
3CAB
  8
0
 10
83.0
 20
101.95483
 30
11.027844
 70
    64
  0
VERTEX
  5
3CAC
  8
0
 10
82.5
 20
106.631807
 30
12.107609
 70
    64
  0
VERTEX
  5
3CAD
  8
0
 10
81.3
 20
111.308783
 30
13.187374
 70
    64
  0
VERTEX
  5
3CAE
  8
0
 10
79.2
 20
115.596011
 30
14.177159
 70
    64
  0
VERTEX
  5
3CAF
  8
0
 10
76.4
 20
119.493491
 30
15.076963
 70
    64
  0
VERTEX
  5
3CB0
  8
0
 10
73.0
 20
122.80635
 30
15.841797
 70
    64
  0
VERTEX
  5
3CB1
  8
0
 10
69.0
 20
125.534586
 30
16.47166
 70
    64
  0
VERTEX
  5
3CB2
  8
0
 10
64.6
 20
127.580763
 30
16.944057
 70
    64
  0
VERTEX
  5
3CB3
  8
0
 10
59.8
 20
128.750007
 30
17.213998
 70
    64
  0
VERTEX
  5
3CB4
  8
0
 10
55.0
 20
129.237192
 30
17.326474
 70
    64
  0
VERTEX
  5
3CB5
  8
0
 10
55.0
 20
101.95483
 30
11.027844
 70
    64
  0
VERTEX
  5
3CB6
  8
0
 10
55.0
 20
101.95483
 30
11.027844
 70
    64
  0
VERTEX
  5
3CB7
  8
0
 10
55.0
 20
101.95483
 30
11.027844
 70
    64
  0
VERTEX
  5
3CB8
  8
0
 10
55.0
 20
101.95483
 30
11.027844
 70
    64
  0
VERTEX
  5
3CB9
  8
0
 10
55.0
 20
101.95483
 30
11.027844
 70
    64
  0
VERTEX
  5
3CBA
  8
0
 10
55.0
 20
101.95483
 30
11.027844
 70
    64
  0
VERTEX
  5
3CBB
  8
0
 10
55.0
 20
101.95483
 30
11.027844
 70
    64
  0
VERTEX
  5
3CBC
  8
0
 10
55.0
 20
101.95483
 30
11.027844
 70
    64
  0
VERTEX
  5
3CBD
  8
0
 10
55.0
 20
101.95483
 30
11.027844
 70
    64
  0
VERTEX
  5
3CBE
  8
0
 10
55.0
 20
101.95483
 30
11.027844
 70
    64
  0
SEQEND
  5
3CBF
  8
0
  0
POLYLINE
  5
3CC0
  8
0
 66
     1
 10
0.0
 20
0.0
 30
0.0
 70
    16
 71
     3
 72
     7
  0
VERTEX
  5
3CC1
  8
0
 10
47.0
 20
76.085459
 30
123.080402
 70
    64
  0
VERTEX
  5
3CC2
  8
0
 10
47.3
 20
78.131636
 30
123.552799
 70
    64
  0
VERTEX
  5
3CC3
  8
0
 10
48.1
 20
79.982939
 30
123.980206
 70
    64
  0
VERTEX
  5
3CC4
  8
0
 10
49.4
 20
81.541931
 30
124.340127
 70
    64
  0
VERTEX
  5
3CC5
  8
0
 10
51.0
 20
82.808612
 30
124.632564
 70
    64
  0
VERTEX
  5
3CC6
  8
0
 10
52.9
 20
83.588108
 30
124.812525
 70
    64
  0
VERTEX
  5
3CC7
  8
0
 10
55.0
 20
83.88042
 30
124.88001
 70
    64
  0
VERTEX
  5
3CC8
  8
0
 10
47.0
 20
19.847695
 30
366.672918
 70
    64
  0
VERTEX
  5
3CC9
  8
0
 10
47.3
 20
21.893873
 30
367.145315
 70
    64
  0
VERTEX
  5
3CCA
  8
0
 10
48.1
 20
23.745176
 30
367.572722
 70
    64
  0
VERTEX
  5
3CCB
  8
0
 10
49.4
 20
25.304168
 30
367.932644
 70
    64
  0
VERTEX
  5
3CCC
  8
0
 10
51.0
 20
26.570849
 30
368.22508
 70
    64
  0
VERTEX
  5
3CCD
  8
0
 10
52.9
 20
27.350345
 30
368.405041
 70
    64
  0
VERTEX
  5
3CCE
  8
0
 10
55.0
 20
27.642656
 30
368.472526
 70
    64
  0
VERTEX
  5
3CCF
  8
0
 10
55.0
 20
19.847695
 30
366.672918
 70
    64
  0
VERTEX
  5
3CD0
  8
0
 10
55.0
 20
19.847695
 30
366.672918
 70
    64
  0
VERTEX
  5
3CD1
  8
0
 10
55.0
 20
19.847695
 30
366.672918
 70
    64
  0
VERTEX
  5
3CD2
  8
0
 10
55.0
 20
19.847695
 30
366.672918
 70
    64
  0
VERTEX
  5
3CD3
  8
0
 10
55.0
 20
19.847695
 30
366.672918
 70
    64
  0
VERTEX
  5
3CD4
  8
0
 10
55.0
 20
19.847695
 30
366.672918
 70
    64
  0
VERTEX
  5
3CD5
  8
0
 10
55.0
 20
19.847695
 30
366.672918
 70
    64
  0
SEQEND
  5
3CD6
  8
0
  0
POLYLINE
  5
3CD7
  8
0
 66
     1
 10
0.0
 20
0.0
 30
0.0
 70
    16
 71
     2
 72
    10
  0
VERTEX
  5
3CD8
  8
0
 10
55.0
 20
76.085459
 30
123.080402
 70
    64
  0
VERTEX
  5
3CD9
  8
0
 10
55.0
 20
76.085459
 30
123.080402
 70
    64
  0
VERTEX
  5
3CDA
  8
0
 10
55.0
 20
76.085459
 30
123.080402
 70
    64
  0
VERTEX
  5
3CDB
  8
0
 10
55.0
 20
76.085459
 30
123.080402
 70
    64
  0
VERTEX
  5
3CDC
  8
0
 10
55.0
 20
76.085459
 30
123.080402
 70
    64
  0
VERTEX
  5
3CDD
  8
0
 10
55.0
 20
76.085459
 30
123.080402
 70
    64
  0
VERTEX
  5
3CDE
  8
0
 10
55.0
 20
76.085459
 30
123.080402
 70
    64
  0
VERTEX
  5
3CDF
  8
0
 10
55.0
 20
76.085459
 30
123.080402
 70
    64
  0
VERTEX
  5
3CE0
  8
0
 10
55.0
 20
76.085459
 30
123.080402
 70
    64
  0
VERTEX
  5
3CE1
  8
0
 10
55.0
 20
76.085459
 30
123.080402
 70
    64
  0
VERTEX
  5
3CE2
  8
0
 10
96.0
 20
76.085459
 30
123.080402
 70
    64
  0
VERTEX
  5
3CE3
  8
0
 10
95.3
 20
83.003486
 30
124.677554
 70
    64
  0
VERTEX
  5
3CE4
  8
0
 10
93.4
 20
89.72664
 30
126.229716
 70
    64
  0
VERTEX
  5
3CE5
  8
0
 10
90.5
 20
95.962608
 30
127.669403
 70
    64
  0
VERTEX
  5
3CE6
  8
0
 10
86.4
 20
101.711392
 30
128.996614
 70
    64
  0
VERTEX
  5
3CE7
  8
0
 10
81.3
 20
106.680679
 30
130.143865
 70
    64
  0
VERTEX
  5
3CE8
  8
0
 10
75.4
 20
110.675596
 30
131.066164
 70
    64
  0
VERTEX
  5
3CE9
  8
0
 10
69.0
 20
113.501269
 30
131.718522
 70
    64
  0
VERTEX
  5
3CEA
  8
0
 10
62.1
 20
115.352573
 30
132.145929
 70
    64
  0
VERTEX
  5
3CEB
  8
0
 10
55.0
 20
116.034632
 30
132.303395
 70
    64
  0
SEQEND
  5
3CEC
  8
0
  0
POLYLINE
  5
3CED
  8
0
 66
     1
 10
0.0
 20
0.0
 30
0.0
 70
    16
 71
     3
 72
     9
  0
VERTEX
  5
3CEE
  8
0
 10
55.0
 20
134.0
 30
187.6
 70
    64
  0
VERTEX
  5
3CEF
  8
0
 10
56.5
 20
134.0
 30
188.0
 70
    64
  0
VERTEX
  5
3CF0
  8
0
 10
57.8
 20
134.0
 30
189.0
 70
    64
  0
VERTEX
  5
3CF1
  8
0
 10
58.7
 20
134.0
 30
190.6
 70
    64
  0
VERTEX
  5
3CF2
  8
0
 10
59.0
 20
134.0
 30
192.5
 70
    64
  0
VERTEX
  5
3CF3
  8
0
 10
58.7
 20
134.0
 30
194.4
 70
    64
  0
VERTEX
  5
3CF4
  8
0
 10
57.8
 20
134.0
 30
195.9
 70
    64
  0
VERTEX
  5
3CF5
  8
0
 10
56.5
 20
134.0
 30
197.0
 70
    64
  0
VERTEX
  5
3CF6
  8
0
 10
55.0
 20
134.0
 30
197.4
 70
    64
  0
VERTEX
  5
3CF7
  8
0
 10
55.0
 20
109.0
 30
205.0
 70
    64
  0
VERTEX
  5
3CF8
  8
0
 10
56.5
 20
109.0
 30
205.54
 70
    64
  0
VERTEX
  5
3CF9
  8
0
 10
57.8
 20
109.0
 30
206.6
 70
    64
  0
VERTEX
  5
3CFA
  8
0
 10
58.7
 20
109.0
 30
208.0
 70
    64
  0
VERTEX
  5
3CFB
  8
0
 10
59.0
 20
109.0
 30
209.8
 70
    64
  0
VERTEX
  5
3CFC
  8
0
 10
58.7
 20
109.0
 30
211.8
 70
    64
  0
VERTEX
  5
3CFD
  8
0
 10
57.8
 20
109.0
 30
213.2
 70
    64
  0
VERTEX
  5
3CFE
  8
0
 10
56.5
 20
109.0
 30
214.65
 70
    64
  0
VERTEX
  5
3CFF
  8
0
 10
55.0
 20
109.0
 30
215.0
 70
    64
  0
VERTEX
  5
3D00
  8
0
 10
55.0
 20
109.0
 30
209.8
 70
    64
  0
VERTEX
  5
3D01
  8
0
 10
55.0
 20
109.0
 30
209.8
 70
    64
  0
VERTEX
  5
3D02
  8
0
 10
55.0
 20
109.0
 30
209.8
 70
    64
  0
VERTEX
  5
3D03
  8
0
 10
55.0
 20
109.0
 30
209.8
 70
    64
  0
VERTEX
  5
3D04
  8
0
 10
55.0
 20
109.0
 30
209.8
 70
    64
  0
VERTEX
  5
3D05
  8
0
 10
55.0
 20
109.0
 30
209.8
 70
    64
  0
VERTEX
  5
3D06
  8
0
 10
55.0
 20
109.0
 30
209.8
 70
    64
  0
VERTEX
  5
3D07
  8
0
 10
55.0
 20
109.0
 30
209.8
 70
    64
  0
VERTEX
  5
3D08
  8
0
 10
55.0
 20
109.0
 30
209.8
 70
    64
  0
SEQEND
  5
3D09
  8
0
  0
ENDSEC
  0
EOF
