  0
SECTION
  2
HEADER
  9
$ACADVER
  1
AC1009
  9
$INSBASE
 10
0.0
 20
0.0
 30
0.0
  9
$EXTMIN
 10
0.0
 20
0.000019
 30
0.00003
  9
$EXTMAX
 10
76.0
 20
202.787057
 30
105.485542
  9
$LIMMIN
 10
0.0
 20
0.0
  9
$LIMMAX
 10
12.0
 20
9.0
  9
$ORTHOMODE
 70
     0
  9
$REGENMODE
 70
     1
  9
$FILLMODE
 70
     1
  9
$QTEXTMODE
 70
     0
  9
$MIRRTEXT
 70
     1
  9
$DRAGMODE
 70
     2
  9
$LTSCALE
 40
1.0
  9
$OSMODE
 70
     0
  9
$ATTMODE
 70
     1
  9
$TEXTSIZE
 40
0.2
  9
$TRACEWID
 40
0.05
  9
$TEXTSTYLE
  7
STANDARD
  9
$CLAYER
  8
0
  9
$CELTYPE
  6
BYLAYER
  9
$CECOLOR
 62
   256
  9
$DIMSCALE
 40
1.0
  9
$DIMASZ
 40
0.18
  9
$DIMEXO
 40
0.0625
  9
$DIMDLI
 40
0.38
  9
$DIMRND
 40
0.0
  9
$DIMDLE
 40
0.0
  9
$DIMEXE
 40
0.18
  9
$DIMTP
 40
0.0
  9
$DIMTM
 40
0.0
  9
$DIMTXT
 40
0.18
  9
$DIMCEN
 40
0.09
  9
$DIMTSZ
 40
0.0
  9
$DIMTOL
 70
     0
  9
$DIMLIM
 70
     0
  9
$DIMTIH
 70
     1
  9
$DIMTOH
 70
     1
  9
$DIMSE1
 70
     0
  9
$DIMSE2
 70
     0
  9
$DIMTAD
 70
     0
  9
$DIMZIN
 70
     0
  9
$DIMBLK
  1

  9
$DIMASO
 70
     1
  9
$DIMSHO
 70
     1
  9
$DIMPOST
  1

  9
$DIMAPOST
  1

  9
$DIMALT
 70
     0
  9
$DIMALTD
 70
     2
  9
$DIMALTF
 40
25.4
  9
$DIMLFAC
 40
1.0
  9
$DIMTOFL
 70
     0
  9
$DIMTVP
 40
0.0
  9
$DIMTIX
 70
     0
  9
$DIMSOXD
 70
     0
  9
$DIMSAH
 70
     0
  9
$DIMBLK1
  1

  9
$DIMBLK2
  1

  9
$DIMSTYLE
  2
STANDARD
  9
$DIMCLRD
 70
     0
  9
$DIMCLRE
 70
     0
  9
$DIMCLRT
 70
     0
  9
$DIMTFAC
 40
1.0
  9
$DIMGAP
 40
0.09
  9
$LUNITS
 70
     2
  9
$LUPREC
 70
     4
  9
$SKETCHINC
 40
0.1
  9
$FILLETRAD
 40
0.5
  9
$AUNITS
 70
     0
  9
$AUPREC
 70
     0
  9
$MENU
  1
.
  9
$ELEVATION
 40
0.0
  9
$PELEVATION
 40
0.0
  9
$THICKNESS
 40
0.0
  9
$LIMCHECK
 70
     0
  9
$BLIPMODE
 70
     0
  9
$CHAMFERA
 40
0.5
  9
$CHAMFERB
 40
0.5
  9
$SKPOLY
 70
     1
  9
$TDCREATE
 40
2451432.822028
  9
$TDUPDATE
 40
2451712.027344
  9
$TDINDWG
 40
0.43435
  9
$TDUSRTIMER
 40
0.43435
  9
$USRTIMER
 70
     1
  9
$ANGBASE
 50
0.0
  9
$ANGDIR
 70
     0
  9
$PDMODE
 70
     0
  9
$PDSIZE
 40
0.0
  9
$PLINEWID
 40
0.0
  9
$COORDS
 70
     1
  9
$SPLFRAME
 70
     0
  9
$SPLINETYPE
 70
     6
  9
$SPLINESEGS
 70
     8
  9
$ATTDIA
 70
     0
  9
$ATTREQ
 70
     1
  9
$HANDLING
 70
     1
  9
$HANDSEED
  5
3B7A
  9
$SURFTAB1
 70
     6
  9
$SURFTAB2
 70
     6
  9
$SURFTYPE
 70
     6
  9
$SURFU
 70
     6
  9
$SURFV
 70
     6
  9
$UCSNAME
  2

  9
$UCSORG
 10
0.0
 20
0.0
 30
0.0
  9
$UCSXDIR
 10
1.0
 20
0.0
 30
0.0
  9
$UCSYDIR
 10
0.0
 20
1.0
 30
0.0
  9
$PUCSNAME
  2

  9
$PUCSORG
 10
0.0
 20
0.0
 30
0.0
  9
$PUCSXDIR
 10
1.0
 20
0.0
 30
0.0
  9
$PUCSYDIR
 10
0.0
 20
1.0
 30
0.0
  9
$USERI1
 70
     0
  9
$USERI2
 70
     0
  9
$USERI3
 70
     0
  9
$USERI4
 70
     0
  9
$USERI5
 70
     0
  9
$USERR1
 40
0.0
  9
$USERR2
 40
0.0
  9
$USERR3
 40
0.0
  9
$USERR4
 40
0.0
  9
$USERR5
 40
0.0
  9
$WORLDVIEW
 70
     1
  9
$SHADEDGE
 70
     3
  9
$SHADEDIF
 70
    70
  9
$TILEMODE
 70
     1
  9
$MAXACTVP
 70
    48
  9
$PLIMCHECK
 70
     0
  9
$PEXTMIN
 10
1.000000E+020
 20
1.000000E+020
 30
1.000000E+020
  9
$PEXTMAX
 10
-1.000000E+020
 20
-1.000000E+020
 30
-1.000000E+020
  9
$PLIMMIN
 10
0.0
 20
0.0
  9
$PLIMMAX
 10
12.0
 20
9.0
  9
$UNITMODE
 70
     0
  9
$VISRETAIN
 70
     1
  9
$PLINEGEN
 70
     0
  9
$PSLTSCALE
 70
     1
  0
ENDSEC
  0
SECTION
  2
TABLES
  0
TABLE
  2
VPORT
 70
     6
  0
VPORT
  2
*ACTIVE
 70
     0
 10
0.0
 20
0.0
 11
1.0
 21
1.0
 12
-44.826001
 22
99.971478
 13
0.0
 23
0.0
 14
0.5
 24
0.5
 15
0.5
 25
0.5
 16
-1.0
 26
-1.0
 36
1.0
 17
0.0
 27
0.0
 37
0.0
 40
202.426654
 41
1.991701
 42
50.0
 43
0.0
 44
0.0
 50
0.0
 51
0.0
 71
     0
 72
   100
 73
     1
 74
     1
 75
     0
 76
     0
 77
     0
 78
     0
  0
ENDTAB
  0
TABLE
  2
LTYPE
 70
     1
  0
LTYPE
  2
CONTINUOUS
 70
     0
  3
Solid line
 72
    65
 73
     0
 40
0.0
  0
ENDTAB
  0
TABLE
  2
LAYER
 70
     2
  0
LAYER
  2
0
 70
     0
 62
     7
  6
CONTINUOUS
  0
LAYER
  2
ASHADE
 70
     4
 62
     7
  6
CONTINUOUS
  0
ENDTAB
  0
TABLE
  2
STYLE
 70
     2
  0
STYLE
  2
STANDARD
 70
     0
 40
0.0
 41
1.0
 50
0.0
 71
     0
 42
0.2
  3
txt
  4

  0
STYLE
  2
ASHADE
 70
     0
 40
0.2
 41
1.0
 50
0.0
 71
     0
 42
0.2
  3
simplex.shx
  4

  0
ENDTAB
  0
TABLE
  2
VIEW
 70
     0
  0
ENDTAB
  0
TABLE
  2
UCS
 70
     0
  0
ENDTAB
  0
TABLE
  2
APPID
 70
     6
  0
APPID
  2
ACAD
 70
     0
  0
APPID
  2
AVE_RENDER
 70
     0
  0
APPID
  2
AVE_ENTITY_MATERIAL
 70
     0
  0
APPID
  2
AVE_FINISH
 70
     0
  0
APPID
  2
AVE_MATERIAL
 70
     0
  0
APPID
  2
AVE_GLOBAL
 70
     0
  0
ENDTAB
  0
TABLE
  2
DIMSTYLE
 70
     1
  0
DIMSTYLE
  2
STANDARD
 70
     0
  3

  4

  5

  6

  7

 40
1.0
 41
0.18
 42
0.0625
 43
0.38
 44
0.18
 45
0.0
 46
0.0
 47
0.0
 48
0.0
140
0.18
141
0.09
142
0.0
143
25.4
144
1.0
145
0.0
146
1.0
147
0.09
 71
     0
 72
     0
 73
     1
 74
     1
 75
     0
 76
     0
 77
     0
 78
     0
170
     0
171
     2
172
     0
173
     0
174
     0
175
     0
176
     0
177
     0
178
     0
  0
ENDTAB
  0
ENDSEC
  0
SECTION
  2
BLOCKS
  0
BLOCK
  8
0
  2
$MODEL_SPACE
 70
     0
 10
0.0
 20
0.0
 30
0.0
  3
$MODEL_SPACE
  1

  0
ENDBLK
  5
1B
  8
0
  0
BLOCK
 67
     1
  8
0
  2
$PAPER_SPACE
 70
     0
 10
0.0
 20
0.0
 30
0.0
  3
$PAPER_SPACE
  1

  0
ENDBLK
  5
18
 67
     1
  8
0
  0
BLOCK
  8
ASHADE
  2
AVE_RENDER
 70
     0
 10
0.0
 20
0.0
 30
0.0
  3
AVE_RENDER
  1
AVE_RENDER
  0
ENDBLK
  5
22C
  8
0
  0
BLOCK
  8
ASHADE
  2
AVE_GLOBAL
 70
     0
 10
0.0
 20
0.0
 30
0.0
  3
AVE_GLOBAL
  1
AVE_GLOBAL
  0
ENDBLK
  5
23A
  8
0
  0
ENDSEC
  0
SECTION
  2
ENTITIES
  0
INSERT
  5
22D
  8
ASHADE
 62
     1
  2
AVE_RENDER
 10
0.0
 20
0.0
 30
0.0
1001
AVE_RENDER
1002
{
1070
     7
1000
Pref
1070
    30
1070
    20
1070
     1
1070
     0
1000

1070
    10
1070
     1
1070
    10
1040
1.0
1070
     1
1040
0.3
1040
0.7
1040
0.0
1040
10.0
1010
-1.0
1020
-1.0
1030
-1.0
1040
0.3
1070
    49
1070
     0
1070
     0
1010
1.0
1020
1.0
1030
1.0
1040
45.0
1070
     1
1070
     0
1000
WCS
1040
0.0
1070
     0
1040
10.0
1002
}
  0
INSERT
  5
22E
  8
ASHADE
 62
     3
  2
AVE_RENDER
 10
0.0
 20
0.0
 30
0.0
1001
AVE_RENDER
1002
{
1070
     0
1000
Full Opt
1070
     0
1070
     1
1070
     1
1070
     1
1070
     0
1070
     0
1070
     0
1070
     1
1070
     1
1040
0.0001
1040
0.0001
1002
}
  0
INSERT
  5
22F
  8
ASHADE
 62
     4
  2
AVE_RENDER
 10
0.0
 20
0.0
 30
0.0
1001
AVE_RENDER
1002
{
1070
     0
1000
Quick Opt
1070
     0
1070
     1
1070
     1
1070
     1
1070
     0
1070
     0
1070
     1
1002
}
  0
INSERT
  5
230
  8
ASHADE
 62
     5
  2
AVE_RENDER
 10
0.0
 20
0.0
 30
0.0
1001
AVE_RENDER
1002
{
1070
     1
1000
Scanl Opt
1070
     2
1070
     0
1070
     2
1040
2.0
1040
4.0
1070
     0
1070
     1
1070
     0
1040
0.03
1002
}
  0
INSERT
  5
231
  8
ASHADE
 62
     6
  2
AVE_RENDER
 10
0.0
 20
0.0
 30
0.0
1001
AVE_RENDER
1002
{
1070
     2
1000
Raytr Opt
1070
     2
1070
     0
1070
     2
1040
2.0
1040
4.0
1070
     0
1070
     1
1070
     1
1040
0.03
1070
     3
1040
0.03
1002
}
  0
INSERT
  5
232
  8
ASHADE
 62
     7
  2
AVE_RENDER
 10
0.0
 20
0.0
 30
0.0
1001
AVE_RENDER
1002
{
1070
     0
1000
RFile Opt
1070
     1
1070
   640
1070
   480
1070
 10000
1070
     1
1070
     8
1070
     8
1070
     0
1070
     0
1070
     0
1070
     0
1070
     0
1070
     0
1070
     0
1002
}
  0
INSERT
  5
233
  8
ASHADE
 62
     8
  2
AVE_RENDER
 10
0.0
 20
0.0
 30
0.0
1001
AVE_RENDER
1002
{
1070
     0
1000
Fog Opt
1070
     0
1070
     0
1040
0.0
1040
1.0
1040
0.0
1040
1.0
1010
0.5
1020
0.5
1030
0.5
1002
}
  0
INSERT
  5
234
  8
ASHADE
 62
     9
  2
AVE_RENDER
 10
0.0
 20
0.0
 30
0.0
1001
AVE_RENDER
1002
{
1070
     0
1000
BG Opt
1070
     0
1070
     1
1010
0.0
1020
0.0
1030
0.0
1010
1.0
1020
0.0
1030
0.0
1010
0.0
1020
1.0
1030
0.0
1010
0.0
1020
0.0
1030
1.0
1040
0.5
1040
0.33
1040
0.0
1000

1070
     1
1000

1070
     1
1070
     1
1040
1.0
1040
1.0
1040
0.0
1040
0.0
1070
     0
1002
}
  0
INSERT
  5
23B
  8
ASHADE
 62
     1
  2
AVE_GLOBAL
 10
0.0
 20
0.0
 30
0.0
1001
AVE_MATERIAL
1002
{
1000
*GLOBAL*
1000
1
1000
Global finish.
1002
{
1002
}
1002
{
1070
    63
1002
{
1002
{
1010
-1.0
1020
-1.0
1030
-1.0
1002
}
1040
0.1
1000

1040
0.0
1002
{
1002
}
1040
0.0
1002
{
1002
}
1040
0.0
1002
}
1002
{
1002
{
1010
-1.0
1020
-1.0
1030
-1.0
1002
}
1040
0.7
1000

1040
0.0
1002
{
1002
}
1040
0.0
1002
{
1002
}
1040
0.0
1002
}
1002
{
1002
{
1010
-1.0
1020
-1.0
1030
-1.0
1002
}
1040
0.2
1000

1040
0.0
1002
{
1002
}
1040
0.0
1002
{
1002
}
1040
0.0
1002
}
1002
{
1070
     0
1002
{
1070
     1
1002
{
1040
1.0
1040
1.0
1000

1040
0.0
1002
{
1002
}
1040
0.0
1002
{
1002
}
1040
0.0
1002
}
1002
}
1040
1.0
1040
0.0
1040
0.0
1002
}
1002
{
1040
1.0
1040
1.0
1000

1040
0.0
1002
{
1002
}
1040
0.0
1002
{
1002
}
1040
0.0
1002
}
1002
{
1040
0.5
1040
1.0
1000

1040
0.0
1002
{
1002
}
1040
0.0
1002
{
1002
}
1040
0.0
1002
}
1002
{
1070
     0
1040
0.0
1002
{
1002
}
1040
1.0
1002
{
1002
}
1040
0.0
1002
}
1002
{
1040
0.0
1002
{
1002
{
1010
0.0
1020
0.0
1030
0.0
1002
}
1040
1.0
1000

1040
0.0
1002
{
1002
}
1040
0.0
1002
{
1002
}
1040
0.0
1002
}
1002
}
1002
{
1002
{
1070
     1
1002
{
1040
0.0
1040
1.0
1000

1040
0.0
1002
{
1002
}
1040
0.0
1002
{
1002
}
1040
0.0
1002
}
1002
}
1040
0.0
1002
{
1002
}
1010
1.0
1020
0.0
1030
0.0
1010
0.0
1020
1.0
1030
0.0
1010
0.0
1020
0.0
1030
1.0
1070
     0
1002
}
1002
{
1002
{
1040
1.0
1040
1.0
1002
{
1070
     1
1002
{
1040
1.0
1040
1.0
1000

1040
0.0
1002
{
1002
}
1040
0.0
1002
{
1002
}
1040
0.0
1002
}
1002
}
1002
}
1070
     0
1040
0.0
1002
{
1002
}
1002
}
1002
{
1002
}
1002
}
1002
{
1071
        3
1070
     3
1070
     0
1002
{
1070
     2
1070
     0
1070
     0
1040
0.0
1002
}
1070
     0
1070
     2
1002
{
1002
}
1002
}
1002
{
1040
8030.0
1040
190.300003
1040
0.305
1040
228.0
1040
545.0
1040
14.0
1040
17.4
1040
0.456
1002
}
1002
}
  0
POLYLINE
  5
3208
  8
0
 66
     1
 10
0.0
 20
0.0
 30
0.0
 70
    16
 71
     6
 72
     7
  0
VERTEX
  5
3209
  8
0
 10
38.0
 20
45.05676
 30
104.933228
 70
    64
  0
VERTEX
  5
320A
  8
0
 10
38.0
 20
45.05676
 30
104.933228
 70
    64
  0
VERTEX
  5
320B
  8
0
 10
38.0
 20
45.05676
 30
104.933228
 70
    64
  0
VERTEX
  5
320C
  8
0
 10
38.0
 20
45.05676
 30
104.933228
 70
    64
  0
VERTEX
  5
320D
  8
0
 10
38.0
 20
45.05676
 30
104.933228
 70
    64
  0
VERTEX
  5
320E
  8
0
 10
38.0
 20
45.05676
 30
104.933228
 70
    64
  0
VERTEX
  5
320F
  8
0
 10
38.0
 20
45.05676
 30
104.933228
 70
    64
  0
VERTEX
  5
3210
  8
0
 10
34.0
 20
44.92735
 30
104.450265
 70
    64
  0
VERTEX
  5
3211
  8
0
 10
34.1
 20
45.893276
 30
104.191446
 70
    64
  0
VERTEX
  5
3212
  8
0
 10
34.5
 20
46.859202
 30
103.932627
 70
    64
  0
VERTEX
  5
3213
  8
0
 10
35.2
 20
47.631943
 30
103.725572
 70
    64
  0
VERTEX
  5
3214
  8
0
 10
36.0
 20
48.308091
 30
103.544399
 70
    64
  0
VERTEX
  5
3215
  8
0
 10
37.0
 20
48.694461
 30
103.440871
 70
    64
  0
VERTEX
  5
3216
  8
0
 10
38.0
 20
48.791054
 30
103.414989
 70
    64
  0
VERTEX
  5
3217
  8
0
 10
17.0
 20
43.503846
 30
99.137673
 70
    64
  0
VERTEX
  5
3218
  8
0
 10
17.8
 20
48.719845
 30
97.740051
 70
    64
  0
VERTEX
  5
3219
  8
0
 10
19.8
 20
53.646067
 30
96.420073
 70
    64
  0
VERTEX
  5
321A
  8
0
 10
23.2
 20
57.799548
 30
95.307152
 70
    64
  0
VERTEX
  5
321B
  8
0
 10
27.5
 20
61.083696
 30
94.427167
 70
    64
  0
VERTEX
  5
321C
  8
0
 10
32.6
 20
63.015547
 30
93.909529
 70
    64
  0
VERTEX
  5
321D
  8
0
 10
32.6
 20
63.015547
 30
93.909529
 70
    64
  0
VERTEX
  5
321E
  8
0
 10
9.3
 20
41.950931
 30
93.342118
 70
    64
  0
VERTEX
  5
321F
  8
0
 10
10.3
 20
49.098783
 30
91.426857
 70
    64
  0
VERTEX
  5
3220
  8
0
 10
13.1
 20
55.763671
 30
89.641006
 70
    64
  0
VERTEX
  5
3221
  8
0
 10
17.7
 20
61.559226
 30
88.088092
 70
    64
  0
VERTEX
  5
3222
  8
0
 10
23.7
 20
66.002484
 30
86.897524
 70
    64
  0
VERTEX
  5
3223
  8
0
 10
23.7
 20
66.002484
 30
86.897524
 70
    64
  0
VERTEX
  5
3224
  8
0
 10
23.7
 20
66.002484
 30
86.897524
 70
    64
  0
VERTEX
  5
3225
  8
0
 10
3.7
 20
40.139198
 30
86.580638
 70
    64
  0
VERTEX
  5
3226
  8
0
 10
4.9
 20
48.735938
 30
84.277148
 70
    64
  0
VERTEX
  5
3227
  8
0
 10
8.3
 20
56.65653
 30
82.154832
 70
    64
  0
VERTEX
  5
3228
  8
0
 10
13.8
 20
63.514603
 30
80.317217
 70
    64
  0
VERTEX
  5
3229
  8
0
 10
20.9
 20
68.827195
 30
78.893712
 70
    64
  0
VERTEX
  5
322A
  8
0
 10
29.1
 20
72.111343
 30
78.013727
 70
    64
  0
VERTEX
  5
322B
  8
0
 10
29.1
 20
72.111343
 30
78.013727
 70
    64
  0
VERTEX
  5
322C
  8
0
 10
0.0
 20
38.327465
 30
79.819157
 70
    64
  0
VERTEX
  5
322D
  8
0
 10
1.4
 20
47.793538
 30
77.28273
 70
    64
  0
VERTEX
  5
322E
  8
0
 10
5.1
 20
56.583463
 30
74.927477
 70
    64
  0
VERTEX
  5
322F
  8
0
 10
11.2
 20
64.214277
 30
72.882806
 70
    64
  0
VERTEX
  5
3230
  8
0
 10
19.1
 20
70.106424
 30
71.30401
 70
    64
  0
VERTEX
  5
3231
  8
0
 10
28.2
 20
73.68035
 30
70.34638
 70
    64
  0
VERTEX
  5
3232
  8
0
 10
28.2
 20
73.68035
 30
70.34638
 70
    64
  0
SEQEND
  5
3233
  8
0
  0
POLYLINE
  5
3234
  8
0
 66
     1
 10
0.0
 20
0.0
 30
0.0
 70
    16
 71
     3
 72
     7
  0
VERTEX
  5
3235
  8
0
 10
0.0
 20
38.327465
 30
79.819157
 70
    64
  0
VERTEX
  5
3236
  8
0
 10
1.4
 20
47.793538
 30
77.28273
 70
    64
  0
VERTEX
  5
3237
  8
0
 10
5.1
 20
56.583463
 30
74.927477
 70
    64
  0
VERTEX
  5
3238
  8
0
 10
11.2
 20
64.214277
 30
72.882806
 70
    64
  0
VERTEX
  5
3239
  8
0
 10
19.1
 20
70.106424
 30
71.30401
 70
    64
  0
VERTEX
  5
323A
  8
0
 10
28.2
 20
73.68035
 30
70.34638
 70
    64
  0
VERTEX
  5
323B
  8
0
 10
38.0
 20
75.032646
 30
69.984033
 70
    64
  0
VERTEX
  5
323C
  8
0
 10
0.0
 20
37.03337
 30
74.989528
 70
    64
  0
VERTEX
  5
323D
  8
0
 10
0.0
 20
49.493813
 30
71.650762
 70
    64
  0
VERTEX
  5
323E
  8
0
 10
3.4
 20
56.255293
 30
69.839029
 70
    64
  0
VERTEX
  5
323F
  8
0
 10
9.8
 20
64.272478
 30
67.690831
 70
    64
  0
VERTEX
  5
3240
  8
0
 10
18.1
 20
70.454403
 30
66.034389
 70
    64
  0
VERTEX
  5
3241
  8
0
 10
25.1
 20
73.738551
 30
65.154404
 70
    64
  0
VERTEX
  5
3242
  8
0
 10
38.0
 20
73.738551
 30
65.154404
 70
    64
  0
VERTEX
  5
3243
  8
0
 10
1.0
 20
35.739274
 30
70.159899
 70
    64
  0
VERTEX
  5
3244
  8
0
 10
2.3
 20
45.012162
 30
67.675236
 70
    64
  0
VERTEX
  5
3245
  8
0
 10
6.0
 20
53.51231
 30
65.397628
 70
    64
  0
VERTEX
  5
3246
  8
0
 10
11.9
 20
60.949938
 30
63.404722
 70
    64
  0
VERTEX
  5
3247
  8
0
 10
19.6
 20
66.648901
 30
61.877689
 70
    64
  0
VERTEX
  5
3248
  8
0
 10
28.4
 20
70.222826
 30
60.920059
 70
    64
  0
VERTEX
  5
3249
  8
0
 10
38.0
 20
71.47853
 30
60.583594
 70
    64
  0
SEQEND
  5
324A
  8
0
  0
POLYLINE
  5
324B
  8
0
 66
     1
 10
0.0
 20
0.0
 30
0.0
 70
    16
 71
     3
 72
     7
  0
VERTEX
  5
324C
  8
0
 10
1.0
 20
35.739274
 30
70.159899
 70
    64
  0
VERTEX
  5
324D
  8
0
 10
2.3
 20
45.012162
 30
67.675236
 70
    64
  0
VERTEX
  5
324E
  8
0
 10
6.0
 20
53.51231
 30
65.397628
 70
    64
  0
VERTEX
  5
324F
  8
0
 10
11.9
 20
60.949938
 30
63.404722
 70
    64
  0
VERTEX
  5
3250
  8
0
 10
19.6
 20
66.648901
 30
61.877689
 70
    64
  0
VERTEX
  5
3251
  8
0
 10
28.4
 20
70.222826
 30
60.920059
 70
    64
  0
VERTEX
  5
3252
  8
0
 10
38.0
 20
71.47853
 30
60.583594
 70
    64
  0
VERTEX
  5
3253
  8
0
 10
10.0
 20
33.927541
 30
63.398418
 70
    64
  0
VERTEX
  5
3254
  8
0
 10
11.0
 20
40.882207
 30
61.534921
 70
    64
  0
VERTEX
  5
3255
  8
0
 10
13.8
 20
47.35391
 30
59.800833
 70
    64
  0
VERTEX
  5
3256
  8
0
 10
18.2
 20
53.052872
 30
58.273801
 70
    64
  0
VERTEX
  5
3257
  8
0
 10
24.1
 20
57.302946
 30
57.134997
 70
    64
  0
VERTEX
  5
3258
  8
0
 10
30.8
 20
60.007538
 30
56.410304
 70
    64
  0
VERTEX
  5
3259
  8
0
 10
38.0
 20
60.973464
 30
56.151485
 70
    64
  0
VERTEX
  5
325A
  8
0
 10
21.0
 20
32.762855
 30
59.051752
 70
    64
  0
VERTEX
  5
325B
  8
0
 10
21.6
 20
37.012929
 30
57.912948
 70
    64
  0
VERTEX
  5
325C
  8
0
 10
23.3
 20
40.973225
 30
56.85179
 70
    64
  0
VERTEX
  5
325D
  8
0
 10
26.0
 20
44.353965
 30
55.945923
 70
    64
  0
VERTEX
  5
325E
  8
0
 10
29.5
 20
46.961965
 30
55.247112
 70
    64
  0
VERTEX
  5
325F
  8
0
 10
33.6
 20
48.604039
 30
54.807119
 70
    64
  0
VERTEX
  5
3260
  8
0
 10
38.0
 20
49.183594
 30
54.651828
 70
    64
  0
SEQEND
  5
3261
  8
0
  0
POLYLINE
  5
3262
  8
0
 66
     1
 10
0.0
 20
0.0
 30
0.0
 70
    16
 71
     3
 72
     7
  0
VERTEX
  5
3263
  8
0
 10
21.0
 20
32.762855
 30
59.051752
 70
    64
  0
VERTEX
  5
3264
  8
0
 10
21.6
 20
37.012929
 30
57.912948
 70
    64
  0
VERTEX
  5
3265
  8
0
 10
23.3
 20
40.973225
 30
56.85179
 70
    64
  0
VERTEX
  5
3266
  8
0
 10
26.0
 20
44.353965
 30
55.945923
 70
    64
  0
VERTEX
  5
3267
  8
0
 10
29.5
 20
46.961965
 30
55.247112
 70
    64
  0
VERTEX
  5
3268
  8
0
 10
33.6
 20
48.604039
 30
54.807119
 70
    64
  0
VERTEX
  5
3269
  8
0
 10
38.0
 20
49.183594
 30
54.651828
 70
    64
  0
VERTEX
  5
326A
  8
0
 10
32.0
 20
32.245217
 30
57.1199
 70
    64
  0
VERTEX
  5
326B
  8
0
 10
32.2
 20
33.694106
 30
56.731671
 70
    64
  0
VERTEX
  5
326C
  8
0
 10
32.8
 20
35.142995
 30
56.343443
 70
    64
  0
VERTEX
  5
326D
  8
0
 10
33.8
 20
36.302106
 30
56.03286
 70
    64
  0
VERTEX
  5
326E
  8
0
 10
35.0
 20
37.268032
 30
55.774041
 70
    64
  0
VERTEX
  5
326F
  8
0
 10
36.5
 20
37.847587
 30
55.618749
 70
    64
  0
VERTEX
  5
3270
  8
0
 10
38.0
 20
38.040772
 30
55.566986
 70
    64
  0
VERTEX
  5
3271
  8
0
 10
38.0
 20
32.245217
 30
57.1199
 70
    64
  0
VERTEX
  5
3272
  8
0
 10
38.0
 20
32.245217
 30
57.1199
 70
    64
  0
VERTEX
  5
3273
  8
0
 10
38.0
 20
32.245217
 30
57.1199
 70
    64
  0
VERTEX
  5
3274
  8
0
 10
38.0
 20
32.245217
 30
57.1199
 70
    64
  0
VERTEX
  5
3275
  8
0
 10
38.0
 20
32.245217
 30
57.1199
 70
    64
  0
VERTEX
  5
3276
  8
0
 10
38.0
 20
32.245217
 30
57.1199
 70
    64
  0
VERTEX
  5
3277
  8
0
 10
38.0
 20
32.245217
 30
57.1199
 70
    64
  0
SEQEND
  5
3278
  8
0
  0
INSERT
  5
3281
  8
ASHADE
 62
     1
  2
AVE_GLOBAL
 10
0.0
 20
0.0
 30
0.0
1001
AVE_MATERIAL
1002
{
1000
*GLOBAL*
1000
1
1000
Global finish.
1002
{
1002
}
1002
{
1070
    63
1002
{
1002
{
1010
-1.0
1020
-1.0
1030
-1.0
1002
}
1040
0.1
1000

1040
0.0
1002
{
1002
}
1040
0.0
1002
{
1002
}
1040
0.0
1002
}
1002
{
1002
{
1010
-1.0
1020
-1.0
1030
-1.0
1002
}
1040
0.7
1000

1040
0.0
1002
{
1002
}
1040
0.0
1002
{
1002
}
1040
0.0
1002
}
1002
{
1002
{
1010
-1.0
1020
-1.0
1030
-1.0
1002
}
1040
0.2
1000

1040
0.0
1002
{
1002
}
1040
0.0
1002
{
1002
}
1040
0.0
1002
}
1002
{
1070
     0
1002
{
1070
     1
1002
{
1040
1.0
1040
1.0
1000

1040
0.0
1002
{
1002
}
1040
0.0
1002
{
1002
}
1040
0.0
1002
}
1002
}
1040
1.0
1040
0.0
1040
0.0
1002
}
1002
{
1040
1.0
1040
1.0
1000

1040
0.0
1002
{
1002
}
1040
0.0
1002
{
1002
}
1040
0.0
1002
}
1002
{
1040
0.5
1040
1.0
1000

1040
0.0
1002
{
1002
}
1040
0.0
1002
{
1002
}
1040
0.0
1002
}
1002
{
1070
     0
1040
0.0
1002
{
1002
}
1040
1.0
1002
{
1002
}
1040
0.0
1002
}
1002
{
1040
0.0
1002
{
1002
{
1010
0.0
1020
0.0
1030
0.0
1002
}
1040
1.0
1000

1040
0.0
1002
{
1002
}
1040
0.0
1002
{
1002
}
1040
0.0
1002
}
1002
}
1002
{
1002
{
1070
     1
1002
{
1040
0.0
1040
1.0
1000

1040
0.0
1002
{
1002
}
1040
0.0
1002
{
1002
}
1040
0.0
1002
}
1002
}
1040
0.0
1002
{
1002
}
1010
1.0
1020
0.0
1030
0.0
1010
0.0
1020
1.0
1030
0.0
1010
0.0
1020
0.0
1030
1.0
1070
     0
1002
}
1002
{
1002
{
1040
1.0
1040
1.0
1002
{
1070
     1
1002
{
1040
1.0
1040
1.0
1000

1040
0.0
1002
{
1002
}
1040
0.0
1002
{
1002
}
1040
0.0
1002
}
1002
}
1002
}
1070
     0
1040
0.0
1002
{
1002
}
1002
}
1002
{
1002
}
1002
}
1002
{
1071
        3
1070
     3
1070
     0
1002
{
1070
     2
1070
     0
1070
     0
1040
0.0
1002
}
1070
     0
1070
     2
1002
{
1002
}
1002
}
1002
{
1040
8030.0
1040
190.300003
1040
0.305
1040
228.0
1040
545.0
1040
14.0
1040
17.4
1040
0.456
1002
}
1002
}
  0
POLYLINE
  5
3282
  8
0
 66
     1
 10
0.0
 20
0.0
 30
0.0
 70
    16
 71
     3
 72
     7
  0
VERTEX
  5
3283
  8
0
 10
0.0
 20
38.327465
 30
79.819157
 70
    64
  0
VERTEX
  5
3284
  8
0
 10
1.4
 20
28.861392
 30
82.355583
 70
    64
  0
VERTEX
  5
3285
  8
0
 10
5.1
 20
20.071467
 30
84.710837
 70
    64
  0
VERTEX
  5
3286
  8
0
 10
11.2
 20
12.440653
 30
86.755507
 70
    64
  0
VERTEX
  5
3287
  8
0
 10
19.1
 20
6.548505
 30
88.334303
 70
    64
  0
VERTEX
  5
3288
  8
0
 10
28.2
 20
2.97458
 30
89.291934
 70
    64
  0
VERTEX
  5
3289
  8
0
 10
38.0
 20
1.622283
 30
89.654281
 70
    64
  0
VERTEX
  5
328A
  8
0
 10
0.0
 20
37.03337
 30
74.989528
 70
    64
  0
VERTEX
  5
328B
  8
0
 10
0.0
 20
24.572926
 30
78.328293
 70
    64
  0
VERTEX
  5
328C
  8
0
 10
3.4
 20
17.811446
 30
80.140027
 70
    64
  0
VERTEX
  5
328D
  8
0
 10
9.8
 20
9.794261
 30
82.288225
 70
    64
  0
VERTEX
  5
328E
  8
0
 10
18.1
 20
3.612336
 30
83.944667
 70
    64
  0
VERTEX
  5
328F
  8
0
 10
25.1
 20
0.328188
 30
84.824651
 70
    64
  0
VERTEX
  5
3290
  8
0
 10
38.0
 20
0.328188
 30
84.824651
 70
    64
  0
VERTEX
  5
3291
  8
0
 10
1.0
 20
35.739274
 30
70.159899
 70
    64
  0
VERTEX
  5
3292
  8
0
 10
2.3
 20
26.466386
 30
72.644561
 70
    64
  0
VERTEX
  5
3293
  8
0
 10
6.0
 20
17.966239
 30
74.922169
 70
    64
  0
VERTEX
  5
3294
  8
0
 10
11.9
 20
10.52861
 30
76.915076
 70
    64
  0
VERTEX
  5
3295
  8
0
 10
19.6
 20
4.829648
 30
78.442108
 70
    64
  0
VERTEX
  5
3296
  8
0
 10
28.4
 20
1.255722
 30
79.399738
 70
    64
  0
VERTEX
  5
3297
  8
0
 10
38.0
 20
0.000019
 30
79.736203
 70
    64
  0
SEQEND
  5
3298
  8
0
  0
POLYLINE
  5
3299
  8
0
 66
     1
 10
0.0
 20
0.0
 30
0.0
 70
    16
 71
     3
 72
     7
  0
VERTEX
  5
329A
  8
0
 10
21.0
 20
32.762855
 30
59.051752
 70
    64
  0
VERTEX
  5
329B
  8
0
 10
21.6
 20
28.512782
 30
60.190555
 70
    64
  0
VERTEX
  5
329C
  8
0
 10
23.3
 20
24.552486
 30
61.251713
 70
    64
  0
VERTEX
  5
329D
  8
0
 10
26.0
 20
21.171745
 30
62.15758
 70
    64
  0
VERTEX
  5
329E
  8
0
 10
29.5
 20
18.563746
 30
62.856392
 70
    64
  0
VERTEX
  5
329F
  8
0
 10
33.6
 20
16.921672
 30
63.296384
 70
    64
  0
VERTEX
  5
32A0
  8
0
 10
38.0
 20
16.342116
 30
63.451675
 70
    64
  0
VERTEX
  5
32A1
  8
0
 10
32.0
 20
32.245217
 30
57.1199
 70
    64
  0
VERTEX
  5
32A2
  8
0
 10
32.2
 20
30.796328
 30
57.508128
 70
    64
  0
VERTEX
  5
32A3
  8
0
 10
32.8
 20
29.34744
 30
57.896357
 70
    64
  0
VERTEX
  5
32A4
  8
0
 10
33.8
 20
28.188329
 30
58.20694
 70
    64
  0
VERTEX
  5
32A5
  8
0
 10
35.0
 20
27.222403
 30
58.465759
 70
    64
  0
VERTEX
  5
32A6
  8
0
 10
36.5
 20
26.642847
 30
58.62105
 70
    64
  0
VERTEX
  5
32A7
  8
0
 10
38.0
 20
26.449662
 30
58.672814
 70
    64
  0
VERTEX
  5
32A8
  8
0
 10
38.0
 20
32.245217
 30
57.1199
 70
    64
  0
VERTEX
  5
32A9
  8
0
 10
38.0
 20
32.245217
 30
57.1199
 70
    64
  0
VERTEX
  5
32AA
  8
0
 10
38.0
 20
32.245217
 30
57.1199
 70
    64
  0
VERTEX
  5
32AB
  8
0
 10
38.0
 20
32.245217
 30
57.1199
 70
    64
  0
VERTEX
  5
32AC
  8
0
 10
38.0
 20
32.245217
 30
57.1199
 70
    64
  0
VERTEX
  5
32AD
  8
0
 10
38.0
 20
32.245217
 30
57.1199
 70
    64
  0
VERTEX
  5
32AE
  8
0
 10
38.0
 20
32.245217
 30
57.1199
 70
    64
  0
SEQEND
  5
32AF
  8
0
  0
POLYLINE
  5
32B0
  8
0
 66
     1
 10
0.0
 20
0.0
 30
0.0
 70
    16
 71
     3
 72
     7
  0
VERTEX
  5
32B1
  8
0
 10
1.0
 20
35.739274
 30
70.159899
 70
    64
  0
VERTEX
  5
32B2
  8
0
 10
2.3
 20
26.466386
 30
72.644561
 70
    64
  0
VERTEX
  5
32B3
  8
0
 10
6.0
 20
17.966239
 30
74.922169
 70
    64
  0
VERTEX
  5
32B4
  8
0
 10
11.9
 20
10.52861
 30
76.915076
 70
    64
  0
VERTEX
  5
32B5
  8
0
 10
19.6
 20
4.829648
 30
78.442108
 70
    64
  0
VERTEX
  5
32B6
  8
0
 10
28.4
 20
1.255722
 30
79.399738
 70
    64
  0
VERTEX
  5
32B7
  8
0
 10
38.0
 20
0.000019
 30
79.736203
 70
    64
  0
VERTEX
  5
32B8
  8
0
 10
10.0
 20
33.927541
 30
63.398418
 70
    64
  0
VERTEX
  5
32B9
  8
0
 10
11.0
 20
26.972875
 30
65.261915
 70
    64
  0
VERTEX
  5
32BA
  8
0
 10
13.8
 20
20.501172
 30
66.996003
 70
    64
  0
VERTEX
  5
32BB
  8
0
 10
18.2
 20
14.80221
 30
68.523035
 70
    64
  0
VERTEX
  5
32BC
  8
0
 10
24.1
 20
10.552136
 30
69.661839
 70
    64
  0
VERTEX
  5
32BD
  8
0
 10
30.8
 20
7.847544
 30
70.386532
 70
    64
  0
VERTEX
  5
32BE
  8
0
 10
38.0
 20
6.881618
 30
70.645351
 70
    64
  0
VERTEX
  5
32BF
  8
0
 10
21.0
 20
32.762855
 30
59.051752
 70
    64
  0
VERTEX
  5
32C0
  8
0
 10
21.6
 20
28.512782
 30
60.190555
 70
    64
  0
VERTEX
  5
32C1
  8
0
 10
23.3
 20
24.552486
 30
61.251713
 70
    64
  0
VERTEX
  5
32C2
  8
0
 10
26.0
 20
21.171745
 30
62.15758
 70
    64
  0
VERTEX
  5
32C3
  8
0
 10
29.5
 20
18.563746
 30
62.856392
 70
    64
  0
VERTEX
  5
32C4
  8
0
 10
33.6
 20
16.921672
 30
63.296384
 70
    64
  0
VERTEX
  5
32C5
  8
0
 10
38.0
 20
16.342116
 30
63.451675
 70
    64
  0
SEQEND
  5
32C6
  8
0
  0
POLYLINE
  5
32C7
  8
0
 66
     1
 10
0.0
 20
0.0
 30
0.0
 70
    16
 71
     6
 72
     7
  0
VERTEX
  5
32C8
  8
0
 10
38.0
 20
45.05676
 30
104.933228
 70
    64
  0
VERTEX
  5
32C9
  8
0
 10
38.0
 20
45.05676
 30
104.933228
 70
    64
  0
VERTEX
  5
32CA
  8
0
 10
38.0
 20
45.05676
 30
104.933228
 70
    64
  0
VERTEX
  5
32CB
  8
0
 10
38.0
 20
45.05676
 30
104.933228
 70
    64
  0
VERTEX
  5
32CC
  8
0
 10
38.0
 20
45.05676
 30
104.933228
 70
    64
  0
VERTEX
  5
32CD
  8
0
 10
38.0
 20
45.05676
 30
104.933228
 70
    64
  0
VERTEX
  5
32CE
  8
0
 10
38.0
 20
45.05676
 30
104.933228
 70
    64
  0
VERTEX
  5
32CF
  8
0
 10
34.0
 20
44.92735
 30
104.450265
 70
    64
  0
VERTEX
  5
32D0
  8
0
 10
34.1
 20
43.961425
 30
104.709084
 70
    64
  0
VERTEX
  5
32D1
  8
0
 10
34.5
 20
42.995499
 30
104.967904
 70
    64
  0
VERTEX
  5
32D2
  8
0
 10
35.2
 20
42.222758
 30
105.174959
 70
    64
  0
VERTEX
  5
32D3
  8
0
 10
36.0
 20
41.54661
 30
105.356132
 70
    64
  0
VERTEX
  5
32D4
  8
0
 10
37.0
 20
41.16024
 30
105.45966
 70
    64
  0
VERTEX
  5
32D5
  8
0
 10
38.0
 20
41.063647
 30
105.485542
 70
    64
  0
VERTEX
  5
32D6
  8
0
 10
17.0
 20
43.503846
 30
99.137673
 70
    64
  0
VERTEX
  5
32D7
  8
0
 10
17.8
 20
38.287846
 30
100.535296
 70
    64
  0
VERTEX
  5
32D8
  8
0
 10
19.8
 20
33.361624
 30
101.855273
 70
    64
  0
VERTEX
  5
32D9
  8
0
 10
23.2
 20
29.208143
 30
102.968195
 70
    64
  0
VERTEX
  5
32DA
  8
0
 10
27.5
 20
25.923996
 30
103.84818
 70
    64
  0
VERTEX
  5
32DB
  8
0
 10
32.6
 20
23.992144
 30
104.365818
 70
    64
  0
VERTEX
  5
32DC
  8
0
 10
38.0
 20
23.219403
 30
104.572873
 70
    64
  0
VERTEX
  5
32DD
  8
0
 10
9.3
 20
41.950931
 30
93.342118
 70
    64
  0
VERTEX
  5
32DE
  8
0
 10
10.3
 20
34.80308
 30
95.257379
 70
    64
  0
VERTEX
  5
32DF
  8
0
 10
13.1
 20
28.138192
 30
97.043231
 70
    64
  0
VERTEX
  5
32E0
  8
0
 10
17.7
 20
22.342637
 30
98.596145
 70
    64
  0
VERTEX
  5
32E1
  8
0
 10
23.7
 20
17.899378
 30
99.786713
 70
    64
  0
VERTEX
  5
32E2
  8
0
 10
30.6
 20
15.194786
 30
100.511406
 70
    64
  0
VERTEX
  5
32E3
  8
0
 10
38.0
 20
14.22886
 30
100.770225
 70
    64
  0
VERTEX
  5
32E4
  8
0
 10
3.7
 20
40.139198
 30
86.580638
 70
    64
  0
VERTEX
  5
32E5
  8
0
 10
4.9
 20
31.542458
 30
88.884127
 70
    64
  0
VERTEX
  5
32E6
  8
0
 10
8.3
 20
23.621866
 30
91.006443
 70
    64
  0
VERTEX
  5
32E7
  8
0
 10
13.8
 20
16.763793
 30
92.844059
 70
    64
  0
VERTEX
  5
32E8
  8
0
 10
20.9
 20
11.451201
 30
94.267563
 70
    64
  0
VERTEX
  5
32E9
  8
0
 10
29.1
 20
8.167053
 30
95.147548
 70
    64
  0
VERTEX
  5
32EA
  8
0
 10
38.0
 20
7.007942
 30
95.458131
 70
    64
  0
VERTEX
  5
32EB
  8
0
 10
0.0
 20
38.327465
 30
79.819157
 70
    64
  0
VERTEX
  5
32EC
  8
0
 10
1.4
 20
28.861392
 30
82.355583
 70
    64
  0
VERTEX
  5
32ED
  8
0
 10
5.1
 20
20.071467
 30
84.710837
 70
    64
  0
VERTEX
  5
32EE
  8
0
 10
11.2
 20
12.440653
 30
86.755507
 70
    64
  0
VERTEX
  5
32EF
  8
0
 10
19.1
 20
6.548505
 30
88.334303
 70
    64
  0
VERTEX
  5
32F0
  8
0
 10
28.2
 20
2.97458
 30
89.291934
 70
    64
  0
VERTEX
  5
32F1
  8
0
 10
38.0
 20
1.622283
 30
89.654281
 70
    64
  0
SEQEND
  5
32F2
  8
0
  0
POLYLINE
  5
3384
  8
0
 66
     1
 10
0.0
 20
0.0
 30
0.0
 70
    16
 71
     3
 72
    13
  0
VERTEX
  5
3385
  8
0
 10
38.0
 20
74.170746
 30
76.426636
 70
    64
  0
VERTEX
  5
3386
  8
0
 10
35.9
 20
74.029325
 30
76.671585
 70
    64
  0
VERTEX
  5
3387
  8
0
 10
34.0
 20
73.463639
 30
77.651381
 70
    64
  0
VERTEX
  5
3388
  8
0
 10
32.4
 20
72.615111
 30
79.121074
 70
    64
  0
VERTEX
  5
3389
  8
0
 10
31.1
 20
71.554451
 30
80.958192
 70
    64
  0
VERTEX
  5
338A
  8
0
 10
30.3
 20
70.281659
 30
83.162732
 70
    64
  0
VERTEX
  5
338B
  8
0
 10
30.0
 20
68.867445
 30
85.612222
 70
    64
  0
VERTEX
  5
338C
  8
0
 10
30.3
 20
67.523942
 30
87.939237
 70
    64
  0
VERTEX
  5
338D
  8
0
 10
31.1
 20
66.25115
 30
90.143778
 70
    64
  0
VERTEX
  5
338E
  8
0
 10
32.1
 20
65.119779
 30
92.10337
 70
    64
  0
VERTEX
  5
338F
  8
0
 10
34.0
 20
64.271251
 30
93.573064
 70
    64
  0
VERTEX
  5
3390
  8
0
 10
35.9
 20
63.776276
 30
94.430385
 70
    64
  0
VERTEX
  5
3391
  8
0
 10
38.0
 20
63.564144
 30
94.797809
 70
    64
  0
VERTEX
  5
3392
  8
0
 10
38.0
 20
78.517412
 30
75.26195
 70
    64
  0
VERTEX
  5
3393
  8
0
 10
35.9
 20
78.569176
 30
75.455135
 70
    64
  0
VERTEX
  5
3394
  8
0
 10
34.0
 20
78.776231
 30
76.227876
 70
    64
  0
VERTEX
  5
3395
  8
0
 10
32.4
 20
79.086814
 30
77.386987
 70
    64
  0
VERTEX
  5
3396
  8
0
 10
31.1
 20
79.475043
 30
78.835876
 70
    64
  0
VERTEX
  5
3397
  8
0
 10
30.3
 20
79.940917
 30
80.574542
 70
    64
  0
VERTEX
  5
3398
  8
0
 10
30.0
 20
80.458555
 30
82.506394
 70
    64
  0
VERTEX
  5
3399
  8
0
 10
30.3
 20
80.950311
 30
84.341653
 70
    64
  0
VERTEX
  5
339A
  8
0
 10
31.1
 20
81.416185
 30
86.080319
 70
    64
  0
VERTEX
  5
339B
  8
0
 10
32.4
 20
81.830296
 30
87.625801
 70
    64
  0
VERTEX
  5
339C
  8
0
 10
34.0
 20
82.140879
 30
88.784912
 70
    64
  0
VERTEX
  5
339D
  8
0
 10
35.9
 20
82.322052
 30
89.46106
 70
    64
  0
VERTEX
  5
339E
  8
0
 10
38.0
 20
82.399698
 30
89.750837
 70
    64
  0
VERTEX
  5
339F
  8
0
 10
38.0
 20
88.450165
 30
71.535155
 70
    64
  0
VERTEX
  5
33A0
  8
0
 10
35.9
 20
88.600165
 30
71.794963
 70
    64
  0
VERTEX
  5
33A1
  8
0
 10
34.0
 20
89.000165
 30
72.487783
 70
    64
  0
VERTEX
  5
33A2
  8
0
 10
32.4
 20
89.600165
 30
73.527014
 70
    64
  0
VERTEX
  5
33A3
  8
0
 10
31.1
 20
90.450165
 30
74.999257
 70
    64
  0
VERTEX
  5
33A4
  8
0
 10
30.3
 20
91.400165
 30
76.644705
 70
    64
  0
VERTEX
  5
33A5
  8
0
 10
30.0
 20
92.450165
 30
78.463358
 70
    64
  0
VERTEX
  5
33A6
  8
0
 10
30.3
 20
93.450165
 30
80.195409
 70
    64
  0
VERTEX
  5
33A7
  8
0
 10
31.1
 20
94.450165
 30
81.92746
 70
    64
  0
VERTEX
  5
33A8
  8
0
 10
32.4
 20
95.250165
 30
83.313101
 70
    64
  0
VERTEX
  5
33A9
  8
0
 10
34.0
 20
95.900165
 30
84.438934
 70
    64
  0
VERTEX
  5
33AA
  8
0
 10
35.9
 20
96.300165
 30
85.131754
 70
    64
  0
VERTEX
  5
33AB
  8
0
 10
38.0
 20
96.450165
 30
85.391562
 70
    64
  0
SEQEND
  5
33AC
  8
0
  0
POLYLINE
  5
33AD
  8
0
 66
     1
 10
0.0
 20
0.0
 30
0.0
 70
    16
 71
     2
 72
     7
  0
VERTEX
  5
33AE
  8
0
 10
38.0
 20
63.564144
 30
94.797809
 70
    64
  0
VERTEX
  5
33AF
  8
0
 10
35.9
 20
63.776276
 30
94.430385
 70
    64
  0
VERTEX
  5
33B0
  8
0
 10
34.0
 20
64.271251
 30
93.573064
 70
    64
  0
VERTEX
  5
33B1
  8
0
 10
32.1
 20
65.119779
 30
92.10337
 70
    64
  0
VERTEX
  5
33B2
  8
0
 10
31.1
 20
66.25115
 30
90.143778
 70
    64
  0
VERTEX
  5
33B3
  8
0
 10
30.3
 20
67.523942
 30
87.939237
 70
    64
  0
VERTEX
  5
33B4
  8
0
 10
30.0
 20
68.867445
 30
85.612222
 70
    64
  0
VERTEX
  5
33B5
  8
0
 10
38.0
 20
48.791054
 30
103.414989
 70
    64
  0
VERTEX
  5
33B6
  8
0
 10
38.0
 20
48.791054
 30
103.414989
 70
    64
  0
VERTEX
  5
33B7
  8
0
 10
32.6
 20
63.015547
 30
93.909529
 70
    64
  0
VERTEX
  5
33B8
  8
0
 10
32.6
 20
63.015547
 30
93.909529
 70
    64
  0
VERTEX
  5
33B9
  8
0
 10
23.7
 20
66.002484
 30
86.897524
 70
    64
  0
VERTEX
  5
33BA
  8
0
 10
23.7
 20
66.002484
 30
86.897524
 70
    64
  0
VERTEX
  5
33BB
  8
0
 10
29.1
 20
72.111343
 30
78.013727
 70
    64
  0
SEQEND
  5
33BC
  8
0
  0
POLYLINE
  5
33BD
  8
0
 66
     1
 10
0.0
 20
0.0
 30
0.0
 70
    16
 71
     2
 72
     7
  0
VERTEX
  5
33BE
  8
0
 10
30.0
 20
68.867445
 30
85.612222
 70
    64
  0
VERTEX
  5
33BF
  8
0
 10
30.3
 20
70.281659
 30
83.162732
 70
    64
  0
VERTEX
  5
33C0
  8
0
 10
31.1
 20
71.554451
 30
80.958192
 70
    64
  0
VERTEX
  5
33C1
  8
0
 10
32.4
 20
72.615111
 30
79.121074
 70
    64
  0
VERTEX
  5
33C2
  8
0
 10
34.0
 20
73.463639
 30
77.651381
 70
    64
  0
VERTEX
  5
33C3
  8
0
 10
35.9
 20
74.029325
 30
76.671585
 70
    64
  0
VERTEX
  5
33C4
  8
0
 10
38.0
 20
74.170746
 30
76.426636
 70
    64
  0
VERTEX
  5
33C5
  8
0
 10
29.1
 20
72.111343
 30
78.013727
 70
    64
  0
VERTEX
  5
33C6
  8
0
 10
29.1
 20
72.111343
 30
78.013727
 70
    64
  0
VERTEX
  5
33C7
  8
0
 10
29.1
 20
72.111343
 30
78.013727
 70
    64
  0
VERTEX
  5
33C8
  8
0
 10
28.2
 20
73.68035
 30
70.34638
 70
    64
  0
VERTEX
  5
33C9
  8
0
 10
28.2
 20
73.68035
 30
70.34638
 70
    64
  0
VERTEX
  5
33CA
  8
0
 10
38.0
 20
75.032646
 30
69.984033
 70
    64
  0
VERTEX
  5
33CB
  8
0
 10
38.0
 20
75.032646
 30
69.984033
 70
    64
  0
SEQEND
  5
33CC
  8
0
  0
POLYLINE
  5
375C
  8
0
 66
     1
 10
0.0
 20
0.0
 30
0.0
 70
    16
 71
    14
 72
    13
  0
VERTEX
  5
375D
  8
0
 10
38.0
 20
88.450165
 30
71.535155
 70
    64
  0
VERTEX
  5
375E
  8
0
 10
35.9
 20
88.600165
 30
71.794963
 70
    64
  0
VERTEX
  5
375F
  8
0
 10
34.0
 20
89.000165
 30
72.487783
 70
    64
  0
VERTEX
  5
3760
  8
0
 10
32.4
 20
89.600165
 30
73.527014
 70
    64
  0
VERTEX
  5
3761
  8
0
 10
31.1
 20
90.450165
 30
74.999257
 70
    64
  0
VERTEX
  5
3762
  8
0
 10
30.3
 20
91.400165
 30
76.644705
 70
    64
  0
VERTEX
  5
3763
  8
0
 10
30.0
 20
92.450165
 30
78.463358
 70
    64
  0
VERTEX
  5
3764
  8
0
 10
30.3
 20
93.450165
 30
80.195409
 70
    64
  0
VERTEX
  5
3765
  8
0
 10
31.1
 20
94.450165
 30
81.92746
 70
    64
  0
VERTEX
  5
3766
  8
0
 10
32.4
 20
95.250165
 30
83.313101
 70
    64
  0
VERTEX
  5
3767
  8
0
 10
34.0
 20
95.900165
 30
84.438934
 70
    64
  0
VERTEX
  5
3768
  8
0
 10
35.9
 20
96.300165
 30
85.131754
 70
    64
  0
VERTEX
  5
3769
  8
0
 10
38.0
 20
96.450165
 30
85.391562
 70
    64
  0
VERTEX
  5
376A
  8
0
 10
38.0
 20
100.408495
 30
66.247591
 70
    64
  0
VERTEX
  5
376B
  8
0
 10
35.9
 20
100.553609
 30
66.458615
 70
    64
  0
VERTEX
  5
376C
  8
0
 10
34.0
 20
100.958495
 30
67.200219
 70
    64
  0
VERTEX
  5
376D
  8
0
 10
32.4
 20
101.558495
 30
68.239449
 70
    64
  0
VERTEX
  5
376E
  8
0
 10
31.1
 20
102.408495
 30
69.711692
 70
    64
  0
VERTEX
  5
376F
  8
0
 10
30.3
 20
103.358495
 30
71.357141
 70
    64
  0
VERTEX
  5
3770
  8
0
 10
30.0
 20
104.408495
 30
73.175794
 70
    64
  0
VERTEX
  5
3771
  8
0
 10
30.3
 20
105.408495
 30
74.907845
 70
    64
  0
VERTEX
  5
3772
  8
0
 10
31.1
 20
106.408495
 30
76.639896
 70
    64
  0
VERTEX
  5
3773
  8
0
 10
32.4
 20
107.208495
 30
78.025536
 70
    64
  0
VERTEX
  5
3774
  8
0
 10
34.0
 20
107.858495
 30
79.151369
 70
    64
  0
VERTEX
  5
3775
  8
0
 10
35.5
 20
108.258495
 30
79.84419
 70
    64
  0
VERTEX
  5
3776
  8
0
 10
38.0
 20
108.408495
 30
80.103997
 70
    64
  0
VERTEX
  5
3777
  8
0
 10
38.0
 20
111.0508
 30
60.680603
 70
    64
  0
VERTEX
  5
3778
  8
0
 10
35.9
 20
111.2008
 30
60.940411
 70
    64
  0
VERTEX
  5
3779
  8
0
 10
34.0
 20
111.6008
 30
61.633231
 70
    64
  0
VERTEX
  5
377A
  8
0
 10
32.4
 20
112.2508
 30
62.759064
 70
    64
  0
VERTEX
  5
377B
  8
0
 10
31.1
 20
113.1008
 30
64.231308
 70
    64
  0
VERTEX
  5
377C
  8
0
 10
30.3
 20
114.0508
 30
65.876756
 70
    64
  0
VERTEX
  5
377D
  8
0
 10
30.0
 20
115.1008
 30
67.695409
 70
    64
  0
VERTEX
  5
377E
  8
0
 10
30.3
 20
116.1508
 30
69.514063
 70
    64
  0
VERTEX
  5
377F
  8
0
 10
31.1
 20
117.1508
 30
71.246113
 70
    64
  0
VERTEX
  5
3780
  8
0
 10
32.4
 20
118.0508
 30
72.804959
 70
    64
  0
VERTEX
  5
3781
  8
0
 10
34.0
 20
118.6508
 30
73.84419
 70
    64
  0
VERTEX
  5
3782
  8
0
 10
35.9
 20
119.0508
 30
74.53701
 70
    64
  0
VERTEX
  5
3783
  8
0
 10
38.0
 20
119.2008
 30
74.796818
 70
    64
  0
VERTEX
  5
3784
  8
0
 10
38.0
 20
122.35913
 30
54.267206
 70
    64
  0
VERTEX
  5
3785
  8
0
 10
35.9
 20
122.50913
 30
54.527014
 70
    64
  0
VERTEX
  5
3786
  8
0
 10
34.0
 20
122.90913
 30
55.219834
 70
    64
  0
VERTEX
  5
3787
  8
0
 10
32.4
 20
123.55913
 30
56.345667
 70
    64
  0
VERTEX
  5
3788
  8
0
 10
31.1
 20
124.40913
 30
57.81791
 70
    64
  0
VERTEX
  5
3789
  8
0
 10
30.3
 20
125.40913
 30
59.549961
 70
    64
  0
VERTEX
  5
378A
  8
0
 10
30.0
 20
126.45913
 30
61.368614
 70
    64
  0
VERTEX
  5
378B
  8
0
 10
30.3
 20
127.55913
 30
63.27387
 70
    64
  0
VERTEX
  5
378C
  8
0
 10
31.1
 20
128.50913
 30
64.919318
 70
    64
  0
VERTEX
  5
378D
  8
0
 10
32.4
 20
129.35913
 30
66.391562
 70
    64
  0
VERTEX
  5
378E
  8
0
 10
34.0
 20
130.05913
 30
67.603997
 70
    64
  0
VERTEX
  5
378F
  8
0
 10
35.9
 20
130.45913
 30
68.296818
 70
    64
  0
VERTEX
  5
3790
  8
0
 10
38.0
 20
130.60913
 30
68.556625
 70
    64
  0
VERTEX
  5
3791
  8
0
 10
38.0
 20
131.252397
 30
48.670796
 70
    64
  0
VERTEX
  5
3792
  8
0
 10
35.8
 20
131.489
 30
48.880603
 70
    64
  0
VERTEX
  5
3793
  8
0
 10
33.8
 20
131.889
 30
49.573424
 70
    64
  0
VERTEX
  5
3794
  8
0
 10
32.0
 20
132.625602
 30
50.649257
 70
    64
  0
VERTEX
  5
3795
  8
0
 10
30.6
 20
133.562205
 30
52.0715
 70
    64
  0
VERTEX
  5
3796
  8
0
 10
29.8
 20
134.648807
 30
53.753551
 70
    64
  0
VERTEX
  5
3797
  8
0
 10
29.5
 20
135.78541
 30
55.522204
 70
    64
  0
VERTEX
  5
3798
  8
0
 10
29.8
 20
136.922012
 30
57.290857
 70
    64
  0
VERTEX
  5
3799
  8
0
 10
30.6
 20
138.008615
 30
58.972908
 70
    64
  0
VERTEX
  5
379A
  8
0
 10
32.0
 20
138.945217
 30
60.395151
 70
    64
  0
VERTEX
  5
379B
  8
0
 10
33.8
 20
139.595217
 30
61.520984
 70
    64
  0
VERTEX
  5
379C
  8
0
 10
35.8
 20
140.08182
 30
62.163805
 70
    64
  0
VERTEX
  5
379D
  8
0
 10
38.0
 20
140.23182
 30
62.423612
 70
    64
  0
VERTEX
  5
379E
  8
0
 10
38.0
 20
140.192074
 30
42.35477
 70
    64
  0
VERTEX
  5
379F
  8
0
 10
35.7
 20
140.342074
 30
42.614578
 70
    64
  0
VERTEX
  5
37A0
  8
0
 10
33.5
 20
140.828677
 30
43.257398
 70
    64
  0
VERTEX
  5
37A1
  8
0
 10
31.6
 20
141.615279
 30
44.419834
 70
    64
  0
VERTEX
  5
37A2
  8
0
 10
30.2
 20
142.638484
 30
45.792077
 70
    64
  0
VERTEX
  5
37A3
  8
0
 10
29.3
 20
143.811689
 30
47.424128
 70
    64
  0
VERTEX
  5
37A4
  8
0
 10
29.0
 20
145.121497
 30
49.092781
 70
    64
  0
VERTEX
  5
37A5
  8
0
 10
29.3
 20
146.394702
 30
50.898037
 70
    64
  0
VERTEX
  5
37A6
  8
0
 10
30.2
 20
147.567907
 30
52.530088
 70
    64
  0
VERTEX
  5
37A7
  8
0
 10
31.6
 20
148.591112
 30
53.902331
 70
    64
  0
VERTEX
  5
37A8
  8
0
 10
33.5
 20
149.327715
 30
54.978164
 70
    64
  0
VERTEX
  5
37A9
  8
0
 10
35.7
 20
149.864317
 30
55.707587
 70
    64
  0
VERTEX
  5
37AA
  8
0
 10
38.0
 20
150.014317
 30
55.967395
 70
    64
  0
VERTEX
  5
37AB
  8
0
 10
38.0
 20
147.459508
 30
36.542335
 70
    64
  0
VERTEX
  5
37AC
  8
0
 10
35.5
 20
147.69611
 30
36.752142
 70
    64
  0
VERTEX
  5
37AD
  8
0
 10
33.2
 20
148.232713
 30
37.481565
 70
    64
  0
VERTEX
  5
37AE
  8
0
 10
31.2
 20
149.105918
 30
38.594001
 70
    64
  0
VERTEX
  5
37AF
  8
0
 10
29.6
 20
150.265726
 30
40.002847
 70
    64
  0
VERTEX
  5
37B0
  8
0
 10
28.6
 20
151.525533
 30
41.584897
 70
    64
  0
VERTEX
  5
37B1
  8
0
 10
28.3
 20
153.021943
 30
43.376756
 70
    64
  0
VERTEX
  5
37B2
  8
0
 10
28.6
 20
154.381751
 30
45.132012
 70
    64
  0
VERTEX
  5
37B3
  8
0
 10
29.6
 20
155.691559
 30
46.800665
 70
    64
  0
VERTEX
  5
37B4
  8
0
 10
31.2
 20
156.801366
 30
48.122908
 70
    64
  0
VERTEX
  5
37B5
  8
0
 10
33.2
 20
157.674571
 30
49.235344
 70
    64
  0
VERTEX
  5
37B6
  8
0
 10
35.5
 20
158.297776
 30
49.914767
 70
    64
  0
VERTEX
  5
37B7
  8
0
 10
38.0
 20
158.447776
 30
50.174574
 70
    64
  0
VERTEX
  5
37B8
  8
0
 10
38.0
 20
154.067134
 30
30.187079
 70
    64
  0
VERTEX
  5
37B9
  8
0
 10
35.3
 20
154.303736
 30
30.396887
 70
    64
  0
VERTEX
  5
37BA
  8
0
 10
32.9
 20
154.926941
 30
31.076309
 70
    64
  0
VERTEX
  5
37BB
  8
0
 10
30.7
 20
155.936749
 30
32.225348
 70
    64
  0
VERTEX
  5
37BC
  8
0
 10
29.1
 20
157.183159
 30
33.584193
 70
    64
  0
VERTEX
  5
37BD
  8
0
 10
28.1
 20
158.716172
 30
35.239449
 70
    64
  0
VERTEX
  5
37BE
  8
0
 10
27.7
 20
160.299185
 30
36.981308
 70
    64
  0
VERTEX
  5
37BF
  8
0
 10
28.1
 20
161.932197
 30
38.809769
 70
    64
  0
VERTEX
  5
37C0
  8
0
 10
29.1
 20
163.328608
 30
40.428422
 70
    64
  0
VERTEX
  5
37C1
  8
0
 10
30.7
 20
164.625018
 30
41.87387
 70
    64
  0
VERTEX
  5
37C2
  8
0
 10
32.9
 20
165.584825
 30
42.936306
 70
    64
  0
VERTEX
  5
37C3
  8
0
 10
35.3
 20
166.20803
 30
43.615729
 70
    64
  0
VERTEX
  5
37C4
  8
0
 10
38.0
 20
166.494633
 30
43.912139
 70
    64
  0
VERTEX
  5
37C5
  8
0
 10
38.0
 20
160.401555
 30
23.758618
 70
    64
  0
VERTEX
  5
37C6
  8
0
 10
35.2
 20
160.688157
 30
24.055028
 70
    64
  0
VERTEX
  5
37C7
  8
0
 10
32.6
 20
161.311362
 30
24.734451
 70
    64
  0
VERTEX
  5
37C8
  8
0
 10
30.4
 20
162.407773
 30
25.833489
 70
    64
  0
VERTEX
  5
37C9
  8
0
 10
28.6
 20
163.927388
 30
27.26554
 70
    64
  0
VERTEX
  5
37CA
  8
0
 10
27.6
 20
165.597003
 30
28.957398
 70
    64
  0
VERTEX
  5
37CB
  8
0
 10
27.2
 20
167.366618
 30
30.822462
 70
    64
  0
VERTEX
  5
37CC
  8
0
 10
27.6
 20
169.172836
 30
32.550923
 70
    64
  0
VERTEX
  5
37CD
  8
0
 10
28.6
 20
170.842451
 30
34.242781
 70
    64
  0
VERTEX
  5
37CE
  8
0
 10
30.4
 20
172.362067
 30
35.674832
 70
    64
  0
VERTEX
  5
37CF
  8
0
 10
32.6
 20
173.458477
 30
36.77387
 70
    64
  0
VERTEX
  5
37D0
  8
0
 10
35.2
 20
174.131682
 30
37.539896
 70
    64
  0
VERTEX
  5
37D1
  8
0
 10
38.0
 20
174.368284
 30
37.749703
 70
    64
  0
VERTEX
  5
37D2
  8
0
 10
38.0
 20
166.16995
 30
18.349772
 70
    64
  0
VERTEX
  5
37D3
  8
0
 10
35.2
 20
166.406553
 30
18.55958
 70
    64
  0
VERTEX
  5
37D4
  8
0
 10
32.5
 20
167.166361
 30
19.275605
 70
    64
  0
VERTEX
  5
37D5
  8
0
 10
30.2
 20
168.435976
 30
20.274643
 70
    64
  0
VERTEX
  5
37D6
  8
0
 10
28.5
 20
169.955591
 30
21.706694
 70
    64
  0
VERTEX
  5
37D7
  8
0
 10
27.4
 20
171.848411
 30
23.385155
 70
    64
  0
VERTEX
  5
37D8
  8
0
 10
27.0
 20
173.791232
 30
25.150219
 70
    64
  0
VERTEX
  5
37D9
  8
0
 10
27.4
 20
175.734052
 30
26.915282
 70
    64
  0
VERTEX
  5
37DA
  8
0
 10
28.5
 20
177.576872
 30
28.507141
 70
    64
  0
VERTEX
  5
37DB
  8
0
 10
30.2
 20
179.096488
 30
29.939191
 70
    64
  0
VERTEX
  5
37DC
  8
0
 10
32.5
 20
180.3295
 30
31.074832
 70
    64
  0
VERTEX
  5
37DD
  8
0
 10
35.2
 20
181.039308
 30
31.704255
 70
    64
  0
VERTEX
  5
37DE
  8
0
 10
38.0
 20
181.325911
 30
32.000665
 70
    64
  0
VERTEX
  5
37DF
  8
0
 10
38.0
 20
172.001744
 30
13.250734
 70
    64
  0
VERTEX
  5
37E0
  8
0
 10
35.1
 20
172.238346
 30
13.460542
 70
    64
  0
VERTEX
  5
37E1
  8
0
 10
32.4
 20
172.948154
 30
14.089965
 70
    64
  0
VERTEX
  5
37E2
  8
0
 10
30.1
 20
174.181166
 30
15.225605
 70
    64
  0
VERTEX
  5
37E3
  8
0
 10
28.3
 20
175.787384
 30
16.607656
 70
    64
  0
VERTEX
  5
37E4
  8
0
 10
27.2
 20
177.543602
 30
18.249515
 70
    64
  0
VERTEX
  5
37E5
  8
0
 10
26.8
 20
179.573025
 30
19.964578
 70
    64
  0
VERTEX
  5
37E6
  8
0
 10
27.2
 20
181.515845
 30
21.729642
 70
    64
  0
VERTEX
  5
37E7
  8
0
 10
28.3
 20
183.272063
 30
23.3715
 70
    64
  0
VERTEX
  5
37E8
  8
0
 10
30.1
 20
184.878281
 30
24.753551
 70
    64
  0
VERTEX
  5
37E9
  8
0
 10
32.4
 20
186.061293
 30
25.802589
 70
    64
  0
VERTEX
  5
37EA
  8
0
 10
35.1
 20
186.821101
 30
26.518614
 70
    64
  0
VERTEX
  5
37EB
  8
0
 10
38.0
 20
187.057704
 30
26.728422
 70
    64
  0
VERTEX
  5
37EC
  8
0
 10
38.0
 20
178.503152
 30
8.111504
 70
    64
  0
VERTEX
  5
37ED
  8
0
 10
35.1
 20
178.789754
 30
8.407914
 70
    64
  0
VERTEX
  5
37EE
  8
0
 10
32.4
 20
179.499562
 30
9.037337
 70
    64
  0
VERTEX
  5
37EF
  8
0
 10
30.1
 20
180.632575
 30
9.999772
 70
    64
  0
VERTEX
  5
37F0
  8
0
 10
28.3
 20
182.10219
 30
11.345221
 70
    64
  0
VERTEX
  5
37F1
  8
0
 10
27.2
 20
183.808408
 30
12.900476
 70
    64
  0
VERTEX
  5
37F2
  8
0
 10
26.8
 20
185.701228
 30
14.578937
 70
    64
  0
VERTEX
  5
37F3
  8
0
 10
27.2
 20
187.457446
 30
16.220796
 70
    64
  0
VERTEX
  5
37F4
  8
0
 10
28.3
 20
189.163664
 30
17.776052
 70
    64
  0
VERTEX
  5
37F5
  8
0
 10
30.1
 20
190.719881
 30
19.0715
 70
    64
  0
VERTEX
  5
37F6
  8
0
 10
32.4
 20
191.816292
 30
20.170538
 70
    64
  0
VERTEX
  5
37F7
  8
0
 10
35.1
 20
192.526099
 30
20.799961
 70
    64
  0
VERTEX
  5
37F8
  8
0
 10
38.0
 20
192.762702
 30
21.009769
 70
    64
  0
VERTEX
  5
37F9
  8
0
 10
38.0
 20
183.249304
 30
4.332081
 70
    64
  0
VERTEX
  5
37FA
  8
0
 10
35.2
 20
183.485907
 30
4.541888
 70
    64
  0
VERTEX
  5
37FB
  8
0
 10
32.5
 20
184.232317
 30
5.034709
 70
    64
  0
VERTEX
  5
37FC
  8
0
 10
30.2
 20
185.36533
 30
5.997144
 70
    64
  0
VERTEX
  5
37FD
  8
0
 10
28.5
 20
186.821547
 30
7.119388
 70
    64
  0
VERTEX
  5
37FE
  8
0
 10
27.4
 20
188.65097
 30
8.488041
 70
    64
  0
VERTEX
  5
37FF
  8
0
 10
27.0
 20
190.393791
 30
9.906694
 70
    64
  0
VERTEX
  5
3800
  8
0
 10
27.4
 20
192.273214
 30
11.36195
 70
    64
  0
VERTEX
  5
3801
  8
0
 10
28.5
 20
194.016034
 30
12.780603
 70
    64
  0
VERTEX
  5
3802
  8
0
 10
30.2
 20
195.558854
 30
13.852847
 70
    64
  0
VERTEX
  5
3803
  8
0
 10
32.5
 20
196.691867
 30
14.815282
 70
    64
  0
VERTEX
  5
3804
  8
0
 10
35.2
 20
197.351674
 30
15.358103
 70
    64
  0
VERTEX
  5
3805
  8
0
 10
38.0
 20
197.67488
 30
15.51791
 70
    64
  0
VERTEX
  5
3806
  8
0
 10
38.0
 20
185.25097
 30
2.599068
 70
    64
  0
VERTEX
  5
3807
  8
0
 10
35.2
 20
185.574175
 30
2.758876
 70
    64
  0
VERTEX
  5
3808
  8
0
 10
32.5
 20
186.407188
 30
3.201696
 70
    64
  0
VERTEX
  5
3809
  8
0
 10
30.2
 20
187.613406
 30
3.890927
 70
    64
  0
VERTEX
  5
380A
  8
0
 10
28.5
 20
189.242829
 30
4.91317
 70
    64
  0
VERTEX
  5
380B
  8
0
 10
27.4
 20
191.095457
 30
5.922015
 70
    64
  0
VERTEX
  5
380C
  8
0
 10
27.0
 20
193.184687
 30
7.140669
 70
    64
  0
VERTEX
  5
380D
  8
0
 10
27.4
 20
195.223918
 30
8.27272
 70
    64
  0
VERTEX
  5
380E
  8
0
 10
28.5
 20
197.039943
 30
9.418168
 70
    64
  0
VERTEX
  5
380F
  8
0
 10
30.2
 20
198.705968
 30
10.303809
 70
    64
  0
VERTEX
  5
3810
  8
0
 10
32.5
 20
199.962186
 30
11.079642
 70
    64
  0
VERTEX
  5
3811
  8
0
 10
35.2
 20
200.658596
 30
11.485859
 70
    64
  0
VERTEX
  5
3812
  8
0
 10
38.0
 20
200.981802
 30
11.645667
 70
    64
  0
SEQEND
  5
3813
  8
0
  0
POLYLINE
  5
3814
  8
0
 66
     1
 10
0.0
 20
0.0
 30
0.0
 70
    16
 71
     5
 72
    13
  0
VERTEX
  5
3815
  8
0
 10
38.0
 20
185.25097
 30
2.599068
 70
    64
  0
VERTEX
  5
3816
  8
0
 10
35.2
 20
185.574175
 30
2.758876
 70
    64
  0
VERTEX
  5
3817
  8
0
 10
32.5
 20
186.407188
 30
3.201696
 70
    64
  0
VERTEX
  5
3818
  8
0
 10
30.2
 20
187.613406
 30
3.890927
 70
    64
  0
VERTEX
  5
3819
  8
0
 10
28.5
 20
189.242829
 30
4.91317
 70
    64
  0
VERTEX
  5
381A
  8
0
 10
27.4
 20
191.095457
 30
5.922015
 70
    64
  0
VERTEX
  5
381B
  8
0
 10
27.0
 20
193.184687
 30
7.140669
 70
    64
  0
VERTEX
  5
381C
  8
0
 10
27.4
 20
195.223918
 30
8.27272
 70
    64
  0
VERTEX
  5
381D
  8
0
 10
28.5
 20
197.039943
 30
9.418168
 70
    64
  0
VERTEX
  5
381E
  8
0
 10
30.2
 20
198.705968
 30
10.303809
 70
    64
  0
VERTEX
  5
381F
  8
0
 10
32.5
 20
199.962186
 30
11.079642
 70
    64
  0
VERTEX
  5
3820
  8
0
 10
35.2
 20
200.658596
 30
11.485859
 70
    64
  0
VERTEX
  5
3821
  8
0
 10
38.0
 20
200.981802
 30
11.645667
 70
    64
  0
VERTEX
  5
3822
  8
0
 10
38.0
 20
185.033983
 30
1.223235
 70
    64
  0
VERTEX
  5
3823
  8
0
 10
34.9
 20
185.270586
 30
1.433043
 70
    64
  0
VERTEX
  5
3824
  8
0
 10
32.0
 20
186.153598
 30
1.962466
 70
    64
  0
VERTEX
  5
3825
  8
0
 10
29.5
 20
187.546419
 30
2.774901
 70
    64
  0
VERTEX
  5
3826
  8
0
 10
27.6
 20
189.399047
 30
3.783747
 70
    64
  0
VERTEX
  5
3827
  8
0
 10
26.4
 20
191.438277
 30
4.915798
 70
    64
  0
VERTEX
  5
3828
  8
0
 10
26.0
 20
193.627508
 30
6.307656
 70
    64
  0
VERTEX
  5
3829
  8
0
 10
26.4
 20
195.853341
 30
7.562912
 70
    64
  0
VERTEX
  5
382A
  8
0
 10
27.6
 20
197.942571
 30
8.781565
 70
    64
  0
VERTEX
  5
382B
  8
0
 10
29.5
 20
199.795199
 30
9.790411
 70
    64
  0
VERTEX
  5
382C
  8
0
 10
32.0
 20
201.138019
 30
10.516244
 70
    64
  0
VERTEX
  5
382D
  8
0
 10
34.9
 20
202.021032
 30
11.045667
 70
    64
  0
VERTEX
  5
382E
  8
0
 10
38.0
 20
202.257635
 30
11.255475
 70
    64
  0
VERTEX
  5
382F
  8
0
 10
38.0
 20
185.476803
 30
0.390222
 70
    64
  0
VERTEX
  5
3830
  8
0
 10
34.9
 20
185.800008
 30
0.55003
 70
    64
  0
VERTEX
  5
3831
  8
0
 10
32.0
 20
186.683021
 30
1.079453
 70
    64
  0
VERTEX
  5
3832
  8
0
 10
29.5
 20
188.075841
 30
1.891888
 70
    64
  0
VERTEX
  5
3833
  8
0
 10
27.6
 20
189.841867
 30
2.950734
 70
    64
  0
VERTEX
  5
3834
  8
0
 10
26.4
 20
191.881097
 30
4.082785
 70
    64
  0
VERTEX
  5
3835
  8
0
 10
26.0
 20
194.15693
 30
5.424643
 70
    64
  0
VERTEX
  5
3836
  8
0
 10
26.4
 20
196.382763
 30
6.679899
 70
    64
  0
VERTEX
  5
3837
  8
0
 10
27.6
 20
198.471994
 30
7.898553
 70
    64
  0
VERTEX
  5
3838
  8
0
 10
29.5
 20
200.238019
 30
8.957398
 70
    64
  0
VERTEX
  5
3839
  8
0
 10
32.0
 20
201.58084
 30
9.683231
 70
    64
  0
VERTEX
  5
383A
  8
0
 10
34.9
 20
202.463852
 30
10.212654
 70
    64
  0
VERTEX
  5
383B
  8
0
 10
38.0
 20
202.787057
 30
10.372462
 70
    64
  0
VERTEX
  5
383C
  8
0
 10
38.0
 20
186.752636
 30
0.00003
 70
    64
  0
VERTEX
  5
383D
  8
0
 10
35.2
 20
187.075841
 30
0.159838
 70
    64
  0
VERTEX
  5
383E
  8
0
 10
32.5
 20
187.908854
 30
0.602658
 70
    64
  0
VERTEX
  5
383F
  8
0
 10
30.2
 20
189.115072
 30
1.291888
 70
    64
  0
VERTEX
  5
3840
  8
0
 10
28.5
 20
190.744495
 30
2.314132
 70
    64
  0
VERTEX
  5
3841
  8
0
 10
27.4
 20
192.597123
 30
3.322977
 70
    64
  0
VERTEX
  5
3842
  8
0
 10
27.0
 20
194.686353
 30
4.541631
 70
    64
  0
VERTEX
  5
3843
  8
0
 10
27.4
 20
196.638981
 30
5.723682
 70
    64
  0
VERTEX
  5
3844
  8
0
 10
28.5
 20
198.541609
 30
6.81913
 70
    64
  0
VERTEX
  5
3845
  8
0
 10
30.2
 20
200.207635
 30
7.70477
 70
    64
  0
VERTEX
  5
3846
  8
0
 10
32.5
 20
201.463852
 30
8.480603
 70
    64
  0
VERTEX
  5
3847
  8
0
 10
35.2
 20
202.160262
 30
8.886821
 70
    64
  0
VERTEX
  5
3848
  8
0
 10
38.0
 20
202.483468
 30
9.046629
 70
    64
  0
VERTEX
  5
3849
  8
0
 10
38.0
 20
194.686353
 30
4.541631
 70
    64
  0
VERTEX
  5
384A
  8
0
 10
38.0
 20
194.686353
 30
4.541631
 70
    64
  0
VERTEX
  5
384B
  8
0
 10
38.0
 20
194.686353
 30
4.541631
 70
    64
  0
VERTEX
  5
384C
  8
0
 10
38.0
 20
194.686353
 30
4.541631
 70
    64
  0
VERTEX
  5
384D
  8
0
 10
38.0
 20
194.686353
 30
4.541631
 70
    64
  0
VERTEX
  5
384E
  8
0
 10
38.0
 20
194.686353
 30
4.541631
 70
    64
  0
VERTEX
  5
384F
  8
0
 10
38.0
 20
194.686353
 30
4.541631
 70
    64
  0
VERTEX
  5
3850
  8
0
 10
38.0
 20
194.686353
 30
4.541631
 70
    64
  0
VERTEX
  5
3851
  8
0
 10
38.0
 20
194.686353
 30
4.541631
 70
    64
  0
VERTEX
  5
3852
  8
0
 10
38.0
 20
194.686353
 30
4.541631
 70
    64
  0
VERTEX
  5
3853
  8
0
 10
38.0
 20
194.686353
 30
4.541631
 70
    64
  0
VERTEX
  5
3854
  8
0
 10
38.0
 20
194.686353
 30
4.541631
 70
    64
  0
VERTEX
  5
3855
  8
0
 10
38.0
 20
194.686353
 30
4.541631
 70
    64
  0
SEQEND
  5
3856
  8
0
  0
POLYLINE
  5
3952
  8
0
 66
     1
 10
0.0
 20
0.0
 30
0.0
 70
    16
 71
    14
 72
    13
  0
VERTEX
  5
3953
  8
0
 10
38.0
 20
88.450165
 30
71.535155
 70
    64
  0
VERTEX
  5
3954
  8
0
 10
40.1
 20
88.600165
 30
71.794963
 70
    64
  0
VERTEX
  5
3955
  8
0
 10
42.0
 20
89.000165
 30
72.487783
 70
    64
  0
VERTEX
  5
3956
  8
0
 10
43.6
 20
89.600165
 30
73.527014
 70
    64
  0
VERTEX
  5
3957
  8
0
 10
44.9
 20
90.450165
 30
74.999257
 70
    64
  0
VERTEX
  5
3958
  8
0
 10
45.7
 20
91.400165
 30
76.644705
 70
    64
  0
VERTEX
  5
3959
  8
0
 10
46.0
 20
92.450165
 30
78.463358
 70
    64
  0
VERTEX
  5
395A
  8
0
 10
45.7
 20
93.450165
 30
80.195409
 70
    64
  0
VERTEX
  5
395B
  8
0
 10
44.9
 20
94.450165
 30
81.92746
 70
    64
  0
VERTEX
  5
395C
  8
0
 10
43.6
 20
95.250165
 30
83.313101
 70
    64
  0
VERTEX
  5
395D
  8
0
 10
42.0
 20
95.900165
 30
84.438934
 70
    64
  0
VERTEX
  5
395E
  8
0
 10
40.1
 20
96.300165
 30
85.131754
 70
    64
  0
VERTEX
  5
395F
  8
0
 10
38.0
 20
96.450165
 30
85.391562
 70
    64
  0
VERTEX
  5
3960
  8
0
 10
38.0
 20
100.408495
 30
66.247591
 70
    64
  0
VERTEX
  5
3961
  8
0
 10
40.1
 20
100.553609
 30
66.458615
 70
    64
  0
VERTEX
  5
3962
  8
0
 10
42.0
 20
100.958495
 30
67.200219
 70
    64
  0
VERTEX
  5
3963
  8
0
 10
43.6
 20
101.558495
 30
68.239449
 70
    64
  0
VERTEX
  5
3964
  8
0
 10
44.9
 20
102.408495
 30
69.711692
 70
    64
  0
VERTEX
  5
3965
  8
0
 10
45.7
 20
103.358495
 30
71.357141
 70
    64
  0
VERTEX
  5
3966
  8
0
 10
46.0
 20
104.408495
 30
73.175794
 70
    64
  0
VERTEX
  5
3967
  8
0
 10
45.7
 20
105.408495
 30
74.907845
 70
    64
  0
VERTEX
  5
3968
  8
0
 10
44.9
 20
106.408495
 30
76.639896
 70
    64
  0
VERTEX
  5
3969
  8
0
 10
43.6
 20
107.208495
 30
78.025536
 70
    64
  0
VERTEX
  5
396A
  8
0
 10
42.0
 20
107.858495
 30
79.151369
 70
    64
  0
VERTEX
  5
396B
  8
0
 10
40.5
 20
108.258495
 30
79.84419
 70
    64
  0
VERTEX
  5
396C
  8
0
 10
38.0
 20
108.408495
 30
80.103997
 70
    64
  0
VERTEX
  5
396D
  8
0
 10
38.0
 20
111.0508
 30
60.680603
 70
    64
  0
VERTEX
  5
396E
  8
0
 10
40.1
 20
111.2008
 30
60.940411
 70
    64
  0
VERTEX
  5
396F
  8
0
 10
42.0
 20
111.6008
 30
61.633231
 70
    64
  0
VERTEX
  5
3970
  8
0
 10
43.6
 20
112.2508
 30
62.759064
 70
    64
  0
VERTEX
  5
3971
  8
0
 10
44.9
 20
113.1008
 30
64.231308
 70
    64
  0
VERTEX
  5
3972
  8
0
 10
45.7
 20
114.0508
 30
65.876756
 70
    64
  0
VERTEX
  5
3973
  8
0
 10
46.0
 20
115.1008
 30
67.695409
 70
    64
  0
VERTEX
  5
3974
  8
0
 10
45.7
 20
116.1508
 30
69.514063
 70
    64
  0
VERTEX
  5
3975
  8
0
 10
44.9
 20
117.1508
 30
71.246113
 70
    64
  0
VERTEX
  5
3976
  8
0
 10
43.6
 20
118.0508
 30
72.804959
 70
    64
  0
VERTEX
  5
3977
  8
0
 10
42.0
 20
118.6508
 30
73.84419
 70
    64
  0
VERTEX
  5
3978
  8
0
 10
40.1
 20
119.0508
 30
74.53701
 70
    64
  0
VERTEX
  5
3979
  8
0
 10
38.0
 20
119.2008
 30
74.796818
 70
    64
  0
VERTEX
  5
397A
  8
0
 10
38.0
 20
122.35913
 30
54.267206
 70
    64
  0
VERTEX
  5
397B
  8
0
 10
40.1
 20
122.50913
 30
54.527014
 70
    64
  0
VERTEX
  5
397C
  8
0
 10
42.0
 20
122.90913
 30
55.219834
 70
    64
  0
VERTEX
  5
397D
  8
0
 10
43.6
 20
123.55913
 30
56.345667
 70
    64
  0
VERTEX
  5
397E
  8
0
 10
44.9
 20
124.40913
 30
57.81791
 70
    64
  0
VERTEX
  5
397F
  8
0
 10
45.7
 20
125.40913
 30
59.549961
 70
    64
  0
VERTEX
  5
3980
  8
0
 10
46.0
 20
126.45913
 30
61.368614
 70
    64
  0
VERTEX
  5
3981
  8
0
 10
45.7
 20
127.55913
 30
63.27387
 70
    64
  0
VERTEX
  5
3982
  8
0
 10
44.9
 20
128.50913
 30
64.919318
 70
    64
  0
VERTEX
  5
3983
  8
0
 10
43.6
 20
129.35913
 30
66.391562
 70
    64
  0
VERTEX
  5
3984
  8
0
 10
42.0
 20
130.05913
 30
67.603997
 70
    64
  0
VERTEX
  5
3985
  8
0
 10
40.1
 20
130.45913
 30
68.296818
 70
    64
  0
VERTEX
  5
3986
  8
0
 10
38.0
 20
130.60913
 30
68.556625
 70
    64
  0
VERTEX
  5
3987
  8
0
 10
38.0
 20
131.252397
 30
48.670796
 70
    64
  0
VERTEX
  5
3988
  8
0
 10
40.2
 20
131.489
 30
48.880603
 70
    64
  0
VERTEX
  5
3989
  8
0
 10
42.2
 20
131.889
 30
49.573424
 70
    64
  0
VERTEX
  5
398A
  8
0
 10
44.0
 20
132.625602
 30
50.649257
 70
    64
  0
VERTEX
  5
398B
  8
0
 10
45.4
 20
133.562205
 30
52.0715
 70
    64
  0
VERTEX
  5
398C
  8
0
 10
46.2
 20
134.648807
 30
53.753551
 70
    64
  0
VERTEX
  5
398D
  8
0
 10
46.5
 20
135.78541
 30
55.522204
 70
    64
  0
VERTEX
  5
398E
  8
0
 10
46.2
 20
136.922012
 30
57.290857
 70
    64
  0
VERTEX
  5
398F
  8
0
 10
45.4
 20
138.008615
 30
58.972908
 70
    64
  0
VERTEX
  5
3990
  8
0
 10
44.0
 20
138.945217
 30
60.395151
 70
    64
  0
VERTEX
  5
3991
  8
0
 10
42.2
 20
139.595217
 30
61.520984
 70
    64
  0
VERTEX
  5
3992
  8
0
 10
40.2
 20
140.08182
 30
62.163805
 70
    64
  0
VERTEX
  5
3993
  8
0
 10
38.0
 20
140.23182
 30
62.423612
 70
    64
  0
VERTEX
  5
3994
  8
0
 10
38.0
 20
140.192074
 30
42.35477
 70
    64
  0
VERTEX
  5
3995
  8
0
 10
40.3
 20
140.342074
 30
42.614578
 70
    64
  0
VERTEX
  5
3996
  8
0
 10
42.5
 20
140.828677
 30
43.257398
 70
    64
  0
VERTEX
  5
3997
  8
0
 10
44.4
 20
141.615279
 30
44.419834
 70
    64
  0
VERTEX
  5
3998
  8
0
 10
45.8
 20
142.638484
 30
45.792077
 70
    64
  0
VERTEX
  5
3999
  8
0
 10
46.7
 20
143.811689
 30
47.424128
 70
    64
  0
VERTEX
  5
399A
  8
0
 10
47.0
 20
145.121497
 30
49.092781
 70
    64
  0
VERTEX
  5
399B
  8
0
 10
46.7
 20
146.394702
 30
50.898037
 70
    64
  0
VERTEX
  5
399C
  8
0
 10
45.8
 20
147.567907
 30
52.530088
 70
    64
  0
VERTEX
  5
399D
  8
0
 10
44.4
 20
148.591112
 30
53.902331
 70
    64
  0
VERTEX
  5
399E
  8
0
 10
42.5
 20
149.327715
 30
54.978164
 70
    64
  0
VERTEX
  5
399F
  8
0
 10
40.3
 20
149.864317
 30
55.707587
 70
    64
  0
VERTEX
  5
39A0
  8
0
 10
38.0
 20
150.014317
 30
55.967395
 70
    64
  0
VERTEX
  5
39A1
  8
0
 10
38.0
 20
147.459508
 30
36.542335
 70
    64
  0
VERTEX
  5
39A2
  8
0
 10
40.5
 20
147.69611
 30
36.752142
 70
    64
  0
VERTEX
  5
39A3
  8
0
 10
42.8
 20
148.232713
 30
37.481565
 70
    64
  0
VERTEX
  5
39A4
  8
0
 10
44.8
 20
149.105918
 30
38.594001
 70
    64
  0
VERTEX
  5
39A5
  8
0
 10
46.4
 20
150.265726
 30
40.002847
 70
    64
  0
VERTEX
  5
39A6
  8
0
 10
47.4
 20
151.525533
 30
41.584897
 70
    64
  0
VERTEX
  5
39A7
  8
0
 10
47.7
 20
153.021943
 30
43.376756
 70
    64
  0
VERTEX
  5
39A8
  8
0
 10
47.4
 20
154.381751
 30
45.132012
 70
    64
  0
VERTEX
  5
39A9
  8
0
 10
46.4
 20
155.691559
 30
46.800665
 70
    64
  0
VERTEX
  5
39AA
  8
0
 10
44.8
 20
156.801366
 30
48.122908
 70
    64
  0
VERTEX
  5
39AB
  8
0
 10
42.8
 20
157.674571
 30
49.235344
 70
    64
  0
VERTEX
  5
39AC
  8
0
 10
40.5
 20
158.297776
 30
49.914767
 70
    64
  0
VERTEX
  5
39AD
  8
0
 10
38.0
 20
158.447776
 30
50.174574
 70
    64
  0
VERTEX
  5
39AE
  8
0
 10
38.0
 20
154.067134
 30
30.187079
 70
    64
  0
VERTEX
  5
39AF
  8
0
 10
40.7
 20
154.303736
 30
30.396887
 70
    64
  0
VERTEX
  5
39B0
  8
0
 10
43.1
 20
154.926941
 30
31.076309
 70
    64
  0
VERTEX
  5
39B1
  8
0
 10
45.3
 20
155.936749
 30
32.225348
 70
    64
  0
VERTEX
  5
39B2
  8
0
 10
46.9
 20
157.183159
 30
33.584193
 70
    64
  0
VERTEX
  5
39B3
  8
0
 10
47.9
 20
158.716172
 30
35.239449
 70
    64
  0
VERTEX
  5
39B4
  8
0
 10
48.3
 20
160.299185
 30
36.981308
 70
    64
  0
VERTEX
  5
39B5
  8
0
 10
47.9
 20
161.932197
 30
38.809769
 70
    64
  0
VERTEX
  5
39B6
  8
0
 10
46.9
 20
163.328608
 30
40.428422
 70
    64
  0
VERTEX
  5
39B7
  8
0
 10
45.3
 20
164.625018
 30
41.87387
 70
    64
  0
VERTEX
  5
39B8
  8
0
 10
43.1
 20
165.584825
 30
42.936306
 70
    64
  0
VERTEX
  5
39B9
  8
0
 10
40.7
 20
166.20803
 30
43.615729
 70
    64
  0
VERTEX
  5
39BA
  8
0
 10
38.0
 20
166.494633
 30
43.912139
 70
    64
  0
VERTEX
  5
39BB
  8
0
 10
38.0
 20
160.401555
 30
23.758618
 70
    64
  0
VERTEX
  5
39BC
  8
0
 10
40.8
 20
160.688157
 30
24.055028
 70
    64
  0
VERTEX
  5
39BD
  8
0
 10
43.4
 20
161.311362
 30
24.734451
 70
    64
  0
VERTEX
  5
39BE
  8
0
 10
45.6
 20
162.407773
 30
25.833489
 70
    64
  0
VERTEX
  5
39BF
  8
0
 10
47.4
 20
163.927388
 30
27.26554
 70
    64
  0
VERTEX
  5
39C0
  8
0
 10
48.4
 20
165.597003
 30
28.957398
 70
    64
  0
VERTEX
  5
39C1
  8
0
 10
48.8
 20
167.366618
 30
30.822462
 70
    64
  0
VERTEX
  5
39C2
  8
0
 10
48.4
 20
169.172836
 30
32.550923
 70
    64
  0
VERTEX
  5
39C3
  8
0
 10
47.4
 20
170.842451
 30
34.242781
 70
    64
  0
VERTEX
  5
39C4
  8
0
 10
45.6
 20
172.362067
 30
35.674832
 70
    64
  0
VERTEX
  5
39C5
  8
0
 10
43.4
 20
173.458477
 30
36.77387
 70
    64
  0
VERTEX
  5
39C6
  8
0
 10
40.8
 20
174.131682
 30
37.539896
 70
    64
  0
VERTEX
  5
39C7
  8
0
 10
38.0
 20
174.368284
 30
37.749703
 70
    64
  0
VERTEX
  5
39C8
  8
0
 10
38.0
 20
166.16995
 30
18.349772
 70
    64
  0
VERTEX
  5
39C9
  8
0
 10
40.8
 20
166.406553
 30
18.55958
 70
    64
  0
VERTEX
  5
39CA
  8
0
 10
43.5
 20
167.166361
 30
19.275605
 70
    64
  0
VERTEX
  5
39CB
  8
0
 10
45.8
 20
168.435976
 30
20.274643
 70
    64
  0
VERTEX
  5
39CC
  8
0
 10
47.5
 20
169.955591
 30
21.706694
 70
    64
  0
VERTEX
  5
39CD
  8
0
 10
48.6
 20
171.848411
 30
23.385155
 70
    64
  0
VERTEX
  5
39CE
  8
0
 10
49.0
 20
173.791232
 30
25.150219
 70
    64
  0
VERTEX
  5
39CF
  8
0
 10
48.6
 20
175.734052
 30
26.915282
 70
    64
  0
VERTEX
  5
39D0
  8
0
 10
47.5
 20
177.576872
 30
28.507141
 70
    64
  0
VERTEX
  5
39D1
  8
0
 10
45.8
 20
179.096488
 30
29.939191
 70
    64
  0
VERTEX
  5
39D2
  8
0
 10
43.5
 20
180.3295
 30
31.074832
 70
    64
  0
VERTEX
  5
39D3
  8
0
 10
40.8
 20
181.039308
 30
31.704255
 70
    64
  0
VERTEX
  5
39D4
  8
0
 10
38.0
 20
181.325911
 30
32.000665
 70
    64
  0
VERTEX
  5
39D5
  8
0
 10
38.0
 20
172.001744
 30
13.250734
 70
    64
  0
VERTEX
  5
39D6
  8
0
 10
40.9
 20
172.238346
 30
13.460542
 70
    64
  0
VERTEX
  5
39D7
  8
0
 10
43.6
 20
172.948154
 30
14.089965
 70
    64
  0
VERTEX
  5
39D8
  8
0
 10
45.9
 20
174.181166
 30
15.225605
 70
    64
  0
VERTEX
  5
39D9
  8
0
 10
47.7
 20
175.787384
 30
16.607656
 70
    64
  0
VERTEX
  5
39DA
  8
0
 10
48.8
 20
177.543602
 30
18.249515
 70
    64
  0
VERTEX
  5
39DB
  8
0
 10
49.2
 20
179.573025
 30
19.964578
 70
    64
  0
VERTEX
  5
39DC
  8
0
 10
48.8
 20
181.515845
 30
21.729642
 70
    64
  0
VERTEX
  5
39DD
  8
0
 10
47.7
 20
183.272063
 30
23.3715
 70
    64
  0
VERTEX
  5
39DE
  8
0
 10
45.9
 20
184.878281
 30
24.753551
 70
    64
  0
VERTEX
  5
39DF
  8
0
 10
43.6
 20
186.061293
 30
25.802589
 70
    64
  0
VERTEX
  5
39E0
  8
0
 10
40.9
 20
186.821101
 30
26.518614
 70
    64
  0
VERTEX
  5
39E1
  8
0
 10
38.0
 20
187.057704
 30
26.728422
 70
    64
  0
VERTEX
  5
39E2
  8
0
 10
38.0
 20
178.503152
 30
8.111504
 70
    64
  0
VERTEX
  5
39E3
  8
0
 10
40.9
 20
178.789754
 30
8.407914
 70
    64
  0
VERTEX
  5
39E4
  8
0
 10
43.6
 20
179.499562
 30
9.037337
 70
    64
  0
VERTEX
  5
39E5
  8
0
 10
45.9
 20
180.632575
 30
9.999772
 70
    64
  0
VERTEX
  5
39E6
  8
0
 10
47.7
 20
182.10219
 30
11.345221
 70
    64
  0
VERTEX
  5
39E7
  8
0
 10
48.8
 20
183.808408
 30
12.900476
 70
    64
  0
VERTEX
  5
39E8
  8
0
 10
49.2
 20
185.701228
 30
14.578937
 70
    64
  0
VERTEX
  5
39E9
  8
0
 10
48.8
 20
187.457446
 30
16.220796
 70
    64
  0
VERTEX
  5
39EA
  8
0
 10
47.7
 20
189.163664
 30
17.776052
 70
    64
  0
VERTEX
  5
39EB
  8
0
 10
45.9
 20
190.719881
 30
19.0715
 70
    64
  0
VERTEX
  5
39EC
  8
0
 10
43.6
 20
191.816292
 30
20.170538
 70
    64
  0
VERTEX
  5
39ED
  8
0
 10
40.9
 20
192.526099
 30
20.799961
 70
    64
  0
VERTEX
  5
39EE
  8
0
 10
38.0
 20
192.762702
 30
21.009769
 70
    64
  0
VERTEX
  5
39EF
  8
0
 10
38.0
 20
183.249304
 30
4.332081
 70
    64
  0
VERTEX
  5
39F0
  8
0
 10
40.8
 20
183.485907
 30
4.541888
 70
    64
  0
VERTEX
  5
39F1
  8
0
 10
43.5
 20
184.232317
 30
5.034709
 70
    64
  0
VERTEX
  5
39F2
  8
0
 10
45.8
 20
185.36533
 30
5.997144
 70
    64
  0
VERTEX
  5
39F3
  8
0
 10
47.5
 20
186.821547
 30
7.119388
 70
    64
  0
VERTEX
  5
39F4
  8
0
 10
48.6
 20
188.65097
 30
8.488041
 70
    64
  0
VERTEX
  5
39F5
  8
0
 10
49.0
 20
190.393791
 30
9.906694
 70
    64
  0
VERTEX
  5
39F6
  8
0
 10
48.6
 20
192.273214
 30
11.36195
 70
    64
  0
VERTEX
  5
39F7
  8
0
 10
47.5
 20
194.016034
 30
12.780603
 70
    64
  0
VERTEX
  5
39F8
  8
0
 10
45.8
 20
195.558854
 30
13.852847
 70
    64
  0
VERTEX
  5
39F9
  8
0
 10
43.5
 20
196.691867
 30
14.815282
 70
    64
  0
VERTEX
  5
39FA
  8
0
 10
40.8
 20
197.351674
 30
15.358103
 70
    64
  0
VERTEX
  5
39FB
  8
0
 10
38.0
 20
197.67488
 30
15.51791
 70
    64
  0
VERTEX
  5
39FC
  8
0
 10
38.0
 20
185.25097
 30
2.599068
 70
    64
  0
VERTEX
  5
39FD
  8
0
 10
40.8
 20
185.574175
 30
2.758876
 70
    64
  0
VERTEX
  5
39FE
  8
0
 10
43.5
 20
186.407188
 30
3.201696
 70
    64
  0
VERTEX
  5
39FF
  8
0
 10
45.8
 20
187.613406
 30
3.890927
 70
    64
  0
VERTEX
  5
3A00
  8
0
 10
47.5
 20
189.242829
 30
4.91317
 70
    64
  0
VERTEX
  5
3A01
  8
0
 10
48.6
 20
191.095457
 30
5.922015
 70
    64
  0
VERTEX
  5
3A02
  8
0
 10
49.0
 20
193.184687
 30
7.140669
 70
    64
  0
VERTEX
  5
3A03
  8
0
 10
48.6
 20
195.223918
 30
8.27272
 70
    64
  0
VERTEX
  5
3A04
  8
0
 10
47.5
 20
197.039943
 30
9.418168
 70
    64
  0
VERTEX
  5
3A05
  8
0
 10
45.8
 20
198.705968
 30
10.303809
 70
    64
  0
VERTEX
  5
3A06
  8
0
 10
43.5
 20
199.962186
 30
11.079642
 70
    64
  0
VERTEX
  5
3A07
  8
0
 10
40.8
 20
200.658596
 30
11.485859
 70
    64
  0
VERTEX
  5
3A08
  8
0
 10
38.0
 20
200.981802
 30
11.645667
 70
    64
  0
SEQEND
  5
3A09
  8
0
  0
POLYLINE
  5
3A0A
  8
0
 66
     1
 10
0.0
 20
0.0
 30
0.0
 70
    16
 71
     6
 72
     7
  0
VERTEX
  5
3A0B
  8
0
 10
38.0
 20
45.05676
 30
104.933228
 70
    64
  0
VERTEX
  5
3A0C
  8
0
 10
38.0
 20
45.05676
 30
104.933228
 70
    64
  0
VERTEX
  5
3A0D
  8
0
 10
38.0
 20
45.05676
 30
104.933228
 70
    64
  0
VERTEX
  5
3A0E
  8
0
 10
38.0
 20
45.05676
 30
104.933228
 70
    64
  0
VERTEX
  5
3A0F
  8
0
 10
38.0
 20
45.05676
 30
104.933228
 70
    64
  0
VERTEX
  5
3A10
  8
0
 10
38.0
 20
45.05676
 30
104.933228
 70
    64
  0
VERTEX
  5
3A11
  8
0
 10
38.0
 20
45.05676
 30
104.933228
 70
    64
  0
VERTEX
  5
3A12
  8
0
 10
42.0
 20
44.92735
 30
104.450265
 70
    64
  0
VERTEX
  5
3A13
  8
0
 10
41.9
 20
45.893276
 30
104.191446
 70
    64
  0
VERTEX
  5
3A14
  8
0
 10
41.5
 20
46.859202
 30
103.932627
 70
    64
  0
VERTEX
  5
3A15
  8
0
 10
40.8
 20
47.631943
 30
103.725572
 70
    64
  0
VERTEX
  5
3A16
  8
0
 10
40.0
 20
48.308091
 30
103.544399
 70
    64
  0
VERTEX
  5
3A17
  8
0
 10
39.0
 20
48.694461
 30
103.440871
 70
    64
  0
VERTEX
  5
3A18
  8
0
 10
38.0
 20
48.791054
 30
103.414989
 70
    64
  0
VERTEX
  5
3A19
  8
0
 10
59.0
 20
43.503846
 30
99.137673
 70
    64
  0
VERTEX
  5
3A1A
  8
0
 10
58.2
 20
48.719845
 30
97.740051
 70
    64
  0
VERTEX
  5
3A1B
  8
0
 10
56.2
 20
53.646067
 30
96.420073
 70
    64
  0
VERTEX
  5
3A1C
  8
0
 10
52.8
 20
57.799548
 30
95.307152
 70
    64
  0
VERTEX
  5
3A1D
  8
0
 10
48.5
 20
61.083696
 30
94.427167
 70
    64
  0
VERTEX
  5
3A1E
  8
0
 10
43.4
 20
63.015547
 30
93.909529
 70
    64
  0
VERTEX
  5
3A1F
  8
0
 10
43.4
 20
63.015547
 30
93.909529
 70
    64
  0
VERTEX
  5
3A20
  8
0
 10
66.7
 20
41.950931
 30
93.342118
 70
    64
  0
VERTEX
  5
3A21
  8
0
 10
65.7
 20
49.098783
 30
91.426857
 70
    64
  0
VERTEX
  5
3A22
  8
0
 10
62.9
 20
55.763671
 30
89.641006
 70
    64
  0
VERTEX
  5
3A23
  8
0
 10
58.3
 20
61.559226
 30
88.088092
 70
    64
  0
VERTEX
  5
3A24
  8
0
 10
52.3
 20
66.002484
 30
86.897524
 70
    64
  0
VERTEX
  5
3A25
  8
0
 10
52.3
 20
66.002484
 30
86.897524
 70
    64
  0
VERTEX
  5
3A26
  8
0
 10
52.3
 20
66.002484
 30
86.897524
 70
    64
  0
VERTEX
  5
3A27
  8
0
 10
72.3
 20
40.139198
 30
86.580638
 70
    64
  0
VERTEX
  5
3A28
  8
0
 10
71.1
 20
48.735938
 30
84.277148
 70
    64
  0
VERTEX
  5
3A29
  8
0
 10
67.7
 20
56.65653
 30
82.154832
 70
    64
  0
VERTEX
  5
3A2A
  8
0
 10
62.2
 20
63.514603
 30
80.317217
 70
    64
  0
VERTEX
  5
3A2B
  8
0
 10
55.1
 20
68.827195
 30
78.893712
 70
    64
  0
VERTEX
  5
3A2C
  8
0
 10
46.9
 20
72.111343
 30
78.013727
 70
    64
  0
VERTEX
  5
3A2D
  8
0
 10
46.9
 20
72.111343
 30
78.013727
 70
    64
  0
VERTEX
  5
3A2E
  8
0
 10
76.0
 20
38.327465
 30
79.819157
 70
    64
  0
VERTEX
  5
3A2F
  8
0
 10
74.6
 20
47.793538
 30
77.28273
 70
    64
  0
VERTEX
  5
3A30
  8
0
 10
70.9
 20
56.583463
 30
74.927477
 70
    64
  0
VERTEX
  5
3A31
  8
0
 10
64.8
 20
64.214277
 30
72.882806
 70
    64
  0
VERTEX
  5
3A32
  8
0
 10
56.9
 20
70.106424
 30
71.30401
 70
    64
  0
VERTEX
  5
3A33
  8
0
 10
47.8
 20
73.68035
 30
70.34638
 70
    64
  0
VERTEX
  5
3A34
  8
0
 10
47.8
 20
73.68035
 30
70.34638
 70
    64
  0
SEQEND
  5
3A35
  8
0
  0
POLYLINE
  5
3A36
  8
0
 66
     1
 10
0.0
 20
0.0
 30
0.0
 70
    16
 71
     6
 72
     7
  0
VERTEX
  5
3A37
  8
0
 10
38.0
 20
45.05676
 30
104.933228
 70
    64
  0
VERTEX
  5
3A38
  8
0
 10
38.0
 20
45.05676
 30
104.933228
 70
    64
  0
VERTEX
  5
3A39
  8
0
 10
38.0
 20
45.05676
 30
104.933228
 70
    64
  0
VERTEX
  5
3A3A
  8
0
 10
38.0
 20
45.05676
 30
104.933228
 70
    64
  0
VERTEX
  5
3A3B
  8
0
 10
38.0
 20
45.05676
 30
104.933228
 70
    64
  0
VERTEX
  5
3A3C
  8
0
 10
38.0
 20
45.05676
 30
104.933228
 70
    64
  0
VERTEX
  5
3A3D
  8
0
 10
38.0
 20
45.05676
 30
104.933228
 70
    64
  0
VERTEX
  5
3A3E
  8
0
 10
42.0
 20
44.92735
 30
104.450265
 70
    64
  0
VERTEX
  5
3A3F
  8
0
 10
41.9
 20
43.961425
 30
104.709084
 70
    64
  0
VERTEX
  5
3A40
  8
0
 10
41.5
 20
42.995499
 30
104.967904
 70
    64
  0
VERTEX
  5
3A41
  8
0
 10
40.8
 20
42.222758
 30
105.174959
 70
    64
  0
VERTEX
  5
3A42
  8
0
 10
40.0
 20
41.54661
 30
105.356132
 70
    64
  0
VERTEX
  5
3A43
  8
0
 10
39.0
 20
41.16024
 30
105.45966
 70
    64
  0
VERTEX
  5
3A44
  8
0
 10
38.0
 20
41.063647
 30
105.485542
 70
    64
  0
VERTEX
  5
3A45
  8
0
 10
59.0
 20
43.503846
 30
99.137673
 70
    64
  0
VERTEX
  5
3A46
  8
0
 10
58.2
 20
38.287846
 30
100.535296
 70
    64
  0
VERTEX
  5
3A47
  8
0
 10
56.2
 20
33.361624
 30
101.855273
 70
    64
  0
VERTEX
  5
3A48
  8
0
 10
52.8
 20
29.208143
 30
102.968195
 70
    64
  0
VERTEX
  5
3A49
  8
0
 10
48.5
 20
25.923996
 30
103.84818
 70
    64
  0
VERTEX
  5
3A4A
  8
0
 10
43.4
 20
23.992144
 30
104.365818
 70
    64
  0
VERTEX
  5
3A4B
  8
0
 10
38.0
 20
23.219403
 30
104.572873
 70
    64
  0
VERTEX
  5
3A4C
  8
0
 10
66.7
 20
41.950931
 30
93.342118
 70
    64
  0
VERTEX
  5
3A4D
  8
0
 10
65.7
 20
34.80308
 30
95.257379
 70
    64
  0
VERTEX
  5
3A4E
  8
0
 10
62.9
 20
28.138192
 30
97.043231
 70
    64
  0
VERTEX
  5
3A4F
  8
0
 10
58.3
 20
22.342637
 30
98.596145
 70
    64
  0
VERTEX
  5
3A50
  8
0
 10
52.3
 20
17.899378
 30
99.786713
 70
    64
  0
VERTEX
  5
3A51
  8
0
 10
45.4
 20
15.194786
 30
100.511406
 70
    64
  0
VERTEX
  5
3A52
  8
0
 10
38.0
 20
14.22886
 30
100.770225
 70
    64
  0
VERTEX
  5
3A53
  8
0
 10
72.3
 20
40.139198
 30
86.580638
 70
    64
  0
VERTEX
  5
3A54
  8
0
 10
71.1
 20
31.542458
 30
88.884127
 70
    64
  0
VERTEX
  5
3A55
  8
0
 10
67.7
 20
23.621866
 30
91.006443
 70
    64
  0
VERTEX
  5
3A56
  8
0
 10
62.2
 20
16.763793
 30
92.844059
 70
    64
  0
VERTEX
  5
3A57
  8
0
 10
55.1
 20
11.451201
 30
94.267563
 70
    64
  0
VERTEX
  5
3A58
  8
0
 10
46.9
 20
8.167053
 30
95.147548
 70
    64
  0
VERTEX
  5
3A59
  8
0
 10
38.0
 20
7.007942
 30
95.458131
 70
    64
  0
VERTEX
  5
3A5A
  8
0
 10
76.0
 20
38.327465
 30
79.819157
 70
    64
  0
VERTEX
  5
3A5B
  8
0
 10
74.6
 20
28.861392
 30
82.355583
 70
    64
  0
VERTEX
  5
3A5C
  8
0
 10
70.9
 20
20.071467
 30
84.710837
 70
    64
  0
VERTEX
  5
3A5D
  8
0
 10
64.8
 20
12.440653
 30
86.755507
 70
    64
  0
VERTEX
  5
3A5E
  8
0
 10
56.9
 20
6.548505
 30
88.334303
 70
    64
  0
VERTEX
  5
3A5F
  8
0
 10
47.8
 20
2.97458
 30
89.291934
 70
    64
  0
VERTEX
  5
3A60
  8
0
 10
38.0
 20
1.622283
 30
89.654281
 70
    64
  0
SEQEND
  5
3A61
  8
0
  0
POLYLINE
  5
3A62
  8
0
 66
     1
 10
0.0
 20
0.0
 30
0.0
 70
    16
 71
     3
 72
     7
  0
VERTEX
  5
3A63
  8
0
 10
75.0
 20
35.739274
 30
70.159899
 70
    64
  0
VERTEX
  5
3A64
  8
0
 10
73.7
 20
45.012162
 30
67.675236
 70
    64
  0
VERTEX
  5
3A65
  8
0
 10
70.0
 20
53.51231
 30
65.397628
 70
    64
  0
VERTEX
  5
3A66
  8
0
 10
64.1
 20
60.949938
 30
63.404722
 70
    64
  0
VERTEX
  5
3A67
  8
0
 10
56.4
 20
66.648901
 30
61.877689
 70
    64
  0
VERTEX
  5
3A68
  8
0
 10
47.6
 20
70.222826
 30
60.920059
 70
    64
  0
VERTEX
  5
3A69
  8
0
 10
38.0
 20
71.47853
 30
60.583594
 70
    64
  0
VERTEX
  5
3A6A
  8
0
 10
66.0
 20
33.927541
 30
63.398418
 70
    64
  0
VERTEX
  5
3A6B
  8
0
 10
65.0
 20
40.882207
 30
61.534921
 70
    64
  0
VERTEX
  5
3A6C
  8
0
 10
62.2
 20
47.35391
 30
59.800833
 70
    64
  0
VERTEX
  5
3A6D
  8
0
 10
57.8
 20
53.052872
 30
58.273801
 70
    64
  0
VERTEX
  5
3A6E
  8
0
 10
51.9
 20
57.302946
 30
57.134997
 70
    64
  0
VERTEX
  5
3A6F
  8
0
 10
45.2
 20
60.007538
 30
56.410304
 70
    64
  0
VERTEX
  5
3A70
  8
0
 10
38.0
 20
60.973464
 30
56.151485
 70
    64
  0
VERTEX
  5
3A71
  8
0
 10
55.0
 20
32.762855
 30
59.051752
 70
    64
  0
VERTEX
  5
3A72
  8
0
 10
54.4
 20
37.012929
 30
57.912948
 70
    64
  0
VERTEX
  5
3A73
  8
0
 10
52.7
 20
40.973225
 30
56.85179
 70
    64
  0
VERTEX
  5
3A74
  8
0
 10
50.0
 20
44.353965
 30
55.945923
 70
    64
  0
VERTEX
  5
3A75
  8
0
 10
46.5
 20
46.961965
 30
55.247112
 70
    64
  0
VERTEX
  5
3A76
  8
0
 10
42.4
 20
48.604039
 30
54.807119
 70
    64
  0
VERTEX
  5
3A77
  8
0
 10
38.0
 20
49.183594
 30
54.651828
 70
    64
  0
SEQEND
  5
3A78
  8
0
  0
POLYLINE
  5
3A79
  8
0
 66
     1
 10
0.0
 20
0.0
 30
0.0
 70
    16
 71
     3
 72
     7
  0
VERTEX
  5
3A7A
  8
0
 10
75.0
 20
35.739274
 30
70.159899
 70
    64
  0
VERTEX
  5
3A7B
  8
0
 10
73.7
 20
26.466386
 30
72.644561
 70
    64
  0
VERTEX
  5
3A7C
  8
0
 10
70.0
 20
17.966239
 30
74.922169
 70
    64
  0
VERTEX
  5
3A7D
  8
0
 10
64.1
 20
10.52861
 30
76.915076
 70
    64
  0
VERTEX
  5
3A7E
  8
0
 10
56.4
 20
4.829648
 30
78.442108
 70
    64
  0
VERTEX
  5
3A7F
  8
0
 10
47.6
 20
1.255722
 30
79.399738
 70
    64
  0
VERTEX
  5
3A80
  8
0
 10
38.0
 20
0.000019
 30
79.736203
 70
    64
  0
VERTEX
  5
3A81
  8
0
 10
66.0
 20
33.927541
 30
63.398418
 70
    64
  0
VERTEX
  5
3A82
  8
0
 10
65.0
 20
26.972875
 30
65.261915
 70
    64
  0
VERTEX
  5
3A83
  8
0
 10
62.2
 20
20.501172
 30
66.996003
 70
    64
  0
VERTEX
  5
3A84
  8
0
 10
57.8
 20
14.80221
 30
68.523035
 70
    64
  0
VERTEX
  5
3A85
  8
0
 10
51.9
 20
10.552136
 30
69.661839
 70
    64
  0
VERTEX
  5
3A86
  8
0
 10
45.2
 20
7.847544
 30
70.386532
 70
    64
  0
VERTEX
  5
3A87
  8
0
 10
38.0
 20
6.881618
 30
70.645351
 70
    64
  0
VERTEX
  5
3A88
  8
0
 10
55.0
 20
32.762855
 30
59.051752
 70
    64
  0
VERTEX
  5
3A89
  8
0
 10
54.4
 20
28.512782
 30
60.190555
 70
    64
  0
VERTEX
  5
3A8A
  8
0
 10
52.7
 20
24.552486
 30
61.251713
 70
    64
  0
VERTEX
  5
3A8B
  8
0
 10
50.0
 20
21.171745
 30
62.15758
 70
    64
  0
VERTEX
  5
3A8C
  8
0
 10
46.5
 20
18.563746
 30
62.856392
 70
    64
  0
VERTEX
  5
3A8D
  8
0
 10
42.4
 20
16.921672
 30
63.296384
 70
    64
  0
VERTEX
  5
3A8E
  8
0
 10
38.0
 20
16.342116
 30
63.451675
 70
    64
  0
SEQEND
  5
3A8F
  8
0
  0
POLYLINE
  5
3A90
  8
0
 66
     1
 10
0.0
 20
0.0
 30
0.0
 70
    16
 71
     3
 72
     7
  0
VERTEX
  5
3A91
  8
0
 10
76.0
 20
38.327465
 30
79.819157
 70
    64
  0
VERTEX
  5
3A92
  8
0
 10
74.6
 20
47.793538
 30
77.28273
 70
    64
  0
VERTEX
  5
3A93
  8
0
 10
70.9
 20
56.583463
 30
74.927477
 70
    64
  0
VERTEX
  5
3A94
  8
0
 10
64.8
 20
64.214277
 30
72.882806
 70
    64
  0
VERTEX
  5
3A95
  8
0
 10
56.9
 20
70.106424
 30
71.30401
 70
    64
  0
VERTEX
  5
3A96
  8
0
 10
47.8
 20
73.68035
 30
70.34638
 70
    64
  0
VERTEX
  5
3A97
  8
0
 10
38.0
 20
75.032646
 30
69.984033
 70
    64
  0
VERTEX
  5
3A98
  8
0
 10
76.0
 20
37.03337
 30
74.989528
 70
    64
  0
VERTEX
  5
3A99
  8
0
 10
76.0
 20
49.493813
 30
71.650762
 70
    64
  0
VERTEX
  5
3A9A
  8
0
 10
72.6
 20
56.255293
 30
69.839029
 70
    64
  0
VERTEX
  5
3A9B
  8
0
 10
66.2
 20
64.272478
 30
67.690831
 70
    64
  0
VERTEX
  5
3A9C
  8
0
 10
57.9
 20
70.454403
 30
66.034389
 70
    64
  0
VERTEX
  5
3A9D
  8
0
 10
50.9
 20
73.738551
 30
65.154404
 70
    64
  0
VERTEX
  5
3A9E
  8
0
 10
38.0
 20
73.738551
 30
65.154404
 70
    64
  0
VERTEX
  5
3A9F
  8
0
 10
75.0
 20
35.739274
 30
70.159899
 70
    64
  0
VERTEX
  5
3AA0
  8
0
 10
73.7
 20
45.012162
 30
67.675236
 70
    64
  0
VERTEX
  5
3AA1
  8
0
 10
70.0
 20
53.51231
 30
65.397628
 70
    64
  0
VERTEX
  5
3AA2
  8
0
 10
64.1
 20
60.949938
 30
63.404722
 70
    64
  0
VERTEX
  5
3AA3
  8
0
 10
56.4
 20
66.648901
 30
61.877689
 70
    64
  0
VERTEX
  5
3AA4
  8
0
 10
47.6
 20
70.222826
 30
60.920059
 70
    64
  0
VERTEX
  5
3AA5
  8
0
 10
38.0
 20
71.47853
 30
60.583594
 70
    64
  0
SEQEND
  5
3AA6
  8
0
  0
POLYLINE
  5
3AA7
  8
0
 66
     1
 10
0.0
 20
0.0
 30
0.0
 70
    16
 71
     3
 72
     7
  0
VERTEX
  5
3AA8
  8
0
 10
76.0
 20
38.327465
 30
79.819157
 70
    64
  0
VERTEX
  5
3AA9
  8
0
 10
74.6
 20
28.861392
 30
82.355583
 70
    64
  0
VERTEX
  5
3AAA
  8
0
 10
70.9
 20
20.071467
 30
84.710837
 70
    64
  0
VERTEX
  5
3AAB
  8
0
 10
64.8
 20
12.440653
 30
86.755507
 70
    64
  0
VERTEX
  5
3AAC
  8
0
 10
56.9
 20
6.548505
 30
88.334303
 70
    64
  0
VERTEX
  5
3AAD
  8
0
 10
47.8
 20
2.97458
 30
89.291934
 70
    64
  0
VERTEX
  5
3AAE
  8
0
 10
38.0
 20
1.622283
 30
89.654281
 70
    64
  0
VERTEX
  5
3AAF
  8
0
 10
76.0
 20
37.03337
 30
74.989528
 70
    64
  0
VERTEX
  5
3AB0
  8
0
 10
76.0
 20
24.572926
 30
78.328293
 70
    64
  0
VERTEX
  5
3AB1
  8
0
 10
72.6
 20
17.811446
 30
80.140027
 70
    64
  0
VERTEX
  5
3AB2
  8
0
 10
66.2
 20
9.794261
 30
82.288225
 70
    64
  0
VERTEX
  5
3AB3
  8
0
 10
57.9
 20
3.612336
 30
83.944667
 70
    64
  0
VERTEX
  5
3AB4
  8
0
 10
50.9
 20
0.328188
 30
84.824651
 70
    64
  0
VERTEX
  5
3AB5
  8
0
 10
38.0
 20
0.328188
 30
84.824651
 70
    64
  0
VERTEX
  5
3AB6
  8
0
 10
75.0
 20
35.739274
 30
70.159899
 70
    64
  0
VERTEX
  5
3AB7
  8
0
 10
73.7
 20
26.466386
 30
72.644561
 70
    64
  0
VERTEX
  5
3AB8
  8
0
 10
70.0
 20
17.966239
 30
74.922169
 70
    64
  0
VERTEX
  5
3AB9
  8
0
 10
64.1
 20
10.52861
 30
76.915076
 70
    64
  0
VERTEX
  5
3ABA
  8
0
 10
56.4
 20
4.829648
 30
78.442108
 70
    64
  0
VERTEX
  5
3ABB
  8
0
 10
47.6
 20
1.255722
 30
79.399738
 70
    64
  0
VERTEX
  5
3ABC
  8
0
 10
38.0
 20
0.000019
 30
79.736203
 70
    64
  0
SEQEND
  5
3ABD
  8
0
  0
POLYLINE
  5
3ABE
  8
0
 66
     1
 10
0.0
 20
0.0
 30
0.0
 70
    16
 71
     3
 72
     7
  0
VERTEX
  5
3ABF
  8
0
 10
55.0
 20
32.762855
 30
59.051752
 70
    64
  0
VERTEX
  5
3AC0
  8
0
 10
54.4
 20
28.512782
 30
60.190555
 70
    64
  0
VERTEX
  5
3AC1
  8
0
 10
52.7
 20
24.552486
 30
61.251713
 70
    64
  0
VERTEX
  5
3AC2
  8
0
 10
50.0
 20
21.171745
 30
62.15758
 70
    64
  0
VERTEX
  5
3AC3
  8
0
 10
46.5
 20
18.563746
 30
62.856392
 70
    64
  0
VERTEX
  5
3AC4
  8
0
 10
42.4
 20
16.921672
 30
63.296384
 70
    64
  0
VERTEX
  5
3AC5
  8
0
 10
38.0
 20
16.342116
 30
63.451675
 70
    64
  0
VERTEX
  5
3AC6
  8
0
 10
44.0
 20
32.245217
 30
57.1199
 70
    64
  0
VERTEX
  5
3AC7
  8
0
 10
43.8
 20
30.796328
 30
57.508128
 70
    64
  0
VERTEX
  5
3AC8
  8
0
 10
43.2
 20
29.34744
 30
57.896357
 70
    64
  0
VERTEX
  5
3AC9
  8
0
 10
42.2
 20
28.188329
 30
58.20694
 70
    64
  0
VERTEX
  5
3ACA
  8
0
 10
41.0
 20
27.222403
 30
58.465759
 70
    64
  0
VERTEX
  5
3ACB
  8
0
 10
39.5
 20
26.642847
 30
58.62105
 70
    64
  0
VERTEX
  5
3ACC
  8
0
 10
38.0
 20
26.449662
 30
58.672814
 70
    64
  0
VERTEX
  5
3ACD
  8
0
 10
38.0
 20
32.245217
 30
57.1199
 70
    64
  0
VERTEX
  5
3ACE
  8
0
 10
38.0
 20
32.245217
 30
57.1199
 70
    64
  0
VERTEX
  5
3ACF
  8
0
 10
38.0
 20
32.245217
 30
57.1199
 70
    64
  0
VERTEX
  5
3AD0
  8
0
 10
38.0
 20
32.245217
 30
57.1199
 70
    64
  0
VERTEX
  5
3AD1
  8
0
 10
38.0
 20
32.245217
 30
57.1199
 70
    64
  0
VERTEX
  5
3AD2
  8
0
 10
38.0
 20
32.245217
 30
57.1199
 70
    64
  0
VERTEX
  5
3AD3
  8
0
 10
38.0
 20
32.245217
 30
57.1199
 70
    64
  0
SEQEND
  5
3AD4
  8
0
  0
POLYLINE
  5
3AD5
  8
0
 66
     1
 10
0.0
 20
0.0
 30
0.0
 70
    16
 71
     3
 72
     7
  0
VERTEX
  5
3AD6
  8
0
 10
55.0
 20
32.762855
 30
59.051752
 70
    64
  0
VERTEX
  5
3AD7
  8
0
 10
54.4
 20
37.012929
 30
57.912948
 70
    64
  0
VERTEX
  5
3AD8
  8
0
 10
52.7
 20
40.973225
 30
56.85179
 70
    64
  0
VERTEX
  5
3AD9
  8
0
 10
50.0
 20
44.353965
 30
55.945923
 70
    64
  0
VERTEX
  5
3ADA
  8
0
 10
46.5
 20
46.961965
 30
55.247112
 70
    64
  0
VERTEX
  5
3ADB
  8
0
 10
42.4
 20
48.604039
 30
54.807119
 70
    64
  0
VERTEX
  5
3ADC
  8
0
 10
38.0
 20
49.183594
 30
54.651828
 70
    64
  0
VERTEX
  5
3ADD
  8
0
 10
44.0
 20
32.245217
 30
57.1199
 70
    64
  0
VERTEX
  5
3ADE
  8
0
 10
43.8
 20
33.694106
 30
56.731671
 70
    64
  0
VERTEX
  5
3ADF
  8
0
 10
43.2
 20
35.142995
 30
56.343443
 70
    64
  0
VERTEX
  5
3AE0
  8
0
 10
42.2
 20
36.302106
 30
56.03286
 70
    64
  0
VERTEX
  5
3AE1
  8
0
 10
41.0
 20
37.268032
 30
55.774041
 70
    64
  0
VERTEX
  5
3AE2
  8
0
 10
39.5
 20
37.847587
 30
55.618749
 70
    64
  0
VERTEX
  5
3AE3
  8
0
 10
38.0
 20
38.040772
 30
55.566986
 70
    64
  0
VERTEX
  5
3AE4
  8
0
 10
38.0
 20
32.245217
 30
57.1199
 70
    64
  0
VERTEX
  5
3AE5
  8
0
 10
38.0
 20
32.245217
 30
57.1199
 70
    64
  0
VERTEX
  5
3AE6
  8
0
 10
38.0
 20
32.245217
 30
57.1199
 70
    64
  0
VERTEX
  5
3AE7
  8
0
 10
38.0
 20
32.245217
 30
57.1199
 70
    64
  0
VERTEX
  5
3AE8
  8
0
 10
38.0
 20
32.245217
 30
57.1199
 70
    64
  0
VERTEX
  5
3AE9
  8
0
 10
38.0
 20
32.245217
 30
57.1199
 70
    64
  0
VERTEX
  5
3AEA
  8
0
 10
38.0
 20
32.245217
 30
57.1199
 70
    64
  0
SEQEND
  5
3AEB
  8
0
  0
POLYLINE
  5
3AEC
  8
0
 66
     1
 10
0.0
 20
0.0
 30
0.0
 70
    16
 71
     2
 72
     7
  0
VERTEX
  5
3AED
  8
0
 10
46.0
 20
68.867445
 30
85.612222
 70
    64
  0
VERTEX
  5
3AEE
  8
0
 10
45.7
 20
70.281659
 30
83.162732
 70
    64
  0
VERTEX
  5
3AEF
  8
0
 10
44.9
 20
71.554451
 30
80.958192
 70
    64
  0
VERTEX
  5
3AF0
  8
0
 10
43.6
 20
72.615111
 30
79.121074
 70
    64
  0
VERTEX
  5
3AF1
  8
0
 10
42.0
 20
73.463639
 30
77.651381
 70
    64
  0
VERTEX
  5
3AF2
  8
0
 10
40.1
 20
74.029325
 30
76.671585
 70
    64
  0
VERTEX
  5
3AF3
  8
0
 10
38.0
 20
74.170746
 30
76.426636
 70
    64
  0
VERTEX
  5
3AF4
  8
0
 10
46.9
 20
72.111343
 30
78.013727
 70
    64
  0
VERTEX
  5
3AF5
  8
0
 10
46.9
 20
72.111343
 30
78.013727
 70
    64
  0
VERTEX
  5
3AF6
  8
0
 10
46.9
 20
72.111343
 30
78.013727
 70
    64
  0
VERTEX
  5
3AF7
  8
0
 10
47.8
 20
73.68035
 30
70.34638
 70
    64
  0
VERTEX
  5
3AF8
  8
0
 10
47.8
 20
73.68035
 30
70.34638
 70
    64
  0
VERTEX
  5
3AF9
  8
0
 10
38.0
 20
75.032646
 30
69.984033
 70
    64
  0
VERTEX
  5
3AFA
  8
0
 10
38.0
 20
75.032646
 30
69.984033
 70
    64
  0
SEQEND
  5
3AFB
  8
0
  0
POLYLINE
  5
3AFC
  8
0
 66
     1
 10
0.0
 20
0.0
 30
0.0
 70
    16
 71
     3
 72
    13
  0
VERTEX
  5
3AFD
  8
0
 10
38.0
 20
74.170746
 30
76.426636
 70
    64
  0
VERTEX
  5
3AFE
  8
0
 10
40.1
 20
74.029325
 30
76.671585
 70
    64
  0
VERTEX
  5
3AFF
  8
0
 10
42.0
 20
73.463639
 30
77.651381
 70
    64
  0
VERTEX
  5
3B00
  8
0
 10
43.6
 20
72.615111
 30
79.121074
 70
    64
  0
VERTEX
  5
3B01
  8
0
 10
44.9
 20
71.554451
 30
80.958192
 70
    64
  0
VERTEX
  5
3B02
  8
0
 10
45.7
 20
70.281659
 30
83.162732
 70
    64
  0
VERTEX
  5
3B03
  8
0
 10
46.0
 20
68.867445
 30
85.612222
 70
    64
  0
VERTEX
  5
3B04
  8
0
 10
45.7
 20
67.523942
 30
87.939237
 70
    64
  0
VERTEX
  5
3B05
  8
0
 10
44.9
 20
66.25115
 30
90.143778
 70
    64
  0
VERTEX
  5
3B06
  8
0
 10
43.9
 20
65.119779
 30
92.10337
 70
    64
  0
VERTEX
  5
3B07
  8
0
 10
42.0
 20
64.271251
 30
93.573064
 70
    64
  0
VERTEX
  5
3B08
  8
0
 10
40.1
 20
63.776276
 30
94.430385
 70
    64
  0
VERTEX
  5
3B09
  8
0
 10
38.0
 20
63.564144
 30
94.797809
 70
    64
  0
VERTEX
  5
3B0A
  8
0
 10
38.0
 20
78.517412
 30
75.26195
 70
    64
  0
VERTEX
  5
3B0B
  8
0
 10
40.1
 20
78.569176
 30
75.455135
 70
    64
  0
VERTEX
  5
3B0C
  8
0
 10
42.0
 20
78.776231
 30
76.227876
 70
    64
  0
VERTEX
  5
3B0D
  8
0
 10
43.6
 20
79.086814
 30
77.386987
 70
    64
  0
VERTEX
  5
3B0E
  8
0
 10
44.9
 20
79.475043
 30
78.835876
 70
    64
  0
VERTEX
  5
3B0F
  8
0
 10
45.7
 20
79.940917
 30
80.574542
 70
    64
  0
VERTEX
  5
3B10
  8
0
 10
46.0
 20
80.458555
 30
82.506394
 70
    64
  0
VERTEX
  5
3B11
  8
0
 10
45.7
 20
80.950311
 30
84.341653
 70
    64
  0
VERTEX
  5
3B12
  8
0
 10
44.9
 20
81.416185
 30
86.080319
 70
    64
  0
VERTEX
  5
3B13
  8
0
 10
43.6
 20
81.830296
 30
87.625801
 70
    64
  0
VERTEX
  5
3B14
  8
0
 10
42.0
 20
82.140879
 30
88.784912
 70
    64
  0
VERTEX
  5
3B15
  8
0
 10
40.1
 20
82.322052
 30
89.46106
 70
    64
  0
VERTEX
  5
3B16
  8
0
 10
38.0
 20
82.399698
 30
89.750837
 70
    64
  0
VERTEX
  5
3B17
  8
0
 10
38.0
 20
88.450165
 30
71.535155
 70
    64
  0
VERTEX
  5
3B18
  8
0
 10
40.1
 20
88.600165
 30
71.794963
 70
    64
  0
VERTEX
  5
3B19
  8
0
 10
42.0
 20
89.000165
 30
72.487783
 70
    64
  0
VERTEX
  5
3B1A
  8
0
 10
43.6
 20
89.600165
 30
73.527014
 70
    64
  0
VERTEX
  5
3B1B
  8
0
 10
44.9
 20
90.450165
 30
74.999257
 70
    64
  0
VERTEX
  5
3B1C
  8
0
 10
45.7
 20
91.400165
 30
76.644705
 70
    64
  0
VERTEX
  5
3B1D
  8
0
 10
46.0
 20
92.450165
 30
78.463358
 70
    64
  0
VERTEX
  5
3B1E
  8
0
 10
45.7
 20
93.450165
 30
80.195409
 70
    64
  0
VERTEX
  5
3B1F
  8
0
 10
44.9
 20
94.450165
 30
81.92746
 70
    64
  0
VERTEX
  5
3B20
  8
0
 10
43.6
 20
95.250165
 30
83.313101
 70
    64
  0
VERTEX
  5
3B21
  8
0
 10
42.0
 20
95.900165
 30
84.438934
 70
    64
  0
VERTEX
  5
3B22
  8
0
 10
40.1
 20
96.300165
 30
85.131754
 70
    64
  0
VERTEX
  5
3B23
  8
0
 10
38.0
 20
96.450165
 30
85.391562
 70
    64
  0
SEQEND
  5
3B24
  8
0
  0
POLYLINE
  5
3B25
  8
0
 66
     1
 10
0.0
 20
0.0
 30
0.0
 70
    16
 71
     2
 72
     7
  0
VERTEX
  5
3B26
  8
0
 10
38.0
 20
63.564144
 30
94.797809
 70
    64
  0
VERTEX
  5
3B27
  8
0
 10
40.1
 20
63.776276
 30
94.430385
 70
    64
  0
VERTEX
  5
3B28
  8
0
 10
42.0
 20
64.271251
 30
93.573064
 70
    64
  0
VERTEX
  5
3B29
  8
0
 10
43.9
 20
65.119779
 30
92.10337
 70
    64
  0
VERTEX
  5
3B2A
  8
0
 10
44.9
 20
66.25115
 30
90.143778
 70
    64
  0
VERTEX
  5
3B2B
  8
0
 10
45.7
 20
67.523942
 30
87.939237
 70
    64
  0
VERTEX
  5
3B2C
  8
0
 10
46.0
 20
68.867445
 30
85.612222
 70
    64
  0
VERTEX
  5
3B2D
  8
0
 10
38.0
 20
48.791054
 30
103.414989
 70
    64
  0
VERTEX
  5
3B2E
  8
0
 10
38.0
 20
48.791054
 30
103.414989
 70
    64
  0
VERTEX
  5
3B2F
  8
0
 10
43.4
 20
63.015547
 30
93.909529
 70
    64
  0
VERTEX
  5
3B30
  8
0
 10
43.4
 20
63.015547
 30
93.909529
 70
    64
  0
VERTEX
  5
3B31
  8
0
 10
52.3
 20
66.002484
 30
86.897524
 70
    64
  0
VERTEX
  5
3B32
  8
0
 10
52.3
 20
66.002484
 30
86.897524
 70
    64
  0
VERTEX
  5
3B33
  8
0
 10
46.9
 20
72.111343
 30
78.013727
 70
    64
  0
SEQEND
  5
3B34
  8
0
  0
POLYLINE
  5
3B35
  8
0
 66
     1
 10
0.0
 20
0.0
 30
0.0
 70
    16
 71
     5
 72
    13
  0
VERTEX
  5
3B36
  8
0
 10
38.0
 20
185.25097
 30
2.599068
 70
    64
  0
VERTEX
  5
3B37
  8
0
 10
40.8
 20
185.574175
 30
2.758876
 70
    64
  0
VERTEX
  5
3B38
  8
0
 10
43.5
 20
186.407188
 30
3.201696
 70
    64
  0
VERTEX
  5
3B39
  8
0
 10
45.8
 20
187.613406
 30
3.890927
 70
    64
  0
VERTEX
  5
3B3A
  8
0
 10
47.5
 20
189.242829
 30
4.91317
 70
    64
  0
VERTEX
  5
3B3B
  8
0
 10
48.6
 20
191.095457
 30
5.922015
 70
    64
  0
VERTEX
  5
3B3C
  8
0
 10
49.0
 20
193.184687
 30
7.140669
 70
    64
  0
VERTEX
  5
3B3D
  8
0
 10
48.6
 20
195.223918
 30
8.27272
 70
    64
  0
VERTEX
  5
3B3E
  8
0
 10
47.5
 20
197.039943
 30
9.418168
 70
    64
  0
VERTEX
  5
3B3F
  8
0
 10
45.8
 20
198.705968
 30
10.303809
 70
    64
  0
VERTEX
  5
3B40
  8
0
 10
43.5
 20
199.962186
 30
11.079642
 70
    64
  0
VERTEX
  5
3B41
  8
0
 10
40.8
 20
200.658596
 30
11.485859
 70
    64
  0
VERTEX
  5
3B42
  8
0
 10
38.0
 20
200.981802
 30
11.645667
 70
    64
  0
VERTEX
  5
3B43
  8
0
 10
38.0
 20
185.033983
 30
1.223235
 70
    64
  0
VERTEX
  5
3B44
  8
0
 10
41.1
 20
185.270586
 30
1.433043
 70
    64
  0
VERTEX
  5
3B45
  8
0
 10
44.0
 20
186.153598
 30
1.962466
 70
    64
  0
VERTEX
  5
3B46
  8
0
 10
46.5
 20
187.546419
 30
2.774901
 70
    64
  0
VERTEX
  5
3B47
  8
0
 10
48.4
 20
189.399047
 30
3.783747
 70
    64
  0
VERTEX
  5
3B48
  8
0
 10
49.6
 20
191.438277
 30
4.915798
 70
    64
  0
VERTEX
  5
3B49
  8
0
 10
50.0
 20
193.627508
 30
6.307656
 70
    64
  0
VERTEX
  5
3B4A
  8
0
 10
49.6
 20
195.853341
 30
7.562912
 70
    64
  0
VERTEX
  5
3B4B
  8
0
 10
48.4
 20
197.942571
 30
8.781565
 70
    64
  0
VERTEX
  5
3B4C
  8
0
 10
46.5
 20
199.795199
 30
9.790411
 70
    64
  0
VERTEX
  5
3B4D
  8
0
 10
44.0
 20
201.138019
 30
10.516244
 70
    64
  0
VERTEX
  5
3B4E
  8
0
 10
41.1
 20
202.021032
 30
11.045667
 70
    64
  0
VERTEX
  5
3B4F
  8
0
 10
38.0
 20
202.257635
 30
11.255475
 70
    64
  0
VERTEX
  5
3B50
  8
0
 10
38.0
 20
185.476803
 30
0.390222
 70
    64
  0
VERTEX
  5
3B51
  8
0
 10
41.1
 20
185.800008
 30
0.55003
 70
    64
  0
VERTEX
  5
3B52
  8
0
 10
44.0
 20
186.683021
 30
1.079453
 70
    64
  0
VERTEX
  5
3B53
  8
0
 10
46.5
 20
188.075841
 30
1.891888
 70
    64
  0
VERTEX
  5
3B54
  8
0
 10
48.4
 20
189.841867
 30
2.950734
 70
    64
  0
VERTEX
  5
3B55
  8
0
 10
49.6
 20
191.881097
 30
4.082785
 70
    64
  0
VERTEX
  5
3B56
  8
0
 10
50.0
 20
194.15693
 30
5.424643
 70
    64
  0
VERTEX
  5
3B57
  8
0
 10
49.6
 20
196.382763
 30
6.679899
 70
    64
  0
VERTEX
  5
3B58
  8
0
 10
48.4
 20
198.471994
 30
7.898553
 70
    64
  0
VERTEX
  5
3B59
  8
0
 10
46.5
 20
200.238019
 30
8.957398
 70
    64
  0
VERTEX
  5
3B5A
  8
0
 10
44.0
 20
201.58084
 30
9.683231
 70
    64
  0
VERTEX
  5
3B5B
  8
0
 10
41.1
 20
202.463852
 30
10.212654
 70
    64
  0
VERTEX
  5
3B5C
  8
0
 10
38.0
 20
202.787057
 30
10.372462
 70
    64
  0
VERTEX
  5
3B5D
  8
0
 10
38.0
 20
186.752636
 30
0.00003
 70
    64
  0
VERTEX
  5
3B5E
  8
0
 10
40.8
 20
187.075841
 30
0.159838
 70
    64
  0
VERTEX
  5
3B5F
  8
0
 10
43.5
 20
187.908854
 30
0.602658
 70
    64
  0
VERTEX
  5
3B60
  8
0
 10
45.8
 20
189.115072
 30
1.291888
 70
    64
  0
VERTEX
  5
3B61
  8
0
 10
47.5
 20
190.744495
 30
2.314132
 70
    64
  0
VERTEX
  5
3B62
  8
0
 10
48.6
 20
192.597123
 30
3.322977
 70
    64
  0
VERTEX
  5
3B63
  8
0
 10
49.0
 20
194.686353
 30
4.541631
 70
    64
  0
VERTEX
  5
3B64
  8
0
 10
48.6
 20
196.638981
 30
5.723682
 70
    64
  0
VERTEX
  5
3B65
  8
0
 10
47.5
 20
198.541609
 30
6.81913
 70
    64
  0
VERTEX
  5
3B66
  8
0
 10
45.8
 20
200.207635
 30
7.70477
 70
    64
  0
VERTEX
  5
3B67
  8
0
 10
43.5
 20
201.463852
 30
8.480603
 70
    64
  0
VERTEX
  5
3B68
  8
0
 10
40.8
 20
202.160262
 30
8.886821
 70
    64
  0
VERTEX
  5
3B69
  8
0
 10
38.0
 20
202.483468
 30
9.046629
 70
    64
  0
VERTEX
  5
3B6A
  8
0
 10
38.0
 20
194.686353
 30
4.541631
 70
    64
  0
VERTEX
  5
3B6B
  8
0
 10
38.0
 20
194.686353
 30
4.541631
 70
    64
  0
VERTEX
  5
3B6C
  8
0
 10
38.0
 20
194.686353
 30
4.541631
 70
    64
  0
VERTEX
  5
3B6D
  8
0
 10
38.0
 20
194.686353
 30
4.541631
 70
    64
  0
VERTEX
  5
3B6E
  8
0
 10
38.0
 20
194.686353
 30
4.541631
 70
    64
  0
VERTEX
  5
3B6F
  8
0
 10
38.0
 20
194.686353
 30
4.541631
 70
    64
  0
VERTEX
  5
3B70
  8
0
 10
38.0
 20
194.686353
 30
4.541631
 70
    64
  0
VERTEX
  5
3B71
  8
0
 10
38.0
 20
194.686353
 30
4.541631
 70
    64
  0
VERTEX
  5
3B72
  8
0
 10
38.0
 20
194.686353
 30
4.541631
 70
    64
  0
VERTEX
  5
3B73
  8
0
 10
38.0
 20
194.686353
 30
4.541631
 70
    64
  0
VERTEX
  5
3B74
  8
0
 10
38.0
 20
194.686353
 30
4.541631
 70
    64
  0
VERTEX
  5
3B75
  8
0
 10
38.0
 20
194.686353
 30
4.541631
 70
    64
  0
VERTEX
  5
3B76
  8
0
 10
38.0
 20
194.686353
 30
4.541631
 70
    64
  0
SEQEND
  5
3B77
  8
0
  0
ENDSEC
  0
EOF
