  0
SECTION
  2
HEADER
  9
$ACADVER
  1
AC1015
  9
$ACADMAINTVER
 70
    20
  9
$DWGCODEPAGE
  3
ANSI_932
  9
$INSBASE
 10
0.0
 20
0.0
 30
0.0
  9
$EXTMIN
 10
-0.2800097254581428
 20
-0.081001
 30
0.0
  9
$EXTMAX
 10
0.2521934865783638
 20
0.3396387425716332
 30
0.0
  9
$LIMMIN
 10
0.0
 20
0.0
  9
$LIMMAX
 10
12.0
 20
9.0
  9
$ORTHOMODE
 70
     0
  9
$REGENMODE
 70
     1
  9
$FILLMODE
 70
     1
  9
$QTEXTMODE
 70
     0
  9
$MIRRTEXT
 70
     0
  9
$LTSCALE
 40
1.0
  9
$ATTMODE
 70
     1
  9
$TEXTSIZE
 40
0.2
  9
$TRACEWID
 40
0.05
  9
$TEXTSTYLE
  7
Standard
  9
$CLAYER
  8
0
  9
$CELTYPE
  6
Continuous
  9
$CECOLOR
 62
   256
  9
$CELTSCALE
 40
1.0
  9
$DISPSILH
 70
     0
  9
$DIMSCALE
 40
1.0
  9
$DIMASZ
 40
0.18
  9
$DIMEXO
 40
0.0625
  9
$DIMDLI
 40
0.38
  9
$DIMRND
 40
0.0
  9
$DIMDLE
 40
0.0
  9
$DIMEXE
 40
0.18
  9
$DIMTP
 40
0.0
  9
$DIMTM
 40
0.0
  9
$DIMTXT
 40
0.18
  9
$DIMCEN
 40
0.09
  9
$DIMTSZ
 40
0.0
  9
$DIMTOL
 70
     0
  9
$DIMLIM
 70
     0
  9
$DIMTIH
 70
     1
  9
$DIMTOH
 70
     1
  9
$DIMSE1
 70
     0
  9
$DIMSE2
 70
     0
  9
$DIMTAD
 70
     0
  9
$DIMZIN
 70
     0
  9
$DIMBLK
  1

  9
$DIMASO
 70
     1
  9
$DIMSHO
 70
     1
  9
$DIMPOST
  1

  9
$DIMAPOST
  1

  9
$DIMALT
 70
     0
  9
$DIMALTD
 70
     2
  9
$DIMALTF
 40
25.4
  9
$DIMLFAC
 40
1.0
  9
$DIMTOFL
 70
     0
  9
$DIMTVP
 40
0.0
  9
$DIMTIX
 70
     0
  9
$DIMSOXD
 70
     0
  9
$DIMSAH
 70
     0
  9
$DIMBLK1
  1

  9
$DIMBLK2
  1

  9
$DIMSTYLE
  2
Standard
  9
$DIMCLRD
 70
     0
  9
$DIMCLRE
 70
     0
  9
$DIMCLRT
 70
     0
  9
$DIMTFAC
 40
1.0
  9
$DIMGAP
 40
0.09
  9
$DIMJUST
 70
     0
  9
$DIMSD1
 70
     0
  9
$DIMSD2
 70
     0
  9
$DIMTOLJ
 70
     1
  9
$DIMTZIN
 70
     0
  9
$DIMALTZ
 70
     0
  9
$DIMALTTZ
 70
     0
  9
$DIMUPT
 70
     0
  9
$DIMDEC
 70
     4
  9
$DIMTDEC
 70
     4
  9
$DIMALTU
 70
     2
  9
$DIMALTTD
 70
     2
  9
$DIMTXSTY
  7
Standard
  9
$DIMAUNIT
 70
     0
  9
$DIMADEC
 70
     0
  9
$DIMALTRND
 40
0.0
  9
$DIMAZIN
 70
     0
  9
$DIMDSEP
 70
    46
  9
$DIMATFIT
 70
     3
  9
$DIMFRAC
 70
     0
  9
$DIMLDRBLK
  1

  9
$DIMLUNIT
 70
     2
  9
$DIMLWD
 70
    -2
  9
$DIMLWE
 70
    -2
  9
$DIMTMOVE
 70
     0
  9
$LUNITS
 70
     2
  9
$LUPREC
 70
     4
  9
$SKETCHINC
 40
0.1
  9
$FILLETRAD
 40
0.0
  9
$AUNITS
 70
     0
  9
$AUPREC
 70
     0
  9
$MENU
  1
.
  9
$ELEVATION
 40
0.0
  9
$PELEVATION
 40
0.0
  9
$THICKNESS
 40
0.0
  9
$LIMCHECK
 70
     0
  9
$CHAMFERA
 40
0.0
  9
$CHAMFERB
 40
0.0
  9
$CHAMFERC
 40
0.0
  9
$CHAMFERD
 40
0.0
  9
$SKPOLY
 70
     0
  9
$TDCREATE
 40
2458093.771041667
  9
$TDUCREATE
 40
2458093.396041667
  9
$TDUPDATE
 40
2458099.577222222
  9
$TDUUPDATE
 40
2458099.202222222
  9
$TDINDWG
 40
0.0059490741
  9
$TDUSRTIMER
 40
0.0059490741
  9
$USRTIMER
 70
     1
  9
$ANGBASE
 50
0.0
  9
$ANGDIR
 70
     0
  9
$PDMODE
 70
     0
  9
$PDSIZE
 40
0.0
  9
$PLINEWID
 40
0.0
  9
$SPLFRAME
 70
     0
  9
$SPLINETYPE
 70
     6
  9
$SPLINESEGS
 70
     8
  9
$HANDSEED
  5
662
  9
$SURFTAB1
 70
     6
  9
$SURFTAB2
 70
     6
  9
$SURFTYPE
 70
     6
  9
$SURFU
 70
     6
  9
$SURFV
 70
     6
  9
$UCSBASE
  2

  9
$UCSNAME
  2

  9
$UCSORG
 10
0.0
 20
0.0
 30
0.0
  9
$UCSXDIR
 10
1.0
 20
0.0
 30
0.0
  9
$UCSYDIR
 10
0.0
 20
1.0
 30
0.0
  9
$UCSORTHOREF
  2

  9
$UCSORTHOVIEW
 70
     0
  9
$UCSORGTOP
 10
0.0
 20
0.0
 30
0.0
  9
$UCSORGBOTTOM
 10
0.0
 20
0.0
 30
0.0
  9
$UCSORGLEFT
 10
0.0
 20
0.0
 30
0.0
  9
$UCSORGRIGHT
 10
0.0
 20
0.0
 30
0.0
  9
$UCSORGFRONT
 10
0.0
 20
0.0
 30
0.0
  9
$UCSORGBACK
 10
0.0
 20
0.0
 30
0.0
  9
$PUCSBASE
  2

  9
$PUCSNAME
  2

  9
$PUCSORG
 10
0.0
 20
0.0
 30
0.0
  9
$PUCSXDIR
 10
1.0
 20
0.0
 30
0.0
  9
$PUCSYDIR
 10
0.0
 20
1.0
 30
0.0
  9
$PUCSORTHOREF
  2

  9
$PUCSORTHOVIEW
 70
     0
  9
$PUCSORGTOP
 10
0.0
 20
0.0
 30
0.0
  9
$PUCSORGBOTTOM
 10
0.0
 20
0.0
 30
0.0
  9
$PUCSORGLEFT
 10
0.0
 20
0.0
 30
0.0
  9
$PUCSORGRIGHT
 10
0.0
 20
0.0
 30
0.0
  9
$PUCSORGFRONT
 10
0.0
 20
0.0
 30
0.0
  9
$PUCSORGBACK
 10
0.0
 20
0.0
 30
0.0
  9
$USERI1
 70
     0
  9
$USERI2
 70
     0
  9
$USERI3
 70
     0
  9
$USERI4
 70
     0
  9
$USERI5
 70
     0
  9
$USERR1
 40
0.0
  9
$USERR2
 40
0.0
  9
$USERR3
 40
0.0
  9
$USERR4
 40
0.0
  9
$USERR5
 40
0.0
  9
$WORLDVIEW
 70
     1
  9
$SHADEDGE
 70
     3
  9
$SHADEDIF
 70
    70
  9
$TILEMODE
 70
     1
  9
$MAXACTVP
 70
    64
  9
$PINSBASE
 10
0.0
 20
0.0
 30
0.0
  9
$PLIMCHECK
 70
     0
  9
$PEXTMIN
 10
1.000000000000000E+20
 20
1.000000000000000E+20
 30
1.000000000000000E+20
  9
$PEXTMAX
 10
-1.000000000000000E+20
 20
-1.000000000000000E+20
 30
-1.000000000000000E+20
  9
$PLIMMIN
 10
0.0
 20
0.0
  9
$PLIMMAX
 10
12.0
 20
9.0
  9
$UNITMODE
 70
     0
  9
$VISRETAIN
 70
     1
  9
$PLINEGEN
 70
     0
  9
$PSLTSCALE
 70
     1
  9
$TREEDEPTH
 70
  3020
  9
$CMLSTYLE
  2
Standard
  9
$CMLJUST
 70
     0
  9
$CMLSCALE
 40
1.0
  9
$PROXYGRAPHICS
 70
     1
  9
$MEASUREMENT
 70
     0
  9
$CELWEIGHT
370
    -1
  9
$ENDCAPS
280
     0
  9
$JOINSTYLE
280
     0
  9
$LWDISPLAY
290
     0
  9
$INSUNITS
 70
     0
  9
$HYPERLINKBASE
  1

  9
$STYLESHEET
  1

  9
$XEDIT
290
     1
  9
$CEPSNTYPE
380
     0
  9
$PSTYLEMODE
290
     1
  9
$FINGERPRINTGUID
  2
{DB3602EF-5A16-2F43-9C5E-22FBCC8245EB}
  9
$VERSIONGUID
  2
{13168B0A-7371-284E-A6B5-525CF87B099B}
  9
$EXTNAMES
290
     1
  9
$PSVPSCALE
 40
0.0
  9
$OLESTARTUP
290
     0
  0
ENDSEC
  0
SECTION
  2
CLASSES
  0
CLASS
  1
ACDBDICTIONARYWDFLT
  2
AcDbDictionaryWithDefault
  3
ObjectDBX Classes
 90
        0
280
     0
281
     0
  0
CLASS
  1
MATERIAL
  2
AcDbMaterial
  3
ObjectDBX Classes
 90
     1153
280
     0
281
     0
  0
CLASS
  1
VISUALSTYLE
  2
AcDbVisualStyle
  3
ObjectDBX Classes
 90
     4095
280
     0
281
     0
  0
CLASS
  1
SCALE
  2
AcDbScale
  3
ObjectDBX Classes
 90
     1153
280
     0
281
     0
  0
CLASS
  1
TABLESTYLE
  2
AcDbTableStyle
  3
ObjectDBX Classes
 90
     4095
280
     0
281
     0
  0
CLASS
  1
MLEADERSTYLE
  2
AcDbMLeaderStyle
  3
ACDB_MLEADERSTYLE_CLASS
 90
     4095
280
     0
281
     0
  0
CLASS
  1
ACDBSECTIONVIEWSTYLE
  2
AcDbSectionViewStyle
  3
ObjectDBX Classes
 90
     1025
280
     0
281
     0
  0
CLASS
  1
ACDBDETAILVIEWSTYLE
  2
AcDbDetailViewStyle
  3
ObjectDBX Classes
 90
     1025
280
     0
281
     0
  0
CLASS
  1
AMGSETTINGSOBJ
  2
AmgSettingsObj
  3
"AcadM|Product Description: AutoCAD Mechanical|Company: Autodesk, Inc."
 90
     1024
280
     0
281
     0
  0
CLASS
  1
ACME_DOCUMENT
  2
AcMeDbDoc
  3
AcMeServices
 90
     1024
280
     0
281
     0
  0
CLASS
  1
ACMESCOPE
  2
AcMeScope
  3
AcMeServices
 90
     1024
280
     0
281
     0
  0
CLASS
  1
ACMECOMMANDHISTORY
  2
AcMeCommandHistory
  3
AcMeServices
 90
     1024
280
     0
281
     0
  0
CLASS
  1
ACIMSYSVARMAN
  2
AcImSysVarManager
  3
AcMeServices
 90
     1024
280
     0
281
     0
  0
CLASS
  1
ACIMINTSYSVAR
  2
AcImIntSysVar
  3
AcMeServices
 90
     1024
280
     0
281
     0
  0
CLASS
  1
ACMESTATEMGR
  2
AcMeStateMgr
  3
AcMeServices
 90
     1024
280
     0
281
     0
  0
CLASS
  1
ACDBENTITYCACHE
  2
AcMeEntityCache
  3
AcMeServices
 90
     1024
280
     0
281
     0
  0
CLASS
  1
ACGREFMASTER
  2
AcGrefMaster
  3
AcAttribServices
 90
     1024
280
     0
281
     0
  0
CLASS
  1
ACME_DATABASE
  2
AcMeDbDatabase
  3
AcMeServices
 90
     1024
280
     0
281
     0
  0
CLASS
  1
ACRFINSADJUSTERMGR
  2
AcRfInsAdjusterMgr
  3
AcMeServices
 90
     1024
280
     0
281
     0
  0
CLASS
  1
ACGREFACADMASTER
  2
AcGrefacadMaster
  3
AcGrefServices
 90
     1024
280
     0
281
     0
  0
CLASS
  1
AMIMASTER
  2
AmiMaster
  3
AmiServices
 90
     1024
280
     0
281
     0
  0
CLASS
  1
AMDTMENUSTATEMGR
  2
AmdtMenuStateMgr
  3
McadcomServices
 90
     1024
280
     0
281
     0
  0
CLASS
  1
AMDTMCOMMENUSTATE
  2
AmdtMcomMenuState
  3
McadcomServices
 90
     1024
280
     0
281
     0
  0
CLASS
  1
MAPIAMMOUDLE
  2
MApiAmModule
  3
MApiAmServices
 90
     1024
280
     0
281
     0
  0
CLASS
  1
ACIMSTRSYSVAR
  2
AcImStrSysVar
  3
AcMeServices
 90
     1024
280
     0
281
     0
  0
CLASS
  1
AMDTAMMENUSTATE
  2
AmdtAmMenuState
  3
DesignerAssemblies_arx
 90
     1024
280
     0
281
     0
  0
CLASS
  1
ACAMPROJECT
  2
AcAmProject
  3
DesignerAssemblies
 90
     1024
280
     0
281
     0
  0
CLASS
  1
ACAMGRCOMPDEF
  2
AcAmGrCompDef
  3
DesignerAssemblies
 90
     1024
280
     0
281
     0
  0
CLASS
  1
ACAMCOMPDEF
  2
AcAmCompDef
  3
DesignerAssemblies
 90
     1024
280
     0
281
     0
  0
CLASS
  1
ACAMCOMPDEFMGR
  2
AcAmCompDefMgr
  3
DesignerAssemblies
 90
     1024
280
     0
281
     0
  0
CLASS
  1
AMCONTEXTMGR
  2
AcAmContextMgr
  3
DesignerAssemblies
 90
     1024
280
     0
281
     0
  0
CLASS
  1
ACAMCONTEXTMODELER
  2
AcAmContextModeler
  3
DesignerAssemblies
 90
     1024
280
     0
281
     0
  0
CLASS
  1
ACMDATADICTIONARY
  2
AcmDataDictionary
  3
"AcmSymBB|Product Description: AutoCAD Mechanical|Company: Autodesk, Inc."
 90
     1024
280
     0
281
     0
  0
CLASS
  1
ACAMGRCOMPDEFSET
  2
AcAmGrCompDefSet
  3
DesignerAssemblies
 90
     1024
280
     0
281
     0
  0
CLASS
  1
AMDTBROWSERDBTAB
  2
AmdtBrowserDbTab
  3
McadcomServices
 90
     1024
280
     0
281
     0
  0
CLASS
  1
CBROWSERAPPOBJECT
  2
CBrowserAppObject
  3
McadcomServices
 90
     1024
280
     0
281
     0
  0
CLASS
  1
DM_PLACEHOLDER
  2
AcDmSelsetPlaceholder
  3
McadcomServices
 90
     1024
280
     0
281
     0
  0
CLASS
  1
ACMSTANDARDANSI
  2
AcmStandardANSI
  3
"Amdt_StdImp|Product Description: AutoCAD Mechanical|Company: Autodesk, Inc."
 90
     1024
280
     0
281
     0
  0
CLASS
  1
ACMSURFSTANDARDANSI
  2
AcmSurfTextStdANSI
  3
"Amdt_StdImp|Product Description: AutoCAD Mechanical|Company: Autodesk, Inc."
 90
     1024
280
     0
281
     0
  0
CLASS
  1
ACMFCFSTANDARDANSI
  2
AcmFCFStdANSI
  3
"Amdt_StdImp|Product Description: AutoCAD Mechanical|Company: Autodesk, Inc."
 90
     1024
280
     0
281
     0
  0
CLASS
  1
ACMWELDSTANDARDANSI
  2
AcmWeldingStdANSI
  3
"Amdt_StdImp|Product Description: AutoCAD Mechanical|Company: Autodesk, Inc."
 90
     1024
280
     0
281
     0
  0
CLASS
  1
ACMIDSTANDARDANSI
  2
AcmIdStdANSI
  3
"Amdt_StdImp|Product Description: AutoCAD Mechanical|Company: Autodesk, Inc."
 90
     1024
280
     0
281
     0
  0
CLASS
  1
ACMDATUMSTANDARDANSI
  2
AcmDatumStdANSI
  3
"Amdt_StdImp|Product Description: AutoCAD Mechanical|Company: Autodesk, Inc."
 90
     1024
280
     0
281
     0
  0
CLASS
  1
ACMBOMSTANDARDANSI
  2
AcmBOMStdANSI
  3
"Amdt_StdImp|Product Description: AutoCAD Mechanical|Company: Autodesk, Inc."
 90
     1024
280
     0
281
     0
  0
CLASS
  1
ACMDETAILSTANDARDANSI
  2
AmdtDetailSymStdANSI
  3
"Amdt_StdImp|Product Description: AutoCAD Mechanical|Company: Autodesk, Inc."
 90
     1024
280
     0
281
     0
  0
CLASS
  1
ACMSECTIONSTANDARDANSI
  2
AmdtSectionSymStdANSI
  3
"Amdt_StdImp|Product Description: AutoCAD Mechanical|Company: Autodesk, Inc."
 90
     1024
280
     0
281
     0
  0
CLASS
  1
ACMCENTERLINESTANDARDANSI
  2
AmdtCenterLineStdANSI
  3
"Amdt_StdImp|Product Description: AutoCAD Mechanical|Company: Autodesk, Inc."
 90
     1024
280
     0
281
     0
  0
CLASS
  1
ACMTHREADLINESTANDARDANSI
  2
AmdtThreadLineStdANSI
  3
"Amdt_StdImp|Product Description: AutoCAD Mechanical|Company: Autodesk, Inc."
 90
     1024
280
     0
281
     0
  0
CLASS
  1
ACMNOTESTANDARDANSI
  2
AmdtNoteStdANSI
  3
"Amdt_StdImp|Product Description: AutoCAD Mechanical|Company: Autodesk, Inc."
 90
     1024
280
     0
281
     0
  0
CLASS
  1
ACMTAPERSTANDARDANSI
  2
AcmTaperStdANSI
  3
"Amdt_StdImp|Product Description: AutoCAD Mechanical|Company: Autodesk, Inc."
 90
     1024
280
     0
281
     0
  0
CLASS
  1
ACMANOOTATIONVIEWSTANDARDANSI
  2
AmdtAnViewStdANSI
  3
"Amdt_StdImp|Product Description: AutoCAD Mechanical|Company: Autodesk, Inc."
 90
     1024
280
     0
281
     0
  0
CLASS
  1
ACAMGLAYSTD
  2
AcAmgLayStd
  3
"AmgLay|Product Description: AutoCAD Mechanical|Company: Autodesk, Inc."
 90
     1024
280
     0
281
     0
  0
CLASS
  1
ACAMGDIMSTD
  2
AcAmgDimStd
  3
"AmgDim|Product Description: AutoCAD Mechanical|Company: Autodesk, Inc."
 90
     1024
280
     0
281
     0
  0
CLASS
  1
AMGOBJPROPCFG
  2
AmgObjPropCfg
  3
"AmgLay|Product Description: AutoCAD Mechanical|Company: Autodesk, Inc."
 90
     1024
280
     0
281
     0
  0
CLASS
  1
ACAMGHOLECHARTSTDANSI
  2
AcAmgHoleChartStdANSI
  3
"AmgDim" "Product Description: AutoCAD Mechanical|Company: Autodesk, Inc."
 90
     1024
280
     0
281
     0
  0
CLASS
  1
ACAMGTITLESTD
  2
AcAmgTitleStd
  3
"AmgTitle|Product Description: AutoCAD Mechanical|Company: Autodesk, Inc."
 90
     1024
280
     0
281
     0
  0
CLASS
  1
ACMSECTIONSTANDARDCUSTOM
  2
AmdtSectionSymStdCustom
  3
"Amdt_StdImp|Product Description: AutoCAD Mechanical|Company: Autodesk, Inc."
 90
     1024
280
     0
281
     0
  0
CLASS
  1
ACMDETAILTANDARDCUSTOM
  2
AmdtDetailSymStdCustom
  3
"Amdt_StdImp|Product Description: AutoCAD Mechanical|Company: Autodesk, Inc."
 90
     1024
280
     0
281
     0
  0
CLASS
  1
FIELD
  2
AcDbField
  3
ObjectDBX Classes
 90
     1152
280
     0
281
     0
  0
CLASS
  1
FIELDLIST
  2
AcDbFieldList
  3
ObjectDBX Classes
 90
     1152
280
     0
281
     0
  0
CLASS
  1
AMDTNOTETEMPLATEDB
  2
AmdtNoteTemplateDB
  3
"AcmSymBB" "Product Description: AutoCAD Mechanical|Company: Autodesk, Inc."
 90
     1024
280
     0
281
     0
  0
CLASS
  1
ACAMGFILTERDAT
  2
AcAmgFilterDat
  3
"AcadM|Product Description: AutoCAD Mechanical|Company: Autodesk, Inc."
 90
    33792
280
     0
281
     0
  0
CLASS
  1
SORTENTSTABLE
  2
AcDbSortentsTable
  3
ObjectDBX Classes
 90
        0
280
     0
281
     0
  0
CLASS
  1
DICTIONARYVAR
  2
AcDbDictionaryVar
  3
ObjectDBX Classes
 90
        0
280
     0
281
     0
  0
CLASS
  1
CELLSTYLEMAP
  2
AcDbCellStyleMap
  3
ObjectDBX Classes
 90
     1152
280
     0
281
     0
  0
CLASS
  1
ACDBPLACEHOLDER
  2
AcDbPlaceHolder
  3
ObjectDBX Classes
 90
        0
280
     0
281
     0
  0
CLASS
  1
LAYOUT
  2
AcDbLayout
  3
ObjectDBX Classes
 90
        0
280
     0
281
     0
  0
ENDSEC
  0
SECTION
  2
TABLES
  0
TABLE
  2
VPORT
  5
8
330
0
100
AcDbSymbolTable
 70
     1
  0
VPORT
  5
74
330
8
100
AcDbSymbolTableRecord
100
AcDbViewportTableRecord
  2
*Active
 70
     0
 10
0.0
 20
0.0
 11
1.0
 21
1.0
 12
0.3076002012417147
 22
0.2209511052916343
 13
0.0
 23
0.0
 14
1.0
 24
1.0
 15
0.0
 25
0.0
 16
0.0
 26
0.0
 36
1.0
 17
0.0
 27
0.0
 37
0.0
 40
1.023677755178712
 41
2.236596736596736
 42
50.0
 43
0.0
 44
0.0
 50
0.0
 51
0.0
 71
     0
 72
   100
 73
     1
 74
     1
 75
     0
 76
     0
 77
     0
 78
     0
281
     0
 65
     0
110
0.0
120
0.0
130
0.0
111
1.0
121
0.0
131
0.0
112
0.0
122
1.0
132
0.0
 79
     0
146
0.0
1001
ACAD_NAV_VCDISPLAY
1070
     3
  0
ENDTAB
  0
TABLE
  2
LTYPE
  5
5
330
0
100
AcDbSymbolTable
 70
    16
  0
LTYPE
  5
5A
330
5
100
AcDbSymbolTableRecord
100
AcDbLinetypeTableRecord
  2
ByBlock
 70
     0
  3

 72
    65
 73
     0
 40
0.0
  0
LTYPE
  5
5B
330
5
100
AcDbSymbolTableRecord
100
AcDbLinetypeTableRecord
  2
ByLayer
 70
     0
  3

 72
    65
 73
     0
 40
0.0
  0
LTYPE
  5
5C
330
5
100
AcDbSymbolTableRecord
100
AcDbLinetypeTableRecord
  2
Continuous
 70
     0
  3
Solid line
 72
    65
 73
     0
 40
0.0
  0
LTYPE
  5
17F
330
5
100
AcDbSymbolTableRecord
100
AcDbLinetypeTableRecord
  2
HIDDEN
 70
     0
  3
Hidden __ __ __ __ __ __ __ __ __ __ __ __ __ _
 72
    65
 73
     2
 40
0.375
 49
0.25
 74
     0
 49
-0.125
 74
     0
  0
LTYPE
  5
180
330
5
100
AcDbSymbolTableRecord
100
AcDbLinetypeTableRecord
  2
PHANTOM2
 70
     0
  3
Phantom (.5x) ___ _ _ ___ _ _ ___ _ _ ___ _ _
 72
    65
 73
     6
 40
1.25
 49
0.625
 74
     0
 49
-0.125
 74
     0
 49
0.125
 74
     0
 49
-0.125
 74
     0
 49
0.125
 74
     0
 49
-0.125
 74
     0
  0
LTYPE
  5
181
330
5
100
AcDbSymbolTableRecord
100
AcDbLinetypeTableRecord
  2
CENTER
 70
     0
  3
Center ____ _ ____ _ ____ _ ____ _ ____ _ ____
 72
    65
 73
     4
 40
2.0
 49
1.25
 74
     0
 49
-0.25
 74
     0
 49
0.25
 74
     0
 49
-0.25
 74
     0
  0
LTYPE
  5
1BB
330
5
100
AcDbSymbolTableRecord
100
AcDbLinetypeTableRecord
  2
AM_ISO02W050
 70
     0
  3
__ __ __ __ __ __ __ __ __ __ __ __ __ __ __
 72
    65
 73
     2
 40
7.5
 49
6.0
 74
     0
 49
-1.5
 74
     0
  0
LTYPE
  5
1BC
330
5
100
AcDbSymbolTableRecord
100
AcDbLinetypeTableRecord
  2
AM_ISO08W050
 70
     0
  3
____ . ____ . ____ . ____ . ____ . ____ . ____
 72
    65
 73
     4
 40
18.0
 49
12.0
 74
     0
 49
-1.5
 74
     0
 49
3.0
 74
     0
 49
-1.5
 74
     0
  0
LTYPE
  5
1BD
330
5
100
AcDbSymbolTableRecord
100
AcDbLinetypeTableRecord
  2
AM_ISO09W050
 70
     0
  3
_____ . . _____ . . _____ . . ____ .. ____
 72
    65
 73
     6
 40
22.5
 49
12.0
 74
     0
 49
-1.5
 74
     0
 49
3.0
 74
     0
 49
-1.5
 74
     0
 49
3.0
 74
     0
 49
-1.5
 74
     0
  0
LTYPE
  5
1BE
330
5
100
AcDbSymbolTableRecord
100
AcDbLinetypeTableRecord
  2
Amconstr
 70
     0
  3
_______________________
 72
    65
 73
     2
 40
9999.0
 49
9999.0
 74
     0
 49
0.0
 74
     0
  0
LTYPE
  5
1BF
330
5
100
AcDbSymbolTableRecord
100
AcDbLinetypeTableRecord
  2
AM_ISO08W050x2
 70
     0
  3
__ . __ . __ . __ . __ . __
 72
    65
 73
     4
 40
9.0
 49
6.0
 74
     0
 49
-0.75
 74
     0
 49
1.5
 74
     0
 49
-0.75
 74
     0
  0
LTYPE
  5
1C0
330
5
100
AcDbSymbolTableRecord
100
AcDbLinetypeTableRecord
  2
AM_ISO02W050x2
 70
     0
  3
 _ _ _ _ _ _ _ _ _ _ _ _
 72
    65
 73
     2
 40
3.75
 49
3.0
 74
     0
 49
-0.75
 74
     0
  0
LTYPE
  5
1C3
330
5
100
AcDbSymbolTableRecord
100
AcDbLinetypeTableRecord
  2
Amzigzag
 70
     0
  3
/\/-/\/-/\/-/\/-/\/-/\/
 72
    65
 73
     2
 40
11.0001
 49
0.0001
 74
     4
 75
   136
340
1C2
 46
0.04
 50
0.0
 44
0.0
 45
0.0
 49
-11.0
 74
     0
  0
LTYPE
  5
1C4
330
5
100
AcDbSymbolTableRecord
100
AcDbLinetypeTableRecord
  2
CENTER2
 70
     0
  3
Center (.5x) ___ _ ___ _ ___ _ ___ _ ___ _ ___
 72
    65
 73
     4
 40
1.125
 49
0.75
 74
     0
 49
-0.125
 74
     0
 49
0.125
 74
     0
 49
-0.125
 74
     0
  0
LTYPE
  5
1C5
330
5
100
AcDbSymbolTableRecord
100
AcDbLinetypeTableRecord
  2
HIDDEN2
 70
     0
  3
Hidden (.5x) _ _ _ _ _ _ _ _ _ _ _ _ _ _ _ _ _
 72
    65
 73
     2
 40
0.1875
 49
0.125
 74
     0
 49
-0.0625
 74
     0
  0
LTYPE
  5
1C6
330
5
100
AcDbSymbolTableRecord
100
AcDbLinetypeTableRecord
  2
Amzigzag2
 70
     0
  3
/\/-/\/-/\/-/\/-/\/-/\/
 72
    65
 73
     2
 40
0.4401
 49
0.0001
 74
     4
 75
   136
340
1C2
 46
0.0016
 50
0.0
 44
0.0
 45
0.0
 49
-0.4400000000000002
 74
     0
  0
LTYPE
  5
1D6
330
5
100
AcDbSymbolTableRecord
100
AcDbLinetypeTableRecord
  2
ACANSTGB
 70
     0
  3
__ . . __ . .
 72
    65
 73
     6
 40
0.35433070866
 49
0.15748031496
 74
     0
 49
-0.03937007874
 74
     0
 49
0.03937007874
 74
     0
 49
-0.03937007874
 74
     0
 49
0.03937007874
 74
     0
 49
-0.03937007874
 74
     0
  0
LTYPE
  5
1D7
330
5
100
AcDbSymbolTableRecord
100
AcDbLinetypeTableRecord
  2
ACANSTGL
 70
     0
  3
_ _ _ _ _
 72
    65
 73
     2
 40
0.11811023622
 49
0.07874015748
 74
     0
 49
-0.03937007874
 74
     0
  0
ENDTAB
  0
TABLE
  2
LAYER
  5
2
330
0
100
AcDbSymbolTable
 70
     2
  0
LAYER
  5
54
102
{ACAD_XDICTIONARY
360
56F
102
}
330
2
100
AcDbSymbolTableRecord
100
AcDbLayerTableRecord
  2
0
 70
     0
 62
     7
  6
Continuous
370
    -3
390
F
  0
LAYER
  5
1FB
102
{ACAD_XDICTIONARY
360
571
102
}
330
2
100
AcDbSymbolTableRecord
100
AcDbLayerTableRecord
  2
AM_CL
 70
     0
 62
     1
  6
Amconstr
370
    15
390
F
1001
AcAecLayerStandard
1000

1000

  0
ENDTAB
  0
TABLE
  2
STYLE
  5
3
330
0
100
AcDbSymbolTable
 70
     5
  0
STYLE
  5
55
330
3
100
AcDbSymbolTableRecord
100
AcDbTextStyleTableRecord
  2
Standard
 70
     0
 40
0.0
 41
1.0
 50
0.0
 71
     0
 42
0.2
  3
txt
  4

  0
STYLE
  5
59
330
3
100
AcDbSymbolTableRecord
100
AcDbTextStyleTableRecord
  2
Annotative
 70
     0
 40
0.0
 41
1.0
 50
0.0
 71
     0
 42
0.2
  3
txt
  4

1001
AcadAnnotative
1000
AnnotativeData
1002
{
1070
     1
1070
     1
1002
}
  0
STYLE
  5
1C2
330
3
100
AcDbSymbolTableRecord
100
AcDbTextStyleTableRecord
  2

 70
     1
 40
0.0
 41
1.0
 50
0.0
 71
     0
 42
0.2
  3
genltshp.shx
  4

  0
STYLE
  5
1D4
330
3
100
AcDbSymbolTableRecord
100
AcDbTextStyleTableRecord
  2
ACANSTS
 70
     0
 40
0.0
 41
1.0
 50
0.0
 71
     0
 42
0.2
  3
romans.shx
  4
extfont.shx
  0
STYLE
  5
1D5
330
3
100
AcDbSymbolTableRecord
100
AcDbTextStyleTableRecord
  2
ACANSGDT
 70
     0
 40
0.0
 41
1.0
 50
0.0
 71
     0
 42
0.2
  3
amgdt.shx
  4

  0
ENDTAB
  0
TABLE
  2
VIEW
  5
6
330
0
100
AcDbSymbolTable
 70
     0
  0
ENDTAB
  0
TABLE
  2
UCS
  5
7
330
0
100
AcDbSymbolTable
 70
     0
  0
ENDTAB
  0
TABLE
  2
APPID
  5
9
330
0
100
AcDbSymbolTable
 70
    15
  0
APPID
  5
56
330
9
100
AcDbSymbolTableRecord
100
AcDbRegAppTableRecord
  2
ACAD
 70
     0
  0
APPID
  5
5D
330
9
100
AcDbSymbolTableRecord
100
AcDbRegAppTableRecord
  2
AcadAnnotative
 70
     0
  0
APPID
  5
178
330
9
100
AcDbSymbolTableRecord
100
AcDbRegAppTableRecord
  2
MCAD_NO_VIS
 70
     0
  0
APPID
  5
179
330
9
100
AcDbSymbolTableRecord
100
AcDbRegAppTableRecord
  2
ACAD_TEMP_GRAPHIC
 70
     0
  0
APPID
  5
186
330
9
100
AcDbSymbolTableRecord
100
AcDbRegAppTableRecord
  2
ACATTRIBSERVICES
 70
     0
  0
APPID
  5
19E
330
9
100
AcDbSymbolTableRecord
100
AcDbRegAppTableRecord
  2
DESIGNERASSEMBLIES
 70
     0
  0
APPID
  5
1B8
330
9
100
AcDbSymbolTableRecord
100
AcDbRegAppTableRecord
  2
ACAD_DSTYLE_DIMJAG
 70
     0
  0
APPID
  5
1B9
330
9
100
AcDbSymbolTableRecord
100
AcDbRegAppTableRecord
  2
ACAD_DSTYLE_DIMBREAK
 70
     0
  0
APPID
  5
1F3
330
9
100
AcDbSymbolTableRecord
100
AcDbRegAppTableRecord
  2
ACAD_NAV_VCDISPLAY
 70
     0
  0
APPID
  5
1FC
330
9
100
AcDbSymbolTableRecord
100
AcDbRegAppTableRecord
  2
AcAecLayerStandard
 70
     0
  0
APPID
  5
5B5
330
9
100
AcDbSymbolTableRecord
100
AcDbRegAppTableRecord
  2
ACAD_MLEADERVER
 70
     0
  0
APPID
  5
5BE
330
9
100
AcDbSymbolTableRecord
100
AcDbRegAppTableRecord
  2
ACAD_DSTYLE_DIMARC_LENGTH_SYMBOL
 70
     0
  0
APPID
  5
5BF
330
9
100
AcDbSymbolTableRecord
100
AcDbRegAppTableRecord
  2
ACAD_DSTYLE_DIM_LINETYPE
 70
     0
  0
APPID
  5
5C0
330
9
100
AcDbSymbolTableRecord
100
AcDbRegAppTableRecord
  2
ACAD_DSTYLE_DIM_EXT1_LINETYPE
 70
     0
  0
APPID
  5
5C1
330
9
100
AcDbSymbolTableRecord
100
AcDbRegAppTableRecord
  2
ACAD_DSTYLE_DIM_EXT2_LINETYPE
 70
     0
  0
ENDTAB
  0
TABLE
  2
DIMSTYLE
  5
A
330
0
100
AcDbSymbolTable
 70
     8
100
AcDbDimStyleTable
 71
     0
  0
DIMSTYLE
105
57
330
A
100
AcDbSymbolTableRecord
100
AcDbDimStyleTableRecord
  2
Standard
 70
     0
340
55
  0
DIMSTYLE
105
58
330
A
100
AcDbSymbolTableRecord
100
AcDbDimStyleTableRecord
  2
Annotative
 70
     0
340
55
1001
AcadAnnotative
1000
AnnotativeData
1002
{
1070
     1
1070
     1
1002
}
  0
DIMSTYLE
105
1B7
102
{ACAD_REACTORS
330
5F4
102
}
330
A
100
AcDbSymbolTableRecord
100
AcDbDimStyleTableRecord
  2
AM_ANSI
 70
     0
  4
mm
 41
0.12
 42
0.05
 43
0.5
 44
0.1
 47
0.1
 48
0.1
 78
     7
 79
     2
140
0.12
141
0.0
146
0.71
147
0.06
176
   256
177
   256
178
     2
274
     4
284
     7
340
55
371
    -1
372
    -1
1001
ACAD_DSTYLE_DIMJAG
1070
   388
1040
1.5
1001
ACAD_DSTYLE_DIMBREAK
1070
   391
1040
0.125
1001
ACAD_DSTYLE_DIMARC_LENGTH_SYMBOL
1070
   379
1070
     1
1001
ACAD_DSTYLE_DIM_LINETYPE
1070
   380
1005
5A
1001
ACAD_DSTYLE_DIM_EXT1_LINETYPE
1070
   381
1005
5A
1001
ACAD_DSTYLE_DIM_EXT2_LINETYPE
1070
   382
1005
5A
  0
DIMSTYLE
105
1C7
330
A
100
AcDbSymbolTableRecord
100
AcDbDimStyleTableRecord
  2
AM_ANSI$3
 70
     0
  4
mm
 41
0.12
 42
0.05
 43
0.5
 44
0.1
 47
0.1
 48
0.1
 78
     7
 79
     2
140
0.12
141
0.0
146
0.71
147
0.06
176
   256
177
   256
178
     2
274
     4
284
     7
288
     1
289
     0
340
55
371
    -1
372
    -1
1001
ACAD_DSTYLE_DIMBREAK
1070
   391
1040
0.125
1001
ACAD_DSTYLE_DIMJAG
1070
   388
1040
1.5
1001
ACAD_DSTYLE_DIMARC_LENGTH_SYMBOL
1070
   379
1070
     1
1001
ACAD_DSTYLE_DIM_LINETYPE
1070
   380
1005
5A
1001
ACAD_DSTYLE_DIM_EXT1_LINETYPE
1070
   381
1005
5A
1001
ACAD_DSTYLE_DIM_EXT2_LINETYPE
1070
   382
1005
5A
  0
DIMSTYLE
105
1C8
330
A
100
AcDbSymbolTableRecord
100
AcDbDimStyleTableRecord
  2
AM_ANSI$4
 70
     0
  4
mm
 41
0.12
 42
0.05
 43
0.5
 44
0.1
 47
0.1
 48
0.1
 78
     7
 79
     2
140
0.12
141
0.0
146
0.71
147
0.06
176
   256
177
   256
178
     2
274
     4
284
     7
288
     1
289
     0
340
55
371
    -1
372
    -1
1001
ACAD_DSTYLE_DIMBREAK
1070
   391
1040
0.125
1001
ACAD_DSTYLE_DIMJAG
1070
   388
1040
1.5
1001
ACAD_DSTYLE_DIMARC_LENGTH_SYMBOL
1070
   379
1070
     1
1001
ACAD_DSTYLE_DIM_LINETYPE
1070
   380
1005
5A
1001
ACAD_DSTYLE_DIM_EXT1_LINETYPE
1070
   381
1005
5A
1001
ACAD_DSTYLE_DIM_EXT2_LINETYPE
1070
   382
1005
5A
  0
DIMSTYLE
105
1C9
330
A
100
AcDbSymbolTableRecord
100
AcDbDimStyleTableRecord
  2
AM_ANSI$7
 70
     0
  4
mm
 41
0.12
 42
0.05
 43
0.5
 44
0.1
 47
0.1
 48
0.1
 78
     7
 79
     2
140
0.12
141
0.0
146
0.71
147
0.06
176
   256
177
   256
178
     2
274
     4
284
     7
340
55
371
    -1
372
    -1
1001
ACAD_DSTYLE_DIMBREAK
1070
   391
1040
0.125
1001
ACAD_DSTYLE_DIMJAG
1070
   388
1040
1.5
1001
ACAD_DSTYLE_DIMARC_LENGTH_SYMBOL
1070
   379
1070
     1
1001
ACAD_DSTYLE_DIM_LINETYPE
1070
   380
1005
5A
1001
ACAD_DSTYLE_DIM_EXT1_LINETYPE
1070
   381
1005
5A
1001
ACAD_DSTYLE_DIM_EXT2_LINETYPE
1070
   382
1005
5A
  0
DIMSTYLE
105
1CA
330
A
100
AcDbSymbolTableRecord
100
AcDbDimStyleTableRecord
  2
AM_ANSI$SF
 70
     0
  4
mm
 41
0.12
 42
0.05
 43
0.5
 44
0.1
 47
0.1
 48
0.1
 75
     1
 76
     1
 78
     7
 79
     2
140
0.12
141
0.0
146
0.71
147
0.06
176
   256
177
   256
178
     2
274
     4
284
     7
340
55
371
    -1
372
    -1
1001
ACAD_DSTYLE_DIMBREAK
1070
   391
1040
0.125
1001
ACAD_DSTYLE_DIMJAG
1070
   388
1040
1.5
1001
ACAD_DSTYLE_DIMARC_LENGTH_SYMBOL
1070
   379
1070
     1
1001
ACAD_DSTYLE_DIM_LINETYPE
1070
   380
1005
5A
1001
ACAD_DSTYLE_DIM_EXT1_LINETYPE
1070
   381
1005
5A
1001
ACAD_DSTYLE_DIM_EXT2_LINETYPE
1070
   382
1005
5A
  0
DIMSTYLE
105
1CF
330
A
100
AcDbSymbolTableRecord
100
AcDbDimStyleTableRecord
  2
AM_ANSI$SH
 70
     0
  4
mm
 41
0.12
 42
0.05
 43
0.5
 44
0.1
 47
0.1
 48
0.1
 75
     1
 76
     1
 78
     7
 79
     2
140
0.12
141
0.0
146
0.71
147
0.06
173
     1
176
   256
177
   256
178
     2
274
     4
284
     7
340
55
343
1CB
371
    -1
372
    -1
1001
ACAD_DSTYLE_DIMBREAK
1070
   391
1040
0.125
1001
ACAD_DSTYLE_DIMJAG
1070
   388
1040
1.5
1001
ACAD_DSTYLE_DIMARC_LENGTH_SYMBOL
1070
   379
1070
     1
1001
ACAD_DSTYLE_DIM_LINETYPE
1070
   380
1005
5A
1001
ACAD_DSTYLE_DIM_EXT1_LINETYPE
1070
   381
1005
5A
1001
ACAD_DSTYLE_DIM_EXT2_LINETYPE
1070
   382
1005
5A
  0
ENDTAB
  0
TABLE
  2
BLOCK_RECORD
  5
1
330
0
100
AcDbSymbolTable
 70
     3
  0
BLOCK_RECORD
  5
6F
102
{ACAD_XDICTIONARY
360
1FE
102
}
330
1
100
AcDbSymbolTableRecord
100
AcDbBlockTableRecord
  2
*Model_Space
340
72
  0
BLOCK_RECORD
  5
6B
330
1
100
AcDbSymbolTableRecord
100
AcDbBlockTableRecord
  2
*Paper_Space
340
6E
  0
BLOCK_RECORD
  5
1CB
330
1
100
AcDbSymbolTableRecord
100
AcDbBlockTableRecord
  2
GENAXEH
340
0
  0
BLOCK_RECORD
  5
1D9
330
1
100
AcDbSymbolTableRecord
100
AcDbBlockTableRecord
  2
_ACMFILLEDHALF
340
0
  0
ENDTAB
  0
ENDSEC
  0
SECTION
  2
BLOCKS
  0
BLOCK
  5
70
330
6F
100
AcDbEntity
  8
0
100
AcDbBlockBegin
  2
*Model_Space
 70
     0
 10
0.0
 20
0.0
 30
0.0
  3
*Model_Space
  1

  0
ENDBLK
  5
71
330
6F
100
AcDbEntity
  8
0
100
AcDbBlockEnd
  0
BLOCK
  5
6C
330
6B
100
AcDbEntity
 67
     1
  8
0
100
AcDbBlockBegin
  2
*Paper_Space
 70
     0
 10
0.0
 20
0.0
 30
0.0
  3
*Paper_Space
  1

  0
ENDBLK
  5
6D
330
6B
100
AcDbEntity
 67
     1
  8
0
100
AcDbBlockEnd
  0
BLOCK
  5
1CD
330
1CB
100
AcDbEntity
  8
0
100
AcDbBlockBegin
  2
GENAXEH
 70
     0
 10
0.0
 20
0.0
 30
0.0
  3
GENAXEH
  1

  0
LINE
  5
1CC
330
1CB
100
AcDbEntity
  8
0
100
AcDbLine
 10
-1.0
 20
0.0
 30
0.0
 11
1.0
 21
0.0
 31
0.0
  0
ENDBLK
  5
1CE
330
1CB
100
AcDbEntity
  8
0
100
AcDbBlockEnd
  0
BLOCK
  5
1DA
330
1D9
100
AcDbEntity
  8
0
100
AcDbBlockBegin
  2
_ACMFILLEDHALF
 70
     0
 10
0.0
 20
0.0
 30
0.0
  3
_ACMFILLEDHALF
  1

  0
TRACE
  5
1DC
330
1D9
100
AcDbEntity
  8
0
  6
Continuous
 62
     0
100
AcDbTrace
 10
-0.8
 20
0.0
 30
0.0
 11
-1.0
 21
0.166666666
 31
0.0
 12
0.0
 22
0.0
 32
0.0
 13
0.0
 23
0.0
 33
0.0
  0
LINE
  5
1DD
330
1D9
100
AcDbEntity
  8
0
  6
Continuous
 62
     0
100
AcDbLine
 10
-1.0
 20
0.0
 30
0.0
 11
-0.8
 21
0.0
 31
0.0
  0
ENDBLK
  5
1DB
330
1D9
100
AcDbEntity
  8
0
100
AcDbBlockEnd
  0
ENDSEC
  0
SECTION
  2
ENTITIES
  0
LINE
  5
75
330
6F
100
AcDbEntity
  8
0
  6
Continuous
100
AcDbLine
 10
0.017496
 20
0.045001
 30
0.0
 11
0.017496
 21
0.046801
 31
0.0
  0
LINE
  5
76
330
6F
100
AcDbEntity
  8
0
  6
Continuous
100
AcDbLine
 10
-0.017496
 20
0.046801
 30
0.0
 11
-0.017496
 21
0.045001
 31
0.0
  0
LINE
  5
77
330
6F
100
AcDbEntity
  8
0
  6
Continuous
100
AcDbLine
 10
0.019
 20
0.071126
 30
0.0
 11
0.019
 21
0.073936
 31
0.0
  0
LINE
  5
78
330
6F
100
AcDbEntity
  8
0
  6
Continuous
100
AcDbLine
 10
0.017888
 20
0.081001
 30
0.0
 11
0.017119
 21
0.081001
 31
0.0
  0
LINE
  5
79
330
6F
100
AcDbEntity
  8
0
  6
Continuous
100
AcDbLine
 10
0.019
 20
0.073936
 30
0.0
 11
0.019
 21
0.077193
 31
0.0
  0
LINE
  5
7A
330
6F
100
AcDbEntity
  8
0
  6
Continuous
100
AcDbLine
 10
0.019
 20
0.077193
 30
0.0
 11
0.019
 21
0.080449
 31
0.0
  0
LINE
  5
7B
330
6F
100
AcDbEntity
  8
0
  6
Continuous
100
AcDbLine
 10
0.018657
 20
0.081001
 30
0.0
 11
0.017888
 21
0.081001
 31
0.0
  0
LINE
  5
7C
330
6F
100
AcDbEntity
  8
0
  6
Continuous
100
AcDbLine
 10
0.016105
 20
0.081001
 30
0.0
 11
0.015598
 21
0.081001
 31
0.0
  0
LINE
  5
7D
330
6F
100
AcDbEntity
  8
0
  6
Continuous
100
AcDbLine
 10
0.016612
 20
0.081001
 30
0.0
 11
0.016105
 21
0.081001
 31
0.0
  0
LINE
  5
7E
330
6F
100
AcDbEntity
  8
0
  6
Continuous
100
AcDbLine
 10
0.014838
 20
0.081001
 30
0.0
 11
0.014077
 21
0.081001
 31
0.0
  0
LINE
  5
7F
330
6F
100
AcDbEntity
  8
0
  6
Continuous
100
AcDbLine
 10
0.014077
 20
0.081001
 30
0.0
 11
0.012856
 21
0.081001
 31
0.0
  0
LINE
  5
80
330
6F
100
AcDbEntity
  8
0
  6
Continuous
100
AcDbLine
 10
0.017119
 20
0.081001
 30
0.0
 11
0.016612
 21
0.081001
 31
0.0
  0
LINE
  5
81
330
6F
100
AcDbEntity
  8
0
  6
Continuous
100
AcDbLine
 10
0.003216
 20
0.081001
 30
0.0
 11
0.0
 21
0.081001
 31
0.0
  0
LINE
  5
82
330
6F
100
AcDbEntity
  8
0
  6
Continuous
100
AcDbLine
 10
0.015598
 20
0.081001
 30
0.0
 11
0.014838
 21
0.081001
 31
0.0
  0
LINE
  5
83
330
6F
100
AcDbEntity
  8
0
  6
Continuous
100
AcDbLine
 10
0.019
 20
0.081001
 30
0.0
 11
0.018657
 21
0.081001
 31
0.0
  0
LINE
  5
84
330
6F
100
AcDbEntity
  8
0
  6
Continuous
100
AcDbLine
 10
0.019
 20
0.080449
 30
0.0
 11
0.019
 21
0.081001
 31
0.0
  0
LINE
  5
85
330
6F
100
AcDbEntity
  8
0
  6
Continuous
100
AcDbLine
 10
0.006432
 20
0.081001
 30
0.0
 11
0.003216
 21
0.081001
 31
0.0
  0
LINE
  5
86
330
6F
100
AcDbEntity
  8
0
  6
Continuous
100
AcDbLine
 10
0.012856
 20
0.081001
 30
0.0
 11
0.010085
 21
0.081001
 31
0.0
  0
LINE
  5
87
330
6F
100
AcDbEntity
  8
0
  6
Continuous
100
AcDbLine
 10
0.012699
 20
0.080433
 30
0.0
 11
0.012856
 21
0.081001
 31
0.0
  0
LINE
  5
88
330
6F
100
AcDbEntity
  8
0
  6
Continuous
100
AcDbLine
 10
0.010085
 20
0.081001
 30
0.0
 11
0.006432
 21
0.081001
 31
0.0
  0
LINE
  5
89
330
6F
100
AcDbEntity
  8
0
  6
Continuous
100
AcDbLine
 10
0.009983
 20
0.080429
 30
0.0
 11
0.010085
 21
0.081001
 31
0.0
  0
LINE
  5
8A
330
6F
100
AcDbEntity
  8
0
  6
Continuous
100
AcDbLine
 10
0.018353
 20
0.081001
 30
0.0
 11
0.016454
 21
0.081001
 31
0.0
  0
LINE
  5
8B
330
6F
100
AcDbEntity
  8
0
  6
Continuous
100
AcDbLine
 10
0.017655
 20
0.081001
 30
0.0
 11
0.018353
 21
0.081001
 31
0.0
  0
LINE
  5
8C
330
6F
100
AcDbEntity
  8
0
  6
Continuous
100
AcDbLine
 10
0.016454
 20
0.081001
 30
0.0
 11
0.013435
 21
0.081001
 31
0.0
  0
LINE
  5
8D
330
6F
100
AcDbEntity
  8
0
  6
Continuous
100
AcDbLine
 10
0.014742
 20
0.075194
 30
0.0
 11
0.01567
 21
0.07481
 31
0.0
  0
LINE
  5
8E
330
6F
100
AcDbEntity
  8
0
  6
Continuous
100
AcDbLine
 10
0.012397
 20
0.076044
 30
0.0
 11
0.010996
 21
0.076531
 31
0.0
  0
LINE
  5
8F
330
6F
100
AcDbEntity
  8
0
  6
Continuous
100
AcDbLine
 10
0.018353
 20
0.046801
 30
0.0
 11
0.016455
 21
0.046801
 31
0.0
  0
LINE
  5
90
330
6F
100
AcDbEntity
  8
0
  6
Continuous
100
AcDbLine
 10
0.018353
 20
0.046801
 30
0.0
 11
0.019
 21
0.046801
 31
0.0
  0
LINE
  5
91
330
6F
100
AcDbEntity
  8
0
  6
Continuous
100
AcDbLine
 10
0.019
 20
0.046801
 30
0.0
 11
0.019
 21
0.047275
 31
0.0
  0
LINE
  5
92
330
6F
100
AcDbEntity
  8
0
  6
Continuous
100
AcDbLine
 10
0.013435
 20
0.046801
 30
0.0
 11
0.016455
 21
0.046801
 31
0.0
  0
LINE
  5
93
330
6F
100
AcDbEntity
  8
0
  6
Continuous
100
AcDbLine
 10
0.0095
 20
0.046801
 30
0.0
 11
0.013435
 21
0.046801
 31
0.0
  0
LINE
  5
94
330
6F
100
AcDbEntity
  8
0
  6
Continuous
100
AcDbLine
 10
0.004918
 20
0.046801
 30
0.0
 11
0.0095
 21
0.046801
 31
0.0
  0
LINE
  5
95
330
6F
100
AcDbEntity
  8
0
  6
Continuous
100
AcDbLine
 10
0.0
 20
0.046801
 30
0.0
 11
0.004918
 21
0.046801
 31
0.0
  0
LINE
  5
96
330
6F
100
AcDbEntity
  8
0
  6
Continuous
100
AcDbLine
 10
0.003231
 20
0.081001
 30
0.0
 11
0.003356
 21
0.081001
 31
0.0
  0
LINE
  5
97
330
6F
100
AcDbEntity
  8
0
  6
Continuous
100
AcDbLine
 10
0.003356
 20
0.081001
 30
0.0
 11
0.0
 21
0.081001
 31
0.0
  0
LINE
  5
98
330
6F
100
AcDbEntity
  8
0
  6
Continuous
100
AcDbLine
 10
0.013152
 20
0.081001
 30
0.0
 11
0.009198
 21
0.081001
 31
0.0
  0
LINE
  5
99
330
6F
100
AcDbEntity
  8
0
  6
Continuous
100
AcDbLine
 10
0.01287
 20
0.081001
 30
0.0
 11
0.013152
 21
0.081001
 31
0.0
  0
LINE
  5
9A
330
6F
100
AcDbEntity
  8
0
  6
Continuous
100
AcDbLine
 10
0.011816
 20
0.078559
 30
0.0
 11
0.012699
 21
0.080433
 31
0.0
  0
LINE
  5
9B
330
6F
100
AcDbEntity
  8
0
  6
Continuous
100
AcDbLine
 10
0.009983
 20
0.080429
 30
0.0
 11
0.006432
 21
0.08041
 31
0.0
  0
LINE
  5
9C
330
6F
100
AcDbEntity
  8
0
  6
Continuous
100
AcDbLine
 10
0.009555
 20
0.079119
 30
0.0
 11
0.009983
 21
0.080429
 31
0.0
  0
LINE
  5
9D
330
6F
100
AcDbEntity
  8
0
  6
Continuous
100
AcDbLine
 10
0.009555
 20
0.079119
 30
0.0
 11
0.006432
 21
0.08041
 31
0.0
  0
LINE
  5
9E
330
6F
100
AcDbEntity
  8
0
  6
Continuous
100
AcDbLine
 10
0.006432
 20
0.08041
 30
0.0
 11
0.006432
 21
0.079496
 31
0.0
  0
LINE
  5
9F
330
6F
100
AcDbEntity
  8
0
  6
Continuous
100
AcDbLine
 10
0.019
 20
0.065479
 30
0.0
 11
0.019
 21
0.068298
 31
0.0
  0
LINE
  5
A0
330
6F
100
AcDbEntity
  8
0
  6
Continuous
100
AcDbLine
 10
0.011816
 20
0.078559
 30
0.0
 11
0.009555
 21
0.079119
 31
0.0
  0
LINE
  5
A1
330
6F
100
AcDbEntity
  8
0
  6
Continuous
100
AcDbLine
 10
0.00892
 20
0.07829
 30
0.0
 11
0.009913
 21
0.077473
 31
0.0
  0
LINE
  5
A2
330
6F
100
AcDbEntity
  8
0
  6
Continuous
100
AcDbLine
 10
0.013249
 20
0.078013
 30
0.0
 11
0.014091
 21
0.077907
 31
0.0
  0
LINE
  5
A3
330
6F
100
AcDbEntity
  8
0
  6
Continuous
100
AcDbLine
 10
0.019
 20
0.068298
 30
0.0
 11
0.019
 21
0.071126
 31
0.0
  0
LINE
  5
A4
330
6F
100
AcDbEntity
  8
0
  6
Continuous
100
AcDbLine
 10
0.013249
 20
0.078013
 30
0.0
 11
0.011816
 21
0.078559
 31
0.0
  0
LINE
  5
A5
330
6F
100
AcDbEntity
  8
0
  6
Continuous
100
AcDbLine
 10
0.006432
 20
0.079496
 30
0.0
 11
0.003216
 21
0.079496
 31
0.0
  0
LINE
  5
A6
330
6F
100
AcDbEntity
  8
0
  6
Continuous
100
AcDbLine
 10
0.003216
 20
0.079496
 30
0.0
 11
0.0
 21
0.079496
 31
0.0
  0
LINE
  5
A7
330
6F
100
AcDbEntity
  8
0
  6
Continuous
100
AcDbLine
 10
0.010996
 20
0.076531
 30
0.0
 11
0.009913
 21
0.077473
 31
0.0
  0
LINE
  5
A8
330
6F
100
AcDbEntity
  8
0
  6
Continuous
100
AcDbLine
 10
0.019
 20
0.059841
 30
0.0
 11
0.019
 21
0.06266
 31
0.0
  0
LINE
  5
A9
330
6F
100
AcDbEntity
  8
0
  6
Continuous
100
AcDbLine
 10
0.01567
 20
0.07481
 30
0.0
 11
0.016421
 21
0.071126
 31
0.0
  0
LINE
  5
AA
330
6F
100
AcDbEntity
  8
0
  6
Continuous
100
AcDbLine
 10
0.009481
 20
0.06748
 30
0.0
 11
0.004907
 21
0.067565
 31
0.0
  0
LINE
  5
AB
330
6F
100
AcDbEntity
  8
0
  6
Continuous
100
AcDbLine
 10
0.013409
 20
0.071126
 30
0.0
 11
0.009461
 21
0.071126
 31
0.0
  0
LINE
  5
AC
330
6F
100
AcDbEntity
  8
0
  6
Continuous
100
AcDbLine
 10
0.013407
 20
0.0673
 30
0.0
 11
0.009481
 21
0.06748
 31
0.0
  0
LINE
  5
AD
330
6F
100
AcDbEntity
  8
0
  6
Continuous
100
AcDbLine
 10
0.013405
 20
0.069507
 30
0.0
 11
0.016417
 21
0.069171
 31
0.0
  0
LINE
  5
AE
330
6F
100
AcDbEntity
  8
0
  6
Continuous
100
AcDbLine
 10
0.016421
 20
0.071126
 30
0.0
 11
0.013409
 21
0.071126
 31
0.0
  0
LINE
  5
AF
330
6F
100
AcDbEntity
  8
0
  6
Continuous
100
AcDbLine
 10
0.016423
 20
0.066726
 30
0.0
 11
0.013407
 21
0.0673
 31
0.0
  0
LINE
  5
B0
330
6F
100
AcDbEntity
  8
0
  6
Continuous
100
AcDbLine
 10
0.019
 20
0.06266
 30
0.0
 11
0.019
 21
0.065479
 31
0.0
  0
LINE
  5
B1
330
6F
100
AcDbEntity
  8
0
  6
Continuous
100
AcDbLine
 10
0.014742
 20
0.075194
 30
0.0
 11
0.013802
 21
0.07553
 31
0.0
  0
LINE
  5
B2
330
6F
100
AcDbEntity
  8
0
  6
Continuous
100
AcDbLine
 10
0.014979
 20
0.077775
 30
0.0
 11
0.014091
 21
0.077907
 31
0.0
  0
LINE
  5
B3
330
6F
100
AcDbEntity
  8
0
  6
Continuous
100
AcDbLine
 10
0.012397
 20
0.076044
 30
0.0
 11
0.013802
 21
0.07553
 31
0.0
  0
LINE
  5
B4
330
6F
100
AcDbEntity
  8
0
  6
Continuous
100
AcDbLine
 10
0.009555
 20
0.079119
 30
0.0
 11
0.006432
 21
0.079496
 31
0.0
  0
LINE
  5
B5
330
6F
100
AcDbEntity
  8
0
  6
Continuous
100
AcDbLine
 10
0.019
 20
0.047275
 30
0.0
 11
0.019
 21
0.059841
 31
0.0
  0
LINE
  5
B6
330
6F
100
AcDbEntity
  8
0
  6
Continuous
100
AcDbLine
 10
-0.019
 20
0.073936
 30
0.0
 11
-0.019
 21
0.071126
 31
0.0
  0
LINE
  5
B7
330
6F
100
AcDbEntity
  8
0
  6
Continuous
100
AcDbLine
 10
-0.017119
 20
0.081001
 30
0.0
 11
-0.017888
 21
0.081001
 31
0.0
  0
LINE
  5
B8
330
6F
100
AcDbEntity
  8
0
  6
Continuous
100
AcDbLine
 10
-0.019
 20
0.077193
 30
0.0
 11
-0.019
 21
0.073936
 31
0.0
  0
LINE
  5
B9
330
6F
100
AcDbEntity
  8
0
  6
Continuous
100
AcDbLine
 10
-0.019
 20
0.080449
 30
0.0
 11
-0.019
 21
0.077193
 31
0.0
  0
LINE
  5
BA
330
6F
100
AcDbEntity
  8
0
  6
Continuous
100
AcDbLine
 10
-0.017888
 20
0.081001
 30
0.0
 11
-0.018657
 21
0.081001
 31
0.0
  0
LINE
  5
BB
330
6F
100
AcDbEntity
  8
0
  6
Continuous
100
AcDbLine
 10
-0.015598
 20
0.081001
 30
0.0
 11
-0.016105
 21
0.081001
 31
0.0
  0
LINE
  5
BC
330
6F
100
AcDbEntity
  8
0
  6
Continuous
100
AcDbLine
 10
-0.016105
 20
0.081001
 30
0.0
 11
-0.016612
 21
0.081001
 31
0.0
  0
LINE
  5
BD
330
6F
100
AcDbEntity
  8
0
  6
Continuous
100
AcDbLine
 10
-0.014077
 20
0.081001
 30
0.0
 11
-0.014838
 21
0.081001
 31
0.0
  0
LINE
  5
BE
330
6F
100
AcDbEntity
  8
0
  6
Continuous
100
AcDbLine
 10
-0.012856
 20
0.081001
 30
0.0
 11
-0.014077
 21
0.081001
 31
0.0
  0
LINE
  5
BF
330
6F
100
AcDbEntity
  8
0
  6
Continuous
100
AcDbLine
 10
-0.016612
 20
0.081001
 30
0.0
 11
-0.017119
 21
0.081001
 31
0.0
  0
LINE
  5
C0
330
6F
100
AcDbEntity
  8
0
  6
Continuous
100
AcDbLine
 10
0.0
 20
0.081001
 30
0.0
 11
-0.003216
 21
0.081001
 31
0.0
  0
LINE
  5
C1
330
6F
100
AcDbEntity
  8
0
  6
Continuous
100
AcDbLine
 10
-0.014838
 20
0.081001
 30
0.0
 11
-0.015598
 21
0.081001
 31
0.0
  0
LINE
  5
C2
330
6F
100
AcDbEntity
  8
0
  6
Continuous
100
AcDbLine
 10
-0.019
 20
0.081001
 30
0.0
 11
-0.019
 21
0.080449
 31
0.0
  0
LINE
  5
C3
330
6F
100
AcDbEntity
  8
0
  6
Continuous
100
AcDbLine
 10
-0.018657
 20
0.081001
 30
0.0
 11
-0.019
 21
0.081001
 31
0.0
  0
LINE
  5
C4
330
6F
100
AcDbEntity
  8
0
  6
Continuous
100
AcDbLine
 10
-0.003216
 20
0.081001
 30
0.0
 11
-0.006432
 21
0.081001
 31
0.0
  0
LINE
  5
C5
330
6F
100
AcDbEntity
  8
0
  6
Continuous
100
AcDbLine
 10
-0.012856
 20
0.081001
 30
0.0
 11
-0.012699
 21
0.080433
 31
0.0
  0
LINE
  5
C6
330
6F
100
AcDbEntity
  8
0
  6
Continuous
100
AcDbLine
 10
-0.010085
 20
0.081001
 30
0.0
 11
-0.012856
 21
0.081001
 31
0.0
  0
LINE
  5
C7
330
6F
100
AcDbEntity
  8
0
  6
Continuous
100
AcDbLine
 10
-0.010085
 20
0.081001
 30
0.0
 11
-0.009983
 21
0.080429
 31
0.0
  0
LINE
  5
C8
330
6F
100
AcDbEntity
  8
0
  6
Continuous
100
AcDbLine
 10
-0.006432
 20
0.081001
 30
0.0
 11
-0.010085
 21
0.081001
 31
0.0
  0
LINE
  5
C9
330
6F
100
AcDbEntity
  8
0
  6
Continuous
100
AcDbLine
 10
-0.018353
 20
0.081001
 30
0.0
 11
-0.017655
 21
0.081001
 31
0.0
  0
LINE
  5
CA
330
6F
100
AcDbEntity
  8
0
  6
Continuous
100
AcDbLine
 10
-0.016455
 20
0.081001
 30
0.0
 11
-0.018353
 21
0.081001
 31
0.0
  0
LINE
  5
CB
330
6F
100
AcDbEntity
  8
0
  6
Continuous
100
AcDbLine
 10
-0.013435
 20
0.081001
 30
0.0
 11
-0.016455
 21
0.081001
 31
0.0
  0
LINE
  5
CC
330
6F
100
AcDbEntity
  8
0
  6
Continuous
100
AcDbLine
 10
-0.01567
 20
0.07481
 30
0.0
 11
-0.014742
 21
0.075194
 31
0.0
  0
LINE
  5
CD
330
6F
100
AcDbEntity
  8
0
  6
Continuous
100
AcDbLine
 10
-0.010996
 20
0.076531
 30
0.0
 11
-0.012397
 21
0.076044
 31
0.0
  0
LINE
  5
CE
330
6F
100
AcDbEntity
  8
0
  6
Continuous
100
AcDbLine
 10
-0.016455
 20
0.046801
 30
0.0
 11
-0.018353
 21
0.046801
 31
0.0
  0
LINE
  5
CF
330
6F
100
AcDbEntity
  8
0
  6
Continuous
100
AcDbLine
 10
-0.019
 20
0.047275
 30
0.0
 11
-0.019
 21
0.046801
 31
0.0
  0
LINE
  5
D0
330
6F
100
AcDbEntity
  8
0
  6
Continuous
100
AcDbLine
 10
-0.019
 20
0.046801
 30
0.0
 11
-0.018353
 21
0.046801
 31
0.0
  0
LINE
  5
D1
330
6F
100
AcDbEntity
  8
0
  6
Continuous
100
AcDbLine
 10
-0.016455
 20
0.046801
 30
0.0
 11
-0.013435
 21
0.046801
 31
0.0
  0
LINE
  5
D2
330
6F
100
AcDbEntity
  8
0
  6
Continuous
100
AcDbLine
 10
-0.013435
 20
0.046801
 30
0.0
 11
-0.0095
 21
0.046801
 31
0.0
  0
LINE
  5
D3
330
6F
100
AcDbEntity
  8
0
  6
Continuous
100
AcDbLine
 10
-0.0095
 20
0.046801
 30
0.0
 11
-0.004918
 21
0.046801
 31
0.0
  0
LINE
  5
D4
330
6F
100
AcDbEntity
  8
0
  6
Continuous
100
AcDbLine
 10
-0.004918
 20
0.046801
 30
0.0
 11
0.0
 21
0.046801
 31
0.0
  0
LINE
  5
D5
330
6F
100
AcDbEntity
  8
0
  6
Continuous
100
AcDbLine
 10
0.0
 20
0.081001
 30
0.0
 11
-0.003356
 21
0.081001
 31
0.0
  0
LINE
  5
D6
330
6F
100
AcDbEntity
  8
0
  6
Continuous
100
AcDbLine
 10
-0.003356
 20
0.081001
 30
0.0
 11
-0.003231
 21
0.081001
 31
0.0
  0
LINE
  5
D7
330
6F
100
AcDbEntity
  8
0
  6
Continuous
100
AcDbLine
 10
-0.013152
 20
0.081001
 30
0.0
 11
-0.01287
 21
0.081001
 31
0.0
  0
LINE
  5
D8
330
6F
100
AcDbEntity
  8
0
  6
Continuous
100
AcDbLine
 10
-0.009198
 20
0.081001
 30
0.0
 11
-0.013152
 21
0.081001
 31
0.0
  0
LINE
  5
D9
330
6F
100
AcDbEntity
  8
0
  6
Continuous
100
AcDbLine
 10
-0.012699
 20
0.080433
 30
0.0
 11
-0.011816
 21
0.078559
 31
0.0
  0
LINE
  5
DA
330
6F
100
AcDbEntity
  8
0
  6
Continuous
100
AcDbLine
 10
-0.006432
 20
0.079496
 30
0.0
 11
-0.006432
 21
0.08041
 31
0.0
  0
LINE
  5
DB
330
6F
100
AcDbEntity
  8
0
  6
Continuous
100
AcDbLine
 10
-0.009555
 20
0.079119
 30
0.0
 11
-0.006432
 21
0.08041
 31
0.0
  0
LINE
  5
DC
330
6F
100
AcDbEntity
  8
0
  6
Continuous
100
AcDbLine
 10
-0.009983
 20
0.080429
 30
0.0
 11
-0.009555
 21
0.079119
 31
0.0
  0
LINE
  5
DD
330
6F
100
AcDbEntity
  8
0
  6
Continuous
100
AcDbLine
 10
-0.006432
 20
0.08041
 30
0.0
 11
-0.009983
 21
0.080429
 31
0.0
  0
LINE
  5
DE
330
6F
100
AcDbEntity
  8
0
  6
Continuous
100
AcDbLine
 10
-0.019
 20
0.068298
 30
0.0
 11
-0.019
 21
0.065479
 31
0.0
  0
LINE
  5
DF
330
6F
100
AcDbEntity
  8
0
  6
Continuous
100
AcDbLine
 10
-0.009914
 20
0.077473
 30
0.0
 11
-0.00892
 21
0.07829
 31
0.0
  0
LINE
  5
E0
330
6F
100
AcDbEntity
  8
0
  6
Continuous
100
AcDbLine
 10
-0.009555
 20
0.079119
 30
0.0
 11
-0.011816
 21
0.078559
 31
0.0
  0
LINE
  5
E1
330
6F
100
AcDbEntity
  8
0
  6
Continuous
100
AcDbLine
 10
-0.014091
 20
0.077907
 30
0.0
 11
-0.013249
 21
0.078013
 31
0.0
  0
LINE
  5
E2
330
6F
100
AcDbEntity
  8
0
  6
Continuous
100
AcDbLine
 10
-0.019
 20
0.071126
 30
0.0
 11
-0.019
 21
0.068298
 31
0.0
  0
LINE
  5
E3
330
6F
100
AcDbEntity
  8
0
  6
Continuous
100
AcDbLine
 10
-0.011816
 20
0.078559
 30
0.0
 11
-0.013249
 21
0.078013
 31
0.0
  0
LINE
  5
E4
330
6F
100
AcDbEntity
  8
0
  6
Continuous
100
AcDbLine
 10
-0.003216
 20
0.079496
 30
0.0
 11
-0.006432
 21
0.079496
 31
0.0
  0
LINE
  5
E5
330
6F
100
AcDbEntity
  8
0
  6
Continuous
100
AcDbLine
 10
0.0
 20
0.079496
 30
0.0
 11
-0.003216
 21
0.079496
 31
0.0
  0
LINE
  5
E6
330
6F
100
AcDbEntity
  8
0
  6
Continuous
100
AcDbLine
 10
-0.009914
 20
0.077473
 30
0.0
 11
-0.010996
 21
0.076531
 31
0.0
  0
LINE
  5
E7
330
6F
100
AcDbEntity
  8
0
  6
Continuous
100
AcDbLine
 10
-0.019
 20
0.06266
 30
0.0
 11
-0.019
 21
0.059841
 31
0.0
  0
LINE
  5
E8
330
6F
100
AcDbEntity
  8
0
  6
Continuous
100
AcDbLine
 10
-0.01567
 20
0.07481
 30
0.0
 11
-0.016421
 21
0.071126
 31
0.0
  0
LINE
  5
E9
330
6F
100
AcDbEntity
  8
0
  6
Continuous
100
AcDbLine
 10
-0.004907
 20
0.067565
 30
0.0
 11
-0.009481
 21
0.06748
 31
0.0
  0
LINE
  5
EA
330
6F
100
AcDbEntity
  8
0
  6
Continuous
100
AcDbLine
 10
-0.009461
 20
0.071126
 30
0.0
 11
-0.013409
 21
0.071126
 31
0.0
  0
LINE
  5
EB
330
6F
100
AcDbEntity
  8
0
  6
Continuous
100
AcDbLine
 10
-0.009481
 20
0.06748
 30
0.0
 11
-0.013407
 21
0.0673
 31
0.0
  0
LINE
  5
EC
330
6F
100
AcDbEntity
  8
0
  6
Continuous
100
AcDbLine
 10
-0.013409
 20
0.071126
 30
0.0
 11
-0.016421
 21
0.071126
 31
0.0
  0
LINE
  5
ED
330
6F
100
AcDbEntity
  8
0
  6
Continuous
100
AcDbLine
 10
-0.016417
 20
0.069171
 30
0.0
 11
-0.013405
 21
0.069507
 31
0.0
  0
LINE
  5
EE
330
6F
100
AcDbEntity
  8
0
  6
Continuous
100
AcDbLine
 10
-0.013407
 20
0.0673
 30
0.0
 11
-0.016423
 21
0.066726
 31
0.0
  0
LINE
  5
EF
330
6F
100
AcDbEntity
  8
0
  6
Continuous
100
AcDbLine
 10
-0.019
 20
0.065479
 30
0.0
 11
-0.019
 21
0.06266
 31
0.0
  0
LINE
  5
F0
330
6F
100
AcDbEntity
  8
0
  6
Continuous
100
AcDbLine
 10
-0.013802
 20
0.07553
 30
0.0
 11
-0.014742
 21
0.075194
 31
0.0
  0
LINE
  5
F1
330
6F
100
AcDbEntity
  8
0
  6
Continuous
100
AcDbLine
 10
-0.013802
 20
0.07553
 30
0.0
 11
-0.012397
 21
0.076044
 31
0.0
  0
LINE
  5
F2
330
6F
100
AcDbEntity
  8
0
  6
Continuous
100
AcDbLine
 10
-0.014091
 20
0.077907
 30
0.0
 11
-0.014979
 21
0.077775
 31
0.0
  0
LINE
  5
F3
330
6F
100
AcDbEntity
  8
0
  6
Continuous
100
AcDbLine
 10
-0.006432
 20
0.079496
 30
0.0
 11
-0.009555
 21
0.079119
 31
0.0
  0
LINE
  5
F4
330
6F
100
AcDbEntity
  8
0
  6
Continuous
100
AcDbLine
 10
-0.019
 20
0.059841
 30
0.0
 11
-0.019
 21
0.047275
 31
0.0
  0
LINE
  5
F5
330
6F
100
AcDbEntity
  8
0
  6
Continuous
100
AcDbLine
 10
0.023
 20
-0.081001
 30
0.0
 11
0.022984
 21
-0.080001
 31
0.0
  0
LINE
  5
F6
330
6F
100
AcDbEntity
  8
0
  6
Continuous
100
AcDbLine
 10
0.022218
 20
-0.081001
 30
0.0
 11
0.023
 21
-0.081001
 31
0.0
  0
LINE
  5
F7
330
6F
100
AcDbEntity
  8
0
  6
Continuous
100
AcDbLine
 10
0.019922
 20
-0.081001
 30
0.0
 11
0.022218
 21
-0.081001
 31
0.0
  0
LINE
  5
F8
330
6F
100
AcDbEntity
  8
0
  6
Continuous
100
AcDbLine
 10
0.005954
 20
-0.081001
 30
0.0
 11
0.011503
 21
-0.081001
 31
0.0
  0
LINE
  5
F9
330
6F
100
AcDbEntity
  8
0
  6
Continuous
100
AcDbLine
 10
0.0
 20
-0.081001
 30
0.0
 11
0.005954
 21
-0.081001
 31
0.0
  0
LINE
  5
FA
330
6F
100
AcDbEntity
  8
0
  6
Continuous
100
AcDbLine
 10
0.016267
 20
-0.081001
 30
0.0
 11
0.019922
 21
-0.081001
 31
0.0
  0
LINE
  5
FB
330
6F
100
AcDbEntity
  8
0
  6
Continuous
100
AcDbLine
 10
0.011503
 20
-0.081001
 30
0.0
 11
0.016267
 21
-0.081001
 31
0.0
  0
LINE
  5
FC
330
6F
100
AcDbEntity
  8
0
  6
Continuous
100
AcDbLine
 10
-0.022968
 20
-0.080002
 30
0.0
 11
-0.023
 21
-0.081001
 31
0.0
  0
LINE
  5
FD
330
6F
100
AcDbEntity
  8
0
  6
Continuous
100
AcDbLine
 10
-0.022218
 20
-0.081001
 30
0.0
 11
-0.023
 21
-0.081001
 31
0.0
  0
LINE
  5
FE
330
6F
100
AcDbEntity
  8
0
  6
Continuous
100
AcDbLine
 10
-0.019922
 20
-0.081001
 30
0.0
 11
-0.022218
 21
-0.081001
 31
0.0
  0
LINE
  5
FF
330
6F
100
AcDbEntity
  8
0
  6
Continuous
100
AcDbLine
 10
-0.005954
 20
-0.081001
 30
0.0
 11
-0.011503
 21
-0.081001
 31
0.0
  0
LINE
  5
100
330
6F
100
AcDbEntity
  8
0
  6
Continuous
100
AcDbLine
 10
0.0
 20
-0.081001
 30
0.0
 11
-0.005954
 21
-0.081001
 31
0.0
  0
LINE
  5
101
330
6F
100
AcDbEntity
  8
0
  6
Continuous
100
AcDbLine
 10
-0.016267
 20
-0.081001
 30
0.0
 11
-0.019922
 21
-0.081001
 31
0.0
  0
LINE
  5
102
330
6F
100
AcDbEntity
  8
0
  6
Continuous
100
AcDbLine
 10
-0.011503
 20
-0.081001
 30
0.0
 11
-0.016267
 21
-0.081001
 31
0.0
  0
LINE
  5
103
330
6F
100
AcDbEntity
  8
0
  6
Continuous
100
AcDbLine
 10
0.022984
 20
-0.080001
 30
0.0
 11
0.020516
 21
-0.00242
 31
0.0
  0
LINE
  5
104
330
6F
100
AcDbEntity
  8
0
  6
Continuous
100
AcDbLine
 10
0.020516
 20
-0.00242
 30
0.0
 11
0.020199
 21
0.007609
 31
0.0
  0
LINE
  5
105
330
6F
100
AcDbEntity
  8
0
  6
Continuous
100
AcDbLine
 10
0.019869
 20
0.017998
 30
0.0
 11
0.019546
 21
0.028206
 31
0.0
  0
LINE
  5
106
330
6F
100
AcDbEntity
  8
0
  6
Continuous
100
AcDbLine
 10
0.020199
 20
0.007609
 30
0.0
 11
0.019869
 21
0.017998
 31
0.0
  0
LINE
  5
107
330
6F
100
AcDbEntity
  8
0
  6
Continuous
100
AcDbLine
 10
0.014454
 20
0.045004
 30
0.0
 11
0.012511
 21
0.045004
 31
0.0
  0
LINE
  5
108
330
6F
100
AcDbEntity
  8
0
  6
Continuous
100
AcDbLine
 10
0.019223
 20
0.038415
 30
0.0
 11
0.019034
 21
0.044354
 31
0.0
  0
LINE
  5
109
330
6F
100
AcDbEntity
  8
0
  6
Continuous
100
AcDbLine
 10
0.019
 20
0.045004
 30
0.0
 11
0.01755
 21
0.045004
 31
0.0
  0
LINE
  5
10A
330
6F
100
AcDbEntity
  8
0
  6
Continuous
100
AcDbLine
 10
0.012511
 20
0.045004
 30
0.0
 11
0.0
 21
0.045004
 31
0.0
  0
LINE
  5
10B
330
6F
100
AcDbEntity
  8
0
  6
Continuous
100
AcDbLine
 10
0.017514
 20
0.045004
 30
0.0
 11
0.016852
 21
0.045004
 31
0.0
  0
LINE
  5
10C
330
6F
100
AcDbEntity
  8
0
  6
Continuous
100
AcDbLine
 10
0.016852
 20
0.045004
 30
0.0
 11
0.014454
 21
0.045004
 31
0.0
  0
LINE
  5
10D
330
6F
100
AcDbEntity
  8
0
  6
Continuous
100
AcDbLine
 10
0.016759
 20
0.044017
 30
0.0
 11
0.016852
 21
0.045004
 31
0.0
  0
LINE
  5
10E
330
6F
100
AcDbEntity
  8
0
  6
Continuous
100
AcDbLine
 10
0.019034
 20
0.044354
 30
0.0
 11
0.019
 21
0.045004
 31
0.0
  0
LINE
  5
10F
330
6F
100
AcDbEntity
  8
0
  6
Continuous
100
AcDbLine
 10
0.015757
 20
0.03577
 30
0.0
 11
0.016358
 21
0.039768
 31
0.0
  0
LINE
  5
110
330
6F
100
AcDbEntity
  8
0
  6
Continuous
100
AcDbLine
 10
0.012409
 20
0.028415
 30
0.0
 11
0.014753
 21
0.031891
 31
0.0
  0
LINE
  5
111
330
6F
100
AcDbEntity
  8
0
  6
Continuous
100
AcDbLine
 10
0.011274
 20
0.02756
 30
0.0
 11
0.012409
 21
0.028415
 31
0.0
  0
LINE
  5
112
330
6F
100
AcDbEntity
  8
0
  6
Continuous
100
AcDbLine
 10
0.014753
 20
0.031891
 30
0.0
 11
0.015757
 21
0.03577
 31
0.0
  0
LINE
  5
113
330
6F
100
AcDbEntity
  8
0
  6
Continuous
100
AcDbLine
 10
0.016759
 20
0.044017
 30
0.0
 11
0.016358
 21
0.039768
 31
0.0
  0
LINE
  5
114
330
6F
100
AcDbEntity
  8
0
  6
Continuous
100
AcDbLine
 10
0.019546
 20
0.028206
 30
0.0
 11
0.019223
 21
0.038415
 31
0.0
  0
LINE
  5
115
330
6F
100
AcDbEntity
  8
0
  6
Continuous
100
AcDbLine
 10
0.004977
 20
0.014196
 30
0.0
 11
0.009607
 21
0.015642
 31
0.0
  0
LINE
  5
116
330
6F
100
AcDbEntity
  8
0
  6
Continuous
100
AcDbLine
 10
0.0
 20
0.013687
 30
0.0
 11
0.004977
 21
0.014196
 31
0.0
  0
LINE
  5
117
330
6F
100
AcDbEntity
  8
0
  6
Continuous
100
AcDbLine
 10
-0.02051
 20
-0.00242
 30
0.0
 11
-0.022968
 21
-0.080002
 31
0.0
  0
LINE
  5
118
330
6F
100
AcDbEntity
  8
0
  6
Continuous
100
AcDbLine
 10
-0.020194
 20
0.007608
 30
0.0
 11
-0.02051
 21
-0.00242
 31
0.0
  0
LINE
  5
119
330
6F
100
AcDbEntity
  8
0
  6
Continuous
100
AcDbLine
 10
-0.019544
 20
0.028206
 30
0.0
 11
-0.019866
 21
0.017997
 31
0.0
  0
LINE
  5
11A
330
6F
100
AcDbEntity
  8
0
  6
Continuous
100
AcDbLine
 10
-0.019866
 20
0.017997
 30
0.0
 11
-0.020194
 21
0.007608
 31
0.0
  0
LINE
  5
11B
330
6F
100
AcDbEntity
  8
0
  6
Continuous
100
AcDbLine
 10
-0.012511
 20
0.045004
 30
0.0
 11
-0.014454
 21
0.045004
 31
0.0
  0
LINE
  5
11C
330
6F
100
AcDbEntity
  8
0
  6
Continuous
100
AcDbLine
 10
-0.019034
 20
0.044354
 30
0.0
 11
-0.019222
 21
0.038415
 31
0.0
  0
LINE
  5
11D
330
6F
100
AcDbEntity
  8
0
  6
Continuous
100
AcDbLine
 10
-0.01755
 20
0.045004
 30
0.0
 11
-0.019
 21
0.045004
 31
0.0
  0
LINE
  5
11E
330
6F
100
AcDbEntity
  8
0
  6
Continuous
100
AcDbLine
 10
0.0
 20
0.045004
 30
0.0
 11
-0.012511
 21
0.045004
 31
0.0
  0
LINE
  5
11F
330
6F
100
AcDbEntity
  8
0
  6
Continuous
100
AcDbLine
 10
-0.016852
 20
0.045004
 30
0.0
 11
-0.017514
 21
0.045004
 31
0.0
  0
LINE
  5
120
330
6F
100
AcDbEntity
  8
0
  6
Continuous
100
AcDbLine
 10
-0.016852
 20
0.045004
 30
0.0
 11
-0.016759
 21
0.044017
 31
0.0
  0
LINE
  5
121
330
6F
100
AcDbEntity
  8
0
  6
Continuous
100
AcDbLine
 10
-0.014454
 20
0.045004
 30
0.0
 11
-0.016852
 21
0.045004
 31
0.0
  0
LINE
  5
122
330
6F
100
AcDbEntity
  8
0
  6
Continuous
100
AcDbLine
 10
-0.019
 20
0.045004
 30
0.0
 11
-0.019034
 21
0.044354
 31
0.0
  0
LINE
  5
123
330
6F
100
AcDbEntity
  8
0
  6
Continuous
100
AcDbLine
 10
-0.016358
 20
0.039768
 30
0.0
 11
-0.015757
 21
0.03577
 31
0.0
  0
LINE
  5
124
330
6F
100
AcDbEntity
  8
0
  6
Continuous
100
AcDbLine
 10
-0.014753
 20
0.031891
 30
0.0
 11
-0.012409
 21
0.028415
 31
0.0
  0
LINE
  5
125
330
6F
100
AcDbEntity
  8
0
  6
Continuous
100
AcDbLine
 10
-0.012409
 20
0.028415
 30
0.0
 11
-0.011274
 21
0.02756
 31
0.0
  0
LINE
  5
126
330
6F
100
AcDbEntity
  8
0
  6
Continuous
100
AcDbLine
 10
-0.015757
 20
0.03577
 30
0.0
 11
-0.014753
 21
0.031891
 31
0.0
  0
LINE
  5
127
330
6F
100
AcDbEntity
  8
0
  6
Continuous
100
AcDbLine
 10
-0.016358
 20
0.039768
 30
0.0
 11
-0.016759
 21
0.044017
 31
0.0
  0
LINE
  5
128
330
6F
100
AcDbEntity
  8
0
  6
Continuous
100
AcDbLine
 10
-0.019222
 20
0.038415
 30
0.0
 11
-0.019544
 21
0.028206
 31
0.0
  0
LINE
  5
129
330
6F
100
AcDbEntity
  8
0
  6
Continuous
100
AcDbLine
 10
0.0
 20
-0.080001
 30
0.0
 11
0.0
 21
-0.003882
 31
0.0
  0
LINE
  5
12A
330
6F
100
AcDbEntity
  8
0
  6
Continuous
100
AcDbLine
 10
0.0
 20
0.008445
 30
0.0
 11
0.0
 21
0.013687
 31
0.0
  0
LINE
  5
12B
330
6F
100
AcDbEntity
  8
0
  6
Continuous
100
AcDbLine
 10
-0.009607
 20
0.015642
 30
0.0
 11
-0.004977
 21
0.014196
 31
0.0
  0
LINE
  5
12C
330
6F
100
AcDbEntity
  8
0
  6
Continuous
100
AcDbLine
 10
-0.004977
 20
0.014196
 30
0.0
 11
0.0
 21
0.013687
 31
0.0
  0
LINE
  5
12D
330
6F
100
AcDbEntity
  8
0
  6
Continuous
100
AcDbLine
 10
0.0
 20
0.013687
 30
0.0
 11
0.0
 21
0.017057
 31
0.0
  0
LINE
  5
12E
330
6F
100
AcDbEntity
  8
0
  6
Continuous
100
AcDbLine
 10
0.0
 20
0.017057
 30
0.0
 11
0.0
 21
0.018617
 31
0.0
  0
LINE
  5
12F
330
6F
100
AcDbEntity
  8
0
  6
Continuous
100
AcDbLine
 10
0.0
 20
0.002323
 30
0.0
 11
0.0
 21
0.008445
 31
0.0
  0
LINE
  5
130
330
6F
100
AcDbEntity
  8
0
  6
Continuous
100
AcDbLine
 10
-0.011274
 20
0.028716
 30
0.0
 11
-0.011274
 21
0.025386
 31
0.0
  0
LINE
  5
131
330
6F
100
AcDbEntity
  8
0
  6
Continuous
100
AcDbLine
 10
0.011274
 20
0.025386
 30
0.0
 11
0.011274
 21
0.028716
 31
0.0
  0
LINE
  5
132
330
6F
100
AcDbEntity
  8
0
  6
Continuous
100
AcDbLine
 10
-0.003484
 20
0.019689
 30
0.0
 11
0.0
 21
0.019419
 31
0.0
  0
LINE
  5
133
330
6F
100
AcDbEntity
  8
0
  6
Continuous
100
AcDbLine
 10
-0.006627
 20
0.020475
 30
0.0
 11
-0.003484
 21
0.019689
 31
0.0
  0
LINE
  5
134
330
6F
100
AcDbEntity
  8
0
  6
Continuous
100
AcDbLine
 10
-0.009121
 20
0.021699
 30
0.0
 11
-0.006627
 21
0.020475
 31
0.0
  0
LINE
  5
135
330
6F
100
AcDbEntity
  8
0
  6
Continuous
100
AcDbLine
 10
-0.010722
 20
0.023241
 30
0.0
 11
-0.009121
 21
0.021699
 31
0.0
  0
LINE
  5
136
330
6F
100
AcDbEntity
  8
0
  6
Continuous
100
AcDbLine
 10
-0.011274
 20
0.02495
 30
0.0
 11
-0.010722
 21
0.023241
 31
0.0
  0
LINE
  5
137
330
6F
100
AcDbEntity
  8
0
  6
Continuous
100
AcDbLine
 10
-0.011274
 20
0.025386
 30
0.0
 11
-0.011274
 21
0.02495
 31
0.0
  0
LINE
  5
138
330
6F
100
AcDbEntity
  8
0
  6
Continuous
100
AcDbLine
 10
-0.010722
 20
0.026659
 30
0.0
 11
-0.011274
 21
0.02495
 31
0.0
  0
LINE
  5
139
330
6F
100
AcDbEntity
  8
0
  6
Continuous
100
AcDbLine
 10
-0.009121
 20
0.028201
 30
0.0
 11
-0.010722
 21
0.026659
 31
0.0
  0
LINE
  5
13A
330
6F
100
AcDbEntity
  8
0
  6
Continuous
100
AcDbLine
 10
-0.006627
 20
0.029425
 30
0.0
 11
-0.009121
 21
0.028201
 31
0.0
  0
LINE
  5
13B
330
6F
100
AcDbEntity
  8
0
  6
Continuous
100
AcDbLine
 10
-0.003484
 20
0.03021
 30
0.0
 11
-0.006627
 21
0.029425
 31
0.0
  0
LINE
  5
13C
330
6F
100
AcDbEntity
  8
0
  6
Continuous
100
AcDbLine
 10
0.0
 20
0.030481
 30
0.0
 11
-0.003484
 21
0.03021
 31
0.0
  0
LINE
  5
13D
330
6F
100
AcDbEntity
  8
0
  6
Continuous
100
AcDbLine
 10
0.003484
 20
0.03021
 30
0.0
 11
0.0
 21
0.030481
 31
0.0
  0
LINE
  5
13E
330
6F
100
AcDbEntity
  8
0
  6
Continuous
100
AcDbLine
 10
0.006627
 20
0.029425
 30
0.0
 11
0.003484
 21
0.03021
 31
0.0
  0
LINE
  5
13F
330
6F
100
AcDbEntity
  8
0
  6
Continuous
100
AcDbLine
 10
0.009121
 20
0.028201
 30
0.0
 11
0.006627
 21
0.029425
 31
0.0
  0
LINE
  5
140
330
6F
100
AcDbEntity
  8
0
  6
Continuous
100
AcDbLine
 10
0.010722
 20
0.026659
 30
0.0
 11
0.009121
 21
0.028201
 31
0.0
  0
LINE
  5
141
330
6F
100
AcDbEntity
  8
0
  6
Continuous
100
AcDbLine
 10
0.011274
 20
0.02495
 30
0.0
 11
0.011274
 21
0.025386
 31
0.0
  0
LINE
  5
142
330
6F
100
AcDbEntity
  8
0
  6
Continuous
100
AcDbLine
 10
0.011274
 20
0.02495
 30
0.0
 11
0.010722
 21
0.026659
 31
0.0
  0
LINE
  5
143
330
6F
100
AcDbEntity
  8
0
  6
Continuous
100
AcDbLine
 10
0.010722
 20
0.023241
 30
0.0
 11
0.011274
 21
0.02495
 31
0.0
  0
LINE
  5
144
330
6F
100
AcDbEntity
  8
0
  6
Continuous
100
AcDbLine
 10
0.009121
 20
0.021699
 30
0.0
 11
0.010722
 21
0.023241
 31
0.0
  0
LINE
  5
145
330
6F
100
AcDbEntity
  8
0
  6
Continuous
100
AcDbLine
 10
0.006627
 20
0.020475
 30
0.0
 11
0.009121
 21
0.021699
 31
0.0
  0
LINE
  5
146
330
6F
100
AcDbEntity
  8
0
  6
Continuous
100
AcDbLine
 10
0.003484
 20
0.019689
 30
0.0
 11
0.006627
 21
0.020475
 31
0.0
  0
LINE
  5
147
330
6F
100
AcDbEntity
  8
0
  6
Continuous
100
AcDbLine
 10
0.0
 20
0.019419
 30
0.0
 11
0.003484
 21
0.019689
 31
0.0
  0
LINE
  5
148
330
6F
100
AcDbEntity
  8
0
  6
Continuous
100
AcDbLine
 10
0.002585
 20
0.021294
 30
0.0
 11
0.004918
 21
0.021877
 31
0.0
  0
LINE
  5
149
330
6F
100
AcDbEntity
  8
0
  6
Continuous
100
AcDbLine
 10
-0.004918
 20
0.021877
 30
0.0
 11
-0.006769
 21
0.022786
 31
0.0
  0
LINE
  5
14A
330
6F
100
AcDbEntity
  8
0
  6
Continuous
100
AcDbLine
 10
0.002585
 20
0.021294
 30
0.0
 11
0.0
 21
0.021093
 31
0.0
  0
LINE
  5
14B
330
6F
100
AcDbEntity
  8
0
  6
Continuous
100
AcDbLine
 10
-0.006769
 20
0.022786
 30
0.0
 11
-0.007957
 21
0.02393
 31
0.0
  0
LINE
  5
14C
330
6F
100
AcDbEntity
  8
0
  6
Continuous
100
AcDbLine
 10
0.008367
 20
0.025198
 30
0.0
 11
0.007957
 21
0.02393
 31
0.0
  0
LINE
  5
14D
330
6F
100
AcDbEntity
  8
0
  6
Continuous
100
AcDbLine
 10
0.007957
 20
0.02393
 30
0.0
 11
0.006769
 21
0.022786
 31
0.0
  0
LINE
  5
14E
330
6F
100
AcDbEntity
  8
0
  6
Continuous
100
AcDbLine
 10
-0.007957
 20
0.02393
 30
0.0
 11
-0.008367
 21
0.025198
 31
0.0
  0
LINE
  5
14F
330
6F
100
AcDbEntity
  8
0
  6
Continuous
100
AcDbLine
 10
0.0
 20
0.021093
 30
0.0
 11
-0.002585
 21
0.021294
 31
0.0
  0
LINE
  5
150
330
6F
100
AcDbEntity
  8
0
  6
Continuous
100
AcDbLine
 10
0.006769
 20
0.022786
 30
0.0
 11
0.004918
 21
0.021877
 31
0.0
  0
LINE
  5
151
330
6F
100
AcDbEntity
  8
0
  6
Continuous
100
AcDbLine
 10
-0.002585
 20
0.021294
 30
0.0
 11
-0.004918
 21
0.021877
 31
0.0
  0
LINE
  5
152
330
6F
100
AcDbEntity
  8
0
  6
Continuous
100
AcDbLine
 10
0.002585
 20
0.021046
 30
0.0
 11
0.0
 21
0.020845
 31
0.0
  0
LINE
  5
153
330
6F
100
AcDbEntity
  8
0
  6
Continuous
100
AcDbLine
 10
0.004918
 20
0.021629
 30
0.0
 11
0.002585
 21
0.021046
 31
0.0
  0
LINE
  5
154
330
6F
100
AcDbEntity
  8
0
  6
Continuous
100
AcDbLine
 10
0.006769
 20
0.022537
 30
0.0
 11
0.004918
 21
0.021629
 31
0.0
  0
LINE
  5
155
330
6F
100
AcDbEntity
  8
0
  6
Continuous
100
AcDbLine
 10
0.007957
 20
0.023681
 30
0.0
 11
0.006769
 21
0.022537
 31
0.0
  0
LINE
  5
156
330
6F
100
AcDbEntity
  8
0
  6
Continuous
100
AcDbLine
 10
0.008367
 20
0.02495
 30
0.0
 11
0.007957
 21
0.023681
 31
0.0
  0
LINE
  5
157
330
6F
100
AcDbEntity
  8
0
  6
Continuous
100
AcDbLine
 10
0.007957
 20
0.026218
 30
0.0
 11
0.008367
 21
0.02495
 31
0.0
  0
LINE
  5
158
330
6F
100
AcDbEntity
  8
0
  6
Continuous
100
AcDbLine
 10
0.006769
 20
0.027363
 30
0.0
 11
0.007957
 21
0.026218
 31
0.0
  0
LINE
  5
159
330
6F
100
AcDbEntity
  8
0
  6
Continuous
100
AcDbLine
 10
0.004918
 20
0.028271
 30
0.0
 11
0.006769
 21
0.027363
 31
0.0
  0
LINE
  5
15A
330
6F
100
AcDbEntity
  8
0
  6
Continuous
100
AcDbLine
 10
0.002585
 20
0.028854
 30
0.0
 11
0.004918
 21
0.028271
 31
0.0
  0
LINE
  5
15B
330
6F
100
AcDbEntity
  8
0
  6
Continuous
100
AcDbLine
 10
0.0
 20
0.029055
 30
0.0
 11
0.002585
 21
0.028854
 31
0.0
  0
LINE
  5
15C
330
6F
100
AcDbEntity
  8
0
  6
Continuous
100
AcDbLine
 10
-0.002585
 20
0.028854
 30
0.0
 11
0.0
 21
0.029055
 31
0.0
  0
LINE
  5
15D
330
6F
100
AcDbEntity
  8
0
  6
Continuous
100
AcDbLine
 10
-0.004918
 20
0.028271
 30
0.0
 11
-0.002585
 21
0.028854
 31
0.0
  0
LINE
  5
15E
330
6F
100
AcDbEntity
  8
0
  6
Continuous
100
AcDbLine
 10
-0.006769
 20
0.027363
 30
0.0
 11
-0.004918
 21
0.028271
 31
0.0
  0
LINE
  5
15F
330
6F
100
AcDbEntity
  8
0
  6
Continuous
100
AcDbLine
 10
-0.007957
 20
0.026218
 30
0.0
 11
-0.006769
 21
0.027363
 31
0.0
  0
LINE
  5
160
330
6F
100
AcDbEntity
  8
0
  6
Continuous
100
AcDbLine
 10
-0.008367
 20
0.02495
 30
0.0
 11
-0.007957
 21
0.026218
 31
0.0
  0
LINE
  5
161
330
6F
100
AcDbEntity
  8
0
  6
Continuous
100
AcDbLine
 10
-0.007957
 20
0.023681
 30
0.0
 11
-0.008367
 21
0.02495
 31
0.0
  0
LINE
  5
162
330
6F
100
AcDbEntity
  8
0
  6
Continuous
100
AcDbLine
 10
-0.006769
 20
0.022537
 30
0.0
 11
-0.007957
 21
0.023681
 31
0.0
  0
LINE
  5
163
330
6F
100
AcDbEntity
  8
0
  6
Continuous
100
AcDbLine
 10
-0.004918
 20
0.021629
 30
0.0
 11
-0.006769
 21
0.022537
 31
0.0
  0
LINE
  5
164
330
6F
100
AcDbEntity
  8
0
  6
Continuous
100
AcDbLine
 10
-0.002585
 20
0.021046
 30
0.0
 11
-0.004918
 21
0.021629
 31
0.0
  0
LINE
  5
165
330
6F
100
AcDbEntity
  8
0
  6
Continuous
100
AcDbLine
 10
0.0
 20
0.020845
 30
0.0
 11
-0.002585
 21
0.021046
 31
0.0
  0
LINE
  5
166
330
6F
100
AcDbEntity
  8
0
  6
Continuous
100
AcDbLine
 10
0.010897
 20
0.029761
 30
0.0
 11
0.011111
 21
0.029154
 31
0.0
  0
LINE
  5
167
330
6F
100
AcDbEntity
  8
0
  6
Continuous
100
AcDbLine
 10
0.011111
 20
0.029154
 30
0.0
 11
0.011274
 21
0.028716
 31
0.0
  0
LINE
  5
168
330
6F
100
AcDbEntity
  8
0
  6
Continuous
100
AcDbLine
 10
0.006627
 20
0.033416
 30
0.0
 11
0.008112
 21
0.032509
 31
0.0
  0
LINE
  5
169
330
6F
100
AcDbEntity
  8
0
  6
Continuous
100
AcDbLine
 10
0.008112
 20
0.032509
 30
0.0
 11
0.009121
 21
0.031977
 31
0.0
  0
LINE
  5
16A
330
6F
100
AcDbEntity
  8
0
  6
Continuous
100
AcDbLine
 10
0.009879
 20
0.031192
 30
0.0
 11
0.010722
 21
0.03032
 31
0.0
  0
LINE
  5
16B
330
6F
100
AcDbEntity
  8
0
  6
Continuous
100
AcDbLine
 10
0.009121
 20
0.031977
 30
0.0
 11
0.009879
 21
0.031192
 31
0.0
  0
LINE
  5
16C
330
6F
100
AcDbEntity
  8
0
  6
Continuous
100
AcDbLine
 10
-0.009121
 20
0.031977
 30
0.0
 11
-0.008112
 21
0.032509
 31
0.0
  0
LINE
  5
16D
330
6F
100
AcDbEntity
  8
0
  6
Continuous
100
AcDbLine
 10
-0.008112
 20
0.032509
 30
0.0
 11
-0.006627
 21
0.033416
 31
0.0
  0
LINE
  5
16E
330
6F
100
AcDbEntity
  8
0
  6
Continuous
100
AcDbLine
 10
-0.010808
 20
0.030033
 30
0.0
 11
-0.010897
 21
0.029761
 31
0.0
  0
LINE
  5
16F
330
6F
100
AcDbEntity
  8
0
  6
Continuous
100
AcDbLine
 10
-0.010722
 20
0.03032
 30
0.0
 11
-0.010808
 21
0.030033
 31
0.0
  0
LINE
  5
170
330
6F
100
AcDbEntity
  8
0
  6
Continuous
100
AcDbLine
 10
-0.009121
 20
0.031977
 30
0.0
 11
-0.009879
 21
0.031192
 31
0.0
  0
LINE
  5
319
330
6F
100
AcDbEntity
  8
0
  6
Continuous
100
AcDbLine
 10
0.1939714865783638
 20
0.0468010000000001
 30
0.0
 11
0.1939714865783638
 21
0.0450040000000001
 31
0.0
  0
LINE
  5
31A
330
6F
100
AcDbEntity
  8
0
  6
Continuous
100
AcDbLine
 10
0.2290754865783638
 20
0.0450010000000001
 30
0.0
 11
0.2290754865783638
 21
0.0468010000000001
 31
0.0
  0
LINE
  5
31B
330
6F
100
AcDbEntity
  8
0
  6
Continuous
100
AcDbLine
 10
0.1787414865783637
 20
0.0720360000000001
 30
0.0
 11
0.1838094865783638
 21
0.0711260000000001
 31
0.0
  0
LINE
  5
31C
330
6F
100
AcDbEntity
  8
0
  6
Continuous
100
AcDbLine
 10
0.1922084865783638
 20
0.0612500000000001
 30
0.0
 11
0.1924594865783639
 21
0.0598410000000001
 31
0.0
  0
LINE
  5
31D
330
6F
100
AcDbEntity
  8
0
  6
Continuous
100
AcDbLine
 10
0.1954824865783638
 20
0.0810010000000001
 30
0.0
 11
0.2065544865783639
 21
0.0810010000000001
 31
0.0
  0
LINE
  5
31E
330
6F
100
AcDbEntity
  8
0
  6
Continuous
100
AcDbLine
 10
0.2065544865783639
 20
0.0810010000000001
 30
0.0
 11
0.1954824865783638
 21
0.0810010000000001
 31
0.0
  0
LINE
  5
31F
330
6F
100
AcDbEntity
  8
0
  6
Continuous
100
AcDbLine
 10
0.1954704865783637
 20
0.0810010000000001
 30
0.0
 11
0.1843874865783639
 21
0.0810010000000001
 31
0.0
  0
LINE
  5
320
330
6F
100
AcDbEntity
  8
0
  6
Continuous
100
AcDbLine
 10
0.2019794865783639
 20
0.0468010000000001
 30
0.0
 11
0.2065544865783639
 21
0.0468010000000001
 31
0.0
  0
LINE
  5
321
330
6F
100
AcDbEntity
  8
0
  6
Continuous
100
AcDbLine
 10
0.2114994865783638
 20
0.0810010000000001
 30
0.0
 11
0.2065544865783639
 21
0.0810010000000001
 31
0.0
  0
LINE
  5
322
330
6F
100
AcDbEntity
  8
0
  6
Continuous
100
AcDbLine
 10
0.2065544865783639
 20
0.0810010000000001
 30
0.0
 11
0.1954704865783637
 21
0.0810010000000001
 31
0.0
  0
LINE
  5
323
330
6F
100
AcDbEntity
  8
0
  6
Continuous
100
AcDbLine
 10
0.2305404865783638
 20
0.0739360000000001
 30
0.0
 11
0.2305404865783638
 21
0.0771930000000001
 31
0.0
  0
LINE
  5
324
330
6F
100
AcDbEntity
  8
0
  6
Continuous
100
AcDbLine
 10
0.1711784865783639
 20
0.0730930000000001
 30
0.0
 11
0.1787414865783637
 21
0.0720360000000001
 31
0.0
  0
LINE
  5
325
330
6F
100
AcDbEntity
  8
0
  6
Continuous
100
AcDbLine
 10
0.1697844865783638
 20
0.0810010000000001
 30
0.0
 11
0.1770974865783639
 21
0.0810010000000001
 31
0.0
  0
LINE
  5
326
330
6F
100
AcDbEntity
  8
0
  6
Continuous
100
AcDbLine
 10
0.1770974865783639
 20
0.0810010000000001
 30
0.0
 11
0.1697834865783638
 21
0.0810010000000001
 31
0.0
  0
LINE
  5
327
330
6F
100
AcDbEntity
  8
0
  6
Continuous
100
AcDbLine
 10
0.1697684865783639
 20
0.0810010000000001
 30
0.0
 11
0.1624584865783638
 21
0.0810010000000001
 31
0.0
  0
LINE
  5
328
330
6F
100
AcDbEntity
  8
0
  6
Continuous
100
AcDbLine
 10
0.1770774865783639
 20
0.0810010000000001
 30
0.0
 11
0.1697684865783639
 21
0.0810010000000001
 31
0.0
  0
LINE
  5
329
330
6F
100
AcDbEntity
  8
0
  6
Continuous
100
AcDbLine
 10
0.1514944865783638
 20
0.0810010000000001
 30
0.0
 11
0.1405304865783638
 21
0.0810010000000001
 31
0.0
  0
LINE
  5
32A
330
6F
100
AcDbEntity
  8
0
  6
Continuous
100
AcDbLine
 10
0.1405304865783638
 20
0.0810010000000001
 30
0.0
 11
0.1369584865783638
 21
0.0810010000000001
 31
0.0
  0
LINE
  5
32B
330
6F
100
AcDbEntity
  8
0
  6
Continuous
100
AcDbLine
 10
0.1843874865783639
 20
0.0810010000000001
 30
0.0
 11
0.1770774865783639
 21
0.0810010000000001
 31
0.0
  0
LINE
  5
32C
330
6F
100
AcDbEntity
  8
0
  6
Continuous
100
AcDbLine
 10
0.1342524865783637
 20
0.0810010000000001
 30
0.0
 11
0.1334714865783638
 21
0.0810010000000001
 31
0.0
  0
LINE
  5
32D
330
6F
100
AcDbEntity
  8
0
  6
Continuous
100
AcDbLine
 10
0.1334714865783638
 20
0.0810010000000001
 30
0.0
 11
0.1342524865783637
 21
0.0810010000000001
 31
0.0
  0
LINE
  5
32E
330
6F
100
AcDbEntity
  8
0
  6
Continuous
100
AcDbLine
 10
0.1624584865783638
 20
0.0810010000000001
 30
0.0
 11
0.1514944865783638
 21
0.0810010000000001
 31
0.0
  0
LINE
  5
32F
330
6F
100
AcDbEntity
  8
0
  6
Continuous
100
AcDbLine
 10
0.2114994865783638
 20
0.0810010000000001
 30
0.0
 11
0.2065544865783639
 21
0.0810010000000001
 31
0.0
  0
LINE
  5
330
330
6F
100
AcDbEntity
  8
0
  6
Continuous
100
AcDbLine
 10
0.1369584865783638
 20
0.0810010000000001
 30
0.0
 11
0.1343994865783638
 21
0.0810010000000001
 31
0.0
  0
LINE
  5
331
330
6F
100
AcDbEntity
  8
0
  6
Continuous
100
AcDbLine
 10
0.1370554865783639
 20
0.0804330000000001
 30
0.0
 11
0.1369584865783638
 21
0.0810010000000001
 31
0.0
  0
LINE
  5
332
330
6F
100
AcDbEntity
  8
0
  6
Continuous
100
AcDbLine
 10
0.1343994865783638
 20
0.0810010000000001
 30
0.0
 11
0.1334714865783638
 21
0.0810010000000001
 31
0.0
  0
LINE
  5
333
330
6F
100
AcDbEntity
  8
0
  6
Continuous
100
AcDbLine
 10
0.1345254865783638
 20
0.0804290000000001
 30
0.0
 11
0.1343994865783638
 21
0.0810010000000001
 31
0.0
  0
LINE
  5
334
330
6F
100
AcDbEntity
  8
0
  6
Continuous
100
AcDbLine
 10
0.2164274865783638
 20
0.0810010000000001
 30
0.0
 11
0.2114994865783638
 21
0.0810010000000001
 31
0.0
  0
LINE
  5
335
330
6F
100
AcDbEntity
  8
0
  6
Continuous
100
AcDbLine
 10
0.2210194865783638
 20
0.0810010000000001
 30
0.0
 11
0.2164274865783638
 21
0.0810010000000001
 31
0.0
  0
LINE
  5
336
330
6F
100
AcDbEntity
  8
0
  6
Continuous
100
AcDbLine
 10
0.2249634865783638
 20
0.0810010000000001
 30
0.0
 11
0.2210194865783638
 21
0.0810010000000001
 31
0.0
  0
LINE
  5
337
330
6F
100
AcDbEntity
  8
0
  6
Continuous
100
AcDbLine
 10
0.2279894865783639
 20
0.0810010000000001
 30
0.0
 11
0.2249634865783638
 21
0.0810010000000001
 31
0.0
  0
LINE
  5
338
330
6F
100
AcDbEntity
  8
0
  6
Continuous
100
AcDbLine
 10
0.2298914865783638
 20
0.0810010000000001
 30
0.0
 11
0.2279894865783639
 21
0.0810010000000001
 31
0.0
  0
LINE
  5
339
330
6F
100
AcDbEntity
  8
0
  6
Continuous
100
AcDbLine
 10
0.2305404865783638
 20
0.0810010000000001
 30
0.0
 11
0.2298914865783638
 21
0.0810010000000001
 31
0.0
  0
LINE
  5
33A
330
6F
100
AcDbEntity
  8
0
  6
Continuous
100
AcDbLine
 10
0.2305404865783638
 20
0.0804490000000001
 30
0.0
 11
0.2305404865783638
 21
0.0810010000000001
 31
0.0
  0
LINE
  5
33B
330
6F
100
AcDbEntity
  8
0
  6
Continuous
100
AcDbLine
 10
0.1770764865783639
 20
0.0751940000000001
 30
0.0
 11
0.1851594865783638
 21
0.0748100000000001
 31
0.0
  0
LINE
  5
33C
330
6F
100
AcDbEntity
  8
0
  6
Continuous
100
AcDbLine
 10
0.1770984865783638
 20
0.0810010000000001
 30
0.0
 11
0.1844104865783638
 21
0.0810010000000001
 31
0.0
  0
LINE
  5
33D
330
6F
100
AcDbEntity
  8
0
  6
Continuous
100
AcDbLine
 10
0.1844104865783638
 20
0.0810010000000001
 30
0.0
 11
0.1770974865783639
 21
0.0810010000000001
 31
0.0
  0
LINE
  5
33E
330
6F
100
AcDbEntity
  8
0
  6
Continuous
100
AcDbLine
 10
0.1416124865783638
 20
0.0761660000000001
 30
0.0
 11
0.1526564865783637
 21
0.0748270000000001
 31
0.0
  0
LINE
  5
33F
330
6F
100
AcDbEntity
  8
0
  6
Continuous
100
AcDbLine
 10
0.1570044865783638
 20
0.0760440000000001
 30
0.0
 11
0.1449454865783638
 21
0.0765310000000001
 31
0.0
  0
LINE
  5
340
330
6F
100
AcDbEntity
  8
0
  6
Continuous
100
AcDbLine
 10
0.1624704865783638
 20
0.0810010000000001
 30
0.0
 11
0.1515004865783638
 21
0.0810010000000001
 31
0.0
  0
LINE
  5
341
330
6F
100
AcDbEntity
  8
0
  6
Continuous
100
AcDbLine
 10
0.1514974865783638
 20
0.0810010000000001
 30
0.0
 11
0.1624694865783637
 21
0.0810010000000001
 31
0.0
  0
LINE
  5
342
330
6F
100
AcDbEntity
  8
0
  6
Continuous
100
AcDbLine
 10
0.2115084865783638
 20
0.0468010000000001
 30
0.0
 11
0.2164204865783638
 21
0.0468010000000001
 31
0.0
  0
LINE
  5
343
330
6F
100
AcDbEntity
  8
0
  6
Continuous
100
AcDbLine
 10
0.2249634865783638
 20
0.0468010000000001
 30
0.0
 11
0.2279904865783639
 21
0.0468010000000001
 31
0.0
  0
LINE
  5
344
330
6F
100
AcDbEntity
  8
0
  6
Continuous
100
AcDbLine
 10
0.2210164865783638
 20
0.0468010000000001
 30
0.0
 11
0.2249634865783638
 21
0.0468010000000001
 31
0.0
  0
LINE
  5
345
330
6F
100
AcDbEntity
  8
0
  6
Continuous
100
AcDbLine
 10
0.2164204865783638
 20
0.0468010000000001
 30
0.0
 11
0.2210164865783638
 21
0.0468010000000001
 31
0.0
  0
LINE
  5
346
330
6F
100
AcDbEntity
  8
0
  6
Continuous
100
AcDbLine
 10
0.2279904865783639
 20
0.0468010000000001
 30
0.0
 11
0.2298924865783638
 21
0.0468010000000001
 31
0.0
  0
LINE
  5
347
330
6F
100
AcDbEntity
  8
0
  6
Continuous
100
AcDbLine
 10
0.2305404865783638
 20
0.0468010000000001
 30
0.0
 11
0.2305404865783638
 21
0.0472750000000001
 31
0.0
  0
LINE
  5
348
330
6F
100
AcDbEntity
  8
0
  6
Continuous
100
AcDbLine
 10
0.2298924865783638
 20
0.0468010000000001
 30
0.0
 11
0.2305404865783638
 21
0.0468010000000001
 31
0.0
  0
LINE
  5
349
330
6F
100
AcDbEntity
  8
0
  6
Continuous
100
AcDbLine
 10
0.2065544865783639
 20
0.0468010000000001
 30
0.0
 11
0.2115084865783638
 21
0.0468010000000001
 31
0.0
  0
LINE
  5
34A
330
6F
100
AcDbEntity
  8
0
  6
Continuous
100
AcDbLine
 10
0.1980364865783638
 20
0.0468010000000001
 30
0.0
 11
0.2019794865783639
 21
0.0468010000000001
 31
0.0
  0
LINE
  5
34B
330
6F
100
AcDbEntity
  8
0
  6
Continuous
100
AcDbLine
 10
0.1950104865783638
 20
0.0468010000000001
 30
0.0
 11
0.1980364865783638
 21
0.0468010000000001
 31
0.0
  0
LINE
  5
34C
330
6F
100
AcDbEntity
  8
0
  6
Continuous
100
AcDbLine
 10
0.1931084865783638
 20
0.0468010000000001
 30
0.0
 11
0.1950104865783638
 21
0.0468010000000001
 31
0.0
  0
LINE
  5
34D
330
6F
100
AcDbEntity
  8
0
  6
Continuous
100
AcDbLine
 10
0.1924594865783639
 20
0.0468010000000001
 30
0.0
 11
0.1931084865783638
 21
0.0468010000000001
 31
0.0
  0
LINE
  5
34E
330
6F
100
AcDbEntity
  8
0
  6
Continuous
100
AcDbLine
 10
0.1924594865783639
 20
0.0472750000000001
 30
0.0
 11
0.1924594865783639
 21
0.0468010000000001
 31
0.0
  0
LINE
  5
34F
330
6F
100
AcDbEntity
  8
0
  6
Continuous
100
AcDbLine
 10
0.1924594865783639
 20
0.0598410000000001
 30
0.0
 11
0.1924594865783639
 21
0.0472750000000001
 31
0.0
  0
LINE
  5
350
330
6F
100
AcDbEntity
  8
0
  6
Continuous
100
AcDbLine
 10
0.1342524865783637
 20
0.0810010000000001
 30
0.0
 11
0.1405304865783638
 21
0.0810010000000001
 31
0.0
  0
LINE
  5
351
330
6F
100
AcDbEntity
  8
0
  6
Continuous
100
AcDbLine
 10
0.2206954865783639
 20
0.0810010000000001
 30
0.0
 11
0.2293174865783639
 21
0.0810010000000001
 31
0.0
  0
LINE
  5
352
330
6F
100
AcDbEntity
  8
0
  6
Continuous
100
AcDbLine
 10
0.2210194865783638
 20
0.0810010000000001
 30
0.0
 11
0.2206954865783639
 21
0.0810010000000001
 31
0.0
  0
LINE
  5
353
330
6F
100
AcDbEntity
  8
0
  6
Continuous
100
AcDbLine
 10
0.2299644865783638
 20
0.0810010000000001
 30
0.0
 11
0.2210194865783638
 21
0.0810010000000001
 31
0.0
  0
LINE
  5
354
330
6F
100
AcDbEntity
  8
0
  6
Continuous
100
AcDbLine
 10
0.2293174865783639
 20
0.0810010000000001
 30
0.0
 11
0.2299644865783638
 21
0.0810010000000001
 31
0.0
  0
LINE
  5
355
330
6F
100
AcDbEntity
  8
0
  6
Continuous
100
AcDbLine
 10
0.2182314865783638
 20
0.0810010000000001
 30
0.0
 11
0.2166694865783639
 21
0.0810010000000001
 31
0.0
  0
LINE
  5
356
330
6F
100
AcDbEntity
  8
0
  6
Continuous
100
AcDbLine
 10
0.2243954865783639
 20
0.0810010000000001
 30
0.0
 11
0.2182314865783638
 21
0.0810010000000001
 31
0.0
  0
LINE
  5
357
330
6F
100
AcDbEntity
  8
0
  6
Continuous
100
AcDbLine
 10
0.1405304865783638
 20
0.0810010000000001
 30
0.0
 11
0.1342524865783637
 21
0.0810010000000001
 31
0.0
  0
LINE
  5
358
330
6F
100
AcDbEntity
  8
0
  6
Continuous
100
AcDbLine
 10
0.1379124865783637
 20
0.0785590000000001
 30
0.0
 11
0.1370554865783639
 21
0.0804330000000001
 31
0.0
  0
LINE
  5
359
330
6F
100
AcDbEntity
  8
0
  6
Continuous
100
AcDbLine
 10
0.2197444865783638
 20
0.0810010000000001
 30
0.0
 11
0.2206954865783639
 21
0.0810010000000001
 31
0.0
  0
LINE
  5
35A
330
6F
100
AcDbEntity
  8
0
  6
Continuous
100
AcDbLine
 10
0.2206954865783639
 20
0.0810010000000001
 30
0.0
 11
0.2114994865783638
 21
0.0810010000000001
 31
0.0
  0
LINE
  5
35B
330
6F
100
AcDbEntity
  8
0
  6
Continuous
100
AcDbLine
 10
0.1345254865783638
 20
0.0804290000000001
 30
0.0
 11
0.1334714865783638
 21
0.0804100000000001
 31
0.0
  0
LINE
  5
35C
330
6F
100
AcDbEntity
  8
0
  6
Continuous
100
AcDbLine
 10
0.1350254865783639
 20
0.0791190000000001
 30
0.0
 11
0.1345254865783638
 21
0.0804290000000001
 31
0.0
  0
LINE
  5
35D
330
6F
100
AcDbEntity
  8
0
  6
Continuous
100
AcDbLine
 10
0.1350254865783639
 20
0.0791190000000001
 30
0.0
 11
0.1334714865783638
 21
0.0804100000000001
 31
0.0
  0
LINE
  5
35E
330
6F
100
AcDbEntity
  8
0
  6
Continuous
100
AcDbLine
 10
0.1334714865783638
 20
0.0804100000000001
 30
0.0
 11
0.1334714865783638
 21
0.0794960000000001
 31
0.0
  0
LINE
  5
35F
330
6F
100
AcDbEntity
  8
0
  6
Continuous
100
AcDbLine
 10
0.1405304865783638
 20
0.0810010000000001
 30
0.0
 11
0.1514974865783638
 21
0.0810010000000001
 31
0.0
  0
LINE
  5
360
330
6F
100
AcDbEntity
  8
0
  6
Continuous
100
AcDbLine
 10
0.1624694865783637
 20
0.0810010000000001
 30
0.0
 11
0.1697844865783638
 21
0.0810010000000001
 31
0.0
  0
LINE
  5
361
330
6F
100
AcDbEntity
  8
0
  6
Continuous
100
AcDbLine
 10
0.1844104865783638
 20
0.0810010000000001
 30
0.0
 11
0.1954824865783638
 21
0.0810010000000001
 31
0.0
  0
LINE
  5
362
330
6F
100
AcDbEntity
  8
0
  6
Continuous
100
AcDbLine
 10
0.1954824865783638
 20
0.0810010000000001
 30
0.0
 11
0.1844104865783638
 21
0.0810010000000001
 31
0.0
  0
LINE
  5
363
330
6F
100
AcDbEntity
  8
0
  6
Continuous
100
AcDbLine
 10
0.1869374865783638
 20
0.0696400000000001
 30
0.0
 11
0.1896894865783638
 21
0.0675950000000001
 31
0.0
  0
LINE
  5
364
330
6F
100
AcDbEntity
  8
0
  6
Continuous
100
AcDbLine
 10
0.2305404865783638
 20
0.0682980000000001
 30
0.0
 11
0.2305404865783638
 21
0.0711260000000001
 31
0.0
  0
LINE
  5
365
330
6F
100
AcDbEntity
  8
0
  6
Continuous
100
AcDbLine
 10
0.1379124865783637
 20
0.0785590000000001
 30
0.0
 11
0.1350254865783639
 21
0.0791190000000001
 31
0.0
  0
LINE
  5
366
330
6F
100
AcDbEntity
  8
0
  6
Continuous
100
AcDbLine
 10
0.1355204865783639
 20
0.0782900000000001
 30
0.0
 11
0.1379794865783638
 21
0.0774730000000001
 31
0.0
  0
LINE
  5
367
330
6F
100
AcDbEntity
  8
0
  6
Continuous
100
AcDbLine
 10
0.1441294865783639
 20
0.0780130000000001
 30
0.0
 11
0.1543054865783638
 21
0.0779070000000001
 31
0.0
  0
LINE
  5
368
330
6F
100
AcDbEntity
  8
0
  6
Continuous
100
AcDbLine
 10
0.2305404865783638
 20
0.0711260000000001
 30
0.0
 11
0.2305404865783638
 21
0.0739360000000001
 31
0.0
  0
LINE
  5
369
330
6F
100
AcDbEntity
  8
0
  6
Continuous
100
AcDbLine
 10
0.2305404865783638
 20
0.0626600000000001
 30
0.0
 11
0.2305404865783638
 21
0.0654790000000001
 31
0.0
  0
LINE
  5
36A
330
6F
100
AcDbEntity
  8
0
  6
Continuous
100
AcDbLine
 10
0.2305404865783638
 20
0.0654790000000001
 30
0.0
 11
0.2305404865783638
 21
0.0682980000000001
 31
0.0
  0
LINE
  5
36B
330
6F
100
AcDbEntity
  8
0
  6
Continuous
100
AcDbLine
 10
0.2305404865783638
 20
0.0771930000000001
 30
0.0
 11
0.2305404865783638
 21
0.0804490000000001
 31
0.0
  0
LINE
  5
36C
330
6F
100
AcDbEntity
  8
0
  6
Continuous
100
AcDbLine
 10
0.1697834865783638
 20
0.0810010000000001
 30
0.0
 11
0.1624704865783638
 21
0.0810010000000001
 31
0.0
  0
LINE
  5
36D
330
6F
100
AcDbEntity
  8
0
  6
Continuous
100
AcDbLine
 10
0.1441294865783639
 20
0.0780130000000001
 30
0.0
 11
0.1379124865783637
 21
0.0785590000000001
 31
0.0
  0
LINE
  5
36E
330
6F
100
AcDbEntity
  8
0
  6
Continuous
100
AcDbLine
 10
0.1347364865783638
 20
0.0784500000000001
 30
0.0
 11
0.1372924865783638
 21
0.0772220000000001
 31
0.0
  0
LINE
  5
36F
330
6F
100
AcDbEntity
  8
0
  6
Continuous
100
AcDbLine
 10
0.1372924865783638
 20
0.0772220000000001
 30
0.0
 11
0.1416774865783638
 21
0.0761660000000001
 31
0.0
  0
LINE
  5
370
330
6F
100
AcDbEntity
  8
0
  6
Continuous
100
AcDbLine
 10
0.1449454865783638
 20
0.0765310000000001
 30
0.0
 11
0.1379794865783638
 21
0.0774730000000001
 31
0.0
  0
LINE
  5
371
330
6F
100
AcDbEntity
  8
0
  6
Continuous
100
AcDbLine
 10
0.1515004865783638
 20
0.0810010000000001
 30
0.0
 11
0.1405304865783638
 21
0.0810010000000001
 31
0.0
  0
LINE
  5
372
330
6F
100
AcDbEntity
  8
0
  6
Continuous
100
AcDbLine
 10
0.1851594865783638
 20
0.0748100000000001
 30
0.0
 11
0.1982824865783639
 21
0.0711260000000001
 31
0.0
  0
LINE
  5
373
330
6F
100
AcDbEntity
  8
0
  6
Continuous
100
AcDbLine
 10
0.1838094865783638
 20
0.0711260000000001
 30
0.0
 11
0.1869374865783638
 21
0.0696400000000001
 31
0.0
  0
LINE
  5
374
330
6F
100
AcDbEntity
  8
0
  6
Continuous
100
AcDbLine
 10
0.1896894865783638
 20
0.0675950000000001
 30
0.0
 11
0.1914614865783638
 21
0.0646300000000001
 31
0.0
  0
LINE
  5
375
330
6F
100
AcDbEntity
  8
0
  6
Continuous
100
AcDbLine
 10
0.1927904865783638
 20
0.0674800000000001
 30
0.0
 11
0.1905064865783639
 21
0.0675650000000001
 31
0.0
  0
LINE
  5
376
330
6F
100
AcDbEntity
  8
0
  6
Continuous
100
AcDbLine
 10
0.1915684865783638
 20
0.0711260000000001
 30
0.0
 11
0.1873464865783638
 21
0.0711260000000001
 31
0.0
  0
LINE
  5
377
330
6F
100
AcDbEntity
  8
0
  6
Continuous
100
AcDbLine
 10
0.1964294865783638
 20
0.0673000000000001
 30
0.0
 11
0.1927904865783638
 21
0.0674800000000001
 31
0.0
  0
LINE
  5
378
330
6F
100
AcDbEntity
  8
0
  6
Continuous
100
AcDbLine
 10
0.1942594865783638
 20
0.0695070000000001
 30
0.0
 11
0.2002314865783638
 21
0.0691710000000001
 31
0.0
  0
LINE
  5
379
330
6F
100
AcDbEntity
  8
0
  6
Continuous
100
AcDbLine
 10
0.1982824865783639
 20
0.0711260000000001
 30
0.0
 11
0.1915684865783638
 21
0.0711260000000001
 31
0.0
  0
LINE
  5
37A
330
6F
100
AcDbEntity
  8
0
  6
Continuous
100
AcDbLine
 10
0.2014004865783638
 20
0.0667260000000001
 30
0.0
 11
0.1964294865783638
 21
0.0673000000000001
 31
0.0
  0
LINE
  5
37B
330
6F
100
AcDbEntity
  8
0
  6
Continuous
100
AcDbLine
 10
0.1914614865783638
 20
0.0646300000000001
 30
0.0
 11
0.1922084865783638
 21
0.0612500000000001
 31
0.0
  0
LINE
  5
37C
330
6F
100
AcDbEntity
  8
0
  6
Continuous
100
AcDbLine
 10
0.1770764865783639
 20
0.0751940000000001
 30
0.0
 11
0.1690204865783639
 21
0.0755300000000001
 31
0.0
  0
LINE
  5
37D
330
6F
100
AcDbEntity
  8
0
  6
Continuous
100
AcDbLine
 10
0.1635504865783639
 20
0.0736580000000001
 30
0.0
 11
0.1711784865783639
 21
0.0730930000000001
 31
0.0
  0
LINE
  5
37E
330
6F
100
AcDbEntity
  8
0
  6
Continuous
100
AcDbLine
 10
0.1526564865783637
 20
0.0748270000000001
 30
0.0
 11
0.1635504865783639
 21
0.0736580000000001
 31
0.0
  0
LINE
  5
37F
330
6F
100
AcDbEntity
  8
0
  6
Continuous
100
AcDbLine
 10
0.1646314865783638
 20
0.0777750000000001
 30
0.0
 11
0.1543054865783638
 21
0.0779070000000001
 31
0.0
  0
LINE
  5
380
330
6F
100
AcDbEntity
  8
0
  6
Continuous
100
AcDbLine
 10
0.1570044865783638
 20
0.0760440000000001
 30
0.0
 11
0.1690204865783639
 21
0.0755300000000001
 31
0.0
  0
LINE
  5
381
330
6F
100
AcDbEntity
  8
0
  6
Continuous
100
AcDbLine
 10
0.1350254865783639
 20
0.0791190000000001
 30
0.0
 11
0.1334714865783638
 21
0.0794960000000001
 31
0.0
  0
LINE
  5
382
330
6F
100
AcDbEntity
  8
0
  6
Continuous
100
AcDbLine
 10
0.1334714865783638
 20
0.0794960000000001
 30
0.0
 11
0.1348484865783639
 21
0.0784240000000001
 31
0.0
  0
LINE
  5
383
330
6F
100
AcDbEntity
  8
0
  6
Continuous
100
AcDbLine
 10
0.2305404865783638
 20
0.0598410000000001
 30
0.0
 11
0.2305404865783638
 21
0.0626600000000001
 31
0.0
  0
LINE
  5
384
330
6F
100
AcDbEntity
  8
0
  6
Continuous
100
AcDbLine
 10
0.2305404865783638
 20
0.0472750000000001
 30
0.0
 11
0.2305404865783638
 21
0.0598410000000001
 31
0.0
  0
LINE
  5
385
330
6F
100
AcDbEntity
  8
0
  6
Continuous
100
AcDbLine
 10
0.1954824865783638
 20
0.0810010000000001
 30
0.0
 11
0.2065544865783639
 21
0.0810010000000001
 31
0.0
  0
LINE
  5
386
330
6F
100
AcDbEntity
  8
0
  6
Continuous
100
AcDbLine
 10
0.2065544865783639
 20
0.0810010000000001
 30
0.0
 11
0.1954824865783638
 21
0.0810010000000001
 31
0.0
  0
LINE
  5
387
330
6F
100
AcDbEntity
  8
0
  6
Continuous
100
AcDbLine
 10
0.2114994865783638
 20
0.0810010000000001
 30
0.0
 11
0.2065544865783639
 21
0.0810010000000001
 31
0.0
  0
LINE
  5
388
330
6F
100
AcDbEntity
  8
0
  6
Continuous
100
AcDbLine
 10
0.2065544865783639
 20
0.0810010000000001
 30
0.0
 11
0.2114994865783638
 21
0.0810010000000001
 31
0.0
  0
LINE
  5
389
330
6F
100
AcDbEntity
  8
0
  6
Continuous
100
AcDbLine
 10
0.2114994865783638
 20
0.0810010000000001
 30
0.0
 11
0.2065544865783639
 21
0.0810010000000001
 31
0.0
  0
LINE
  5
38A
330
6F
100
AcDbEntity
  8
0
  6
Continuous
100
AcDbLine
 10
0.1844104865783638
 20
0.0810010000000001
 30
0.0
 11
0.1954824865783638
 21
0.0810010000000001
 31
0.0
  0
LINE
  5
38B
330
6F
100
AcDbEntity
  8
0
  6
Continuous
100
AcDbLine
 10
0.1954824865783638
 20
0.0810010000000001
 30
0.0
 11
0.1844104865783638
 21
0.0810010000000001
 31
0.0
  0
LINE
  5
38C
330
6F
100
AcDbEntity
  8
0
  6
Continuous
100
AcDbLine
 10
0.2164274865783638
 20
0.0810010000000001
 30
0.0
 11
0.2166694865783639
 21
0.0810010000000001
 31
0.0
  0
LINE
  5
38D
330
6F
100
AcDbEntity
  8
0
  6
Continuous
100
AcDbLine
 10
0.2210194865783638
 20
0.0810010000000001
 30
0.0
 11
0.2164274865783638
 21
0.0810010000000001
 31
0.0
  0
LINE
  5
38E
330
6F
100
AcDbEntity
  8
0
  6
Continuous
100
AcDbLine
 10
0.2243954865783639
 20
0.0810010000000001
 30
0.0
 11
0.2249634865783638
 21
0.0810010000000001
 31
0.0
  0
LINE
  5
38F
330
6F
100
AcDbEntity
  8
0
  6
Continuous
100
AcDbLine
 10
0.2249634865783638
 20
0.0810010000000001
 30
0.0
 11
0.2210194865783638
 21
0.0810010000000001
 31
0.0
  0
LINE
  5
390
330
6F
100
AcDbEntity
  8
0
  6
Continuous
100
AcDbLine
 10
0.2182314865783638
 20
0.0810010000000001
 30
0.0
 11
0.2114994865783638
 21
0.0810010000000001
 31
0.0
  0
LINE
  5
391
330
6F
100
AcDbEntity
  8
0
  6
Continuous
100
AcDbLine
 10
0.2197444865783638
 20
0.0810010000000001
 30
0.0
 11
0.2182314865783638
 21
0.0810010000000001
 31
0.0
  0
LINE
  5
392
330
6F
100
AcDbEntity
  8
0
  6
Continuous
100
AcDbLine
 10
0.2048704865783638
 20
-0.081001
 30
0.0
 11
0.2108254865783639
 21
-0.081001
 31
0.0
  0
LINE
  5
393
330
6F
100
AcDbEntity
  8
0
  6
Continuous
100
AcDbLine
 10
0.2166924865783638
 20
-0.081001
 30
0.0
 11
0.2222474865783639
 21
-0.081001
 31
0.0
  0
LINE
  5
394
330
6F
100
AcDbEntity
  8
0
  6
Continuous
100
AcDbLine
 10
0.2270164865783638
 20
-0.081001
 30
0.0
 11
0.2222474865783639
 21
-0.081001
 31
0.0
  0
LINE
  5
395
330
6F
100
AcDbEntity
  8
0
  6
Continuous
100
AcDbLine
 10
0.2270164865783638
 20
-0.081001
 30
0.0
 11
0.2306754865783638
 21
-0.081001
 31
0.0
  0
LINE
  5
396
330
6F
100
AcDbEntity
  8
0
  6
Continuous
100
AcDbLine
 10
0.2108254865783639
 20
-0.081001
 30
0.0
 11
0.2166924865783638
 21
-0.081001
 31
0.0
  0
LINE
  5
397
330
6F
100
AcDbEntity
  8
0
  6
Continuous
100
AcDbLine
 10
0.2338154865783638
 20
-0.081001
 30
0.0
 11
0.2338024865783638
 21
-0.080001
 31
0.0
  0
LINE
  5
398
330
6F
100
AcDbEntity
  8
0
  6
Continuous
100
AcDbLine
 10
0.2329734865783639
 20
-0.081001
 30
0.0
 11
0.2338154865783638
 21
-0.081001
 31
0.0
  0
LINE
  5
399
330
6F
100
AcDbEntity
  8
0
  6
Continuous
100
AcDbLine
 10
0.2306754865783638
 20
-0.081001
 30
0.0
 11
0.2329734865783639
 21
-0.081001
 31
0.0
  0
LINE
  5
39A
330
6F
100
AcDbEntity
  8
0
  6
Continuous
100
AcDbLine
 10
0.1993214865783638
 20
-0.081001
 30
0.0
 11
0.2048704865783638
 21
-0.081001
 31
0.0
  0
LINE
  5
39B
330
6F
100
AcDbEntity
  8
0
  6
Continuous
100
AcDbLine
 10
0.1885994865783638
 20
-0.081001
 30
0.0
 11
0.1908984865783638
 21
-0.081001
 31
0.0
  0
LINE
  5
39C
330
6F
100
AcDbEntity
  8
0
  6
Continuous
100
AcDbLine
 10
0.1878154865783639
 20
-0.081001
 30
0.0
 11
0.1885994865783638
 21
-0.081001
 31
0.0
  0
LINE
  5
39D
330
6F
100
AcDbEntity
  8
0
  6
Continuous
100
AcDbLine
 10
0.1878254865783638
 20
-0.080001
 30
0.0
 11
0.1878154865783639
 21
-0.081001
 31
0.0
  0
LINE
  5
39E
330
6F
100
AcDbEntity
  8
0
  6
Continuous
100
AcDbLine
 10
0.1945554865783637
 20
-0.081001
 30
0.0
 11
0.1993214865783638
 21
-0.081001
 31
0.0
  0
LINE
  5
39F
330
6F
100
AcDbEntity
  8
0
  6
Continuous
100
AcDbLine
 10
0.1908984865783638
 20
-0.081001
 30
0.0
 11
0.1945554865783637
 21
-0.081001
 31
0.0
  0
LINE
  5
3A0
330
6F
100
AcDbEntity
  8
0
  6
Continuous
100
AcDbLine
 10
0.1897074865783639
 20
0.0023230000000001
 30
0.0
 11
0.1898504865783639
 21
-0.0038819999999999
 31
0.0
  0
LINE
  5
3A1
330
6F
100
AcDbEntity
  8
0
  6
Continuous
100
AcDbLine
 10
0.1188614865783638
 20
0.0214430000000001
 30
0.0
 11
0.1753434865783638
 21
0.0186170000000001
 31
0.0
  0
LINE
  5
3A2
330
6F
100
AcDbEntity
  8
0
  6
Continuous
100
AcDbLine
 10
0.0887284865783639
 20
0.0450040000000001
 30
0.0
 11
0.0865454865783639
 21
0.0450040000000001
 31
0.0
  0
LINE
  5
3A3
330
6F
100
AcDbEntity
  8
0
  6
Continuous
100
AcDbLine
 10
0.1910454865783638
 20
0.0450040000000001
 30
0.0
 11
0.0887284865783639
 21
0.0450040000000001
 31
0.0
  0
LINE
  5
3A4
330
6F
100
AcDbEntity
  8
0
  6
Continuous
100
AcDbLine
 10
0.0865454865783639
 20
0.0450040000000001
 30
0.0
 11
0.0841674865783639
 21
0.0450040000000001
 31
0.0
  0
LINE
  5
3A5
330
6F
100
AcDbEntity
  8
0
  6
Continuous
100
AcDbLine
 10
0.0841674865783639
 20
0.0450040000000001
 30
0.0
 11
0.0835494865783639
 21
0.0450040000000001
 31
0.0
  0
LINE
  5
3A6
330
6F
100
AcDbEntity
  8
0
  6
Continuous
100
AcDbLine
 10
0.0848134865783638
 20
0.0440170000000001
 30
0.0
 11
0.0841674865783639
 21
0.0450040000000001
 31
0.0
  0
LINE
  5
3A7
330
6F
100
AcDbEntity
  8
0
  6
Continuous
100
AcDbLine
 10
0.0835494865783639
 20
0.0450040000000001
 30
0.0
 11
0.0841894865783637
 21
0.0440120000000001
 31
0.0
  0
LINE
  5
3A8
330
6F
100
AcDbEntity
  8
0
  6
Continuous
100
AcDbLine
 10
0.2304854865783638
 20
0.0450040000000001
 30
0.0
 11
0.2298944865783638
 21
0.0450040000000001
 31
0.0
  0
LINE
  5
3A9
330
6F
100
AcDbEntity
  8
0
  6
Continuous
100
AcDbLine
 10
0.2305184865783639
 20
0.0443530000000001
 30
0.0
 11
0.2304854865783638
 21
0.0450040000000001
 31
0.0
  0
LINE
  5
3AA
330
6F
100
AcDbEntity
  8
0
  6
Continuous
100
AcDbLine
 10
0.2164504865783638
 20
0.0450040000000001
 30
0.0
 11
0.2116054865783638
 21
0.0450040000000001
 31
0.0
  0
LINE
  5
3AB
330
6F
100
AcDbEntity
  8
0
  6
Continuous
100
AcDbLine
 10
0.2279964865783639
 20
0.0450040000000001
 30
0.0
 11
0.2249754865783639
 21
0.0450040000000001
 31
0.0
  0
LINE
  5
3AC
330
6F
100
AcDbEntity
  8
0
  6
Continuous
100
AcDbLine
 10
0.2249754865783639
 20
0.0450040000000001
 30
0.0
 11
0.2210374865783638
 21
0.0450040000000001
 31
0.0
  0
LINE
  5
3AD
330
6F
100
AcDbEntity
  8
0
  6
Continuous
100
AcDbLine
 10
0.2210374865783638
 20
0.0450040000000001
 30
0.0
 11
0.2164504865783638
 21
0.0450040000000001
 31
0.0
  0
LINE
  5
3AE
330
6F
100
AcDbEntity
  8
0
  6
Continuous
100
AcDbLine
 10
0.2298944865783638
 20
0.0450040000000001
 30
0.0
 11
0.2279964865783639
 21
0.0450040000000001
 31
0.0
  0
LINE
  5
3AF
330
6F
100
AcDbEntity
  8
0
  6
Continuous
100
AcDbLine
 10
0.2116054865783638
 20
0.0450040000000001
 30
0.0
 11
0.1910454865783638
 21
0.0450040000000001
 31
0.0
  0
LINE
  5
3B0
330
6F
100
AcDbEntity
  8
0
  6
Continuous
100
AcDbLine
 10
0.0841894865783637
 20
0.0440120000000001
 30
0.0
 11
0.0868134865783638
 21
0.0399430000000001
 31
0.0
  0
LINE
  5
3B1
330
6F
100
AcDbEntity
  8
0
  6
Continuous
100
AcDbLine
 10
0.1137214865783638
 20
0.0220930000000001
 30
0.0
 11
0.1166844865783638
 21
0.0215950000000001
 31
0.0
  0
LINE
  5
3B2
330
6F
100
AcDbEntity
  8
0
  6
Continuous
100
AcDbLine
 10
0.1119104865783638
 20
0.0231170000000001
 30
0.0
 11
0.1137214865783638
 21
0.0220930000000001
 31
0.0
  0
LINE
  5
3B3
330
6F
100
AcDbEntity
  8
0
  6
Continuous
100
AcDbLine
 10
0.0868134865783638
 20
0.0399430000000001
 30
0.0
 11
0.0907804865783638
 21
0.0360610000000001
 31
0.0
  0
LINE
  5
3B4
330
6F
100
AcDbEntity
  8
0
  6
Continuous
100
AcDbLine
 10
0.0917434865783639
 20
0.0357700000000001
 30
0.0
 11
0.0875854865783639
 21
0.0397680000000001
 31
0.0
  0
LINE
  5
3B5
330
6F
100
AcDbEntity
  8
0
  6
Continuous
100
AcDbLine
 10
0.0954634865783638
 20
0.0325090000000001
 30
0.0
 11
0.1002924865783639
 21
0.0295220000000001
 31
0.0
  0
LINE
  5
3B6
330
6F
100
AcDbEntity
  8
0
  6
Continuous
100
AcDbLine
 10
0.1029224865783638
 20
0.0284150000000001
 30
0.0
 11
0.0970104865783639
 21
0.0318910000000001
 31
0.0
  0
LINE
  5
3B7
330
6F
100
AcDbEntity
  8
0
  6
Continuous
100
AcDbLine
 10
0.1080834865783639
 20
0.0256580000000001
 30
0.0
 11
0.1029224865783638
 21
0.0284150000000001
 31
0.0
  0
LINE
  5
3B8
330
6F
100
AcDbEntity
  8
0
  6
Continuous
100
AcDbLine
 10
0.1121894865783639
 20
0.0232150000000001
 30
0.0
 11
0.1080834865783639
 21
0.0256580000000001
 31
0.0
  0
LINE
  5
3B9
330
6F
100
AcDbEntity
  8
0
  6
Continuous
100
AcDbLine
 10
0.0907804865783638
 20
0.0360610000000001
 30
0.0
 11
0.0954634865783638
 21
0.0325090000000001
 31
0.0
  0
LINE
  5
3BA
330
6F
100
AcDbEntity
  8
0
  6
Continuous
100
AcDbLine
 10
0.0970104865783639
 20
0.0318910000000001
 30
0.0
 11
0.0917434865783639
 21
0.0357700000000001
 31
0.0
  0
LINE
  5
3BB
330
6F
100
AcDbEntity
  8
0
  6
Continuous
100
AcDbLine
 10
0.0848134865783638
 20
0.0440170000000001
 30
0.0
 11
0.0875854865783639
 21
0.0397680000000001
 31
0.0
  0
LINE
  5
3BC
330
6F
100
AcDbEntity
  8
0
  6
Continuous
100
AcDbLine
 10
0.2309264865783638
 20
0.0288930000000001
 30
0.0
 11
0.2306784865783638
 21
0.0382960000000001
 31
0.0
  0
LINE
  5
3BD
330
6F
100
AcDbEntity
  8
0
  6
Continuous
100
AcDbLine
 10
0.2306784865783638
 20
0.0382960000000001
 30
0.0
 11
0.2305184865783639
 21
0.0443530000000001
 31
0.0
  0
LINE
  5
3BE
330
6F
100
AcDbEntity
  8
0
  6
Continuous
100
AcDbLine
 10
0.2338024865783638
 20
-0.080001
 30
0.0
 11
0.2325574865783639
 21
-0.032925
 31
0.0
  0
LINE
  5
3BF
330
6F
100
AcDbEntity
  8
0
  6
Continuous
100
AcDbLine
 10
0.2322414865783639
 20
-0.0209499999999999
 30
0.0
 11
0.2317574865783639
 21
-0.0026599999999999
 31
0.0
  0
LINE
  5
3C0
330
6F
100
AcDbEntity
  8
0
  6
Continuous
100
AcDbLine
 10
0.2314214865783638
 20
0.0100880000000001
 30
0.0
 11
0.2311734865783638
 21
0.0194910000000001
 31
0.0
  0
LINE
  5
3C1
330
6F
100
AcDbEntity
  8
0
  6
Continuous
100
AcDbLine
 10
0.2317574865783639
 20
-0.0026599999999999
 30
0.0
 11
0.2314214865783638
 21
0.0100880000000001
 31
0.0
  0
LINE
  5
3C2
330
6F
100
AcDbEntity
  8
0
  6
Continuous
100
AcDbLine
 10
0.2311734865783638
 20
0.0194910000000001
 30
0.0
 11
0.2309264865783638
 21
0.0288930000000001
 31
0.0
  0
LINE
  5
3C3
330
6F
100
AcDbEntity
  8
0
  6
Continuous
100
AcDbLine
 10
0.1898504865783639
 20
-0.0038819999999999
 30
0.0
 11
0.1878254865783638
 21
-0.080001
 31
0.0
  0
LINE
  5
3C4
330
6F
100
AcDbEntity
  8
0
  6
Continuous
100
AcDbLine
 10
0.1861014865783639
 20
0.0136870000000001
 30
0.0
 11
0.1888194865783638
 21
0.0084450000000001
 31
0.0
  0
LINE
  5
3C5
330
6F
100
AcDbEntity
  8
0
  6
Continuous
100
AcDbLine
 10
0.1876114865783638
 20
0.0141960000000001
 30
0.0
 11
0.1894304865783638
 21
0.0156420000000001
 31
0.0
  0
LINE
  5
3C6
330
6F
100
AcDbEntity
  8
0
  6
Continuous
100
AcDbLine
 10
0.1808654865783639
 20
0.0170570000000001
 30
0.0
 11
0.1861014865783639
 21
0.0136870000000001
 31
0.0
  0
LINE
  5
3C7
330
6F
100
AcDbEntity
  8
0
  6
Continuous
100
AcDbLine
 10
0.1861014865783639
 20
0.0136870000000001
 30
0.0
 11
0.1876114865783638
 21
0.0141960000000001
 31
0.0
  0
LINE
  5
3C8
330
6F
100
AcDbEntity
  8
0
  6
Continuous
100
AcDbLine
 10
0.1753434865783638
 20
0.0186170000000001
 30
0.0
 11
0.1808654865783639
 21
0.0170570000000001
 31
0.0
  0
LINE
  5
3C9
330
6F
100
AcDbEntity
  8
0
  6
Continuous
100
AcDbLine
 10
0.1888194865783638
 20
0.0084450000000001
 30
0.0
 11
0.1897074865783639
 21
0.0023230000000001
 31
0.0
  0
LINE
  5
3CA
330
6F
100
AcDbEntity
  8
0
  6
Continuous
100
AcDbLine
 10
0.1166844865783638
 20
0.0215950000000001
 30
0.0
 11
0.1188614865783638
 21
0.0214430000000001
 31
0.0
  0
LINE
  5
3CB
330
6F
100
AcDbEntity
  8
0
  6
Continuous
100
AcDbLine
 10
0.1100694865783637
 20
0.0198540000000001
 30
0.0
 11
0.1119104865783638
 21
0.0231170000000001
 31
0.0
  0
LINE
  5
3CC
330
6F
100
AcDbEntity
  8
0
  6
Continuous
100
AcDbLine
 10
0.0925324865783638
 20
0.0347320000000001
 30
0.0
 11
0.0903804865783639
 21
0.0309170000000001
 31
0.0
  0
LINE
  5
3CD
330
6F
100
AcDbEntity
  8
0
  6
Continuous
100
AcDbLine
 10
0.0901344865783639
 20
0.0304810000000001
 30
0.0
 11
0.0906164865783639
 21
0.0302100000000001
 31
0.0
  0
LINE
  5
3CE
330
6F
100
AcDbEntity
  8
0
  6
Continuous
100
AcDbLine
 10
0.0903804865783639
 20
0.0309170000000001
 30
0.0
 11
0.0901344865783639
 21
0.0304810000000001
 31
0.0
  0
LINE
  5
3CF
330
6F
100
AcDbEntity
  8
0
  6
Continuous
100
AcDbLine
 10
0.0920144865783639
 20
0.0294250000000001
 30
0.0
 11
0.0906164865783639
 21
0.0302100000000001
 31
0.0
  0
LINE
  5
3D0
330
6F
100
AcDbEntity
  8
0
  6
Continuous
100
AcDbLine
 10
0.0941924865783639
 20
0.0282010000000001
 30
0.0
 11
0.0920144865783639
 21
0.0294250000000001
 31
0.0
  0
LINE
  5
3D1
330
6F
100
AcDbEntity
  8
0
  6
Continuous
100
AcDbLine
 10
0.0969374865783639
 20
0.0266590000000001
 30
0.0
 11
0.0941924865783639
 21
0.0282010000000001
 31
0.0
  0
LINE
  5
3D2
330
6F
100
AcDbEntity
  8
0
  6
Continuous
100
AcDbLine
 10
0.0999794865783639
 20
0.0249500000000001
 30
0.0
 11
0.0969374865783639
 21
0.0266590000000001
 31
0.0
  0
LINE
  5
3D3
330
6F
100
AcDbEntity
  8
0
  6
Continuous
100
AcDbLine
 10
0.0999794865783639
 20
0.0249500000000001
 30
0.0
 11
0.1030214865783637
 21
0.0232410000000001
 31
0.0
  0
LINE
  5
3D4
330
6F
100
AcDbEntity
  8
0
  6
Continuous
100
AcDbLine
 10
0.1030214865783637
 20
0.0232410000000001
 30
0.0
 11
0.1057654865783639
 21
0.0216990000000001
 31
0.0
  0
LINE
  5
3D5
330
6F
100
AcDbEntity
  8
0
  6
Continuous
100
AcDbLine
 10
0.1079434865783638
 20
0.0204750000000001
 30
0.0
 11
0.1057654865783639
 21
0.0216990000000001
 31
0.0
  0
LINE
  5
3D6
330
6F
100
AcDbEntity
  8
0
  6
Continuous
100
AcDbLine
 10
0.1079434865783638
 20
0.0204750000000001
 30
0.0
 11
0.1093414865783638
 21
0.0196890000000001
 31
0.0
  0
LINE
  5
3D7
330
6F
100
AcDbEntity
  8
0
  6
Continuous
100
AcDbLine
 10
0.1098234865783638
 20
0.0194190000000001
 30
0.0
 11
0.1100694865783637
 21
0.0198540000000001
 31
0.0
  0
LINE
  5
3D8
330
6F
100
AcDbEntity
  8
0
  6
Continuous
100
AcDbLine
 10
0.1093414865783638
 20
0.0196890000000001
 30
0.0
 11
0.1098234865783638
 21
0.0194190000000001
 31
0.0
  0
LINE
  5
3D9
330
6F
100
AcDbEntity
  8
0
  6
Continuous
100
AcDbLine
 10
0.2399034865783638
 20
-0.0067679999999999
 30
0.0
 11
0.2403894865783638
 21
-0.0062119999999999
 31
0.0
  0
LINE
  5
3DA
330
6F
100
AcDbEntity
  8
0
  6
Continuous
100
AcDbLine
 10
0.2398184865783639
 20
-0.0030729999999999
 30
0.0
 11
0.2384494865783639
 21
-0.0039419999999999
 31
0.0
  0
LINE
  5
3DB
330
6F
100
AcDbEntity
  8
0
  6
Continuous
100
AcDbLine
 10
0.2490104865783638
 20
-0.0042389999999999
 30
0.0
 11
0.2443214865783638
 21
-0.0038739999999999
 31
0.0
  0
LINE
  5
3DC
330
6F
100
AcDbEntity
  8
0
  6
Continuous
100
AcDbLine
 10
0.2490104865783638
 20
-0.0042389999999999
 30
0.0
 11
0.2444904865783639
 21
-0.0044589999999999
 31
0.0
  0
LINE
  5
3DD
330
6F
100
AcDbEntity
  8
0
  6
Continuous
100
AcDbLine
 10
0.2443424865783638
 20
-0.0046399999999999
 30
0.0
 11
0.2490214865783638
 21
-0.0044989999999999
 31
0.0
  0
LINE
  5
3DE
330
6F
100
AcDbEntity
  8
0
  6
Continuous
100
AcDbLine
 10
0.2521444865783638
 20
-0.0041609999999999
 30
0.0
 11
0.2510914865783638
 21
-0.0042479999999999
 31
0.0
  0
LINE
  5
3DF
330
6F
100
AcDbEntity
  8
0
  6
Continuous
100
AcDbLine
 10
0.2517604865783638
 20
-0.0045129999999999
 30
0.0
 11
0.2521444865783638
 21
-0.0041609999999999
 31
0.0
  0
LINE
  5
3E0
330
6F
100
AcDbEntity
  8
0
  6
Continuous
100
AcDbLine
 10
0.2443214865783638
 20
-0.0038739999999999
 30
0.0
 11
0.2489834865783638
 21
-0.0041609999999999
 31
0.0
  0
LINE
  5
3E1
330
6F
100
AcDbEntity
  8
0
  6
Continuous
100
AcDbLine
 10
0.2384494865783639
 20
-0.0039419999999999
 30
0.0
 11
0.2374104865783638
 21
-0.0049189999999999
 31
0.0
  0
LINE
  5
3E2
330
6F
100
AcDbEntity
  8
0
  6
Continuous
100
AcDbLine
 10
0.2394604865783639
 20
-0.0073639999999999
 30
0.0
 11
0.2399034865783638
 21
-0.0067679999999999
 31
0.0
  0
LINE
  5
3E3
330
6F
100
AcDbEntity
  8
0
  6
Continuous
100
AcDbLine
 10
0.2412904865783639
 20
-0.0040359999999999
 30
0.0
 11
0.2403854865783638
 21
-0.0045399999999999
 31
0.0
  0
LINE
  5
3E4
330
6F
100
AcDbEntity
  8
0
  6
Continuous
100
AcDbLine
 10
0.2409674865783638
 20
-0.0057419999999999
 30
0.0
 11
0.2416494865783639
 21
-0.0054609999999999
 31
0.0
  0
LINE
  5
3E5
330
6F
100
AcDbEntity
  8
0
  6
Continuous
100
AcDbLine
 10
0.2413194865783638
 20
-0.0049529999999999
 30
0.0
 11
0.2406064865783639
 21
-0.0053289999999999
 31
0.0
  0
LINE
  5
3E6
330
6F
100
AcDbEntity
  8
0
  6
Continuous
100
AcDbLine
 10
0.2490304865783639
 20
-0.0022179999999999
 30
0.0
 11
0.2446744865783638
 21
-0.0017699999999999
 31
0.0
  0
LINE
  5
3E7
330
6F
100
AcDbEntity
  8
0
  6
Continuous
100
AcDbLine
 10
0.2395574865783638
 20
-0.0064829999999999
 30
0.0
 11
0.2399724865783638
 21
-0.0057909999999999
 31
0.0
  0
LINE
  5
3E8
330
6F
100
AcDbEntity
  8
0
  6
Continuous
100
AcDbLine
 10
0.2394764865783638
 20
-0.0050409999999999
 30
0.0
 11
0.2389404865783638
 21
-0.0059249999999999
 31
0.0
  0
LINE
  5
3E9
330
6F
100
AcDbEntity
  8
0
  6
Continuous
100
AcDbLine
 10
0.2417574865783639
 20
-0.0021979999999999
 30
0.0
 11
0.2398184865783639
 21
-0.0030729999999999
 31
0.0
  0
LINE
  5
3EA
330
6F
100
AcDbEntity
  8
0
  6
Continuous
100
AcDbLine
 10
0.2380884865783639
 20
-0.0055369999999999
 30
0.0
 11
0.2374654865783637
 21
-0.0063629999999999
 31
0.0
  0
LINE
  5
3EB
330
6F
100
AcDbEntity
  8
0
  6
Continuous
100
AcDbLine
 10
0.2391864865783638
 20
-0.0071839999999999
 30
0.0
 11
0.2395574865783638
 21
-0.0064829999999999
 31
0.0
  0
LINE
  5
3EC
330
6F
100
AcDbEntity
  8
0
  6
Continuous
100
AcDbLine
 10
0.2389404865783638
 20
-0.0059249999999999
 30
0.0
 11
0.2386154865783638
 21
-0.0069029999999999
 31
0.0
  0
LINE
  5
3ED
330
6F
100
AcDbEntity
  8
0
  6
Continuous
100
AcDbLine
 10
0.2406064865783639
 20
-0.0053289999999999
 30
0.0
 11
0.2399724865783638
 21
-0.0057909999999999
 31
0.0
  0
LINE
  5
3EE
330
6F
100
AcDbEntity
  8
0
  6
Continuous
100
AcDbLine
 10
0.2403894865783638
 20
-0.0062119999999999
 30
0.0
 11
0.2409674865783638
 21
-0.0057419999999999
 31
0.0
  0
LINE
  5
3EF
330
6F
100
AcDbEntity
  8
0
  6
Continuous
100
AcDbLine
 10
0.2374104865783638
 20
-0.0049189999999999
 30
0.0
 11
0.2364944865783638
 21
-0.0059799999999999
 31
0.0
  0
LINE
  5
3F0
330
6F
100
AcDbEntity
  8
0
  6
Continuous
100
AcDbLine
 10
0.2412904865783639
 20
-0.0040359999999999
 30
0.0
 11
0.2443214865783638
 21
-0.0038739999999999
 31
0.0
  0
LINE
  5
3F1
330
6F
100
AcDbEntity
  8
0
  6
Continuous
100
AcDbLine
 10
0.2412264865783638
 20
-0.0030569999999999
 30
0.0
 11
0.2443834865783638
 21
-0.0025659999999999
 31
0.0
  0
LINE
  5
3F2
330
6F
100
AcDbEntity
  8
0
  6
Continuous
100
AcDbLine
 10
0.2490434865783638
 20
-0.0027089999999999
 30
0.0
 11
0.2443844865783639
 21
-0.0020589999999999
 31
0.0
  0
LINE
  5
3F3
330
6F
100
AcDbEntity
  8
0
  6
Continuous
100
AcDbLine
 10
0.2443794865783638
 20
-0.0022689999999999
 30
0.0
 11
0.2490434865783638
 21
-0.0027089999999999
 31
0.0
  0
LINE
  5
3F4
330
6F
100
AcDbEntity
  8
0
  6
Continuous
100
AcDbLine
 10
0.2399684865783638
 20
-0.0034079999999999
 30
0.0
 11
0.2413094865783639
 21
-0.0027709999999999
 31
0.0
  0
LINE
  5
3F5
330
6F
100
AcDbEntity
  8
0
  6
Continuous
100
AcDbLine
 10
0.2413894865783638
 20
-0.0024739999999999
 30
0.0
 11
0.2398304865783638
 21
-0.0031569999999999
 31
0.0
  0
LINE
  5
3F6
330
6F
100
AcDbEntity
  8
0
  6
Continuous
100
AcDbLine
 10
0.2387124865783638
 20
-0.0042439999999999
 30
0.0
 11
0.2399684865783638
 21
-0.0034079999999999
 31
0.0
  0
LINE
  5
3F7
330
6F
100
AcDbEntity
  8
0
  6
Continuous
100
AcDbLine
 10
0.2398304865783638
 20
-0.0031569999999999
 30
0.0
 11
0.2384784865783638
 21
-0.0040609999999999
 31
0.0
  0
LINE
  5
3F8
330
6F
100
AcDbEntity
  8
0
  6
Continuous
100
AcDbLine
 10
0.2377614865783638
 20
-0.0053319999999999
 30
0.0
 11
0.2387124865783638
 21
-0.0042439999999999
 31
0.0
  0
LINE
  5
3F9
330
6F
100
AcDbEntity
  8
0
  6
Continuous
100
AcDbLine
 10
0.2384784865783638
 20
-0.0040609999999999
 30
0.0
 11
0.2374794865783639
 21
-0.0051699999999999
 31
0.0
  0
LINE
  5
3FA
330
6F
100
AcDbEntity
  8
0
  6
Continuous
100
AcDbLine
 10
0.2374794865783639
 20
-0.0051699999999999
 30
0.0
 11
0.2366214865783638
 21
-0.0060399999999999
 31
0.0
  0
LINE
  5
3FB
330
6F
100
AcDbEntity
  8
0
  6
Continuous
100
AcDbLine
 10
0.2413094865783639
 20
-0.0027709999999999
 30
0.0
 11
0.2443794865783638
 21
-0.0022689999999999
 31
0.0
  0
LINE
  5
3FC
330
6F
100
AcDbEntity
  8
0
  6
Continuous
100
AcDbLine
 10
0.2510864865783638
 20
-0.0022179999999999
 30
0.0
 11
0.2490304865783639
 21
-0.0022179999999999
 31
0.0
  0
LINE
  5
3FD
330
6F
100
AcDbEntity
  8
0
  6
Continuous
100
AcDbLine
 10
0.2521444865783638
 20
-0.0041609999999999
 30
0.0
 11
0.2521894865783638
 21
-0.0031449999999999
 31
0.0
  0
LINE
  5
3FE
330
6F
100
AcDbEntity
  8
0
  6
Continuous
100
AcDbLine
 10
0.2519464865783638
 20
-0.0041609999999999
 30
0.0
 11
0.2521444865783638
 21
-0.0041609999999999
 31
0.0
  0
LINE
  5
3FF
330
6F
100
AcDbEntity
  8
0
  6
Continuous
100
AcDbLine
 10
0.2510274865783638
 20
-0.0041609999999999
 30
0.0
 11
0.2516194865783637
 21
-0.0041609999999999
 31
0.0
  0
LINE
  5
400
330
6F
100
AcDbEntity
  8
0
  6
Continuous
100
AcDbLine
 10
0.2510994865783638
 20
-0.0027089999999999
 30
0.0
 11
0.2517674865783638
 21
-0.0027089999999999
 31
0.0
  0
LINE
  5
401
330
6F
100
AcDbEntity
  8
0
  6
Continuous
100
AcDbLine
 10
0.2517604865783638
 20
-0.0045129999999999
 30
0.0
 11
0.2510914865783638
 21
-0.0042479999999999
 31
0.0
  0
LINE
  5
402
330
6F
100
AcDbEntity
  8
0
  6
Continuous
100
AcDbLine
 10
0.2490214865783638
 20
-0.0044989999999999
 30
0.0
 11
0.2517604865783638
 21
-0.0045129999999999
 31
0.0
  0
LINE
  5
403
330
6F
100
AcDbEntity
  8
0
  6
Continuous
100
AcDbLine
 10
0.2521934865783638
 20
-0.0022179999999999
 30
0.0
 11
0.2510864865783638
 21
-0.0022179999999999
 31
0.0
  0
LINE
  5
404
330
6F
100
AcDbEntity
  8
0
  6
Continuous
100
AcDbLine
 10
0.2510984865783639
 20
-0.0025799999999999
 30
0.0
 11
0.2518664865783639
 21
-0.0025799999999999
 31
0.0
  0
LINE
  5
405
330
6F
100
AcDbEntity
  8
0
  6
Continuous
100
AcDbLine
 10
0.2521934865783638
 20
-0.0022179999999999
 30
0.0
 11
0.2518664865783639
 21
-0.0025799999999999
 31
0.0
  0
LINE
  5
406
330
6F
100
AcDbEntity
  8
0
  6
Continuous
100
AcDbLine
 10
0.2521894865783638
 20
-0.0031449999999999
 30
0.0
 11
0.2521934865783638
 21
-0.0022179999999999
 31
0.0
  0
LINE
  5
407
330
6F
100
AcDbEntity
  8
0
  6
Continuous
100
AcDbLine
 10
0.2510274865783638
 20
-0.0041609999999999
 30
0.0
 11
0.2510984865783639
 21
-0.0031449999999999
 31
0.0
  0
LINE
  5
408
330
6F
100
AcDbEntity
  8
0
  6
Continuous
100
AcDbLine
 10
0.2510984865783639
 20
-0.0031449999999999
 30
0.0
 11
0.2510994865783638
 21
-0.0027089999999999
 31
0.0
  0
LINE
  5
409
330
6F
100
AcDbEntity
  8
0
  6
Continuous
100
AcDbLine
 10
0.2490434865783638
 20
-0.0027089999999999
 30
0.0
 11
0.2510994865783638
 21
-0.0027089999999999
 31
0.0
  0
LINE
  5
40A
330
6F
100
AcDbEntity
  8
0
  6
Continuous
100
AcDbLine
 10
0.2510274865783638
 20
-0.0041609999999999
 30
0.0
 11
0.2489834865783638
 21
-0.0041609999999999
 31
0.0
  0
LINE
  5
40B
330
6F
100
AcDbEntity
  8
0
  6
Continuous
100
AcDbLine
 10
0.2516194865783637
 20
-0.0041609999999999
 30
0.0
 11
0.2519464865783638
 21
-0.0041609999999999
 31
0.0
  0
LINE
  5
40C
330
6F
100
AcDbEntity
  8
0
  6
Continuous
100
AcDbLine
 10
0.2416494865783639
 20
-0.0054609999999999
 30
0.0
 11
0.2443424865783638
 21
-0.0046399999999999
 31
0.0
  0
LINE
  5
40D
330
6F
100
AcDbEntity
  8
0
  6
Continuous
100
AcDbLine
 10
0.2444904865783639
 20
-0.0044589999999999
 30
0.0
 11
0.2413194865783638
 21
-0.0049529999999999
 31
0.0
  0
LINE
  5
40E
330
6F
100
AcDbEntity
  8
0
  6
Continuous
100
AcDbLine
 10
0.2518664865783639
 20
-0.0025799999999999
 30
0.0
 11
0.2517674865783638
 21
-0.0027089999999999
 31
0.0
  0
LINE
  5
40F
330
6F
100
AcDbEntity
  8
0
  6
Continuous
100
AcDbLine
 10
0.2517674865783638
 20
-0.0027089999999999
 30
0.0
 11
0.2517654865783638
 21
-0.0031449999999999
 31
0.0
  0
LINE
  5
410
330
6F
100
AcDbEntity
  8
0
  6
Continuous
100
AcDbLine
 10
0.2446744865783638
 20
-0.0017699999999999
 30
0.0
 11
0.2417574865783639
 21
-0.0021979999999999
 31
0.0
  0
LINE
  5
411
330
6F
100
AcDbEntity
  8
0
  6
Continuous
100
AcDbLine
 10
0.2413894865783638
 20
-0.0024739999999999
 30
0.0
 11
0.2443844865783639
 21
-0.0020589999999999
 31
0.0
  0
LINE
  5
412
330
6F
100
AcDbEntity
  8
0
  6
Continuous
100
AcDbLine
 10
0.2386154865783638
 20
-0.0069029999999999
 30
0.0
 11
0.2322974865783638
 21
-0.030405
 31
0.0
  0
LINE
  5
413
330
6F
100
AcDbEntity
  8
0
  6
Continuous
100
AcDbLine
 10
0.2325624865783638
 20
-0.03312
 30
0.0
 11
0.2394604865783639
 21
-0.0073639999999999
 31
0.0
  0
LINE
  5
414
330
6F
100
AcDbEntity
  8
0
  6
Continuous
100
AcDbLine
 10
0.2391864865783638
 20
-0.0071839999999999
 30
0.0
 11
0.2324364865783639
 21
-0.032527
 31
0.0
  0
LINE
  5
415
330
6F
100
AcDbEntity
  8
0
  6
Continuous
100
AcDbLine
 10
0.2366214865783638
 20
-0.0060399999999999
 30
0.0
 11
0.2364944865783638
 21
-0.0059799999999999
 31
0.0
  0
LINE
  5
416
330
6F
100
AcDbEntity
  8
0
  6
Continuous
100
AcDbLine
 10
0.2321294865783638
 20
-0.021891
 30
0.0
 11
0.2366214865783638
 21
-0.0060399999999999
 31
0.0
  0
LINE
  5
417
330
6F
100
AcDbEntity
  8
0
  6
Continuous
100
AcDbLine
 10
0.2364944865783638
 20
-0.0059799999999999
 30
0.0
 11
0.2322374865783638
 21
-0.020817
 31
0.0
  0
LINE
  5
418
330
6F
100
AcDbEntity
  8
0
  6
Continuous
100
AcDbLine
 10
0.2321684865783639
 20
-0.026673
 30
0.0
 11
0.2374654865783637
 21
-0.0063629999999999
 31
0.0
  0
LINE
  5
419
330
6F
100
AcDbEntity
  8
0
  6
Continuous
100
AcDbLine
 10
0.2321684865783639
 20
-0.026673
 30
0.0
 11
0.2321584865783639
 21
-0.025952
 31
0.0
  0
LINE
  5
41A
330
6F
100
AcDbEntity
  8
0
  6
Continuous
100
AcDbLine
 10
0.2322164865783638
 20
-0.021294
 30
0.0
 11
0.2322414865783639
 21
-0.0209499999999999
 31
0.0
  0
LINE
  5
41B
330
6F
100
AcDbEntity
  8
0
  6
Continuous
100
AcDbLine
 10
0.2322164865783638
 20
-0.021294
 30
0.0
 11
0.2321294865783638
 21
-0.021891
 31
0.0
  0
LINE
  5
41C
330
6F
100
AcDbEntity
  8
0
  6
Continuous
100
AcDbLine
 10
0.2321224865783638
 20
-0.023152
 30
0.0
 11
0.2321294865783638
 21
-0.021891
 31
0.0
  0
LINE
  5
41D
330
6F
100
AcDbEntity
  8
0
  6
Continuous
100
AcDbLine
 10
0.2324364865783639
 20
-0.032527
 30
0.0
 11
0.2324034865783639
 21
-0.031908
 31
0.0
  0
LINE
  5
41E
330
6F
100
AcDbEntity
  8
0
  6
Continuous
100
AcDbLine
 10
0.2325364865783638
 20
-0.032876
 30
0.0
 11
0.2324364865783639
 21
-0.032527
 31
0.0
  0
LINE
  5
41F
330
6F
100
AcDbEntity
  8
0
  6
Continuous
100
AcDbLine
 10
0.2321244865783639
 20
-0.024088
 30
0.0
 11
0.2321224865783638
 21
-0.023152
 31
0.0
  0
LINE
  5
420
330
6F
100
AcDbEntity
  8
0
  6
Continuous
100
AcDbLine
 10
0.2324034865783639
 20
-0.031908
 30
0.0
 11
0.2322974865783638
 21
-0.030405
 31
0.0
  0
LINE
  5
421
330
6F
100
AcDbEntity
  8
0
  6
Continuous
100
AcDbLine
 10
0.2325574865783639
 20
-0.032925
 30
0.0
 11
0.2325364865783638
 21
-0.032876
 31
0.0
  0
LINE
  5
422
330
6F
100
AcDbEntity
  8
0
  6
Continuous
100
AcDbLine
 10
0.0999614865783639
 20
0.0297610000000001
 30
0.0
 11
0.1011664865783639
 21
0.0291540000000001
 31
0.0
  0
LINE
  5
423
330
6F
100
AcDbEntity
  8
0
  6
Continuous
100
AcDbLine
 10
0.1021034865783639
 20
0.0287160000000001
 30
0.0
 11
0.1034384865783638
 21
0.0280540000000001
 31
0.0
  0
LINE
  5
424
330
6F
100
AcDbEntity
  8
0
  6
Continuous
100
AcDbLine
 10
0.1011664865783639
 20
0.0291540000000001
 30
0.0
 11
0.1021034865783639
 21
0.0287160000000001
 31
0.0
  0
LINE
  5
425
330
6F
100
AcDbEntity
  8
0
  6
Continuous
100
AcDbLine
 10
0.1119104865783638
 20
0.0231170000000001
 30
0.0
 11
0.1115524865783639
 21
0.0234870000000001
 31
0.0
  0
LINE
  5
426
330
6F
100
AcDbEntity
  8
0
  6
Continuous
100
AcDbLine
 10
0.1115524865783639
 20
0.0234870000000001
 30
0.0
 11
0.1115054865783637
 21
0.0235240000000001
 31
0.0
  0
LINE
  5
427
330
6F
100
AcDbEntity
  8
0
  6
Continuous
100
AcDbLine
 10
0.1115054865783637
 20
0.0235240000000001
 30
0.0
 11
0.1111164865783639
 21
0.0237510000000001
 31
0.0
  0
LINE
  5
4CE
330
6F
100
AcDbEntity
  8
0
  6
Continuous
100
AcDbLine
 10
0.017119
 20
0.2718267453713919
 30
0.0
 11
0.017888
 21
0.2829097453713919
 31
0.0
  0
LINE
  5
4CF
330
6F
100
AcDbEntity
  8
0
  6
Continuous
100
AcDbLine
 10
0.017888
 20
0.2829097453713919
 30
0.0
 11
0.018657
 21
0.293993745371392
 31
0.0
  0
LINE
  5
4D0
330
6F
100
AcDbEntity
  8
0
  6
Continuous
100
AcDbLine
 10
0.015598
 20
0.249897745371392
 30
0.0
 11
0.016105
 21
0.257207745371392
 31
0.0
  0
LINE
  5
4D1
330
6F
100
AcDbEntity
  8
0
  6
Continuous
100
AcDbLine
 10
0.016105
 20
0.257207745371392
 30
0.0
 11
0.016612
 21
0.264516745371392
 31
0.0
  0
LINE
  5
4D2
330
6F
100
AcDbEntity
  8
0
  6
Continuous
100
AcDbLine
 10
0.014077
 20
0.2279697453713919
 30
0.0
 11
0.014838
 21
0.238933745371392
 31
0.0
  0
LINE
  5
4D3
330
6F
100
AcDbEntity
  8
0
  6
Continuous
100
AcDbLine
 10
0.012856
 20
0.224397745371392
 30
0.0
 11
0.014077
 21
0.2279697453713919
 31
0.0
  0
LINE
  5
4D4
330
6F
100
AcDbEntity
  8
0
  6
Continuous
100
AcDbLine
 10
0.016612
 20
0.264516745371392
 30
0.0
 11
0.017119
 21
0.2718267453713919
 31
0.0
  0
LINE
  5
4D5
330
6F
100
AcDbEntity
  8
0
  6
Continuous
100
AcDbLine
 10
0.0
 20
0.220910745371392
 30
0.0
 11
0.003216
 21
0.220910745371392
 31
0.0
  0
LINE
  5
4D6
330
6F
100
AcDbEntity
  8
0
  6
Continuous
100
AcDbLine
 10
0.014838
 20
0.238933745371392
 30
0.0
 11
0.015598
 21
0.249897745371392
 31
0.0
  0
LINE
  5
4D7
330
6F
100
AcDbEntity
  8
0
  6
Continuous
100
AcDbLine
 10
0.003216
 20
0.220910745371392
 30
0.0
 11
0.006432
 21
0.220910745371392
 31
0.0
  0
LINE
  5
4D8
330
6F
100
AcDbEntity
  8
0
  6
Continuous
100
AcDbLine
 10
0.010085
 20
0.221838745371392
 30
0.0
 11
0.012856
 21
0.224397745371392
 31
0.0
  0
LINE
  5
4D9
330
6F
100
AcDbEntity
  8
0
  6
Continuous
100
AcDbLine
 10
0.006432
 20
0.220910745371392
 30
0.0
 11
0.010085
 21
0.221838745371392
 31
0.0
  0
LINE
  5
4DA
330
6F
100
AcDbEntity
  8
0
  6
Continuous
100
AcDbLine
 10
0.018353
 20
0.303866745371392
 30
0.0
 11
0.019
 21
0.298938745371392
 31
0.0
  0
LINE
  5
4DB
330
6F
100
AcDbEntity
  8
0
  6
Continuous
100
AcDbLine
 10
0.018353
 20
0.303866745371392
 30
0.0
 11
0.016454
 21
0.3084587453713919
 31
0.0
  0
LINE
  5
4DC
330
6F
100
AcDbEntity
  8
0
  6
Continuous
100
AcDbLine
 10
0.016454
 20
0.3084587453713919
 30
0.0
 11
0.013435
 21
0.312402745371392
 31
0.0
  0
LINE
  5
4DD
330
6F
100
AcDbEntity
  8
0
  6
Continuous
100
AcDbLine
 10
0.0095
 20
0.315428745371392
 30
0.0
 11
0.013435
 21
0.312402745371392
 31
0.0
  0
LINE
  5
4DE
330
6F
100
AcDbEntity
  8
0
  6
Continuous
100
AcDbLine
 10
0.004918
 20
0.317330745371392
 30
0.0
 11
0.0095
 21
0.315428745371392
 31
0.0
  0
LINE
  5
4DF
330
6F
100
AcDbEntity
  8
0
  6
Continuous
100
AcDbLine
 10
0.0
 20
0.317979745371392
 30
0.0
 11
0.004918
 21
0.317330745371392
 31
0.0
  0
LINE
  5
4E0
330
6F
100
AcDbEntity
  8
0
  6
Continuous
100
AcDbLine
 10
0.018657
 20
0.293993745371392
 30
0.0
 11
0.019
 21
0.298938745371392
 31
0.0
  0
LINE
  5
4E1
330
6F
100
AcDbEntity
  8
0
  6
Continuous
100
AcDbLine
 10
-0.017888
 20
0.2829097453713919
 30
0.0
 11
-0.017119
 21
0.2718267453713919
 31
0.0
  0
LINE
  5
4E2
330
6F
100
AcDbEntity
  8
0
  6
Continuous
100
AcDbLine
 10
-0.018657
 20
0.293993745371392
 30
0.0
 11
-0.017888
 21
0.2829097453713919
 31
0.0
  0
LINE
  5
4E3
330
6F
100
AcDbEntity
  8
0
  6
Continuous
100
AcDbLine
 10
-0.016105
 20
0.257207745371392
 30
0.0
 11
-0.015598
 21
0.249897745371392
 31
0.0
  0
LINE
  5
4E4
330
6F
100
AcDbEntity
  8
0
  6
Continuous
100
AcDbLine
 10
-0.016612
 20
0.264516745371392
 30
0.0
 11
-0.016105
 21
0.257207745371392
 31
0.0
  0
LINE
  5
4E5
330
6F
100
AcDbEntity
  8
0
  6
Continuous
100
AcDbLine
 10
-0.014838
 20
0.238933745371392
 30
0.0
 11
-0.014077
 21
0.2279697453713919
 31
0.0
  0
LINE
  5
4E6
330
6F
100
AcDbEntity
  8
0
  6
Continuous
100
AcDbLine
 10
-0.014077
 20
0.2279697453713919
 30
0.0
 11
-0.012856
 21
0.224397745371392
 31
0.0
  0
LINE
  5
4E7
330
6F
100
AcDbEntity
  8
0
  6
Continuous
100
AcDbLine
 10
-0.017119
 20
0.2718267453713919
 30
0.0
 11
-0.016612
 21
0.264516745371392
 31
0.0
  0
LINE
  5
4E8
330
6F
100
AcDbEntity
  8
0
  6
Continuous
100
AcDbLine
 10
-0.003216
 20
0.220910745371392
 30
0.0
 11
0.0
 21
0.220910745371392
 31
0.0
  0
LINE
  5
4E9
330
6F
100
AcDbEntity
  8
0
  6
Continuous
100
AcDbLine
 10
-0.015598
 20
0.249897745371392
 30
0.0
 11
-0.014838
 21
0.238933745371392
 31
0.0
  0
LINE
  5
4EA
330
6F
100
AcDbEntity
  8
0
  6
Continuous
100
AcDbLine
 10
-0.006432
 20
0.220910745371392
 30
0.0
 11
-0.003216
 21
0.220910745371392
 31
0.0
  0
LINE
  5
4EB
330
6F
100
AcDbEntity
  8
0
  6
Continuous
100
AcDbLine
 10
-0.012856
 20
0.224397745371392
 30
0.0
 11
-0.010085
 21
0.221838745371392
 31
0.0
  0
LINE
  5
4EC
330
6F
100
AcDbEntity
  8
0
  6
Continuous
100
AcDbLine
 10
-0.010085
 20
0.221838745371392
 30
0.0
 11
-0.006432
 21
0.220910745371392
 31
0.0
  0
LINE
  5
4ED
330
6F
100
AcDbEntity
  8
0
  6
Continuous
100
AcDbLine
 10
-0.019
 20
0.298938745371392
 30
0.0
 11
-0.018353
 21
0.303866745371392
 31
0.0
  0
LINE
  5
4EE
330
6F
100
AcDbEntity
  8
0
  6
Continuous
100
AcDbLine
 10
-0.016455
 20
0.3084587453713919
 30
0.0
 11
-0.018353
 21
0.303866745371392
 31
0.0
  0
LINE
  5
4EF
330
6F
100
AcDbEntity
  8
0
  6
Continuous
100
AcDbLine
 10
-0.013435
 20
0.312402745371392
 30
0.0
 11
-0.016455
 21
0.3084587453713919
 31
0.0
  0
LINE
  5
4F0
330
6F
100
AcDbEntity
  8
0
  6
Continuous
100
AcDbLine
 10
-0.013435
 20
0.312402745371392
 30
0.0
 11
-0.0095
 21
0.315428745371392
 31
0.0
  0
LINE
  5
4F1
330
6F
100
AcDbEntity
  8
0
  6
Continuous
100
AcDbLine
 10
-0.0095
 20
0.315428745371392
 30
0.0
 11
-0.004918
 21
0.317330745371392
 31
0.0
  0
LINE
  5
4F2
330
6F
100
AcDbEntity
  8
0
  6
Continuous
100
AcDbLine
 10
-0.004918
 20
0.317330745371392
 30
0.0
 11
0.0
 21
0.317979745371392
 31
0.0
  0
LINE
  5
4F3
330
6F
100
AcDbEntity
  8
0
  6
Continuous
100
AcDbLine
 10
-0.019
 20
0.298938745371392
 30
0.0
 11
-0.018657
 21
0.293993745371392
 31
0.0
  0
LINE
  5
4F4
330
6F
100
AcDbEntity
  8
0
  6
Continuous
100
AcDbLine
 10
0.022218
 20
0.292309745371392
 30
0.0
 11
0.023
 21
0.2982647453713919
 31
0.0
  0
LINE
  5
4F5
330
6F
100
AcDbEntity
  8
0
  6
Continuous
100
AcDbLine
 10
0.022225
 20
0.304131745371392
 30
0.0
 11
0.019927
 21
0.3096867453713919
 31
0.0
  0
LINE
  5
4F6
330
6F
100
AcDbEntity
  8
0
  6
Continuous
100
AcDbLine
 10
0.019927
 20
0.3096867453713919
 30
0.0
 11
0.01627
 21
0.314455745371392
 31
0.0
  0
LINE
  5
4F7
330
6F
100
AcDbEntity
  8
0
  6
Continuous
100
AcDbLine
 10
0.01627
 20
0.314455745371392
 30
0.0
 11
0.011505
 21
0.3181147453713919
 31
0.0
  0
LINE
  5
4F8
330
6F
100
AcDbEntity
  8
0
  6
Continuous
100
AcDbLine
 10
0.023
 20
0.2982647453713919
 30
0.0
 11
0.022225
 21
0.304131745371392
 31
0.0
  0
LINE
  5
4F9
330
6F
100
AcDbEntity
  8
0
  6
Continuous
100
AcDbLine
 10
0.005955
 20
0.320412745371392
 30
0.0
 11
0.001792
 21
0.321001745371392
 31
0.0
  0
LINE
  5
4FA
330
6F
100
AcDbEntity
  8
0
  6
Continuous
100
AcDbLine
 10
0.011505
 20
0.3181147453713919
 30
0.0
 11
0.005955
 21
0.320412745371392
 31
0.0
  0
LINE
  5
4FB
330
6F
100
AcDbEntity
  8
0
  6
Continuous
100
AcDbLine
 10
0.019922
 20
0.286760745371392
 30
0.0
 11
0.022218
 21
0.292309745371392
 31
0.0
  0
LINE
  5
4FC
330
6F
100
AcDbEntity
  8
0
  6
Continuous
100
AcDbLine
 10
0.019048
 20
0.285620745371392
 30
0.0
 11
0.019922
 21
0.286760745371392
 31
0.0
  0
LINE
  5
4FD
330
6F
100
AcDbEntity
  8
0
  6
Continuous
100
AcDbLine
 10
-0.023
 20
0.2982647453713919
 30
0.0
 11
-0.022218
 21
0.292309745371392
 31
0.0
  0
LINE
  5
4FE
330
6F
100
AcDbEntity
  8
0
  6
Continuous
100
AcDbLine
 10
-0.019927
 20
0.3096867453713919
 30
0.0
 11
-0.022225
 21
0.304131745371392
 31
0.0
  0
LINE
  5
4FF
330
6F
100
AcDbEntity
  8
0
  6
Continuous
100
AcDbLine
 10
-0.01627
 20
0.314455745371392
 30
0.0
 11
-0.019927
 21
0.3096867453713919
 31
0.0
  0
LINE
  5
500
330
6F
100
AcDbEntity
  8
0
  6
Continuous
100
AcDbLine
 10
-0.011505
 20
0.3181147453713919
 30
0.0
 11
-0.01627
 21
0.314455745371392
 31
0.0
  0
LINE
  5
501
330
6F
100
AcDbEntity
  8
0
  6
Continuous
100
AcDbLine
 10
-0.022225
 20
0.304131745371392
 30
0.0
 11
-0.023
 21
0.2982647453713919
 31
0.0
  0
LINE
  5
502
330
6F
100
AcDbEntity
  8
0
  6
Continuous
100
AcDbLine
 10
-0.002091
 20
0.320959745371392
 30
0.0
 11
-0.005955
 21
0.320412745371392
 31
0.0
  0
LINE
  5
503
330
6F
100
AcDbEntity
  8
0
  6
Continuous
100
AcDbLine
 10
-0.005955
 20
0.320412745371392
 30
0.0
 11
-0.011505
 21
0.3181147453713919
 31
0.0
  0
LINE
  5
504
330
6F
100
AcDbEntity
  8
0
  6
Continuous
100
AcDbLine
 10
-0.022218
 20
0.292309745371392
 30
0.0
 11
-0.019922
 21
0.286760745371392
 31
0.0
  0
LINE
  5
505
330
6F
100
AcDbEntity
  8
0
  6
Continuous
100
AcDbLine
 10
-0.019922
 20
0.286760745371392
 30
0.0
 11
-0.019047
 21
0.285620745371392
 31
0.0
  0
LINE
  5
506
330
6F
100
AcDbEntity
  8
0
  6
Continuous
100
AcDbLine
 10
0.019166
 20
0.294696745371392
 30
0.0
 11
0.019869
 21
0.298878745371392
 31
0.0
  0
LINE
  5
507
330
6F
100
AcDbEntity
  8
0
  6
Continuous
100
AcDbLine
 10
0.012511
 20
0.170988745371392
 30
0.0
 11
0.014454
 21
0.170988745371392
 31
0.0
  0
LINE
  5
508
330
6F
100
AcDbEntity
  8
0
  6
Continuous
100
AcDbLine
 10
0.017514
 20
0.173984745371392
 30
0.0
 11
0.01755
 21
0.176167745371392
 31
0.0
  0
LINE
  5
509
330
6F
100
AcDbEntity
  8
0
  6
Continuous
100
AcDbLine
 10
0.019048
 20
0.285620745371392
 30
0.0
 11
0.019223
 21
0.299005745371392
 31
0.0
  0
LINE
  5
50A
330
6F
100
AcDbEntity
  8
0
  6
Continuous
100
AcDbLine
 10
0.01755
 20
0.176167745371392
 30
0.0
 11
0.019
 21
0.278484745371392
 31
0.0
  0
LINE
  5
50B
330
6F
100
AcDbEntity
  8
0
  6
Continuous
100
AcDbLine
 10
0.0
 20
0.170988745371392
 30
0.0
 11
0.012511
 21
0.170988745371392
 31
0.0
  0
LINE
  5
50C
330
6F
100
AcDbEntity
  8
0
  6
Continuous
100
AcDbLine
 10
0.016852
 20
0.171606745371392
 30
0.0
 11
0.017514
 21
0.173984745371392
 31
0.0
  0
LINE
  5
50D
330
6F
100
AcDbEntity
  8
0
  6
Continuous
100
AcDbLine
 10
0.014454
 20
0.170988745371392
 30
0.0
 11
0.016852
 21
0.171606745371392
 31
0.0
  0
LINE
  5
50E
330
6F
100
AcDbEntity
  8
0
  6
Continuous
100
AcDbLine
 10
0.0095
 20
0.3154357453713919
 30
0.0
 11
0.013435
 21
0.312414745371392
 31
0.0
  0
LINE
  5
50F
330
6F
100
AcDbEntity
  8
0
  6
Continuous
100
AcDbLine
 10
0.013435
 20
0.312414745371392
 30
0.0
 11
0.016455
 21
0.308476745371392
 31
0.0
  0
LINE
  5
510
330
6F
100
AcDbEntity
  8
0
  6
Continuous
100
AcDbLine
 10
0.004918
 20
0.3173337453713919
 30
0.0
 11
0.0095
 21
0.3154357453713919
 31
0.0
  0
LINE
  5
511
330
6F
100
AcDbEntity
  8
0
  6
Continuous
100
AcDbLine
 10
0.019012
 20
0.2855737453713919
 30
0.0
 11
0.019034
 21
0.2990427453713919
 31
0.0
  0
LINE
  5
512
330
6F
100
AcDbEntity
  8
0
  6
Continuous
100
AcDbLine
 10
0.018992
 20
0.2990047453713919
 30
0.0
 11
0.019
 21
0.278484745371392
 31
0.0
  0
LINE
  5
513
330
6F
100
AcDbEntity
  8
0
  6
Continuous
100
AcDbLine
 10
0.019176
 20
0.295465745371392
 30
0.0
 11
0.019546
 21
0.298942745371392
 31
0.0
  0
LINE
  5
514
330
6F
100
AcDbEntity
  8
0
  6
Continuous
100
AcDbLine
 10
-0.019866
 20
0.2988797453713919
 30
0.0
 11
-0.019166
 21
0.294703745371392
 31
0.0
  0
LINE
  5
515
330
6F
100
AcDbEntity
  8
0
  6
Continuous
100
AcDbLine
 10
-0.014454
 20
0.170988745371392
 30
0.0
 11
-0.012511
 21
0.170988745371392
 31
0.0
  0
LINE
  5
516
330
6F
100
AcDbEntity
  8
0
  6
Continuous
100
AcDbLine
 10
-0.01755
 20
0.176167745371392
 30
0.0
 11
-0.017514
 21
0.173984745371392
 31
0.0
  0
LINE
  5
517
330
6F
100
AcDbEntity
  8
0
  6
Continuous
100
AcDbLine
 10
-0.019222
 20
0.299006745371392
 30
0.0
 11
-0.019047
 21
0.285620745371392
 31
0.0
  0
LINE
  5
518
330
6F
100
AcDbEntity
  8
0
  6
Continuous
100
AcDbLine
 10
-0.019
 20
0.278484745371392
 30
0.0
 11
-0.01755
 21
0.176167745371392
 31
0.0
  0
LINE
  5
519
330
6F
100
AcDbEntity
  8
0
  6
Continuous
100
AcDbLine
 10
-0.012511
 20
0.170988745371392
 30
0.0
 11
0.0
 21
0.170988745371392
 31
0.0
  0
LINE
  5
51A
330
6F
100
AcDbEntity
  8
0
  6
Continuous
100
AcDbLine
 10
-0.017514
 20
0.173984745371392
 30
0.0
 11
-0.016852
 21
0.171606745371392
 31
0.0
  0
LINE
  5
51B
330
6F
100
AcDbEntity
  8
0
  6
Continuous
100
AcDbLine
 10
-0.016852
 20
0.171606745371392
 30
0.0
 11
-0.014454
 21
0.170988745371392
 31
0.0
  0
LINE
  5
51C
330
6F
100
AcDbEntity
  8
0
  6
Continuous
100
AcDbLine
 10
-0.013435
 20
0.312414745371392
 30
0.0
 11
-0.0095
 21
0.3154357453713919
 31
0.0
  0
LINE
  5
51D
330
6F
100
AcDbEntity
  8
0
  6
Continuous
100
AcDbLine
 10
-0.016455
 20
0.308476745371392
 30
0.0
 11
-0.013435
 21
0.312414745371392
 31
0.0
  0
LINE
  5
51E
330
6F
100
AcDbEntity
  8
0
  6
Continuous
100
AcDbLine
 10
-0.0095
 20
0.3154357453713919
 30
0.0
 11
-0.004918
 21
0.3173337453713919
 31
0.0
  0
LINE
  5
51F
330
6F
100
AcDbEntity
  8
0
  6
Continuous
100
AcDbLine
 10
-0.019034
 20
0.2990427453713919
 30
0.0
 11
-0.019012
 21
0.2855737453713919
 31
0.0
  0
LINE
  5
520
330
6F
100
AcDbEntity
  8
0
  6
Continuous
100
AcDbLine
 10
-0.019
 20
0.278484745371392
 30
0.0
 11
-0.018992
 21
0.298997745371392
 31
0.0
  0
LINE
  5
521
330
6F
100
AcDbEntity
  8
0
  6
Continuous
100
AcDbLine
 10
-0.019544
 20
0.298942745371392
 30
0.0
 11
-0.019176
 21
0.2954747453713919
 31
0.0
  0
LINE
  5
522
330
6F
100
AcDbEntity
  8
0
  6
Continuous
100
AcDbLine
 10
0.00227
 20
0.331822745371392
 30
0.0
 11
0.002843
 21
0.3364817453713919
 31
0.0
  0
LINE
  5
523
330
6F
100
AcDbEntity
  8
0
  6
Continuous
100
AcDbLine
 10
0.001963
 20
0.3278247453713919
 30
0.0
 11
0.001985
 21
0.328729745371392
 31
0.0
  0
LINE
  5
524
330
6F
100
AcDbEntity
  8
0
  6
Continuous
100
AcDbLine
 10
0.001985
 20
0.326915745371392
 30
0.0
 11
0.001963
 21
0.3278247453713919
 31
0.0
  0
LINE
  5
525
330
6F
100
AcDbEntity
  8
0
  6
Continuous
100
AcDbLine
 10
0.001959
 20
0.326379745371392
 30
0.0
 11
0.001985
 21
0.326915745371392
 31
0.0
  0
LINE
  5
526
330
6F
100
AcDbEntity
  8
0
  6
Continuous
100
AcDbLine
 10
0.001917
 20
0.3255277453713919
 30
0.0
 11
0.001959
 21
0.326379745371392
 31
0.0
  0
LINE
  5
527
330
6F
100
AcDbEntity
  8
0
  6
Continuous
100
AcDbLine
 10
0.001935
 20
0.3249047453713919
 30
0.0
 11
0.001917
 21
0.3255277453713919
 31
0.0
  0
LINE
  5
528
330
6F
100
AcDbEntity
  8
0
  6
Continuous
100
AcDbLine
 10
0.001958
 20
0.328665745371392
 30
0.0
 11
0.00227
 21
0.331822745371392
 31
0.0
  0
LINE
  5
529
330
6F
100
AcDbEntity
  8
0
  6
Continuous
100
AcDbLine
 10
0.002769
 20
0.336482745371392
 30
0.0
 11
0.00207
 21
0.331823745371392
 31
0.0
  0
LINE
  5
52A
330
6F
100
AcDbEntity
  8
0
  6
Continuous
100
AcDbLine
 10
0.002238
 20
0.331818745371392
 30
0.0
 11
0.002769
 21
0.336482745371392
 31
0.0
  0
LINE
  5
52B
330
6F
100
AcDbEntity
  8
0
  6
Continuous
100
AcDbLine
 10
0.001811
 20
0.327407745371392
 30
0.0
 11
0.001868
 21
0.3287487453713919
 31
0.0
  0
LINE
  5
52C
330
6F
100
AcDbEntity
  8
0
  6
Continuous
100
AcDbLine
 10
0.001515
 20
0.3288287453713919
 30
0.0
 11
0.001397
 21
0.327269745371392
 31
0.0
  0
LINE
  5
52D
330
6F
100
AcDbEntity
  8
0
  6
Continuous
100
AcDbLine
 10
0.001778
 20
0.3261517453713919
 30
0.0
 11
0.001811
 21
0.327407745371392
 31
0.0
  0
LINE
  5
52E
330
6F
100
AcDbEntity
  8
0
  6
Continuous
100
AcDbLine
 10
0.001397
 20
0.327269745371392
 30
0.0
 11
0.001416
 21
0.3259177453713919
 31
0.0
  0
LINE
  5
52F
330
6F
100
AcDbEntity
  8
0
  6
Continuous
100
AcDbLine
 10
0.001747
 20
0.325200745371392
 30
0.0
 11
0.001778
 21
0.3261517453713919
 31
0.0
  0
LINE
  5
530
330
6F
100
AcDbEntity
  8
0
  6
Continuous
100
AcDbLine
 10
0.001416
 20
0.3259177453713919
 30
0.0
 11
0.001475
 21
0.324918745371392
 31
0.0
  0
LINE
  5
531
330
6F
100
AcDbEntity
  8
0
  6
Continuous
100
AcDbLine
 10
0.001475
 20
0.324918745371392
 30
0.0
 11
0.001413
 21
0.324060745371392
 31
0.0
  0
LINE
  5
532
330
6F
100
AcDbEntity
  8
0
  6
Continuous
100
AcDbLine
 10
0.001868
 20
0.3287487453713919
 30
0.0
 11
0.002238
 21
0.331818745371392
 31
0.0
  0
LINE
  5
533
330
6F
100
AcDbEntity
  8
0
  6
Continuous
100
AcDbLine
 10
0.002606
 20
0.3385377453713919
 30
0.0
 11
0.002084
 21
0.339204745371392
 31
0.0
  0
LINE
  5
534
330
6F
100
AcDbEntity
  8
0
  6
Continuous
100
AcDbLine
 10
0.002533
 20
0.338538745371392
 30
0.0
 11
0.00201
 21
0.3392067453713919
 31
0.0
  0
LINE
  5
535
330
6F
100
AcDbEntity
  8
0
  6
Continuous
100
AcDbLine
 10
0.002267
 20
0.3385377453713919
 30
0.0
 11
0.001745
 21
0.339305745371392
 31
0.0
  0
LINE
  5
536
330
6F
100
AcDbEntity
  8
0
  6
Continuous
100
AcDbLine
 10
0.001456
 20
0.339451745371392
 30
0.0
 11
0.0
 21
0.339632745371392
 31
0.0
  0
LINE
  5
537
330
6F
100
AcDbEntity
  8
0
  6
Continuous
100
AcDbLine
 10
0.0
 20
0.339632745371392
 30
0.0
 11
0.001745
 21
0.339305745371392
 31
0.0
  0
LINE
  5
538
330
6F
100
AcDbEntity
  8
0
  6
Continuous
100
AcDbLine
 10
0.002606
 20
0.3385377453713919
 30
0.0
 11
0.002533
 21
0.338538745371392
 31
0.0
  0
LINE
  5
539
330
6F
100
AcDbEntity
  8
0
  6
Continuous
100
AcDbLine
 10
0.002843
 20
0.3364817453713919
 30
0.0
 11
0.002606
 21
0.3385377453713919
 31
0.0
  0
LINE
  5
53A
330
6F
100
AcDbEntity
  8
0
  6
Continuous
100
AcDbLine
 10
0.002769
 20
0.336482745371392
 30
0.0
 11
0.002533
 21
0.338538745371392
 31
0.0
  0
LINE
  5
53B
330
6F
100
AcDbEntity
  8
0
  6
Continuous
100
AcDbLine
 10
0.001745
 20
0.339305745371392
 30
0.0
 11
0.00201
 21
0.3392067453713919
 31
0.0
  0
LINE
  5
53C
330
6F
100
AcDbEntity
  8
0
  6
Continuous
100
AcDbLine
 10
0.002084
 20
0.339204745371392
 30
0.0
 11
0.001456
 21
0.339451745371392
 31
0.0
  0
LINE
  5
53D
330
6F
100
AcDbEntity
  8
0
  6
Continuous
100
AcDbLine
 10
0.00201
 20
0.3392067453713919
 30
0.0
 11
0.002084
 21
0.339204745371392
 31
0.0
  0
LINE
  5
53E
330
6F
100
AcDbEntity
  8
0
  6
Continuous
100
AcDbLine
 10
-0.001935
 20
0.3249047453713919
 30
0.0
 11
-0.002146
 21
0.319538745371392
 31
0.0
  0
LINE
  5
53F
330
6F
100
AcDbEntity
  8
0
  6
Continuous
100
AcDbLine
 10
0.001515
 20
0.3288287453713919
 30
0.0
 11
0.00207
 21
0.331823745371392
 31
0.0
  0
LINE
  5
540
330
6F
100
AcDbEntity
  8
0
  6
Continuous
100
AcDbLine
 10
0.001413
 20
0.324060745371392
 30
0.0
 11
0.0
 21
0.323933745371392
 31
0.0
  0
LINE
  5
541
330
6F
100
AcDbEntity
  8
0
  6
Continuous
100
AcDbLine
 10
0.00106
 20
0.319568745371392
 30
0.0
 11
0.001413
 21
0.324060745371392
 31
0.0
  0
LINE
  5
542
330
6F
100
AcDbEntity
  8
0
  6
Continuous
100
AcDbLine
 10
-0.002843
 20
0.3364817453713919
 30
0.0
 11
-0.00227
 21
0.331822745371392
 31
0.0
  0
LINE
  5
543
330
6F
100
AcDbEntity
  8
0
  6
Continuous
100
AcDbLine
 10
-0.001985
 20
0.328729745371392
 30
0.0
 11
-0.001963
 21
0.3278247453713919
 31
0.0
  0
LINE
  5
544
330
6F
100
AcDbEntity
  8
0
  6
Continuous
100
AcDbLine
 10
-0.001963
 20
0.3278247453713919
 30
0.0
 11
-0.001985
 21
0.326915745371392
 31
0.0
  0
LINE
  5
545
330
6F
100
AcDbEntity
  8
0
  6
Continuous
100
AcDbLine
 10
-0.001959
 20
0.326379745371392
 30
0.0
 11
-0.001917
 21
0.3255277453713919
 31
0.0
  0
LINE
  5
546
330
6F
100
AcDbEntity
  8
0
  6
Continuous
100
AcDbLine
 10
-0.001985
 20
0.326915745371392
 30
0.0
 11
-0.001959
 21
0.326379745371392
 31
0.0
  0
LINE
  5
547
330
6F
100
AcDbEntity
  8
0
  6
Continuous
100
AcDbLine
 10
-0.001917
 20
0.3255277453713919
 30
0.0
 11
-0.001935
 21
0.3249047453713919
 31
0.0
  0
LINE
  5
548
330
6F
100
AcDbEntity
  8
0
  6
Continuous
100
AcDbLine
 10
-0.00227
 20
0.331822745371392
 30
0.0
 11
-0.001958
 21
0.328665745371392
 31
0.0
  0
LINE
  5
549
330
6F
100
AcDbEntity
  8
0
  6
Continuous
100
AcDbLine
 10
-0.002769
 20
0.336482745371392
 30
0.0
 11
-0.002238
 21
0.331818745371392
 31
0.0
  0
LINE
  5
54A
330
6F
100
AcDbEntity
  8
0
  6
Continuous
100
AcDbLine
 10
-0.002769
 20
0.336482745371392
 30
0.0
 11
-0.00207
 21
0.331823745371392
 31
0.0
  0
LINE
  5
54B
330
6F
100
AcDbEntity
  8
0
  6
Continuous
100
AcDbLine
 10
-0.001397
 20
0.327269745371392
 30
0.0
 11
-0.001515
 21
0.3288287453713919
 31
0.0
  0
LINE
  5
54C
330
6F
100
AcDbEntity
  8
0
  6
Continuous
100
AcDbLine
 10
-0.001868
 20
0.3287487453713919
 30
0.0
 11
-0.001811
 21
0.327407745371392
 31
0.0
  0
LINE
  5
54D
330
6F
100
AcDbEntity
  8
0
  6
Continuous
100
AcDbLine
 10
-0.001416
 20
0.3259177453713919
 30
0.0
 11
-0.001397
 21
0.327269745371392
 31
0.0
  0
LINE
  5
54E
330
6F
100
AcDbEntity
  8
0
  6
Continuous
100
AcDbLine
 10
-0.001811
 20
0.327407745371392
 30
0.0
 11
-0.001778
 21
0.3261517453713919
 31
0.0
  0
LINE
  5
54F
330
6F
100
AcDbEntity
  8
0
  6
Continuous
100
AcDbLine
 10
-0.001475
 20
0.324918745371392
 30
0.0
 11
-0.001416
 21
0.3259177453713919
 31
0.0
  0
LINE
  5
550
330
6F
100
AcDbEntity
  8
0
  6
Continuous
100
AcDbLine
 10
-0.001778
 20
0.3261517453713919
 30
0.0
 11
-0.001747
 21
0.325200745371392
 31
0.0
  0
LINE
  5
551
330
6F
100
AcDbEntity
  8
0
  6
Continuous
100
AcDbLine
 10
-0.001413
 20
0.324060745371392
 30
0.0
 11
-0.001475
 21
0.324918745371392
 31
0.0
  0
LINE
  5
552
330
6F
100
AcDbEntity
  8
0
  6
Continuous
100
AcDbLine
 10
-0.002238
 20
0.331818745371392
 30
0.0
 11
-0.001868
 21
0.3287487453713919
 31
0.0
  0
LINE
  5
553
330
6F
100
AcDbEntity
  8
0
  6
Continuous
100
AcDbLine
 10
-0.002084
 20
0.339204745371392
 30
0.0
 11
-0.002606
 21
0.3385377453713919
 31
0.0
  0
LINE
  5
554
330
6F
100
AcDbEntity
  8
0
  6
Continuous
100
AcDbLine
 10
-0.00201
 20
0.3392067453713919
 30
0.0
 11
-0.002533
 21
0.338538745371392
 31
0.0
  0
LINE
  5
555
330
6F
100
AcDbEntity
  8
0
  6
Continuous
100
AcDbLine
 10
-0.001745
 20
0.339305745371392
 30
0.0
 11
-0.002267
 21
0.3385377453713919
 31
0.0
  0
LINE
  5
556
330
6F
100
AcDbEntity
  8
0
  6
Continuous
100
AcDbLine
 10
0.0
 20
0.338525745371392
 30
0.0
 11
0.0
 21
0.339632745371392
 31
0.0
  0
LINE
  5
557
330
6F
100
AcDbEntity
  8
0
  6
Continuous
100
AcDbLine
 10
0.0
 20
0.339632745371392
 30
0.0
 11
-0.001456
 21
0.339451745371392
 31
0.0
  0
LINE
  5
558
330
6F
100
AcDbEntity
  8
0
  6
Continuous
100
AcDbLine
 10
-0.001745
 20
0.339305745371392
 30
0.0
 11
0.0
 21
0.339632745371392
 31
0.0
  0
LINE
  5
559
330
6F
100
AcDbEntity
  8
0
  6
Continuous
100
AcDbLine
 10
-0.002606
 20
0.3385377453713919
 30
0.0
 11
-0.002843
 21
0.3364817453713919
 31
0.0
  0
LINE
  5
55A
330
6F
100
AcDbEntity
  8
0
  6
Continuous
100
AcDbLine
 10
-0.002533
 20
0.338538745371392
 30
0.0
 11
-0.002606
 21
0.3385377453713919
 31
0.0
  0
LINE
  5
55B
330
6F
100
AcDbEntity
  8
0
  6
Continuous
100
AcDbLine
 10
-0.002533
 20
0.338538745371392
 30
0.0
 11
-0.002769
 21
0.336482745371392
 31
0.0
  0
LINE
  5
55C
330
6F
100
AcDbEntity
  8
0
  6
Continuous
100
AcDbLine
 10
-0.002084
 20
0.339204745371392
 30
0.0
 11
-0.00201
 21
0.3392067453713919
 31
0.0
  0
LINE
  5
55D
330
6F
100
AcDbEntity
  8
0
  6
Continuous
100
AcDbLine
 10
-0.001456
 20
0.339451745371392
 30
0.0
 11
-0.002084
 21
0.339204745371392
 31
0.0
  0
LINE
  5
55E
330
6F
100
AcDbEntity
  8
0
  6
Continuous
100
AcDbLine
 10
-0.00201
 20
0.3392067453713919
 30
0.0
 11
-0.001745
 21
0.339305745371392
 31
0.0
  0
LINE
  5
55F
330
6F
100
AcDbEntity
  8
0
  6
Continuous
100
AcDbLine
 10
-0.00207
 20
0.331823745371392
 30
0.0
 11
-0.001515
 21
0.3288287453713919
 31
0.0
  0
LINE
  5
560
330
6F
100
AcDbEntity
  8
0
  6
Continuous
100
AcDbLine
 10
-0.00177
 20
0.324514745371392
 30
0.0
 11
-0.001909
 21
0.319502745371392
 31
0.0
  0
LINE
  5
561
330
6F
100
AcDbEntity
  8
0
  6
Continuous
100
AcDbLine
 10
0.0
 20
0.323933745371392
 30
0.0
 11
-0.001413
 21
0.324060745371392
 31
0.0
  0
LINE
  5
562
330
6F
100
AcDbEntity
  8
0
  6
Continuous
100
AcDbLine
 10
-0.001413
 20
0.324060745371392
 30
0.0
 11
-0.001377
 21
0.319515745371392
 31
0.0
  0
LINE
  5
563
330
6F
100
AcDbEntity
  8
0
  6
Continuous
100
AcDbLine
 10
0.00174
 20
0.319607745371392
 30
0.0
 11
0.001935
 21
0.3249047453713919
 31
0.0
  0
LINE
  5
564
330
6F
100
AcDbEntity
  8
0
  6
Continuous
100
AcDbLine
 10
-0.000957
 20
0.319559745371392
 30
0.0
 11
-0.000149
 21
0.3196577453713919
 31
0.0
  0
LINE
  5
565
330
6F
100
AcDbEntity
  8
0
  6
Continuous
100
AcDbLine
 10
-0.001377
 20
0.319515745371392
 30
0.0
 11
-0.000957
 21
0.319559745371392
 31
0.0
  0
LINE
  5
566
330
6F
100
AcDbEntity
  8
0
  6
Continuous
100
AcDbLine
 10
-0.001564
 20
0.319513745371392
 30
0.0
 11
-0.001377
 21
0.319515745371392
 31
0.0
  0
LINE
  5
567
330
6F
100
AcDbEntity
  8
0
  6
Continuous
100
AcDbLine
 10
-0.000149
 20
0.3196577453713919
 30
0.0
 11
0.0
 21
0.319680745371392
 31
0.0
  0
LINE
  5
568
330
6F
100
AcDbEntity
  8
0
  6
Continuous
100
AcDbLine
 10
0.00174
 20
0.319607745371392
 30
0.0
 11
0.001671
 21
0.3195977453713919
 31
0.0
  0
LINE
  5
569
330
6F
100
AcDbEntity
  8
0
  6
Continuous
100
AcDbLine
 10
0.000262
 20
0.3196557453713919
 30
0.0
 11
0.0
 21
0.319680745371392
 31
0.0
  0
LINE
  5
56A
330
6F
100
AcDbEntity
  8
0
  6
Continuous
100
AcDbLine
 10
0.000262
 20
0.3196557453713919
 30
0.0
 11
0.00106
 21
0.319568745371392
 31
0.0
  0
LINE
  5
56B
330
6F
100
AcDbEntity
  8
0
  6
Continuous
100
AcDbLine
 10
0.001372
 20
0.319561745371392
 30
0.0
 11
0.00106
 21
0.319568745371392
 31
0.0
  0
LINE
  5
56C
330
6F
100
AcDbEntity
  8
0
  6
Continuous
100
AcDbLine
 10
0.00155
 20
0.3195637453713919
 30
0.0
 11
0.001372
 21
0.319561745371392
 31
0.0
  0
LINE
  5
56D
330
6F
100
AcDbEntity
  8
0
  6
Continuous
100
AcDbLine
 10
-0.001909
 20
0.319502745371392
 30
0.0
 11
-0.001567
 21
0.319513745371392
 31
0.0
  0
LINE
  5
56E
330
6F
100
AcDbEntity
  8
0
  6
Continuous
100
AcDbLine
 10
-0.001993
 20
0.3195097453713919
 30
0.0
 11
-0.001909
 21
0.319502745371392
 31
0.0
  0
ENDSEC
  0
SECTION
  2
OBJECTS
  0
DICTIONARY
  5
C
330
0
100
AcDbDictionary
281
     1
  3
ACAD_2007HEADERVARS_RT
350
624
  3
ACAD_CIP_PREVIOUS_PRODUCT_INFO
350
172
  3
ACAD_COLOR
350
62
  3
ACAD_DETAILVIEWSTYLE
350
69
  3
ACAD_FIELDLIST
350
1E2
  3
ACAD_GROUP
350
D
  3
ACAD_LAYOUT
350
61
  3
ACAD_MATERIAL
350
10
  3
ACAD_MLEADERSTYLE
350
65
  3
ACAD_MLINESTYLE
350
5E
  3
ACAD_PLOTSETTINGS
350
60
  3
ACAD_PLOTSTYLENAME
350
E
  3
ACAD_SCALELIST
350
42
  3
ACAD_SECTIONVIEWSTYLE
350
67
  3
ACAD_TABLESTYLE
350
63
  3
ACAD_VISUALSTYLE
350
29
  3
ACDB_RECOMPOSE_DATA
350
622
  3
AcDbVariableDictionary
350
573
  3
AcmDictionary
350
19F
  3
AMG
350
173
  3
AMGSNAPSETTINGS
350
1F4
  3
DWGPROPS
350
623
  0
DICTIONARY
  5
56F
330
54
100
AcDbDictionary
280
     1
281
     1
  3
ADSK_XREC_LAYER_RECONCILED
360
570
  0
DICTIONARY
  5
571
330
1FB
100
AcDbDictionary
280
     1
281
     1
  3
ADSK_XREC_LAYER_RECONCILED
360
572
  0
DICTIONARY
  5
1FE
330
6F
100
AcDbDictionary
280
     1
281
     1
  3
ACAD_SORTENTS
360
1FF
  0
DICTIONARY
  5
624
102
{ACAD_REACTORS
330
C
102
}
330
C
100
AcDbDictionary
281
     1
  3
DIMARCSYM
350
625
  3
DIMLTEX1
350
627
  3
DIMLTEX2
350
628
  3
DIMLTYPE
350
626
  0
XRECORD
  5
172
102
{ACAD_REACTORS
330
C
102
}
330
C
100
AcDbXrecord
280
     1
300
AMECH_PP
300
2018
300
AMECH_PP_F_S
  0
DICTIONARY
  5
62
102
{ACAD_REACTORS
330
C
102
}
330
C
100
AcDbDictionary
281
     1
  0
DICTIONARY
  5
69
102
{ACAD_REACTORS
330
C
102
}
330
C
100
AcDbDictionary
281
     1
  3
Imperial24
350
6A
  0
FIELDLIST
  5
1E2
102
{ACAD_REACTORS
330
C
102
}
330
C
100
AcDbIdSet
 90
        8
330
60C
330
60D
330
60E
330
60F
330
613
330
614
330
615
330
616
100
AcDbFieldList
  0
DICTIONARY
  5
D
102
{ACAD_REACTORS
330
C
102
}
330
C
100
AcDbDictionary
281
     1
  0
DICTIONARY
  5
61
102
{ACAD_REACTORS
330
C
102
}
330
C
100
AcDbDictionary
281
     1
  3
Model
350
72
  3
レイアウト1
350
6E
  0
DICTIONARY
  5
10
102
{ACAD_REACTORS
330
C
102
}
330
C
100
AcDbDictionary
281
     1
  3
ByBlock
350
19
  3
ByLayer
350
11
  3
Global
350
21
  0
DICTIONARY
  5
65
102
{ACAD_REACTORS
330
C
102
}
330
C
100
AcDbDictionary
281
     1
  3
Standard
350
66
  0
DICTIONARY
  5
5E
102
{ACAD_REACTORS
330
C
102
}
330
C
100
AcDbDictionary
281
     1
  3
Standard
350
5F
  0
DICTIONARY
  5
60
102
{ACAD_REACTORS
330
C
102
}
330
C
100
AcDbDictionary
281
     1
  0
ACDBDICTIONARYWDFLT
  5
E
102
{ACAD_REACTORS
330
C
102
}
330
C
100
AcDbDictionary
281
     1
  3
Normal
350
F
100
AcDbDictionaryWithDefault
340
F
  0
DICTIONARY
  5
42
102
{ACAD_REACTORS
330
C
102
}
330
C
100
AcDbDictionary
281
     1
  3
A0
350
43
  3
A1
350
44
  3
A2
350
45
  3
A3
350
46
  3
A4
350
47
  3
A5
350
48
  3
A6
350
49
  3
A7
350
4A
  3
A8
350
4B
  3
A9
350
4C
  3
B0
350
4D
  3
B1
350
4E
  3
B2
350
4F
  3
B3
350
50
  3
B4
350
51
  3
B5
350
52
  3
B6
350
53
  0
DICTIONARY
  5
67
102
{ACAD_REACTORS
330
C
102
}
330
C
100
AcDbDictionary
281
     1
  3
Imperial24
350
68
  0
DICTIONARY
  5
63
102
{ACAD_REACTORS
330
C
102
}
330
C
100
AcDbDictionary
281
     1
  3
Standard
350
64
  0
DICTIONARY
  5
29
102
{ACAD_REACTORS
330
C
102
}
330
C
100
AcDbDictionary
281
     1
  3
2dWireframe
350
2F
  3
Basic
350
2E
  3
Brighten
350
35
  3
ColorChange
350
39
  3
Conceptual
350
32
  3
Dim
350
34
  3
EdgeColorOff
350
41
  3
Facepattern
350
38
  3
Flat
350
2A
  3
FlatWithEdges
350
2B
  3
Gouraud
350
2C
  3
GouraudWithEdges
350
2D
  3
Hidden
350
31
  3
JitterOff
350
3F
  3
Linepattern
350
37
  3
OverhangOff
350
40
  3
Realistic
350
33
  3
Shaded
350
3E
  3
Shaded with edges
350
3D
  3
Shades of Gray
350
3A
  3
Sketchy
350
3B
  3
Thicken
350
36
  3
Wireframe
350
30
  3
X-Ray
350
3C
  0
XRECORD
  5
622
102
{ACAD_REACTORS
330
C
102
}
330
C
100
AcDbXrecord
280
     1
 90
        1
330
64
  0
DICTIONARY
  5
573
102
{ACAD_REACTORS
330
C
102
}
330
C
100
AcDbDictionary
281
     1
  3
CANNOSCALE
350
578
  3
CMLEADERSTYLE
350
575
  3
CTABLESTYLE
350
574
  3
CVIEWDETAILSTYLE
350
576
  3
CVIEWSECTIONSTYLE
350
577
  3
DIMASSOC
350
57B
  3
INDEXCTL
350
57A
  3
SORTENTS
350
579
  3
XCLIPFRAME
350
620
  0
DICTIONARY
  5
19F
102
{ACAD_REACTORS
330
C
102
}
330
C
100
AcDbDictionary
281
     1
  3
AcmStdDictionary
350
1A6
  0
DICTIONARY
  5
173
102
{ACAD_REACTORS
330
C
102
}
330
C
100
AcDbDictionary
281
     1
  0
DICTIONARY
  5
1F4
102
{ACAD_REACTORS
330
C
102
}
330
C
100
AcDbDictionary
281
     1
  0
XRECORD
  5
623
102
{ACAD_REACTORS
330
C
102
}
330
C
100
AcDbXrecord
280
     1
  1
DWGPROPS COOKIE
  2

  3

  4

  6

  7

  8
yamazaks
  9

300
=
301
=
302
=
303
=
304
=
305
=
306
=
307
=
308
=
309
=
 40
0.0059490740740741
 41
2458093.771041667
 42
2458099.577222222
  1

 90
        0
  0
XRECORD
  5
570
102
{ACAD_REACTORS
330
56F
102
}
330
56F
100
AcDbXrecord
280
     1
290
     1
  0
XRECORD
  5
572
102
{ACAD_REACTORS
330
571
102
}
330
571
100
AcDbXrecord
280
     1
290
     1
  0
SORTENTSTABLE
  5
1FF
102
{ACAD_REACTORS
330
1FE
102
}
330
1FE
100
AcDbSortentsTable
330
6F
331
360
  5
362
331
3A3
  5
3A5
331
364
  5
366
331
3A7
  5
3A9
331
368
  5
36A
331
3AB
  5
3AD
331
148
  5
14D
331
36C
  5
36E
331
32B
  5
32D
331
3AF
  5
3B1
331
14C
  5
151
331
32F
  5
331
331
150
  5
155
331
D0
  5
D5
331
333
  5
335
331
9A
  5
9F
331
154
  5
159
331
113
  5
118
331
D4
  5
D9
331
337
  5
339
331
9E
  5
A3
331
117
  5
11C
331
D8
  5
DD
331
A2
  5
A7
331
11B
  5
120
331
DC
  5
E1
331
A6
  5
AB
331
11F
  5
124
331
418
  5
41A
331
3D9
  5
3DB
331
41C
  5
41E
331
3DD
  5
3DF
331
531
  5
533
331
4F2
  5
4F4
331
420
  5
422
331
3E1
  5
3E3
331
56A
  5
56C
331
535
  5
537
331
4F6
  5
4F8
331
424
  5
426
331
3E5
  5
3E7
331
56E
  5
61F
331
539
  5
53B
331
4FA
  5
4FC
331
53D
  5
53F
331
4FE
  5
500
331
370
  5
372
331
3B3
  5
3B5
331
374
  5
376
331
3B7
  5
3B9
331
378
  5
37A
331
37C
  5
37E
331
158
  5
15D
331
33B
  5
33D
331
15C
  5
161
331
33F
  5
341
331
160
  5
165
331
E0
  5
E5
331
164
  5
169
331
AA
  5
AF
331
123
  5
128
331
E4
  5
E9
331
AE
  5
B3
331
127
  5
12C
331
E8
  5
ED
331
EC
  5
F1
331
3E9
  5
3EB
331
3ED
  5
3EF
331
541
  5
543
331
502
  5
504
331
3F1
  5
3F3
331
545
  5
547
331
506
  5
508
331
3F5
  5
3F7
331
50A
  5
50C
331
50E
  5
510
331
380
  5
382
331
341
  5
343
331
384
  5
386
331
345
  5
347
331
388
  5
38A
331
349
  5
34B
331
168
  5
16D
331
38C
  5
38E
331
129
  5
12E
331
34D
  5
34F
331
16C
  5
1FD
331
12D
  5
132
331
170
  5
31A
331
131
  5
136
331
F0
  5
F5
331
B1
  5
B6
331
135
  5
13A
331
7B
  5
80
331
F4
  5
F9
331
B5
  5
BA
331
7F
  5
84
331
F8
  5
FD
331
B9
  5
BE
331
83
  5
88
331
FC
  5
101
331
BD
  5
C2
331
87
  5
8C
331
3F9
  5
3FB
331
3BA
  5
3BC
331
3FD
  5
3FF
331
3BE
  5
3C0
331
549
  5
54B
331
512
  5
514
331
4D3
  5
4D5
331
401
  5
403
331
3C2
  5
3C4
331
54D
  5
54F
331
516
  5
518
331
4D7
  5
4D9
331
405
  5
407
331
3C6
  5
3C8
331
551
  5
553
331
51A
  5
51C
331
4DB
  5
4DD
331
555
  5
557
331
51E
  5
520
331
4DF
  5
4E1
331
390
  5
392
331
351
  5
353
331
394
  5
396
331
355
  5
357
331
398
  5
39A
331
359
  5
35B
331
39C
  5
39E
331
139
  5
13E
331
35D
  5
35F
331
31C
  5
31E
331
13D
  5
142
331
320
  5
322
331
141
  5
146
331
100
  5
105
331
C1
  5
C6
331
324
  5
326
331
8B
  5
90
331
145
  5
14A
331
104
  5
109
331
C5
  5
CA
331
8F
  5
94
331
108
  5
10D
331
C9
  5
CE
331
93
  5
98
331
10C
  5
111
331
CD
  5
D2
331
97
  5
9C
331
409
  5
40B
331
3CA
  5
3CC
331
40D
  5
40F
331
3CE
  5
3D0
331
559
  5
55B
331
522
  5
524
331
4E3
  5
4E5
331
411
  5
413
331
3D2
  5
3D4
331
55D
  5
55F
331
526
  5
528
331
4E7
  5
4E9
331
415
  5
417
331
3D6
  5
3D8
331
561
  5
563
331
52A
  5
52C
331
4EB
  5
4ED
331
565
  5
567
331
52E
  5
530
331
4EF
  5
4F1
331
3A0
  5
3A2
331
361
  5
363
331
3A4
  5
3A6
331
365
  5
367
331
3A8
  5
3AA
331
369
  5
36B
331
328
  5
32A
331
3AC
  5
3AE
331
149
  5
14E
331
36D
  5
36F
331
32C
  5
32E
331
14D
  5
152
331
330
  5
332
331
151
  5
156
331
110
  5
115
331
D1
  5
D6
331
334
  5
336
331
9B
  5
A0
331
155
  5
15A
331
114
  5
119
331
D5
  5
DA
331
9F
  5
A4
331
118
  5
11D
331
D9
  5
DE
331
A3
  5
A8
331
11C
  5
121
331
DD
  5
E2
331
A7
  5
AC
331
419
  5
41B
331
3DA
  5
3DC
331
41D
  5
41F
331
3DE
  5
3E0
331
532
  5
534
331
4F3
  5
4F5
331
421
  5
423
331
3E2
  5
3E4
331
56B
  5
56D
331
536
  5
538
331
4F7
  5
4F9
331
425
  5
427
331
3E6
  5
3E8
331
53A
  5
53C
331
4FB
  5
4FD
331
53E
  5
540
331
4FF
  5
501
331
3B0
  5
3B2
331
371
  5
373
331
3B4
  5
3B6
331
375
  5
377
331
379
  5
37B
331
338
  5
33A
331
37D
  5
37F
331
159
  5
15E
331
33C
  5
33E
331
15D
  5
162
331
161
  5
166
331
120
  5
125
331
E1
  5
E6
331
165
  5
16A
331
AB
  5
B0
331
124
  5
129
331
E5
  5
EA
331
AF
  5
B4
331
E9
  5
EE
331
ED
  5
F2
331
3EA
  5
3EC
331
3EE
  5
3F0
331
542
  5
544
331
503
  5
505
331
3F2
  5
3F4
331
546
  5
548
331
507
  5
509
331
3F6
  5
3F8
331
50B
  5
50D
331
50F
  5
511
331
381
  5
383
331
342
  5
344
331
385
  5
387
331
346
  5
348
331
389
  5
38B
331
34A
  5
34C
331
169
  5
16E
331
38D
  5
38F
331
12A
  5
12F
331
34E
  5
350
331
16D
  5
200
331
12E
  5
133
331
132
  5
137
331
78
  5
7D
331
F1
  5
F6
331
B2
  5
B7
331
136
  5
13B
331
7C
  5
81
331
F5
  5
FA
331
B6
  5
BB
331
80
  5
85
331
F9
  5
FE
331
BA
  5
BF
331
84
  5
89
331
75
  5
7A
331
FD
  5
102
331
BE
  5
C3
331
3FA
  5
3FC
331
3BB
  5
3BD
331
4D0
  5
4D2
331
3FE
  5
400
331
3BF
  5
3C1
331
54A
  5
54C
331
513
  5
515
331
4D4
  5
4D6
331
402
  5
404
331
3C3
  5
3C5
331
54E
  5
550
331
517
  5
519
331
4D8
  5
4DA
331
406
  5
408
331
3C7
  5
3C9
331
552
  5
554
331
51B
  5
51D
331
4DC
  5
4DE
331
556
  5
558
331
51F
  5
521
331
391
  5
393
331
352
  5
354
331
395
  5
397
331
356
  5
358
331
399
  5
39B
331
35A
  5
35C
331
319
  5
31B
331
39D
  5
39F
331
13A
  5
13F
331
35E
  5
360
331
31D
  5
31F
331
13E
  5
143
331
321
  5
323
331
88
  5
8D
331
142
  5
147
331
101
  5
106
331
C2
  5
C7
331
325
  5
327
331
8C
  5
91
331
146
  5
14B
331
105
  5
10A
331
C6
  5
CB
331
90
  5
95
331
109
  5
10E
331
CA
  5
CF
331
94
  5
99
331
10D
  5
112
331
CE
  5
D3
331
40A
  5
40C
331
3CB
  5
3CD
331
4E0
  5
4E2
331
40E
  5
410
331
3CF
  5
3D1
331
55A
  5
55C
331
523
  5
525
331
4E4
  5
4E6
331
412
  5
414
331
3D3
  5
3D5
331
55E
  5
560
331
527
  5
529
331
4E8
  5
4EA
331
416
  5
418
331
3D7
  5
3D9
331
562
  5
564
331
52B
  5
52D
331
4EC
  5
4EE
331
566
  5
568
331
52F
  5
531
331
3A1
  5
3A3
331
362
  5
364
331
3A5
  5
3A7
331
366
  5
368
331
3A9
  5
3AB
331
36A
  5
36C
331
329
  5
32B
331
3AD
  5
3AF
331
14A
  5
14F
331
36E
  5
370
331
32D
  5
32F
331
14E
  5
153
331
331
  5
333
331
98
  5
9D
331
152
  5
157
331
111
  5
116
331
D2
  5
D7
331
335
  5
337
331
9C
  5
A1
331
156
  5
15B
331
115
  5
11A
331
D6
  5
DB
331
A0
  5
A5
331
119
  5
11E
331
DA
  5
DF
331
A4
  5
A9
331
11D
  5
122
331
DE
  5
E3
331
41A
  5
41C
331
3DB
  5
3DD
331
4F0
  5
4F2
331
41E
  5
420
331
3DF
  5
3E1
331
568
  5
56A
331
533
  5
535
331
4F4
  5
4F6
331
422
  5
424
331
3E3
  5
3E5
331
56C
  5
56E
331
537
  5
539
331
4F8
  5
4FA
331
426
  5
4CE
331
3E7
  5
3E9
331
53B
  5
53D
331
4FC
  5
4FE
331
53F
  5
541
331
3B1
  5
3B3
331
372
  5
374
331
3B5
  5
3B7
331
376
  5
378
331
37A
  5
37C
331
339
  5
33B
331
37E
  5
380
331
15A
  5
15F
331
33D
  5
33F
331
15E
  5
163
331
162
  5
167
331
A8
  5
AD
331
121
  5
126
331
E2
  5
E7
331
166
  5
16B
331
AC
  5
B1
331
125
  5
12A
331
E6
  5
EB
331
EA
  5
EF
331
EE
  5
F3
331
3EB
  5
3ED
331
500
  5
502
331
4CE
  5
4D0
331
3EF
  5
3F1
331
543
  5
545
331
504
  5
506
331
3F3
  5
3F5
331
547
  5
549
331
508
  5
50A
331
3F7
  5
3F9
331
50C
  5
50E
331
382
  5
384
331
343
  5
345
331
386
  5
388
331
347
  5
349
331
38A
  5
38C
331
34B
  5
34D
331
16A
  5
16F
331
38E
  5
390
331
12B
  5
130
331
34F
  5
351
331
16E
  5
201
331
12F
  5
134
331
133
  5
138
331
79
  5
7E
331
F2
  5
F7
331
B3
  5
B8
331
137
  5
13C
331
7D
  5
82
331
F6
  5
FB
331
B7
  5
BC
331
81
  5
86
331
FA
  5
FF
331
BB
  5
C0
331
85
  5
8A
331
76
  5
7B
331
FE
  5
103
331
BF
  5
C4
331
3B8
  5
3BA
331
3FB
  5
3FD
331
3BC
  5
3BE
331
510
  5
512
331
4D1
  5
4D3
331
3FF
  5
401
331
3C0
  5
3C2
331
54B
  5
54D
331
514
  5
516
331
4D5
  5
4D7
331
403
  5
405
331
3C4
  5
3C6
331
54F
  5
551
331
518
  5
51A
331
4D9
  5
4DB
331
407
  5
409
331
553
  5
555
331
51C
  5
51E
331
4DD
  5
4DF
331
557
  5
559
331
392
  5
394
331
353
  5
355
331
396
  5
398
331
357
  5
359
331
39A
  5
39C
331
35B
  5
35D
331
31A
  5
31C
331
39E
  5
3A0
331
13B
  5
140
331
35F
  5
361
331
31E
  5
320
331
13F
  5
144
331
89
  5
8E
331
322
  5
324
331
143
  5
148
331
102
  5
107
331
C3
  5
C8
331
326
  5
328
331
8D
  5
92
331
147
  5
14C
331
106
  5
10B
331
C7
  5
CC
331
91
  5
96
331
10A
  5
10F
331
CB
  5
D0
331
95
  5
9A
331
10E
  5
113
331
CF
  5
D4
331
3C8
  5
3CA
331
40B
  5
40D
331
3CC
  5
3CE
331
520
  5
522
331
4E1
  5
4E3
331
40F
  5
411
331
3D0
  5
3D2
331
55B
  5
55D
331
524
  5
526
331
4E5
  5
4E7
331
413
  5
415
331
3D4
  5
3D6
331
55F
  5
561
331
528
  5
52A
331
4E9
  5
4EB
331
417
  5
419
331
563
  5
565
331
52C
  5
52E
331
4ED
  5
4EF
331
567
  5
569
331
3A2
  5
3A4
331
363
  5
365
331
3A6
  5
3A8
331
367
  5
369
331
3AA
  5
3AC
331
36B
  5
36D
331
32A
  5
32C
331
3AE
  5
3B0
331
14B
  5
150
331
36F
  5
371
331
32E
  5
330
331
14F
  5
154
331
332
  5
334
331
99
  5
9E
331
153
  5
158
331
112
  5
117
331
D3
  5
D8
331
336
  5
338
331
9D
  5
A2
331
157
  5
15C
331
116
  5
11B
331
D7
  5
DC
331
A1
  5
A6
331
11A
  5
11F
331
DB
  5
E0
331
A5
  5
AA
331
11E
  5
123
331
DF
  5
E4
331
3D8
  5
3DA
331
41B
  5
41D
331
3DC
  5
3DE
331
530
  5
532
331
4F1
  5
4F3
331
41F
  5
421
331
3E0
  5
3E2
331
569
  5
56B
331
534
  5
536
331
4F5
  5
4F7
331
423
  5
425
331
3E4
  5
3E6
331
56D
  5
61E
331
538
  5
53A
331
4F9
  5
4FB
331
427
  5
4CF
331
53C
  5
53E
331
4FD
  5
4FF
331
3B2
  5
3B4
331
373
  5
375
331
3B6
  5
3B8
331
377
  5
379
331
37B
  5
37D
331
33A
  5
33C
331
37F
  5
381
331
15B
  5
160
331
33E
  5
340
331
15F
  5
164
331
163
  5
168
331
A9
  5
AE
331
122
  5
127
331
E3
  5
E8
331
167
  5
16C
331
AD
  5
B2
331
126
  5
12B
331
E7
  5
EC
331
EB
  5
F0
331
EF
  5
F4
331
3E8
  5
3EA
331
3EC
  5
3EE
331
540
  5
542
331
501
  5
503
331
4CF
  5
4D1
331
3F0
  5
3F2
331
544
  5
546
331
505
  5
507
331
3F4
  5
3F6
331
509
  5
50B
331
50D
  5
50F
331
340
  5
342
331
383
  5
385
331
344
  5
346
331
387
  5
389
331
348
  5
34A
331
38B
  5
38D
331
128
  5
12D
331
34C
  5
34E
331
16B
  5
170
331
38F
  5
391
331
12C
  5
131
331
16F
  5
319
331
130
  5
135
331
B0
  5
B5
331
134
  5
139
331
7A
  5
7F
331
F3
  5
F8
331
B4
  5
B9
331
7E
  5
83
331
F7
  5
FC
331
B8
  5
BD
331
82
  5
87
331
FB
  5
100
331
BC
  5
C1
331
86
  5
8B
331
77
  5
7C
331
FF
  5
104
331
3F8
  5
3FA
331
3B9
  5
3BB
331
3FC
  5
3FE
331
3BD
  5
3BF
331
548
  5
54A
331
511
  5
513
331
4D2
  5
4D4
331
400
  5
402
331
3C1
  5
3C3
331
54C
  5
54E
331
515
  5
517
331
4D6
  5
4D8
331
404
  5
406
331
3C5
  5
3C7
331
550
  5
552
331
519
  5
51B
331
4DA
  5
4DC
331
554
  5
556
331
51D
  5
51F
331
4DE
  5
4E0
331
350
  5
352
331
393
  5
395
331
354
  5
356
331
397
  5
399
331
358
  5
35A
331
39B
  5
39D
331
138
  5
13D
331
35C
  5
35E
331
31B
  5
31D
331
39F
  5
3A1
331
13C
  5
141
331
31F
  5
321
331
140
  5
145
331
C0
  5
C5
331
8A
  5
8F
331
323
  5
325
331
144
  5
149
331
103
  5
108
331
C4
  5
C9
331
327
  5
329
331
8E
  5
93
331
107
  5
10C
331
C8
  5
CD
331
92
  5
97
331
10B
  5
110
331
CC
  5
D1
331
96
  5
9B
331
10F
  5
114
331
408
  5
40A
331
3C9
  5
3CB
331
40C
  5
40E
331
3CD
  5
3CF
331
558
  5
55A
331
521
  5
523
331
4E2
  5
4E4
331
410
  5
412
331
3D1
  5
3D3
331
55C
  5
55E
331
525
  5
527
331
4E6
  5
4E8
331
414
  5
416
331
3D5
  5
3D7
331
560
  5
562
331
529
  5
52B
331
4EA
  5
4EC
331
564
  5
566
331
52D
  5
52F
331
4EE
  5
4F0
  0
XRECORD
  5
625
102
{ACAD_REACTORS
330
624
102
}
330
624
100
AcDbXrecord
280
     1
 70
     1
  0
XRECORD
  5
627
102
{ACAD_REACTORS
330
624
102
}
330
624
100
AcDbXrecord
280
     1
340
5A
  0
XRECORD
  5
628
102
{ACAD_REACTORS
330
624
102
}
330
624
100
AcDbXrecord
280
     1
340
5A
  0
XRECORD
  5
626
102
{ACAD_REACTORS
330
624
102
}
330
624
100
AcDbXrecord
280
     1
340
5A
  0
ACDBDETAILVIEWSTYLE
  5
6A
102
{ACAD_XDICTIONARY
360
65C
102
}
102
{ACAD_REACTORS
330
69
330
608
102
}
330
69
100
AcDbModelDocViewStyle
 70
     0
  3
Imperial24
290
     0
100
AcDbDetailViewStyle
 70
     0
 71
     0
 90
        3
 71
     1
340
55
 40
0.24
340
0
 40
0.24
300

 40
0.36
280
     3
 71
     2
340
5C
 90
       25
 71
     3
340
55
 40
0.24
 90
        1
 40
0.75
 90
        1
300
%<\AcVar ViewType \f "%tc1">% %<\AcVar ViewDetailId>%\PSCALE %<\AcVar ViewScale \f "%sn">%
 71
     4
340
5C
 90
       25
340
5C
 90
       25
280
     0
  0
LAYOUT
  5
72
102
{ACAD_XDICTIONARY
360
660
102
}
102
{ACAD_REACTORS
330
61
102
}
330
61
100
AcDbPlotSettings
  1

  2
\\jptkysfp01\JPTKYPOFFI004
  4

  6

 40
0.0
 41
0.0
 42
0.0
 43
0.0
 44
0.0
 45
0.0
 46
0.0
 47
0.0
 48
0.0
 49
0.0
140
0.0
141
0.0
142
1.0
143
1.0
 70
  1712
 72
     0
 73
     0
 74
     0
  7

 75
     0
147
1.0
148
0.0
149
0.0
100
AcDbLayout
  1
Model
 70
     1
 71
     0
 10
0.0
 20
0.0
 11
12.0
 21
9.0
 12
0.0
 22
0.0
 32
0.0
 14
0.0
 24
0.0
 34
0.0
 15
0.0
 25
0.0
 35
0.0
146
0.0
 13
0.0
 23
0.0
 33
0.0
 16
1.0
 26
0.0
 36
0.0
 17
0.0
 27
1.0
 37
0.0
 76
     0
330
6F
331
74
  0
LAYOUT
  5
6E
102
{ACAD_XDICTIONARY
360
65E
102
}
102
{ACAD_REACTORS
330
61
102
}
330
61
100
AcDbPlotSettings
  1

  2
\\jptkysfp01\JPTKYPOFFI004
  4

  6

 40
0.0
 41
0.0
 42
0.0
 43
0.0
 44
0.0
 45
0.0
 46
0.0
 47
0.0
 48
0.0
 49
0.0
140
0.0
141
0.0
142
1.0
143
1.0
 70
   688
 72
     0
 73
     0
 74
     5
  7

 75
    16
147
1.0
148
0.0
149
0.0
100
AcDbLayout
  1
レイアウト1
 70
     1
 71
     1
 10
0.0
 20
0.0
 11
12.0
 21
9.0
 12
0.0
 22
0.0
 32
0.0
 14
1.000000000000000E+20
 24
1.000000000000000E+20
 34
1.000000000000000E+20
 15
-1.000000000000000E+20
 25
-1.000000000000000E+20
 35
-1.000000000000000E+20
146
0.0
 13
0.0
 23
0.0
 33
0.0
 16
1.0
 26
0.0
 36
0.0
 17
0.0
 27
1.0
 37
0.0
 76
     0
330
6B
  0
MATERIAL
  5
19
102
{ACAD_XDICTIONARY
360
1A
102
}
102
{ACAD_REACTORS
330
10
102
}
330
10
100
AcDbMaterial
  1
ByBlock
 72
     0
 43
0.0208333333333333
 43
0.0
 43
0.0
 43
0.0
 43
0.0
 43
0.0208333333333333
 43
0.0
 43
0.0
 43
0.0
 43
0.0
 43
1.0
 43
0.0
 43
0.0
 43
0.0
 43
0.0
 43
1.0
 77
     0
 47
0.0208333333333333
 47
0.0
 47
0.0
 47
0.0
 47
0.0
 47
0.0208333333333333
 47
0.0
 47
0.0
 47
0.0
 47
0.0
 47
1.0
 47
0.0
 47
0.0
 47
0.0
 47
0.0
 47
1.0
171
     0
 49
0.0208333333333333
 49
0.0
 49
0.0
 49
0.0
 49
0.0
 49
0.0208333333333333
 49
0.0
 49
0.0
 49
0.0
 49
0.0
 49
1.0
 49
0.0
 49
0.0
 49
0.0
 49
0.0
 49
1.0
175
     0
142
0.0208333333333333
142
0.0
142
0.0
142
0.0
142
0.0
142
0.0208333333333333
142
0.0
142
0.0
142
0.0
142
0.0
142
1.0
142
0.0
142
0.0
142
0.0
142
0.0
142
1.0
179
     0
144
0.0208333333333333
144
0.0
144
0.0
144
0.0
144
0.0
144
0.0208333333333333
144
0.0
144
0.0
144
0.0
144
0.0
144
1.0
144
0.0
144
0.0
144
0.0
144
0.0
144
1.0
147
0.0208333333333333
147
0.0
147
0.0
147
0.0
147
0.0
147
0.0208333333333333
147
0.0
147
0.0
147
0.0
147
0.0
147
1.0
147
0.0
147
0.0
147
0.0
147
0.0
147
1.0
  0
MATERIAL
  5
11
102
{ACAD_XDICTIONARY
360
12
102
}
102
{ACAD_REACTORS
330
10
102
}
330
10
100
AcDbMaterial
  1
ByLayer
 72
     0
 43
0.0208333333333333
 43
0.0
 43
0.0
 43
0.0
 43
0.0
 43
0.0208333333333333
 43
0.0
 43
0.0
 43
0.0
 43
0.0
 43
1.0
 43
0.0
 43
0.0
 43
0.0
 43
0.0
 43
1.0
 77
     0
 47
0.0208333333333333
 47
0.0
 47
0.0
 47
0.0
 47
0.0
 47
0.0208333333333333
 47
0.0
 47
0.0
 47
0.0
 47
0.0
 47
1.0
 47
0.0
 47
0.0
 47
0.0
 47
0.0
 47
1.0
171
     0
 49
0.0208333333333333
 49
0.0
 49
0.0
 49
0.0
 49
0.0
 49
0.0208333333333333
 49
0.0
 49
0.0
 49
0.0
 49
0.0
 49
1.0
 49
0.0
 49
0.0
 49
0.0
 49
0.0
 49
1.0
175
     0
142
0.0208333333333333
142
0.0
142
0.0
142
0.0
142
0.0
142
0.0208333333333333
142
0.0
142
0.0
142
0.0
142
0.0
142
1.0
142
0.0
142
0.0
142
0.0
142
0.0
142
1.0
179
     0
144
0.0208333333333333
144
0.0
144
0.0
144
0.0
144
0.0
144
0.0208333333333333
144
0.0
144
0.0
144
0.0
144
0.0
144
1.0
144
0.0
144
0.0
144
0.0
144
0.0
144
1.0
147
0.0208333333333333
147
0.0
147
0.0
147
0.0
147
0.0
147
0.0208333333333333
147
0.0
147
0.0
147
0.0
147
0.0
147
1.0
147
0.0
147
0.0
147
0.0
147
0.0
147
1.0
  0
MATERIAL
  5
21
102
{ACAD_XDICTIONARY
360
22
102
}
102
{ACAD_REACTORS
330
10
102
}
330
10
100
AcDbMaterial
  1
Global
 72
     0
 43
0.0208333333333333
 43
0.0
 43
0.0
 43
0.0
 43
0.0
 43
0.0208333333333333
 43
0.0
 43
0.0
 43
0.0
 43
0.0
 43
1.0
 43
0.0
 43
0.0
 43
0.0
 43
0.0
 43
1.0
 77
     0
 47
0.0208333333333333
 47
0.0
 47
0.0
 47
0.0
 47
0.0
 47
0.0208333333333333
 47
0.0
 47
0.0
 47
0.0
 47
0.0
 47
1.0
 47
0.0
 47
0.0
 47
0.0
 47
0.0
 47
1.0
171
     0
 49
0.0208333333333333
 49
0.0
 49
0.0
 49
0.0
 49
0.0
 49
0.0208333333333333
 49
0.0
 49
0.0
 49
0.0
 49
0.0
 49
1.0
 49
0.0
 49
0.0
 49
0.0
 49
0.0
 49
1.0
175
     0
142
0.0208333333333333
142
0.0
142
0.0
142
0.0
142
0.0
142
0.0208333333333333
142
0.0
142
0.0
142
0.0
142
0.0
142
1.0
142
0.0
142
0.0
142
0.0
142
0.0
142
1.0
179
     0
144
0.0208333333333333
144
0.0
144
0.0
144
0.0
144
0.0
144
0.0208333333333333
144
0.0
144
0.0
144
0.0
144
0.0
144
1.0
144
0.0
144
0.0
144
0.0
144
0.0
144
1.0
147
0.0208333333333333
147
0.0
147
0.0
147
0.0
147
0.0
147
0.0208333333333333
147
0.0
147
0.0
147
0.0
147
0.0
147
1.0
147
0.0
147
0.0
147
0.0
147
0.0
147
1.0
  0
MLEADERSTYLE
  5
66
102
{ACAD_REACTORS
330
65
102
}
330
65
100
AcDbMLeaderStyle
170
     2
171
     1
172
     0
 90
        2
 40
0.0
 41
0.0
173
     1
 91
-1056964608
340
5A
 92
       -2
290
     1
 42
0.09
291
     1
 43
0.36
  3
Standard
 44
0.18
300

342
55
174
     1
178
     6
175
     1
176
     0
 93
-1056964608
 45
0.18
292
     0
297
     0
 46
0.18
 94
-1056964608
 47
1.0
 49
1.0
140
1.0
293
     1
141
0.0
294
     1
177
     0
142
1.0
295
     0
296
     0
143
0.125
1001
ACAD_MLEADERVER
1070
     2
  0
MLINESTYLE
  5
5F
102
{ACAD_REACTORS
330
5E
102
}
330
5E
100
AcDbMlineStyle
  2
STANDARD
 70
     0
  3

 62
   256
 51
90.0
 52
90.0
 71
     2
 49
0.5
 62
   256
  6
BYLAYER
 49
-0.5
 62
   256
  6
BYLAYER
  0
ACDBPLACEHOLDER
  5
F
102
{ACAD_REACTORS
330
E
102
}
330
E
  0
SCALE
  5
43
102
{ACAD_REACTORS
330
42
102
}
330
42
100
AcDbScale
 70
     0
300
1:1
140
1.0
141
1.0
290
     1
  0
SCALE
  5
44
102
{ACAD_REACTORS
330
42
102
}
330
42
100
AcDbScale
 70
     0
300
1/128" = 1'-0"
140
0.0078125
141
12.0
290
     0
  0
SCALE
  5
45
102
{ACAD_REACTORS
330
42
102
}
330
42
100
AcDbScale
 70
     0
300
1/64" = 1'-0"
140
0.015625
141
12.0
290
     0
  0
SCALE
  5
46
102
{ACAD_REACTORS
330
42
102
}
330
42
100
AcDbScale
 70
     0
300
1/32" = 1'-0"
140
0.03125
141
12.0
290
     0
  0
SCALE
  5
47
102
{ACAD_REACTORS
330
42
102
}
330
42
100
AcDbScale
 70
     0
300
1/16" = 1'-0"
140
0.0625
141
12.0
290
     0
  0
SCALE
  5
48
102
{ACAD_REACTORS
330
42
102
}
330
42
100
AcDbScale
 70
     0
300
3/32" = 1'-0"
140
0.09375
141
12.0
290
     0
  0
SCALE
  5
49
102
{ACAD_REACTORS
330
42
102
}
330
42
100
AcDbScale
 70
     0
300
1/8" = 1'-0"
140
0.125
141
12.0
290
     0
  0
SCALE
  5
4A
102
{ACAD_REACTORS
330
42
102
}
330
42
100
AcDbScale
 70
     0
300
3/16" = 1'-0"
140
0.1875
141
12.0
290
     0
  0
SCALE
  5
4B
102
{ACAD_REACTORS
330
42
102
}
330
42
100
AcDbScale
 70
     0
300
1/4" = 1'-0"
140
0.25
141
12.0
290
     0
  0
SCALE
  5
4C
102
{ACAD_REACTORS
330
42
102
}
330
42
100
AcDbScale
 70
     0
300
3/8" = 1'-0"
140
0.375
141
12.0
290
     0
  0
SCALE
  5
4D
102
{ACAD_REACTORS
330
42
102
}
330
42
100
AcDbScale
 70
     0
300
1/2" = 1'-0"
140
0.5
141
12.0
290
     0
  0
SCALE
  5
4E
102
{ACAD_REACTORS
330
42
102
}
330
42
100
AcDbScale
 70
     0
300
3/4" = 1'-0"
140
0.75
141
12.0
290
     0
  0
SCALE
  5
4F
102
{ACAD_REACTORS
330
42
102
}
330
42
100
AcDbScale
 70
     0
300
1" = 1'-0"
140
1.0
141
12.0
290
     0
  0
SCALE
  5
50
102
{ACAD_REACTORS
330
42
102
}
330
42
100
AcDbScale
 70
     0
300
1-1/2" = 1'-0"
140
1.5
141
12.0
290
     0
  0
SCALE
  5
51
102
{ACAD_REACTORS
330
42
102
}
330
42
100
AcDbScale
 70
     0
300
3" = 1'-0"
140
3.0
141
12.0
290
     0
  0
SCALE
  5
52
102
{ACAD_REACTORS
330
42
102
}
330
42
100
AcDbScale
 70
     0
300
6" = 1'-0"
140
6.0
141
12.0
290
     0
  0
SCALE
  5
53
102
{ACAD_REACTORS
330
42
102
}
330
42
100
AcDbScale
 70
     0
300
1'-0" = 1'-0"
140
12.0
141
12.0
290
     0
  0
ACDBSECTIONVIEWSTYLE
  5
68
102
{ACAD_XDICTIONARY
360
65A
102
}
102
{ACAD_REACTORS
330
67
330
607
102
}
330
67
100
AcDbModelDocViewStyle
 70
     0
  3
Imperial24
290
     0
100
AcDbSectionViewStyle
 70
     0
 71
     0
 90
       78
 71
     1
340
55
 40
0.24
340
0
340
0
 40
0.24
300
I, O, Q, S, X, Z
 40
0.48
 90
        3
 40
0.18
 90
        1
 71
     2
340
5C
 90
       25
340
5C
 90
       50
 40
0.24
 40
0.0
 40
0.24
 71
     3
340
55
 40
0.24
 90
        1
 40
0.75
 90
        1
300
%<\AcVar ViewType \f "%tc1">% %<\AcVar ViewSectionStartId>%-%<\AcVar ViewSectionEndId>%\PSCALE %<\AcVar ViewScale \f "%sn">%
 71
     4
300
ANSI31
 40
1.0
 90
        0
290
     0
290
     0
 90
        6
 40
0.0
 40
1.570796326794896
 40
0.2617993877991494
 40
1.308996938995747
 40
-0.2617993877991494
 40
1.832595714594045
  0
TABLESTYLE
  5
64
102
{ACAD_XDICTIONARY
360
57D
102
}
102
{ACAD_REACTORS
330
63
102
}
330
63
100
AcDbTableStyle
  3
Standard
 70
     0
 71
     0
 40
0.06
 41
0.06
280
     0
281
     0
  7
Standard
140
0.18
170
     2
 62
     0
 63
     7
283
     0
274
    -2
284
     1
 64
     0
275
    -2
285
     1
 65
     0
276
    -2
286
     1
 66
     0
277
    -2
287
     1
 67
     0
278
    -2
288
     1
 68
     0
279
    -2
289
     1
 69
     0
  7
Standard
140
0.25
170
     5
 62
     0
 63
     7
283
     0
274
    -2
284
     1
 64
     0
275
    -2
285
     1
 65
     0
276
    -2
286
     1
 66
     0
277
    -2
287
     1
 67
     0
278
    -2
288
     1
 68
     0
279
    -2
289
     1
 69
     0
  7
Standard
140
0.18
170
     5
 62
     0
 63
     7
283
     0
274
    -2
284
     1
 64
     0
275
    -2
285
     1
 65
     0
276
    -2
286
     1
 66
     0
277
    -2
287
     1
 67
     0
278
    -2
288
     1
 68
     0
279
    -2
289
     1
 69
     0
  0
VISUALSTYLE
  5
2F
102
{ACAD_XDICTIONARY
360
633
102
}
102
{ACAD_REACTORS
330
29
102
}
330
29
100
AcDbVisualStyle
  2

 70
     4
 71
     0
 72
     2
 73
     0
 90
        0
 40
-0.6
 41
-30.0
 62
     5
 63
     7
 74
     1
 91
        4
 64
     7
 65
   257
 75
     1
175
     1
 42
1.0
 92
        0
 66
   257
 43
1.0
 76
     1
 77
     6
 78
     2
 67
     7
 79
     5
170
     0
171
     0
290
     0
174
     0
 93
        1
 44
0.0
173
     0
291
     0
 45
0.0
1001
ACAD
1000
AcDbSavedByObjectVersion
1070
     0
  0
VISUALSTYLE
  5
2E
102
{ACAD_XDICTIONARY
360
631
102
}
102
{ACAD_REACTORS
330
29
102
}
330
29
100
AcDbVisualStyle
  2

 70
     7
 71
     1
 72
     0
 73
     1
 90
        0
 40
-0.6
 41
-30.0
 62
     5
 63
     7
 74
     0
 91
        4
 64
     7
 65
   257
 75
     1
175
     1
 42
1.0
 92
        8
 66
     7
 43
1.0
 76
     1
 77
     6
 78
     2
 67
     7
 79
     5
170
     0
171
     0
290
     0
174
     0
 93
        1
 44
0.0
173
     0
291
     1
 45
0.0
1001
ACAD
1000
AcDbSavedByObjectVersion
1070
     0
  0
VISUALSTYLE
  5
35
102
{ACAD_XDICTIONARY
360
63F
102
}
102
{ACAD_REACTORS
330
29
102
}
330
29
100
AcDbVisualStyle
  2

 70
    12
 71
     2
 72
     2
 73
     0
 90
        0
 40
-0.6
 41
-30.0
 62
     5
 63
     7
 74
     1
 91
        4
 64
     7
 65
   257
 75
     1
175
     1
 42
1.0
 92
        8
 66
     7
 43
1.0
 76
     1
 77
     6
 78
     2
 67
     7
 79
     5
170
     0
171
     0
290
     0
174
     0
 93
        1
 44
50.0
173
     0
291
     1
 45
0.0
1001
ACAD
1000
AcDbSavedByObjectVersion
1070
     0
  0
VISUALSTYLE
  5
39
102
{ACAD_XDICTIONARY
360
647
102
}
102
{ACAD_REACTORS
330
29
102
}
330
29
100
AcDbVisualStyle
  2

 70
    16
 71
     2
 72
     2
 73
     3
 90
        0
 40
-0.6
 41
-30.0
 62
     5
 63
     8
 74
     1
 91
        4
 64
     7
 65
   257
 75
     1
175
     1
 42
1.0
 92
        8
 66
     8
 43
1.0
 76
     1
 77
     6
 78
     2
 67
     7
 79
     5
170
     0
171
     0
290
     0
174
     0
 93
        1
 44
0.0
173
     0
291
     1
 45
0.0
1001
ACAD
1000
AcDbSavedByObjectVersion
1070
     0
  0
VISUALSTYLE
  5
32
102
{ACAD_XDICTIONARY
360
639
102
}
102
{ACAD_REACTORS
330
29
102
}
330
29
100
AcDbVisualStyle
  2

 70
     9
 71
     3
 72
     2
 73
     0
 90
        0
 40
-0.6
 41
-30.0
 62
     5
 63
     7
 74
     2
 91
        2
 64
     7
 65
   257
 75
     1
175
     1
 42
179.0
 92
        8
 66
     7
 43
1.0
 76
     1
 77
     6
 78
     2
 67
     7
 79
     3
170
     0
171
     0
290
     0
174
     0
 93
        1
 44
0.0
173
     0
291
     0
 45
0.0
1001
ACAD
1000
AcDbSavedByObjectVersion
1070
     0
  0
VISUALSTYLE
  5
34
102
{ACAD_XDICTIONARY
360
63D
102
}
102
{ACAD_REACTORS
330
29
102
}
330
29
100
AcDbVisualStyle
  2

 70
    11
 71
     2
 72
     2
 73
     0
 90
        0
 40
-0.6
 41
-30.0
 62
     5
 63
     7
 74
     1
 91
        4
 64
     7
 65
   257
 75
     1
175
     1
 42
1.0
 92
        8
 66
     7
 43
1.0
 76
     1
 77
     6
 78
     2
 67
     7
 79
     5
170
     0
171
     0
290
     0
174
     0
 93
        1
 44
-50.0
173
     0
291
     1
 45
0.0
1001
ACAD
1000
AcDbSavedByObjectVersion
1070
     0
  0
VISUALSTYLE
  5
41
102
{ACAD_XDICTIONARY
360
657
102
}
102
{ACAD_REACTORS
330
29
102
}
330
29
100
AcDbVisualStyle
  2

 70
    22
 71
     2
 72
     2
 73
     0
 90
        0
 40
-0.6
 41
-30.0
 62
     5
 63
     7
 74
     1
 91
        4
 64
     7
 65
   257
 75
     1
175
     1
 42
1.0
 92
        8
 66
     7
 43
1.0
 76
     1
 77
     6
 78
     2
 67
     7
 79
     5
170
     0
171
     0
290
     0
174
     0
 93
        1
 44
0.0
173
     0
291
     1
 45
0.0
1001
ACAD
1000
AcDbSavedByObjectVersion
1070
     0
  0
VISUALSTYLE
  5
38
102
{ACAD_XDICTIONARY
360
645
102
}
102
{ACAD_REACTORS
330
29
102
}
330
29
100
AcDbVisualStyle
  2

 70
    15
 71
     2
 72
     2
 73
     0
 90
        0
 40
-0.6
 41
-30.0
 62
     5
 63
     7
 74
     1
 91
        4
 64
     7
 65
   257
 75
     1
175
     1
 42
1.0
 92
        8
 66
     7
 43
1.0
 76
     1
 77
     6
 78
     2
 67
     7
 79
     5
170
     0
171
     0
290
     0
174
     0
 93
        1
 44
0.0
173
     0
291
     1
 45
0.0
1001
ACAD
1000
AcDbSavedByObjectVersion
1070
     0
  0
VISUALSTYLE
  5
2A
102
{ACAD_XDICTIONARY
360
629
102
}
102
{ACAD_REACTORS
330
29
102
}
330
29
100
AcDbVisualStyle
  2

 70
     0
 71
     2
 72
     1
 73
     1
 90
        2
 40
-0.6
 41
30.0
 62
     5
 63
     7
 74
     0
 91
        0
 64
     7
 65
   257
 75
     1
175
     1
 42
1.0
 92
        8
 66
     7
 43
1.0
 76
     1
 77
     6
 78
     2
 67
     7
 79
     5
170
     0
171
     0
290
     0
174
     0
 93
       13
 44
0.0
173
     0
291
     1
 45
0.0
1001
ACAD
1000
AcDbSavedByObjectVersion
1070
     0
  0
VISUALSTYLE
  5
2B
102
{ACAD_XDICTIONARY
360
62B
102
}
102
{ACAD_REACTORS
330
29
102
}
330
29
100
AcDbVisualStyle
  2

 70
     1
 71
     2
 72
     1
 73
     1
 90
        2
 40
-0.6
 41
30.0
 62
     5
 63
     7
 74
     1
 91
        0
 64
     7
 65
   257
 75
     1
175
     1
 42
1.0
 92
        0
 66
   257
 43
1.0
 76
     1
 77
     6
 78
     2
 67
     7
 79
     5
170
     0
171
     0
290
     0
174
     0
 93
       13
 44
0.0
173
     0
291
     1
 45
0.0
1001
ACAD
1000
AcDbSavedByObjectVersion
1070
     0
  0
VISUALSTYLE
  5
2C
102
{ACAD_XDICTIONARY
360
62D
102
}
102
{ACAD_REACTORS
330
29
102
}
330
29
100
AcDbVisualStyle
  2

 70
     2
 71
     2
 72
     2
 73
     1
 90
        2
 40
-0.6
 41
30.0
 62
     5
 63
     7
 74
     0
 91
        0
 64
     7
 65
   257
 75
     1
175
     1
 42
1.0
 92
        0
 66
     7
 43
1.0
 76
     1
 77
     6
 78
     2
 67
     7
 79
     5
170
     0
171
     0
290
     0
174
     0
 93
       13
 44
0.0
173
     0
291
     1
 45
0.0
1001
ACAD
1000
AcDbSavedByObjectVersion
1070
     0
  0
VISUALSTYLE
  5
2D
102
{ACAD_XDICTIONARY
360
62F
102
}
102
{ACAD_REACTORS
330
29
102
}
330
29
100
AcDbVisualStyle
  2

 70
     3
 71
     2
 72
     2
 73
     1
 90
        2
 40
-0.6
 41
30.0
 62
     5
 63
     7
 74
     1
 91
        0
 64
     7
 65
   257
 75
     1
175
     1
 42
1.0
 92
        0
 66
   257
 43
1.0
 76
     1
 77
     6
 78
     2
 67
     7
 79
     5
170
     0
171
     0
290
     0
174
     0
 93
       13
 44
0.0
173
     0
291
     1
 45
0.0
1001
ACAD
1000
AcDbSavedByObjectVersion
1070
     0
  0
VISUALSTYLE
  5
31
102
{ACAD_XDICTIONARY
360
637
102
}
102
{ACAD_REACTORS
330
29
102
}
330
29
100
AcDbVisualStyle
  2

 70
     6
 71
     1
 72
     2
 73
     2
 90
        0
 40
-0.6
 41
-30.0
 62
     5
 63
     7
 74
     2
 91
        2
 64
     7
 65
   257
 75
     2
175
     1
 42
40.0
 92
        0
 66
   257
 43
1.0
 76
     1
 77
     6
 78
     2
 67
     7
 79
     3
170
     0
171
     0
290
     0
174
     0
 93
        1
 44
0.0
173
     0
291
     0
 45
0.0
1001
ACAD
1000
AcDbSavedByObjectVersion
1070
     0
  0
VISUALSTYLE
  5
3F
102
{ACAD_XDICTIONARY
360
653
102
}
102
{ACAD_REACTORS
330
29
102
}
330
29
100
AcDbVisualStyle
  2

 70
    20
 71
     2
 72
     2
 73
     0
 90
        0
 40
-0.6
 41
-30.0
 62
     5
 63
     7
 74
     1
 91
        4
 64
     7
 65
   257
 75
     1
175
     1
 42
1.0
 92
       10
 66
     7
 43
1.0
 76
     1
 77
     6
 78
     2
 67
     7
 79
     5
170
     0
171
     0
290
     0
174
     0
 93
        1
 44
0.0
173
     0
291
     1
 45
0.0
1001
ACAD
1000
AcDbSavedByObjectVersion
1070
     0
  0
VISUALSTYLE
  5
37
102
{ACAD_XDICTIONARY
360
643
102
}
102
{ACAD_REACTORS
330
29
102
}
330
29
100
AcDbVisualStyle
  2

 70
    14
 71
     2
 72
     2
 73
     0
 90
        0
 40
-0.6
 41
-30.0
 62
     5
 63
     7
 74
     1
 91
        4
 64
     7
 65
   257
 75
     7
175
     7
 42
1.0
 92
        8
 66
     7
 43
1.0
 76
     1
 77
     6
 78
     2
 67
     7
 79
     5
170
     0
171
     0
290
     0
174
     0
 93
        1
 44
0.0
173
     0
291
     1
 45
0.0
1001
ACAD
1000
AcDbSavedByObjectVersion
1070
     0
  0
VISUALSTYLE
  5
40
102
{ACAD_XDICTIONARY
360
655
102
}
102
{ACAD_REACTORS
330
29
102
}
330
29
100
AcDbVisualStyle
  2

 70
    21
 71
     2
 72
     2
 73
     0
 90
        0
 40
-0.6
 41
-30.0
 62
     5
 63
     7
 74
     1
 91
        4
 64
     7
 65
   257
 75
     1
175
     1
 42
1.0
 92
        9
 66
     7
 43
1.0
 76
     1
 77
     6
 78
     2
 67
     7
 79
     5
170
     0
171
     0
290
     0
174
     0
 93
        1
 44
0.0
173
     0
291
     1
 45
0.0
1001
ACAD
1000
AcDbSavedByObjectVersion
1070
     0
  0
VISUALSTYLE
  5
33
102
{ACAD_XDICTIONARY
360
63B
102
}
102
{ACAD_REACTORS
330
29
102
}
330
29
100
AcDbVisualStyle
  2

 70
     8
 71
     2
 72
     3
 73
     0
 90
        2
 40
-0.6
 41
30.0
 62
     5
 63
     7
 74
     0
 91
        0
 64
     7
 65
   257
 75
     1
175
     1
 42
1.0
 92
        8
 66
   257
 43
1.0
 76
     1
 77
     6
 78
     2
 67
     7
 79
     3
170
     0
171
     0
290
     0
174
     0
 93
       13
 44
0.0
173
     0
291
     0
 45
0.0
1001
ACAD
1000
AcDbSavedByObjectVersion
1070
     0
  0
VISUALSTYLE
  5
3E
102
{ACAD_XDICTIONARY
360
651
102
}
102
{ACAD_REACTORS
330
29
102
}
330
29
100
AcDbVisualStyle
  2

 70
    27
 71
     2
 72
     2
 73
     1
 90
        2
 40
-0.6
 41
30.0
 62
     5
 63
     7
 74
     0
 91
        4
 64
     7
 65
   257
 75
     1
175
     1
 42
1.0
 92
        8
 66
   257
 43
1.0
 76
     1
 77
     6
 78
     2
 67
     8
 79
     3
170
     0
171
     0
290
     0
174
     0
 93
        5
 44
0.0
173
     0
291
     0
 45
0.0
1001
ACAD
1000
AcDbSavedByObjectVersion
1070
     0
  0
VISUALSTYLE
  5
3D
102
{ACAD_XDICTIONARY
360
64F
102
}
102
{ACAD_REACTORS
330
29
102
}
330
29
100
AcDbVisualStyle
  2

 70
    26
 71
     2
 72
     2
 73
     1
 90
        2
 40
-0.6
 41
30.0
 62
     5
 63
     7
 74
     1
 91
        2
 64
     7
 65
   257
 75
     2
175
     1
 42
1.0
 92
        8
 66
   257
 43
1.0
 76
     1
 77
     6
 78
     2
 67
     7
 79
     3
170
     0
171
     0
290
     0
174
     0
 93
        5
 44
0.0
173
     0
291
     0
 45
0.0
1001
ACAD
1000
AcDbSavedByObjectVersion
1070
     0
  0
VISUALSTYLE
  5
3A
102
{ACAD_XDICTIONARY
360
649
102
}
102
{ACAD_REACTORS
330
29
102
}
330
29
100
AcDbVisualStyle
  2

 70
    23
 71
     2
 72
     2
 73
     3
 90
        0
 40
-0.6
 41
-30.0
 62
     5
 63
     7
 74
     2
 91
        2
 64
     7
 65
     7
 75
     1
175
     1
 42
40.0
 92
        8
 66
     7
 43
1.0
 76
     1
 77
     6
 78
     2
 67
     7
 79
     3
170
     0
171
     0
290
     0
174
     0
 93
        1
 44
0.0
173
     0
291
     0
 45
0.0
1001
ACAD
1000
AcDbSavedByObjectVersion
1070
     0
  0
VISUALSTYLE
  5
3B
102
{ACAD_XDICTIONARY
360
64B
102
}
102
{ACAD_REACTORS
330
29
102
}
330
29
100
AcDbVisualStyle
  2

 70
    24
 71
     1
 72
     2
 73
     2
 90
        0
 40
-0.6
 41
-30.0
 62
     5
 63
     7
 74
     2
 91
        2
 64
     7
 65
     7
 75
     1
175
     1
 42
40.0
 92
       11
 66
     7
 43
1.0
 76
     1
 77
     6
 78
     2
 67
     7
 79
     6
170
     0
171
     0
290
     0
174
     0
 93
        1
 44
0.0
173
     0
291
     0
 45
0.0
1001
ACAD
1000
AcDbSavedByObjectVersion
1070
     0
  0
VISUALSTYLE
  5
36
102
{ACAD_XDICTIONARY
360
641
102
}
102
{ACAD_REACTORS
330
29
102
}
330
29
100
AcDbVisualStyle
  2

 70
    13
 71
     2
 72
     2
 73
     0
 90
        0
 40
-0.6
 41
-30.0
 62
     5
 63
     7
 74
     1
 91
        4
 64
     7
 65
   257
 75
     1
175
     1
 42
1.0
 92
       12
 66
     7
 43
1.0
 76
     1
 77
     6
 78
     2
 67
     7
 79
     5
170
     0
171
     0
290
     0
174
     0
 93
        1
 44
0.0
173
     0
291
     1
 45
0.0
1001
ACAD
1000
AcDbSavedByObjectVersion
1070
     0
  0
VISUALSTYLE
  5
30
102
{ACAD_XDICTIONARY
360
635
102
}
102
{ACAD_REACTORS
330
29
102
}
330
29
100
AcDbVisualStyle
  2

 70
     5
 71
     0
 72
     2
 73
     0
 90
        0
 40
-0.6
 41
-30.0
 62
     5
 63
     7
 74
     1
 91
        4
 64
     7
 65
   257
 75
     1
175
     1
 42
1.0
 92
        0
 66
   257
 43
1.0
 76
     1
 77
     6
 78
     2
 67
     7
 79
     3
170
     0
171
     0
290
     0
174
     0
 93
        1
 44
0.0
173
     0
291
     0
 45
0.0
1001
ACAD
1000
AcDbSavedByObjectVersion
1070
     0
  0
VISUALSTYLE
  5
3C
102
{ACAD_XDICTIONARY
360
64D
102
}
102
{ACAD_REACTORS
330
29
102
}
330
29
100
AcDbVisualStyle
  2

 70
    25
 71
     2
 72
     2
 73
     1
 90
        1
 40
0.5
 41
-30.0
 62
     5
 63
     7
 74
     1
 91
        0
 64
     7
 65
   257
 75
     1
175
     1
 42
1.0
 92
        8
 66
     7
 43
1.0
 76
     1
 77
     6
 78
     2
 67
     7
 79
     3
170
     0
171
     0
290
     0
174
     0
 93
       13
 44
0.0
173
     0
291
     0
 45
0.0
1001
ACAD
1000
AcDbSavedByObjectVersion
1070
     0
  0
DICTIONARYVAR
  5
578
102
{ACAD_REACTORS
330
573
102
}
330
573
100
DictionaryVariables
280
     0
  1
1:1
  0
DICTIONARYVAR
  5
575
102
{ACAD_REACTORS
330
573
102
}
330
573
100
DictionaryVariables
280
     0
  1
STANDARD
  0
DICTIONARYVAR
  5
574
102
{ACAD_REACTORS
330
573
102
}
330
573
100
DictionaryVariables
280
     0
  1
STANDARD
  0
DICTIONARYVAR
  5
576
102
{ACAD_REACTORS
330
573
102
}
330
573
100
DictionaryVariables
280
     0
  1
Imperial24
  0
DICTIONARYVAR
  5
577
102
{ACAD_REACTORS
330
573
102
}
330
573
100
DictionaryVariables
280
     0
  1
Imperial24
  0
DICTIONARYVAR
  5
57B
102
{ACAD_REACTORS
330
573
102
}
330
573
100
DictionaryVariables
280
     0
  1
1
  0
DICTIONARYVAR
  5
57A
102
{ACAD_REACTORS
330
573
102
}
330
573
100
DictionaryVariables
280
     0
  1
0
  0
DICTIONARYVAR
  5
579
102
{ACAD_REACTORS
330
573
102
}
330
573
100
DictionaryVariables
280
     0
  1
127
  0
DICTIONARYVAR
  5
620
102
{ACAD_REACTORS
330
573
102
}
330
573
100
DictionaryVariables
280
     0
  1
2
  0
DICTIONARY
  5
1A6
102
{ACAD_REACTORS
330
19F
102
}
330
19F
100
AcDbDictionary
281
     1
  0
DICTIONARY
  5
65C
330
6A
100
AcDbDictionary
280
     1
281
     1
  3
ACAD_XREC_ROUNDTRIP
360
65D
  0
DICTIONARY
  5
660
330
72
100
AcDbDictionary
280
     1
281
     1
  3
ACAD_XREC_ROUNDTRIP
360
661
  0
DICTIONARY
  5
65E
330
6E
100
AcDbDictionary
280
     1
281
     1
  3
ACAD_XREC_ROUNDTRIP
360
65F
  0
DICTIONARY
  5
1A
330
19
100
AcDbDictionary
280
     1
281
     1
  3
ACAD_XREC_ROUNDTRIP
360
582
  3
BUMPTILE
360
1C
  3
DIFFUSETILE
360
1B
  3
OPACITYTILE
360
1F
  3
REFLECTIONTILE
360
1E
  3
REFRACTIONTILE
360
20
  3
SPECULARTILE
360
1D
  0
DICTIONARY
  5
12
330
11
100
AcDbDictionary
280
     1
281
     1
  3
ACAD_XREC_ROUNDTRIP
360
581
  3
BUMPTILE
360
14
  3
DIFFUSETILE
360
13
  3
OPACITYTILE
360
17
  3
REFLECTIONTILE
360
16
  3
REFRACTIONTILE
360
18
  3
SPECULARTILE
360
15
  0
DICTIONARY
  5
22
330
21
100
AcDbDictionary
280
     1
281
     1
  3
ACAD_XREC_ROUNDTRIP
360
583
  3
BUMPTILE
360
24
  3
DIFFUSETILE
360
23
  3
OPACITYTILE
360
27
  3
REFLECTIONTILE
360
26
  3
REFRACTIONTILE
360
28
  3
SPECULARTILE
360
25
  0
DICTIONARY
  5
65A
330
68
100
AcDbDictionary
280
     1
281
     1
  3
ACAD_XREC_ROUNDTRIP
360
65B
  0
DICTIONARY
  5
57D
330
64
100
AcDbDictionary
280
     1
281
     1
  3
ACAD_ROUNDTRIP_2008_TABLESTYLE_CELLSTYLEMAP
360
621
  3
ACAD_XREC_ROUNDTRIP
360
659
  0
DICTIONARY
  5
633
330
2F
100
AcDbDictionary
280
     1
281
     1
  3
ACAD_XREC_ROUNDTRIP
360
634
  0
DICTIONARY
  5
631
330
2E
100
AcDbDictionary
280
     1
281
     1
  3
ACAD_XREC_ROUNDTRIP
360
632
  0
DICTIONARY
  5
63F
330
35
100
AcDbDictionary
280
     1
281
     1
  3
ACAD_XREC_ROUNDTRIP
360
640
  0
DICTIONARY
  5
647
330
39
100
AcDbDictionary
280
     1
281
     1
  3
ACAD_XREC_ROUNDTRIP
360
648
  0
DICTIONARY
  5
639
330
32
100
AcDbDictionary
280
     1
281
     1
  3
ACAD_XREC_ROUNDTRIP
360
63A
  0
DICTIONARY
  5
63D
330
34
100
AcDbDictionary
280
     1
281
     1
  3
ACAD_XREC_ROUNDTRIP
360
63E
  0
DICTIONARY
  5
657
330
41
100
AcDbDictionary
280
     1
281
     1
  3
ACAD_XREC_ROUNDTRIP
360
658
  0
DICTIONARY
  5
645
330
38
100
AcDbDictionary
280
     1
281
     1
  3
ACAD_XREC_ROUNDTRIP
360
646
  0
DICTIONARY
  5
629
330
2A
100
AcDbDictionary
280
     1
281
     1
  3
ACAD_XREC_ROUNDTRIP
360
62A
  0
DICTIONARY
  5
62B
330
2B
100
AcDbDictionary
280
     1
281
     1
  3
ACAD_XREC_ROUNDTRIP
360
62C
  0
DICTIONARY
  5
62D
330
2C
100
AcDbDictionary
280
     1
281
     1
  3
ACAD_XREC_ROUNDTRIP
360
62E
  0
DICTIONARY
  5
62F
330
2D
100
AcDbDictionary
280
     1
281
     1
  3
ACAD_XREC_ROUNDTRIP
360
630
  0
DICTIONARY
  5
637
330
31
100
AcDbDictionary
280
     1
281
     1
  3
ACAD_XREC_ROUNDTRIP
360
638
  0
DICTIONARY
  5
653
330
3F
100
AcDbDictionary
280
     1
281
     1
  3
ACAD_XREC_ROUNDTRIP
360
654
  0
DICTIONARY
  5
643
330
37
100
AcDbDictionary
280
     1
281
     1
  3
ACAD_XREC_ROUNDTRIP
360
644
  0
DICTIONARY
  5
655
330
40
100
AcDbDictionary
280
     1
281
     1
  3
ACAD_XREC_ROUNDTRIP
360
656
  0
DICTIONARY
  5
63B
330
33
100
AcDbDictionary
280
     1
281
     1
  3
ACAD_XREC_ROUNDTRIP
360
63C
  0
DICTIONARY
  5
651
330
3E
100
AcDbDictionary
280
     1
281
     1
  3
ACAD_XREC_ROUNDTRIP
360
652
  0
DICTIONARY
  5
64F
330
3D
100
AcDbDictionary
280
     1
281
     1
  3
ACAD_XREC_ROUNDTRIP
360
650
  0
DICTIONARY
  5
649
330
3A
100
AcDbDictionary
280
     1
281
     1
  3
ACAD_XREC_ROUNDTRIP
360
64A
  0
DICTIONARY
  5
64B
330
3B
100
AcDbDictionary
280
     1
281
     1
  3
ACAD_XREC_ROUNDTRIP
360
64C
  0
DICTIONARY
  5
641
330
36
100
AcDbDictionary
280
     1
281
     1
  3
ACAD_XREC_ROUNDTRIP
360
642
  0
DICTIONARY
  5
635
330
30
100
AcDbDictionary
280
     1
281
     1
  3
ACAD_XREC_ROUNDTRIP
360
636
  0
DICTIONARY
  5
64D
330
3C
100
AcDbDictionary
280
     1
281
     1
  3
ACAD_XREC_ROUNDTRIP
360
64E
  0
XRECORD
  5
65D
102
{ACAD_REACTORS
330
65C
102
}
330
65C
100
AcDbXrecord
280
     1
102
DISPLAYNAME
  1
Imperial24
102
FLAGS
 90
        0
  0
XRECORD
  5
661
102
{ACAD_REACTORS
330
660
102
}
330
660
100
AcDbXrecord
280
     1
102
SHADEPLOT
 70
     0
102
SHADEPLOTRESLEVEL
 70
     2
102
SHADEPLOTCUSTOMDPI
 70
   300
  0
XRECORD
  5
65F
102
{ACAD_REACTORS
330
65E
102
}
330
65E
100
AcDbXrecord
280
     1
102
SHADEPLOT
 70
     0
102
SHADEPLOTRESLEVEL
 70
     2
102
SHADEPLOTCUSTOMDPI
 70
   300
  0
XRECORD
  5
582
102
{ACAD_REACTORS
330
1A
102
}
330
1A
100
AcDbXrecord
280
     1
102
MATERIAL
148
0.0
149
0.0
149
0.0
 93
        0
 94
      127
282
     0
 72
     0
 77
     0
171
     0
175
     0
179
     0
273
     0
  0
XRECORD
  5
1C
102
{ACAD_REACTORS
330
1A
102
}
330
1A
100
AcDbXrecord
280
     1
270
     1
271
     1
  0
XRECORD
  5
1B
102
{ACAD_REACTORS
330
1A
102
}
330
1A
100
AcDbXrecord
280
     1
270
     1
271
     1
  0
XRECORD
  5
1F
102
{ACAD_REACTORS
330
1A
102
}
330
1A
100
AcDbXrecord
280
     1
270
     1
271
     1
  0
XRECORD
  5
1E
102
{ACAD_REACTORS
330
1A
102
}
330
1A
100
AcDbXrecord
280
     1
270
     1
271
     1
  0
XRECORD
  5
20
102
{ACAD_REACTORS
330
1A
102
}
330
1A
100
AcDbXrecord
280
     1
270
     1
271
     1
  0
XRECORD
  5
1D
102
{ACAD_REACTORS
330
1A
102
}
330
1A
100
AcDbXrecord
280
     1
270
     1
271
     1
  0
XRECORD
  5
581
102
{ACAD_REACTORS
330
12
102
}
330
12
100
AcDbXrecord
280
     1
102
MATERIAL
148
0.0
149
0.0
149
0.0
 93
        0
 94
      127
282
     0
 72
     0
 77
     0
171
     0
175
     0
179
     0
273
     0
  0
XRECORD
  5
14
102
{ACAD_REACTORS
330
12
102
}
330
12
100
AcDbXrecord
280
     1
270
     1
271
     1
  0
XRECORD
  5
13
102
{ACAD_REACTORS
330
12
102
}
330
12
100
AcDbXrecord
280
     1
270
     1
271
     1
  0
XRECORD
  5
17
102
{ACAD_REACTORS
330
12
102
}
330
12
100
AcDbXrecord
280
     1
270
     1
271
     1
  0
XRECORD
  5
16
102
{ACAD_REACTORS
330
12
102
}
330
12
100
AcDbXrecord
280
     1
270
     1
271
     1
  0
XRECORD
  5
18
102
{ACAD_REACTORS
330
12
102
}
330
12
100
AcDbXrecord
280
     1
270
     1
271
     1
  0
XRECORD
  5
15
102
{ACAD_REACTORS
330
12
102
}
330
12
100
AcDbXrecord
280
     1
270
     1
271
     1
  0
XRECORD
  5
583
102
{ACAD_REACTORS
330
22
102
}
330
22
100
AcDbXrecord
280
     1
102
MATERIAL
148
0.0
149
0.0
149
0.0
 93
        0
 94
      127
282
     0
 72
     0
 77
     0
171
     0
175
     0
179
     0
273
     0
  0
XRECORD
  5
24
102
{ACAD_REACTORS
330
22
102
}
330
22
100
AcDbXrecord
280
     1
270
     1
271
     1
  0
XRECORD
  5
23
102
{ACAD_REACTORS
330
22
102
}
330
22
100
AcDbXrecord
280
     1
270
     1
271
     1
  0
XRECORD
  5
27
102
{ACAD_REACTORS
330
22
102
}
330
22
100
AcDbXrecord
280
     1
270
     1
271
     1
  0
XRECORD
  5
26
102
{ACAD_REACTORS
330
22
102
}
330
22
100
AcDbXrecord
280
     1
270
     1
271
     1
  0
XRECORD
  5
28
102
{ACAD_REACTORS
330
22
102
}
330
22
100
AcDbXrecord
280
     1
270
     1
271
     1
  0
XRECORD
  5
25
102
{ACAD_REACTORS
330
22
102
}
330
22
100
AcDbXrecord
280
     1
270
     1
271
     1
  0
XRECORD
  5
65B
102
{ACAD_REACTORS
330
65A
102
}
330
65A
100
AcDbXrecord
280
     1
102
DISPLAYNAME
  1
Imperial24
102
FLAGS
 90
        0
  0
CELLSTYLEMAP
  5
621
102
{ACAD_REACTORS
330
57D
102
}
330
57D
100
AcDbCellStyleMap
 90
        3
300
CELLSTYLE
  1
TABLEFORMAT_BEGIN
 90
        5
170
     1
 91
        0
 92
    32768
 62
   257
 93
        1
300
CONTENTFORMAT
  1
CONTENTFORMAT_BEGIN
 90
        0
 91
        0
 92
      512
 93
        0
300

 40
0.0
140
1.0
 94
        5
 62
     0
340
55
144
0.25
309
CONTENTFORMAT_END
171
     1
301
MARGIN
  1
CELLMARGIN_BEGIN
 40
0.06
 40
0.06
 40
0.06
 40
0.06
 40
0.18
 40
0.18
309
CELLMARGIN_END
 94
        6
 95
        1
302
GRIDFORMAT
  1
GRIDFORMAT_BEGIN
 90
        0
 91
        1
 62
     0
 92
       -2
340
0
 93
        0
 40
0.045
309
GRIDFORMAT_END
 95
        2
302
GRIDFORMAT
  1
GRIDFORMAT_BEGIN
 90
        0
 91
        1
 62
     0
 92
       -2
340
0
 93
        0
 40
0.045
309
GRIDFORMAT_END
 95
        4
302
GRIDFORMAT
  1
GRIDFORMAT_BEGIN
 90
        0
 91
        1
 62
     0
 92
       -2
340
0
 93
        0
 40
0.045
309
GRIDFORMAT_END
 95
        8
302
GRIDFORMAT
  1
GRIDFORMAT_BEGIN
 90
        0
 91
        1
 62
     0
 92
       -2
340
0
 93
        0
 40
0.045
309
GRIDFORMAT_END
 95
       16
302
GRIDFORMAT
  1
GRIDFORMAT_BEGIN
 90
        0
 91
        1
 62
     0
 92
       -2
340
0
 93
        0
 40
0.045
309
GRIDFORMAT_END
 95
       32
302
GRIDFORMAT
  1
GRIDFORMAT_BEGIN
 90
        0
 91
        1
 62
     0
 92
       -2
340
0
 93
        0
 40
0.045
309
GRIDFORMAT_END
309
TABLEFORMAT_END
  1
CELLSTYLE_BEGIN
 90
        1
 91
        1
300
_TITLE
309
CELLSTYLE_END
300
CELLSTYLE
  1
TABLEFORMAT_BEGIN
 90
        5
170
     1
 91
        0
 92
        0
 62
   257
 93
        1
300
CONTENTFORMAT
  1
CONTENTFORMAT_BEGIN
 90
        0
 91
        0
 92
      512
 93
        0
300

 40
0.0
140
1.0
 94
        5
 62
     0
340
55
144
0.18
309
CONTENTFORMAT_END
171
     1
301
MARGIN
  1
CELLMARGIN_BEGIN
 40
0.06
 40
0.06
 40
0.06
 40
0.06
 40
0.18
 40
0.18
309
CELLMARGIN_END
 94
        6
 95
        1
302
GRIDFORMAT
  1
GRIDFORMAT_BEGIN
 90
        0
 91
        1
 62
     0
 92
       -2
340
0
 93
        0
 40
0.045
309
GRIDFORMAT_END
 95
        2
302
GRIDFORMAT
  1
GRIDFORMAT_BEGIN
 90
        0
 91
        1
 62
     0
 92
       -2
340
0
 93
        0
 40
0.045
309
GRIDFORMAT_END
 95
        4
302
GRIDFORMAT
  1
GRIDFORMAT_BEGIN
 90
        0
 91
        1
 62
     0
 92
       -2
340
0
 93
        0
 40
0.045
309
GRIDFORMAT_END
 95
        8
302
GRIDFORMAT
  1
GRIDFORMAT_BEGIN
 90
        0
 91
        1
 62
     0
 92
       -2
340
0
 93
        0
 40
0.045
309
GRIDFORMAT_END
 95
       16
302
GRIDFORMAT
  1
GRIDFORMAT_BEGIN
 90
        0
 91
        1
 62
     0
 92
       -2
340
0
 93
        0
 40
0.045
309
GRIDFORMAT_END
 95
       32
302
GRIDFORMAT
  1
GRIDFORMAT_BEGIN
 90
        0
 91
        1
 62
     0
 92
       -2
340
0
 93
        0
 40
0.045
309
GRIDFORMAT_END
309
TABLEFORMAT_END
  1
CELLSTYLE_BEGIN
 90
        2
 91
        1
300
_HEADER
309
CELLSTYLE_END
300
CELLSTYLE
  1
TABLEFORMAT_BEGIN
 90
        5
170
     1
 91
        0
 92
        0
 62
   257
 93
        1
300
CONTENTFORMAT
  1
CONTENTFORMAT_BEGIN
 90
        0
 91
        0
 92
      512
 93
        0
300

 40
0.0
140
1.0
 94
        2
 62
     0
340
55
144
0.18
309
CONTENTFORMAT_END
171
     1
301
MARGIN
  1
CELLMARGIN_BEGIN
 40
0.06
 40
0.06
 40
0.06
 40
0.06
 40
0.18
 40
0.18
309
CELLMARGIN_END
 94
        6
 95
        1
302
GRIDFORMAT
  1
GRIDFORMAT_BEGIN
 90
        0
 91
        1
 62
     0
 92
       -2
340
0
 93
        0
 40
0.045
309
GRIDFORMAT_END
 95
        2
302
GRIDFORMAT
  1
GRIDFORMAT_BEGIN
 90
        0
 91
        1
 62
     0
 92
       -2
340
0
 93
        0
 40
0.045
309
GRIDFORMAT_END
 95
        4
302
GRIDFORMAT
  1
GRIDFORMAT_BEGIN
 90
        0
 91
        1
 62
     0
 92
       -2
340
0
 93
        0
 40
0.045
309
GRIDFORMAT_END
 95
        8
302
GRIDFORMAT
  1
GRIDFORMAT_BEGIN
 90
        0
 91
        1
 62
     0
 92
       -2
340
0
 93
        0
 40
0.045
309
GRIDFORMAT_END
 95
       16
302
GRIDFORMAT
  1
GRIDFORMAT_BEGIN
 90
        0
 91
        1
 62
     0
 92
       -2
340
0
 93
        0
 40
0.045
309
GRIDFORMAT_END
 95
       32
302
GRIDFORMAT
  1
GRIDFORMAT_BEGIN
 90
        0
 91
        1
 62
     0
 92
       -2
340
0
 93
        0
 40
0.045
309
GRIDFORMAT_END
309
TABLEFORMAT_END
  1
CELLSTYLE_BEGIN
 90
        3
 91
        2
300
_DATA
309
CELLSTYLE_END
  0
XRECORD
  5
659
102
{ACAD_REACTORS
330
57D
102
}
330
57D
100
AcDbXrecord
280
     1
102
ACAD_ROUNDTRIP_PRE2007_TABLESTYLE
 90
      512
 91
        0
  1

 92
      512
 93
        0
  2

 94
      512
 95
        0
  3

  0
XRECORD
  5
634
102
{ACAD_REACTORS
330
633
102
}
330
633
100
AcDbXrecord
280
     1
102
RTVSPost2010Prop28
280
     1
102
RTVSPost2010PropOp28
 70
     1
102
RTVSPost2010Prop29
280
     1
102
RTVSPost2010PropOp29
 70
     1
102
RTVSPost2010Prop30
280
     0
102
RTVSPost2010PropOp30
 70
     1
102
RTVSPost2010Prop31
280
     0
102
RTVSPost2010PropOp31
 70
     1
102
RTVSPost2010Prop32
280
     0
102
RTVSPost2010PropOp32
 70
     1
102
RTVSPost2010Prop33
280
     0
102
RTVSPost2010PropOp33
 70
     1
102
RTVSPost2010Prop34
280
     0
102
RTVSPost2010PropOp34
 70
     1
102
RTVSPost2010Prop35
280
     0
102
RTVSPost2010PropOp35
 70
     1
102
RTVSPost2010Prop36
280
     0
102
RTVSPost2010PropOp36
 70
     1
102
RTVSPost2010Prop37
 90
       50
102
RTVSPost2010PropOp37
 70
     1
102
RTVSPost2010Prop38
140
0.0
102
RTVSPost2010PropOp38
 70
     1
102
RTVSPost2010Prop39
140
1.0
102
RTVSPost2010PropOp39
 70
     1
102
RTVSPost2010Prop40
 90
        0
102
RTVSPost2010PropOp40
 70
     1
102
RTVSPost2010Prop41ColorIndex
 90
       18
102
RTVSPost2010Prop41ColorRGB
 90
        0
102
RTVSPost2010PropOp41
 70
     1
102
RTVSPost2010Prop42
 90
       50
102
RTVSPost2010PropOp42
 70
     1
102
RTVSPost2010Prop43
 90
        3
102
RTVSPost2010PropOp43
 70
     1
102
RTVSPost2010Prop44ColorIndex
 90
        5
102
RTVSPost2010Prop44ColorRGB
 90
      255
102
RTVSPost2010PropOp44
 70
     1
102
RTVSPost2010Prop45
280
     0
102
RTVSPost2010PropOp45
 70
     1
102
RTVSPost2010Prop46
 90
       50
102
RTVSPost2010PropOp46
 70
     1
102
RTVSPost2010Prop47
 90
       50
102
RTVSPost2010PropOp47
 70
     1
102
RTVSPost2010Prop48
 90
       50
102
RTVSPost2010PropOp48
 70
     1
102
RTVSPost2010Prop49
280
     0
102
RTVSPost2010PropOp49
 70
     1
102
RTVSPost2010Prop50
 90
       50
102
RTVSPost2010PropOp50
 70
     1
102
RTVSPost2010Prop51ColorIndex
 90
      256
102
RTVSPost2010Prop51ColorRGB
 90
-16777216
102
RTVSPost2010PropOp51
 70
     0
102
RTVSPost2010Prop52
140
1.0
102
RTVSPost2010PropOp52
 70
     0
102
RTVSPost2010Prop53
 90
        2
102
RTVSPost2010PropOp53
 70
     1
102
RTVSPost2010Prop54
  1
strokes_ogs.tif
102
RTVSPost2010PropOp54
 70
     1
102
RTVSPost2010Prop55
280
     0
102
RTVSPost2010PropOp55
 70
     1
102
RTVSPost2010Prop56
140
1.0
102
RTVSPost2010PropOp56
 70
     1
102
RTVSPost2010Prop57
140
1.0
102
RTVSPost2010PropOp57
 70
     1
102
RTVSPropertyOp0
 70
     1
102
RTVSPropertyOp1
 70
     1
102
RTVSPropertyOp2
 70
     1
102
RTVSPropertyOp3
 70
     1
102
RTVSPropertyOp4
 70
     1
102
RTVSPropertyOp5
 70
     1
102
RTVSPropertyOp6
 70
     1
102
RTVSPropertyOp7
 70
     1
102
RTVSPropertyOp8
 70
     1
102
RTVSPropertyOp9
 70
     1
102
RTVSPropertyOp10
 70
     1
102
RTVSPropertyOp11
 70
     1
102
RTVSPropertyOp12
 70
     1
102
RTVSPropertyOp13
 70
     1
102
RTVSPropertyOp14
 70
     1
102
RTVSPropertyOp15
 70
     1
102
RTVSPropertyOp16
 70
     1
102
RTVSPropertyOp17
 70
     1
102
RTVSPropertyOp18
 70
     1
102
RTVSPropertyOp19
 70
     1
102
RTVSPropertyOp20
 70
     1
102
RTVSPropertyOp21
 70
     1
102
RTVSPropertyOp22
 70
     1
102
RTVSPropertyOp23
 70
     1
102
RTVSPropertyOp24
 70
     1
102
RTVSPropertyOp25
 70
     1
102
RTVSPropertyOp26
 70
     1
102
RTVSPropertyOp27
 70
     1
102
RTVSPropertyOp28
 70
     1
102
RTVSPropertyOp29
 70
     1
102
RTVSPropertyOp30
 70
     1
102
RTVSPropertyOp31
 70
     1
102
RTVSPropertyOp32
 70
     1
102
RTVSPropertyOp33
 70
     1
102
RTVSPropertyOp34
 70
     1
102
RTVSPropertyOp35
 70
     1
102
RTVSPropertyOp36
 70
     1
102
RTVSPropertyOp37
 70
     1
102
RTVSPropertyOp38
 70
     1
102
RTVSPropertyOp39
 70
     1
102
RTVSPropertyOp40
 70
     1
102
RTVSPropertyOp41
 70
     1
102
RTVSPropertyOp42
 70
     1
102
RTVSPropertyOp43
 70
     1
102
RTVSPropertyOp44
 70
     1
102
RTVSPropertyOp45
 70
     1
102
RTVSPropertyOp46
 70
     1
102
RTVSPropertyOp47
 70
     1
102
RTVSPropertyOp48
 70
     1
102
RTVSPropertyOp49
 70
     1
102
RTVSPropertyOp50
 70
     1
102
RTVSPropertyOp51
 70
     0
102
RTVSPropertyOp52
 70
     0
102
RTVSPropertyOp53
 70
     1
102
RTVSPropertyOp54
 70
     1
102
RTVSPropertyOp55
 70
     1
102
RTVSPropertyOp56
 70
     1
102
RTVSPropertyOp57
 70
     1
102
RTVSPropertyOp58
 70
     1
102
RTVSPropertyOp59
 70
     1
102
RTVSPropertyOp60
 70
     1
102
RTVSPropertyOp61
 70
     1
102
RTVSPropertyOp62
 70
     1
  0
XRECORD
  5
632
102
{ACAD_REACTORS
330
631
102
}
330
631
100
AcDbXrecord
280
     1
102
RTVSPost2010Prop28
280
     0
102
RTVSPost2010PropOp28
 70
     1
102
RTVSPost2010Prop29
280
     1
102
RTVSPost2010PropOp29
 70
     1
102
RTVSPost2010Prop30
280
     1
102
RTVSPost2010PropOp30
 70
     1
102
RTVSPost2010Prop31
280
     0
102
RTVSPost2010PropOp31
 70
     1
102
RTVSPost2010Prop32
280
     0
102
RTVSPost2010PropOp32
 70
     1
102
RTVSPost2010Prop33
280
     0
102
RTVSPost2010PropOp33
 70
     1
102
RTVSPost2010Prop34
280
     0
102
RTVSPost2010PropOp34
 70
     1
102
RTVSPost2010Prop35
280
     0
102
RTVSPost2010PropOp35
 70
     1
102
RTVSPost2010Prop36
280
     0
102
RTVSPost2010PropOp36
 70
     1
102
RTVSPost2010Prop37
 90
       50
102
RTVSPost2010PropOp37
 70
     1
102
RTVSPost2010Prop38
140
0.0
102
RTVSPost2010PropOp38
 70
     1
102
RTVSPost2010Prop39
140
1.0
102
RTVSPost2010PropOp39
 70
     1
102
RTVSPost2010Prop40
 90
        0
102
RTVSPost2010PropOp40
 70
     1
102
RTVSPost2010Prop41ColorIndex
 90
       18
102
RTVSPost2010Prop41ColorRGB
 90
        0
102
RTVSPost2010PropOp41
 70
     1
102
RTVSPost2010Prop42
 90
       50
102
RTVSPost2010PropOp42
 70
     1
102
RTVSPost2010Prop43
 90
        3
102
RTVSPost2010PropOp43
 70
     1
102
RTVSPost2010Prop44ColorIndex
 90
        5
102
RTVSPost2010Prop44ColorRGB
 90
      255
102
RTVSPost2010PropOp44
 70
     1
102
RTVSPost2010Prop45
280
     0
102
RTVSPost2010PropOp45
 70
     1
102
RTVSPost2010Prop46
 90
       50
102
RTVSPost2010PropOp46
 70
     1
102
RTVSPost2010Prop47
 90
       50
102
RTVSPost2010PropOp47
 70
     1
102
RTVSPost2010Prop48
 90
       50
102
RTVSPost2010PropOp48
 70
     1
102
RTVSPost2010Prop49
280
     0
102
RTVSPost2010PropOp49
 70
     1
102
RTVSPost2010Prop50
 90
       50
102
RTVSPost2010PropOp50
 70
     1
102
RTVSPost2010Prop51ColorIndex
 90
      256
102
RTVSPost2010Prop51ColorRGB
 90
-16777216
102
RTVSPost2010PropOp51
 70
     0
102
RTVSPost2010Prop52
140
1.0
102
RTVSPost2010PropOp52
 70
     0
102
RTVSPost2010Prop53
 90
        2
102
RTVSPost2010PropOp53
 70
     1
102
RTVSPost2010Prop54
  1
strokes_ogs.tif
102
RTVSPost2010PropOp54
 70
     1
102
RTVSPost2010Prop55
280
     0
102
RTVSPost2010PropOp55
 70
     1
102
RTVSPost2010Prop56
140
1.0
102
RTVSPost2010PropOp56
 70
     1
102
RTVSPost2010Prop57
140
1.0
102
RTVSPost2010PropOp57
 70
     1
102
RTVSPropertyOp0
 70
     1
102
RTVSPropertyOp1
 70
     1
102
RTVSPropertyOp2
 70
     1
102
RTVSPropertyOp3
 70
     1
102
RTVSPropertyOp4
 70
     1
102
RTVSPropertyOp5
 70
     1
102
RTVSPropertyOp6
 70
     1
102
RTVSPropertyOp7
 70
     1
102
RTVSPropertyOp8
 70
     1
102
RTVSPropertyOp9
 70
     1
102
RTVSPropertyOp10
 70
     1
102
RTVSPropertyOp11
 70
     1
102
RTVSPropertyOp12
 70
     1
102
RTVSPropertyOp13
 70
     1
102
RTVSPropertyOp14
 70
     1
102
RTVSPropertyOp15
 70
     1
102
RTVSPropertyOp16
 70
     1
102
RTVSPropertyOp17
 70
     1
102
RTVSPropertyOp18
 70
     1
102
RTVSPropertyOp19
 70
     1
102
RTVSPropertyOp20
 70
     1
102
RTVSPropertyOp21
 70
     1
102
RTVSPropertyOp22
 70
     1
102
RTVSPropertyOp23
 70
     1
102
RTVSPropertyOp24
 70
     1
102
RTVSPropertyOp25
 70
     1
102
RTVSPropertyOp26
 70
     1
102
RTVSPropertyOp27
 70
     1
102
RTVSPropertyOp28
 70
     1
102
RTVSPropertyOp29
 70
     1
102
RTVSPropertyOp30
 70
     1
102
RTVSPropertyOp31
 70
     1
102
RTVSPropertyOp32
 70
     1
102
RTVSPropertyOp33
 70
     1
102
RTVSPropertyOp34
 70
     1
102
RTVSPropertyOp35
 70
     1
102
RTVSPropertyOp36
 70
     1
102
RTVSPropertyOp37
 70
     1
102
RTVSPropertyOp38
 70
     1
102
RTVSPropertyOp39
 70
     1
102
RTVSPropertyOp40
 70
     1
102
RTVSPropertyOp41
 70
     1
102
RTVSPropertyOp42
 70
     1
102
RTVSPropertyOp43
 70
     1
102
RTVSPropertyOp44
 70
     1
102
RTVSPropertyOp45
 70
     1
102
RTVSPropertyOp46
 70
     1
102
RTVSPropertyOp47
 70
     1
102
RTVSPropertyOp48
 70
     1
102
RTVSPropertyOp49
 70
     1
102
RTVSPropertyOp50
 70
     1
102
RTVSPropertyOp51
 70
     0
102
RTVSPropertyOp52
 70
     0
102
RTVSPropertyOp53
 70
     1
102
RTVSPropertyOp54
 70
     1
102
RTVSPropertyOp55
 70
     1
102
RTVSPropertyOp56
 70
     1
102
RTVSPropertyOp57
 70
     1
102
RTVSPropertyOp58
 70
     1
102
RTVSPropertyOp59
 70
     1
102
RTVSPropertyOp60
 70
     1
102
RTVSPropertyOp61
 70
     1
102
RTVSPropertyOp62
 70
     1
  0
XRECORD
  5
640
102
{ACAD_REACTORS
330
63F
102
}
330
63F
100
AcDbXrecord
280
     1
102
RTVSPost2010Prop28
280
     0
102
RTVSPost2010PropOp28
 70
     1
102
RTVSPost2010Prop29
280
     1
102
RTVSPost2010PropOp29
 70
     1
102
RTVSPost2010Prop30
280
     1
102
RTVSPost2010PropOp30
 70
     1
102
RTVSPost2010Prop31
280
     0
102
RTVSPost2010PropOp31
 70
     1
102
RTVSPost2010Prop32
280
     0
102
RTVSPost2010PropOp32
 70
     1
102
RTVSPost2010Prop33
280
     0
102
RTVSPost2010PropOp33
 70
     1
102
RTVSPost2010Prop34
280
     0
102
RTVSPost2010PropOp34
 70
     1
102
RTVSPost2010Prop35
280
     0
102
RTVSPost2010PropOp35
 70
     1
102
RTVSPost2010Prop36
280
     0
102
RTVSPost2010PropOp36
 70
     1
102
RTVSPost2010Prop37
 90
       50
102
RTVSPost2010PropOp37
 70
     1
102
RTVSPost2010Prop38
140
0.0
102
RTVSPost2010PropOp38
 70
     1
102
RTVSPost2010Prop39
140
1.0
102
RTVSPost2010PropOp39
 70
     1
102
RTVSPost2010Prop40
 90
        0
102
RTVSPost2010PropOp40
 70
     1
102
RTVSPost2010Prop41ColorIndex
 90
       18
102
RTVSPost2010Prop41ColorRGB
 90
        0
102
RTVSPost2010PropOp41
 70
     1
102
RTVSPost2010Prop42
 90
       50
102
RTVSPost2010PropOp42
 70
     1
102
RTVSPost2010Prop43
 90
        3
102
RTVSPost2010PropOp43
 70
     1
102
RTVSPost2010Prop44ColorIndex
 90
        5
102
RTVSPost2010Prop44ColorRGB
 90
      255
102
RTVSPost2010PropOp44
 70
     1
102
RTVSPost2010Prop45
280
     0
102
RTVSPost2010PropOp45
 70
     1
102
RTVSPost2010Prop46
 90
       50
102
RTVSPost2010PropOp46
 70
     1
102
RTVSPost2010Prop47
 90
       50
102
RTVSPost2010PropOp47
 70
     1
102
RTVSPost2010Prop48
 90
       50
102
RTVSPost2010PropOp48
 70
     1
102
RTVSPost2010Prop49
280
     0
102
RTVSPost2010PropOp49
 70
     1
102
RTVSPost2010Prop50
 90
       50
102
RTVSPost2010PropOp50
 70
     1
102
RTVSPost2010Prop51ColorIndex
 90
      256
102
RTVSPost2010Prop51ColorRGB
 90
-16777216
102
RTVSPost2010PropOp51
 70
     0
102
RTVSPost2010Prop52
140
1.0
102
RTVSPost2010PropOp52
 70
     0
102
RTVSPost2010Prop53
 90
        2
102
RTVSPost2010PropOp53
 70
     1
102
RTVSPost2010Prop54
  1
strokes_ogs.tif
102
RTVSPost2010PropOp54
 70
     1
102
RTVSPost2010Prop55
280
     0
102
RTVSPost2010PropOp55
 70
     1
102
RTVSPost2010Prop56
140
1.0
102
RTVSPost2010PropOp56
 70
     1
102
RTVSPost2010Prop57
140
1.0
102
RTVSPost2010PropOp57
 70
     1
102
RTVSPropertyOp0
 70
     1
102
RTVSPropertyOp1
 70
     1
102
RTVSPropertyOp2
 70
     1
102
RTVSPropertyOp3
 70
     1
102
RTVSPropertyOp4
 70
     1
102
RTVSPropertyOp5
 70
     1
102
RTVSPropertyOp6
 70
     1
102
RTVSPropertyOp7
 70
     1
102
RTVSPropertyOp8
 70
     1
102
RTVSPropertyOp9
 70
     1
102
RTVSPropertyOp10
 70
     1
102
RTVSPropertyOp11
 70
     1
102
RTVSPropertyOp12
 70
     1
102
RTVSPropertyOp13
 70
     1
102
RTVSPropertyOp14
 70
     1
102
RTVSPropertyOp15
 70
     1
102
RTVSPropertyOp16
 70
     1
102
RTVSPropertyOp17
 70
     1
102
RTVSPropertyOp18
 70
     1
102
RTVSPropertyOp19
 70
     1
102
RTVSPropertyOp20
 70
     1
102
RTVSPropertyOp21
 70
     1
102
RTVSPropertyOp22
 70
     1
102
RTVSPropertyOp23
 70
     1
102
RTVSPropertyOp24
 70
     1
102
RTVSPropertyOp25
 70
     1
102
RTVSPropertyOp26
 70
     1
102
RTVSPropertyOp27
 70
     1
102
RTVSPropertyOp28
 70
     1
102
RTVSPropertyOp29
 70
     1
102
RTVSPropertyOp30
 70
     1
102
RTVSPropertyOp31
 70
     1
102
RTVSPropertyOp32
 70
     1
102
RTVSPropertyOp33
 70
     1
102
RTVSPropertyOp34
 70
     1
102
RTVSPropertyOp35
 70
     1
102
RTVSPropertyOp36
 70
     1
102
RTVSPropertyOp37
 70
     1
102
RTVSPropertyOp38
 70
     1
102
RTVSPropertyOp39
 70
     1
102
RTVSPropertyOp40
 70
     1
102
RTVSPropertyOp41
 70
     1
102
RTVSPropertyOp42
 70
     1
102
RTVSPropertyOp43
 70
     1
102
RTVSPropertyOp44
 70
     1
102
RTVSPropertyOp45
 70
     1
102
RTVSPropertyOp46
 70
     1
102
RTVSPropertyOp47
 70
     1
102
RTVSPropertyOp48
 70
     1
102
RTVSPropertyOp49
 70
     1
102
RTVSPropertyOp50
 70
     1
102
RTVSPropertyOp51
 70
     0
102
RTVSPropertyOp52
 70
     0
102
RTVSPropertyOp53
 70
     1
102
RTVSPropertyOp54
 70
     1
102
RTVSPropertyOp55
 70
     1
102
RTVSPropertyOp56
 70
     1
102
RTVSPropertyOp57
 70
     1
102
RTVSPropertyOp58
 70
     1
102
RTVSPropertyOp59
 70
     1
102
RTVSPropertyOp60
 70
     1
102
RTVSPropertyOp61
 70
     1
102
RTVSPropertyOp62
 70
     1
  0
XRECORD
  5
648
102
{ACAD_REACTORS
330
647
102
}
330
647
100
AcDbXrecord
280
     1
102
RTVSPost2010Prop28
280
     0
102
RTVSPost2010PropOp28
 70
     1
102
RTVSPost2010Prop29
280
     1
102
RTVSPost2010PropOp29
 70
     1
102
RTVSPost2010Prop30
280
     1
102
RTVSPost2010PropOp30
 70
     1
102
RTVSPost2010Prop31
280
     0
102
RTVSPost2010PropOp31
 70
     1
102
RTVSPost2010Prop32
280
     0
102
RTVSPost2010PropOp32
 70
     1
102
RTVSPost2010Prop33
280
     0
102
RTVSPost2010PropOp33
 70
     1
102
RTVSPost2010Prop34
280
     0
102
RTVSPost2010PropOp34
 70
     1
102
RTVSPost2010Prop35
280
     0
102
RTVSPost2010PropOp35
 70
     1
102
RTVSPost2010Prop36
280
     0
102
RTVSPost2010PropOp36
 70
     1
102
RTVSPost2010Prop37
 90
       50
102
RTVSPost2010PropOp37
 70
     1
102
RTVSPost2010Prop38
140
0.0
102
RTVSPost2010PropOp38
 70
     1
102
RTVSPost2010Prop39
140
1.0
102
RTVSPost2010PropOp39
 70
     1
102
RTVSPost2010Prop40
 90
        0
102
RTVSPost2010PropOp40
 70
     1
102
RTVSPost2010Prop41ColorIndex
 90
       18
102
RTVSPost2010Prop41ColorRGB
 90
        0
102
RTVSPost2010PropOp41
 70
     1
102
RTVSPost2010Prop42
 90
       50
102
RTVSPost2010PropOp42
 70
     1
102
RTVSPost2010Prop43
 90
        3
102
RTVSPost2010PropOp43
 70
     1
102
RTVSPost2010Prop44ColorIndex
 90
        5
102
RTVSPost2010Prop44ColorRGB
 90
      255
102
RTVSPost2010PropOp44
 70
     1
102
RTVSPost2010Prop45
280
     0
102
RTVSPost2010PropOp45
 70
     1
102
RTVSPost2010Prop46
 90
       50
102
RTVSPost2010PropOp46
 70
     1
102
RTVSPost2010Prop47
 90
       50
102
RTVSPost2010PropOp47
 70
     1
102
RTVSPost2010Prop48
 90
       50
102
RTVSPost2010PropOp48
 70
     1
102
RTVSPost2010Prop49
280
     0
102
RTVSPost2010PropOp49
 70
     1
102
RTVSPost2010Prop50
 90
       50
102
RTVSPost2010PropOp50
 70
     1
102
RTVSPost2010Prop51ColorIndex
 90
      256
102
RTVSPost2010Prop51ColorRGB
 90
-16777216
102
RTVSPost2010PropOp51
 70
     0
102
RTVSPost2010Prop52
140
1.0
102
RTVSPost2010PropOp52
 70
     0
102
RTVSPost2010Prop53
 90
        2
102
RTVSPost2010PropOp53
 70
     1
102
RTVSPost2010Prop54
  1
strokes_ogs.tif
102
RTVSPost2010PropOp54
 70
     1
102
RTVSPost2010Prop55
280
     0
102
RTVSPost2010PropOp55
 70
     1
102
RTVSPost2010Prop56
140
1.0
102
RTVSPost2010PropOp56
 70
     1
102
RTVSPost2010Prop57
140
1.0
102
RTVSPost2010PropOp57
 70
     1
102
RTVSPropertyOp0
 70
     1
102
RTVSPropertyOp1
 70
     1
102
RTVSPropertyOp2
 70
     1
102
RTVSPropertyOp3
 70
     1
102
RTVSPropertyOp4
 70
     1
102
RTVSPropertyOp5
 70
     1
102
RTVSPropertyOp6
 70
     1
102
RTVSPropertyOp7
 70
     1
102
RTVSPropertyOp8
 70
     1
102
RTVSPropertyOp9
 70
     1
102
RTVSPropertyOp10
 70
     1
102
RTVSPropertyOp11
 70
     1
102
RTVSPropertyOp12
 70
     1
102
RTVSPropertyOp13
 70
     1
102
RTVSPropertyOp14
 70
     1
102
RTVSPropertyOp15
 70
     1
102
RTVSPropertyOp16
 70
     1
102
RTVSPropertyOp17
 70
     1
102
RTVSPropertyOp18
 70
     1
102
RTVSPropertyOp19
 70
     1
102
RTVSPropertyOp20
 70
     1
102
RTVSPropertyOp21
 70
     1
102
RTVSPropertyOp22
 70
     1
102
RTVSPropertyOp23
 70
     1
102
RTVSPropertyOp24
 70
     1
102
RTVSPropertyOp25
 70
     1
102
RTVSPropertyOp26
 70
     1
102
RTVSPropertyOp27
 70
     1
102
RTVSPropertyOp28
 70
     1
102
RTVSPropertyOp29
 70
     1
102
RTVSPropertyOp30
 70
     1
102
RTVSPropertyOp31
 70
     1
102
RTVSPropertyOp32
 70
     1
102
RTVSPropertyOp33
 70
     1
102
RTVSPropertyOp34
 70
     1
102
RTVSPropertyOp35
 70
     1
102
RTVSPropertyOp36
 70
     1
102
RTVSPropertyOp37
 70
     1
102
RTVSPropertyOp38
 70
     1
102
RTVSPropertyOp39
 70
     1
102
RTVSPropertyOp40
 70
     1
102
RTVSPropertyOp41
 70
     1
102
RTVSPropertyOp42
 70
     1
102
RTVSPropertyOp43
 70
     1
102
RTVSPropertyOp44
 70
     1
102
RTVSPropertyOp45
 70
     1
102
RTVSPropertyOp46
 70
     1
102
RTVSPropertyOp47
 70
     1
102
RTVSPropertyOp48
 70
     1
102
RTVSPropertyOp49
 70
     1
102
RTVSPropertyOp50
 70
     1
102
RTVSPropertyOp51
 70
     0
102
RTVSPropertyOp52
 70
     0
102
RTVSPropertyOp53
 70
     1
102
RTVSPropertyOp54
 70
     1
102
RTVSPropertyOp55
 70
     1
102
RTVSPropertyOp56
 70
     1
102
RTVSPropertyOp57
 70
     1
102
RTVSPropertyOp58
 70
     1
102
RTVSPropertyOp59
 70
     1
102
RTVSPropertyOp60
 70
     1
102
RTVSPropertyOp61
 70
     1
102
RTVSPropertyOp62
 70
     1
  0
XRECORD
  5
63A
102
{ACAD_REACTORS
330
639
102
}
330
639
100
AcDbXrecord
280
     1
102
RTVSPost2010Prop28
280
     0
102
RTVSPost2010PropOp28
 70
     1
102
RTVSPost2010Prop29
280
     1
102
RTVSPost2010PropOp29
 70
     1
102
RTVSPost2010Prop30
280
     1
102
RTVSPost2010PropOp30
 70
     1
102
RTVSPost2010Prop31
280
     0
102
RTVSPost2010PropOp31
 70
     1
102
RTVSPost2010Prop32
280
     0
102
RTVSPost2010PropOp32
 70
     1
102
RTVSPost2010Prop33
280
     0
102
RTVSPost2010PropOp33
 70
     1
102
RTVSPost2010Prop34
280
     0
102
RTVSPost2010PropOp34
 70
     1
102
RTVSPost2010Prop35
280
     0
102
RTVSPost2010PropOp35
 70
     1
102
RTVSPost2010Prop36
280
     0
102
RTVSPost2010PropOp36
 70
     1
102
RTVSPost2010Prop37
 90
       50
102
RTVSPost2010PropOp37
 70
     1
102
RTVSPost2010Prop38
140
0.0
102
RTVSPost2010PropOp38
 70
     1
102
RTVSPost2010Prop39
140
1.0
102
RTVSPost2010PropOp39
 70
     1
102
RTVSPost2010Prop40
 90
        0
102
RTVSPost2010PropOp40
 70
     1
102
RTVSPost2010Prop41ColorIndex
 90
       18
102
RTVSPost2010Prop41ColorRGB
 90
        0
102
RTVSPost2010PropOp41
 70
     1
102
RTVSPost2010Prop42
 90
       50
102
RTVSPost2010PropOp42
 70
     1
102
RTVSPost2010Prop43
 90
        3
102
RTVSPost2010PropOp43
 70
     1
102
RTVSPost2010Prop44ColorIndex
 90
        5
102
RTVSPost2010Prop44ColorRGB
 90
      255
102
RTVSPost2010PropOp44
 70
     1
102
RTVSPost2010Prop45
280
     0
102
RTVSPost2010PropOp45
 70
     1
102
RTVSPost2010Prop46
 90
       50
102
RTVSPost2010PropOp46
 70
     1
102
RTVSPost2010Prop47
 90
       50
102
RTVSPost2010PropOp47
 70
     1
102
RTVSPost2010Prop48
 90
       50
102
RTVSPost2010PropOp48
 70
     1
102
RTVSPost2010Prop49
280
     0
102
RTVSPost2010PropOp49
 70
     1
102
RTVSPost2010Prop50
 90
       50
102
RTVSPost2010PropOp50
 70
     1
102
RTVSPost2010Prop51ColorIndex
 90
      256
102
RTVSPost2010Prop51ColorRGB
 90
-16777216
102
RTVSPost2010PropOp51
 70
     0
102
RTVSPost2010Prop52
140
1.0
102
RTVSPost2010PropOp52
 70
     0
102
RTVSPost2010Prop53
 90
        2
102
RTVSPost2010PropOp53
 70
     1
102
RTVSPost2010Prop54
  1
strokes_ogs.tif
102
RTVSPost2010PropOp54
 70
     1
102
RTVSPost2010Prop55
280
     0
102
RTVSPost2010PropOp55
 70
     1
102
RTVSPost2010Prop56
140
1.0
102
RTVSPost2010PropOp56
 70
     1
102
RTVSPost2010Prop57
140
1.0
102
RTVSPost2010PropOp57
 70
     1
102
RTVSPropertyOp0
 70
     1
102
RTVSPropertyOp1
 70
     1
102
RTVSPropertyOp2
 70
     1
102
RTVSPropertyOp3
 70
     1
102
RTVSPropertyOp4
 70
     1
102
RTVSPropertyOp5
 70
     1
102
RTVSPropertyOp6
 70
     1
102
RTVSPropertyOp7
 70
     1
102
RTVSPropertyOp8
 70
     1
102
RTVSPropertyOp9
 70
     1
102
RTVSPropertyOp10
 70
     1
102
RTVSPropertyOp11
 70
     1
102
RTVSPropertyOp12
 70
     1
102
RTVSPropertyOp13
 70
     1
102
RTVSPropertyOp14
 70
     1
102
RTVSPropertyOp15
 70
     1
102
RTVSPropertyOp16
 70
     1
102
RTVSPropertyOp17
 70
     1
102
RTVSPropertyOp18
 70
     1
102
RTVSPropertyOp19
 70
     1
102
RTVSPropertyOp20
 70
     1
102
RTVSPropertyOp21
 70
     1
102
RTVSPropertyOp22
 70
     1
102
RTVSPropertyOp23
 70
     1
102
RTVSPropertyOp24
 70
     1
102
RTVSPropertyOp25
 70
     1
102
RTVSPropertyOp26
 70
     1
102
RTVSPropertyOp27
 70
     1
102
RTVSPropertyOp28
 70
     1
102
RTVSPropertyOp29
 70
     1
102
RTVSPropertyOp30
 70
     1
102
RTVSPropertyOp31
 70
     1
102
RTVSPropertyOp32
 70
     1
102
RTVSPropertyOp33
 70
     1
102
RTVSPropertyOp34
 70
     1
102
RTVSPropertyOp35
 70
     1
102
RTVSPropertyOp36
 70
     1
102
RTVSPropertyOp37
 70
     1
102
RTVSPropertyOp38
 70
     1
102
RTVSPropertyOp39
 70
     1
102
RTVSPropertyOp40
 70
     1
102
RTVSPropertyOp41
 70
     1
102
RTVSPropertyOp42
 70
     1
102
RTVSPropertyOp43
 70
     1
102
RTVSPropertyOp44
 70
     1
102
RTVSPropertyOp45
 70
     1
102
RTVSPropertyOp46
 70
     1
102
RTVSPropertyOp47
 70
     1
102
RTVSPropertyOp48
 70
     1
102
RTVSPropertyOp49
 70
     1
102
RTVSPropertyOp50
 70
     1
102
RTVSPropertyOp51
 70
     0
102
RTVSPropertyOp52
 70
     0
102
RTVSPropertyOp53
 70
     1
102
RTVSPropertyOp54
 70
     1
102
RTVSPropertyOp55
 70
     1
102
RTVSPropertyOp56
 70
     1
102
RTVSPropertyOp57
 70
     1
102
RTVSPropertyOp58
 70
     1
102
RTVSPropertyOp59
 70
     1
102
RTVSPropertyOp60
 70
     1
102
RTVSPropertyOp61
 70
     1
102
RTVSPropertyOp62
 70
     1
  0
XRECORD
  5
63E
102
{ACAD_REACTORS
330
63D
102
}
330
63D
100
AcDbXrecord
280
     1
102
RTVSPost2010Prop28
280
     0
102
RTVSPost2010PropOp28
 70
     1
102
RTVSPost2010Prop29
280
     1
102
RTVSPost2010PropOp29
 70
     1
102
RTVSPost2010Prop30
280
     1
102
RTVSPost2010PropOp30
 70
     1
102
RTVSPost2010Prop31
280
     0
102
RTVSPost2010PropOp31
 70
     1
102
RTVSPost2010Prop32
280
     0
102
RTVSPost2010PropOp32
 70
     1
102
RTVSPost2010Prop33
280
     0
102
RTVSPost2010PropOp33
 70
     1
102
RTVSPost2010Prop34
280
     0
102
RTVSPost2010PropOp34
 70
     1
102
RTVSPost2010Prop35
280
     0
102
RTVSPost2010PropOp35
 70
     1
102
RTVSPost2010Prop36
280
     0
102
RTVSPost2010PropOp36
 70
     1
102
RTVSPost2010Prop37
 90
       50
102
RTVSPost2010PropOp37
 70
     1
102
RTVSPost2010Prop38
140
0.0
102
RTVSPost2010PropOp38
 70
     1
102
RTVSPost2010Prop39
140
1.0
102
RTVSPost2010PropOp39
 70
     1
102
RTVSPost2010Prop40
 90
        0
102
RTVSPost2010PropOp40
 70
     1
102
RTVSPost2010Prop41ColorIndex
 90
       18
102
RTVSPost2010Prop41ColorRGB
 90
        0
102
RTVSPost2010PropOp41
 70
     1
102
RTVSPost2010Prop42
 90
       50
102
RTVSPost2010PropOp42
 70
     1
102
RTVSPost2010Prop43
 90
        3
102
RTVSPost2010PropOp43
 70
     1
102
RTVSPost2010Prop44ColorIndex
 90
        5
102
RTVSPost2010Prop44ColorRGB
 90
      255
102
RTVSPost2010PropOp44
 70
     1
102
RTVSPost2010Prop45
280
     0
102
RTVSPost2010PropOp45
 70
     1
102
RTVSPost2010Prop46
 90
       50
102
RTVSPost2010PropOp46
 70
     1
102
RTVSPost2010Prop47
 90
       50
102
RTVSPost2010PropOp47
 70
     1
102
RTVSPost2010Prop48
 90
       50
102
RTVSPost2010PropOp48
 70
     1
102
RTVSPost2010Prop49
280
     0
102
RTVSPost2010PropOp49
 70
     1
102
RTVSPost2010Prop50
 90
       50
102
RTVSPost2010PropOp50
 70
     1
102
RTVSPost2010Prop51ColorIndex
 90
      256
102
RTVSPost2010Prop51ColorRGB
 90
-16777216
102
RTVSPost2010PropOp51
 70
     0
102
RTVSPost2010Prop52
140
1.0
102
RTVSPost2010PropOp52
 70
     0
102
RTVSPost2010Prop53
 90
        2
102
RTVSPost2010PropOp53
 70
     1
102
RTVSPost2010Prop54
  1
strokes_ogs.tif
102
RTVSPost2010PropOp54
 70
     1
102
RTVSPost2010Prop55
280
     0
102
RTVSPost2010PropOp55
 70
     1
102
RTVSPost2010Prop56
140
1.0
102
RTVSPost2010PropOp56
 70
     1
102
RTVSPost2010Prop57
140
1.0
102
RTVSPost2010PropOp57
 70
     1
102
RTVSPropertyOp0
 70
     1
102
RTVSPropertyOp1
 70
     1
102
RTVSPropertyOp2
 70
     1
102
RTVSPropertyOp3
 70
     1
102
RTVSPropertyOp4
 70
     1
102
RTVSPropertyOp5
 70
     1
102
RTVSPropertyOp6
 70
     1
102
RTVSPropertyOp7
 70
     1
102
RTVSPropertyOp8
 70
     1
102
RTVSPropertyOp9
 70
     1
102
RTVSPropertyOp10
 70
     1
102
RTVSPropertyOp11
 70
     1
102
RTVSPropertyOp12
 70
     1
102
RTVSPropertyOp13
 70
     1
102
RTVSPropertyOp14
 70
     1
102
RTVSPropertyOp15
 70
     1
102
RTVSPropertyOp16
 70
     1
102
RTVSPropertyOp17
 70
     1
102
RTVSPropertyOp18
 70
     1
102
RTVSPropertyOp19
 70
     1
102
RTVSPropertyOp20
 70
     1
102
RTVSPropertyOp21
 70
     1
102
RTVSPropertyOp22
 70
     1
102
RTVSPropertyOp23
 70
     1
102
RTVSPropertyOp24
 70
     1
102
RTVSPropertyOp25
 70
     1
102
RTVSPropertyOp26
 70
     1
102
RTVSPropertyOp27
 70
     1
102
RTVSPropertyOp28
 70
     1
102
RTVSPropertyOp29
 70
     1
102
RTVSPropertyOp30
 70
     1
102
RTVSPropertyOp31
 70
     1
102
RTVSPropertyOp32
 70
     1
102
RTVSPropertyOp33
 70
     1
102
RTVSPropertyOp34
 70
     1
102
RTVSPropertyOp35
 70
     1
102
RTVSPropertyOp36
 70
     1
102
RTVSPropertyOp37
 70
     1
102
RTVSPropertyOp38
 70
     1
102
RTVSPropertyOp39
 70
     1
102
RTVSPropertyOp40
 70
     1
102
RTVSPropertyOp41
 70
     1
102
RTVSPropertyOp42
 70
     1
102
RTVSPropertyOp43
 70
     1
102
RTVSPropertyOp44
 70
     1
102
RTVSPropertyOp45
 70
     1
102
RTVSPropertyOp46
 70
     1
102
RTVSPropertyOp47
 70
     1
102
RTVSPropertyOp48
 70
     1
102
RTVSPropertyOp49
 70
     1
102
RTVSPropertyOp50
 70
     1
102
RTVSPropertyOp51
 70
     0
102
RTVSPropertyOp52
 70
     0
102
RTVSPropertyOp53
 70
     1
102
RTVSPropertyOp54
 70
     1
102
RTVSPropertyOp55
 70
     1
102
RTVSPropertyOp56
 70
     1
102
RTVSPropertyOp57
 70
     1
102
RTVSPropertyOp58
 70
     1
102
RTVSPropertyOp59
 70
     1
102
RTVSPropertyOp60
 70
     1
102
RTVSPropertyOp61
 70
     1
102
RTVSPropertyOp62
 70
     1
  0
XRECORD
  5
658
102
{ACAD_REACTORS
330
657
102
}
330
657
100
AcDbXrecord
280
     1
102
RTVSPost2010Prop28
280
     0
102
RTVSPost2010PropOp28
 70
     1
102
RTVSPost2010Prop29
280
     1
102
RTVSPost2010PropOp29
 70
     1
102
RTVSPost2010Prop30
280
     1
102
RTVSPost2010PropOp30
 70
     1
102
RTVSPost2010Prop31
280
     0
102
RTVSPost2010PropOp31
 70
     1
102
RTVSPost2010Prop32
280
     0
102
RTVSPost2010PropOp32
 70
     1
102
RTVSPost2010Prop33
280
     0
102
RTVSPost2010PropOp33
 70
     1
102
RTVSPost2010Prop34
280
     0
102
RTVSPost2010PropOp34
 70
     1
102
RTVSPost2010Prop35
280
     0
102
RTVSPost2010PropOp35
 70
     1
102
RTVSPost2010Prop36
280
     0
102
RTVSPost2010PropOp36
 70
     1
102
RTVSPost2010Prop37
 90
       50
102
RTVSPost2010PropOp37
 70
     0
102
RTVSPost2010Prop38
140
0.0
102
RTVSPost2010PropOp38
 70
     0
102
RTVSPost2010Prop39
140
1.0
102
RTVSPost2010PropOp39
 70
     0
102
RTVSPost2010Prop40
 90
        0
102
RTVSPost2010PropOp40
 70
     0
102
RTVSPost2010Prop41ColorIndex
 90
       18
102
RTVSPost2010Prop41ColorRGB
 90
        0
102
RTVSPost2010PropOp41
 70
     0
102
RTVSPost2010Prop42
 90
       50
102
RTVSPost2010PropOp42
 70
     0
102
RTVSPost2010Prop43
 90
        3
102
RTVSPost2010PropOp43
 70
     0
102
RTVSPost2010Prop44ColorIndex
 90
        5
102
RTVSPost2010Prop44ColorRGB
 90
      255
102
RTVSPost2010PropOp44
 70
     0
102
RTVSPost2010Prop45
280
     0
102
RTVSPost2010PropOp45
 70
     1
102
RTVSPost2010Prop46
 90
       50
102
RTVSPost2010PropOp46
 70
     0
102
RTVSPost2010Prop47
 90
       50
102
RTVSPost2010PropOp47
 70
     0
102
RTVSPost2010Prop48
 90
       50
102
RTVSPost2010PropOp48
 70
     0
102
RTVSPost2010Prop49
280
     0
102
RTVSPost2010PropOp49
 70
     1
102
RTVSPost2010Prop50
 90
       50
102
RTVSPost2010PropOp50
 70
     0
102
RTVSPost2010Prop51ColorIndex
 90
      256
102
RTVSPost2010Prop51ColorRGB
 90
-16777216
102
RTVSPost2010PropOp51
 70
     0
102
RTVSPost2010Prop52
140
1.0
102
RTVSPost2010PropOp52
 70
     0
102
RTVSPost2010Prop53
 90
        2
102
RTVSPost2010PropOp53
 70
     0
102
RTVSPost2010Prop54
  1
strokes_ogs.tif
102
RTVSPost2010PropOp54
 70
     0
102
RTVSPost2010Prop55
280
     0
102
RTVSPost2010PropOp55
 70
     1
102
RTVSPost2010Prop56
140
1.0
102
RTVSPost2010PropOp56
 70
     0
102
RTVSPost2010Prop57
140
1.0
102
RTVSPost2010PropOp57
 70
     0
102
RTVSPropertyOp0
 70
     0
102
RTVSPropertyOp1
 70
     0
102
RTVSPropertyOp2
 70
     0
102
RTVSPropertyOp3
 70
     0
102
RTVSPropertyOp4
 70
     0
102
RTVSPropertyOp5
 70
     0
102
RTVSPropertyOp6
 70
     0
102
RTVSPropertyOp7
 70
     0
102
RTVSPropertyOp8
 70
     0
102
RTVSPropertyOp9
 70
     0
102
RTVSPropertyOp10
 70
     0
102
RTVSPropertyOp11
 70
     0
102
RTVSPropertyOp12
 70
     0
102
RTVSPropertyOp13
 70
     0
102
RTVSPropertyOp14
 70
     2
102
RTVSPropertyOp15
 70
     0
102
RTVSPropertyOp16
 70
     0
102
RTVSPropertyOp17
 70
     0
102
RTVSPropertyOp18
 70
     0
102
RTVSPropertyOp19
 70
     0
102
RTVSPropertyOp20
 70
     0
102
RTVSPropertyOp21
 70
     0
102
RTVSPropertyOp22
 70
     0
102
RTVSPropertyOp23
 70
     0
102
RTVSPropertyOp24
 70
     0
102
RTVSPropertyOp25
 70
     0
102
RTVSPropertyOp26
 70
     0
102
RTVSPropertyOp27
 70
     0
102
RTVSPropertyOp28
 70
     1
102
RTVSPropertyOp29
 70
     1
102
RTVSPropertyOp30
 70
     1
102
RTVSPropertyOp31
 70
     1
102
RTVSPropertyOp32
 70
     1
102
RTVSPropertyOp33
 70
     1
102
RTVSPropertyOp34
 70
     1
102
RTVSPropertyOp35
 70
     1
102
RTVSPropertyOp36
 70
     1
102
RTVSPropertyOp37
 70
     0
102
RTVSPropertyOp38
 70
     0
102
RTVSPropertyOp39
 70
     0
102
RTVSPropertyOp40
 70
     0
102
RTVSPropertyOp41
 70
     0
102
RTVSPropertyOp42
 70
     0
102
RTVSPropertyOp43
 70
     0
102
RTVSPropertyOp44
 70
     0
102
RTVSPropertyOp45
 70
     1
102
RTVSPropertyOp46
 70
     0
102
RTVSPropertyOp47
 70
     0
102
RTVSPropertyOp48
 70
     0
102
RTVSPropertyOp49
 70
     1
102
RTVSPropertyOp50
 70
     0
102
RTVSPropertyOp51
 70
     0
102
RTVSPropertyOp52
 70
     0
102
RTVSPropertyOp53
 70
     0
102
RTVSPropertyOp54
 70
     0
102
RTVSPropertyOp55
 70
     1
102
RTVSPropertyOp56
 70
     0
102
RTVSPropertyOp57
 70
     0
102
RTVSPropertyOp58
 70
     0
102
RTVSPropertyOp59
 70
     0
102
RTVSPropertyOp60
 70
     0
102
RTVSPropertyOp61
 70
     0
102
RTVSPropertyOp62
 70
     0
  0
XRECORD
  5
646
102
{ACAD_REACTORS
330
645
102
}
330
645
100
AcDbXrecord
280
     1
102
RTVSPost2010Prop28
280
     0
102
RTVSPost2010PropOp28
 70
     1
102
RTVSPost2010Prop29
280
     1
102
RTVSPost2010PropOp29
 70
     1
102
RTVSPost2010Prop30
280
     1
102
RTVSPost2010PropOp30
 70
     1
102
RTVSPost2010Prop31
280
     0
102
RTVSPost2010PropOp31
 70
     1
102
RTVSPost2010Prop32
280
     0
102
RTVSPost2010PropOp32
 70
     1
102
RTVSPost2010Prop33
280
     0
102
RTVSPost2010PropOp33
 70
     1
102
RTVSPost2010Prop34
280
     0
102
RTVSPost2010PropOp34
 70
     1
102
RTVSPost2010Prop35
280
     0
102
RTVSPost2010PropOp35
 70
     1
102
RTVSPost2010Prop36
280
     0
102
RTVSPost2010PropOp36
 70
     1
102
RTVSPost2010Prop37
 90
       50
102
RTVSPost2010PropOp37
 70
     1
102
RTVSPost2010Prop38
140
0.0
102
RTVSPost2010PropOp38
 70
     1
102
RTVSPost2010Prop39
140
1.0
102
RTVSPost2010PropOp39
 70
     1
102
RTVSPost2010Prop40
 90
        0
102
RTVSPost2010PropOp40
 70
     1
102
RTVSPost2010Prop41ColorIndex
 90
       18
102
RTVSPost2010Prop41ColorRGB
 90
        0
102
RTVSPost2010PropOp41
 70
     1
102
RTVSPost2010Prop42
 90
       50
102
RTVSPost2010PropOp42
 70
     1
102
RTVSPost2010Prop43
 90
        3
102
RTVSPost2010PropOp43
 70
     1
102
RTVSPost2010Prop44ColorIndex
 90
        5
102
RTVSPost2010Prop44ColorRGB
 90
      255
102
RTVSPost2010PropOp44
 70
     1
102
RTVSPost2010Prop45
280
     0
102
RTVSPost2010PropOp45
 70
     1
102
RTVSPost2010Prop46
 90
       50
102
RTVSPost2010PropOp46
 70
     1
102
RTVSPost2010Prop47
 90
       50
102
RTVSPost2010PropOp47
 70
     1
102
RTVSPost2010Prop48
 90
       50
102
RTVSPost2010PropOp48
 70
     1
102
RTVSPost2010Prop49
280
     0
102
RTVSPost2010PropOp49
 70
     1
102
RTVSPost2010Prop50
 90
       50
102
RTVSPost2010PropOp50
 70
     1
102
RTVSPost2010Prop51ColorIndex
 90
      256
102
RTVSPost2010Prop51ColorRGB
 90
-16777216
102
RTVSPost2010PropOp51
 70
     0
102
RTVSPost2010Prop52
140
1.0
102
RTVSPost2010PropOp52
 70
     0
102
RTVSPost2010Prop53
 90
        2
102
RTVSPost2010PropOp53
 70
     1
102
RTVSPost2010Prop54
  1
strokes_ogs.tif
102
RTVSPost2010PropOp54
 70
     1
102
RTVSPost2010Prop55
280
     0
102
RTVSPost2010PropOp55
 70
     1
102
RTVSPost2010Prop56
140
1.0
102
RTVSPost2010PropOp56
 70
     1
102
RTVSPost2010Prop57
140
1.0
102
RTVSPost2010PropOp57
 70
     1
102
RTVSPropertyOp0
 70
     1
102
RTVSPropertyOp1
 70
     1
102
RTVSPropertyOp2
 70
     1
102
RTVSPropertyOp3
 70
     1
102
RTVSPropertyOp4
 70
     1
102
RTVSPropertyOp5
 70
     1
102
RTVSPropertyOp6
 70
     1
102
RTVSPropertyOp7
 70
     1
102
RTVSPropertyOp8
 70
     1
102
RTVSPropertyOp9
 70
     1
102
RTVSPropertyOp10
 70
     1
102
RTVSPropertyOp11
 70
     1
102
RTVSPropertyOp12
 70
     1
102
RTVSPropertyOp13
 70
     1
102
RTVSPropertyOp14
 70
     1
102
RTVSPropertyOp15
 70
     1
102
RTVSPropertyOp16
 70
     1
102
RTVSPropertyOp17
 70
     1
102
RTVSPropertyOp18
 70
     1
102
RTVSPropertyOp19
 70
     1
102
RTVSPropertyOp20
 70
     1
102
RTVSPropertyOp21
 70
     1
102
RTVSPropertyOp22
 70
     1
102
RTVSPropertyOp23
 70
     1
102
RTVSPropertyOp24
 70
     1
102
RTVSPropertyOp25
 70
     1
102
RTVSPropertyOp26
 70
     1
102
RTVSPropertyOp27
 70
     1
102
RTVSPropertyOp28
 70
     1
102
RTVSPropertyOp29
 70
     1
102
RTVSPropertyOp30
 70
     1
102
RTVSPropertyOp31
 70
     1
102
RTVSPropertyOp32
 70
     1
102
RTVSPropertyOp33
 70
     1
102
RTVSPropertyOp34
 70
     1
102
RTVSPropertyOp35
 70
     1
102
RTVSPropertyOp36
 70
     1
102
RTVSPropertyOp37
 70
     1
102
RTVSPropertyOp38
 70
     1
102
RTVSPropertyOp39
 70
     1
102
RTVSPropertyOp40
 70
     1
102
RTVSPropertyOp41
 70
     1
102
RTVSPropertyOp42
 70
     1
102
RTVSPropertyOp43
 70
     1
102
RTVSPropertyOp44
 70
     1
102
RTVSPropertyOp45
 70
     1
102
RTVSPropertyOp46
 70
     1
102
RTVSPropertyOp47
 70
     1
102
RTVSPropertyOp48
 70
     1
102
RTVSPropertyOp49
 70
     1
102
RTVSPropertyOp50
 70
     1
102
RTVSPropertyOp51
 70
     0
102
RTVSPropertyOp52
 70
     0
102
RTVSPropertyOp53
 70
     1
102
RTVSPropertyOp54
 70
     1
102
RTVSPropertyOp55
 70
     1
102
RTVSPropertyOp56
 70
     1
102
RTVSPropertyOp57
 70
     1
102
RTVSPropertyOp58
 70
     1
102
RTVSPropertyOp59
 70
     1
102
RTVSPropertyOp60
 70
     1
102
RTVSPropertyOp61
 70
     1
102
RTVSPropertyOp62
 70
     1
  0
XRECORD
  5
62A
102
{ACAD_REACTORS
330
629
102
}
330
629
100
AcDbXrecord
280
     1
102
RTVSPost2010Prop28
280
     0
102
RTVSPost2010PropOp28
 70
     1
102
RTVSPost2010Prop29
280
     1
102
RTVSPost2010PropOp29
 70
     1
102
RTVSPost2010Prop30
280
     1
102
RTVSPost2010PropOp30
 70
     1
102
RTVSPost2010Prop31
280
     0
102
RTVSPost2010PropOp31
 70
     1
102
RTVSPost2010Prop32
280
     0
102
RTVSPost2010PropOp32
 70
     1
102
RTVSPost2010Prop33
280
     0
102
RTVSPost2010PropOp33
 70
     1
102
RTVSPost2010Prop34
280
     0
102
RTVSPost2010PropOp34
 70
     1
102
RTVSPost2010Prop35
280
     0
102
RTVSPost2010PropOp35
 70
     1
102
RTVSPost2010Prop36
280
     0
102
RTVSPost2010PropOp36
 70
     1
102
RTVSPost2010Prop37
 90
       50
102
RTVSPost2010PropOp37
 70
     1
102
RTVSPost2010Prop38
140
0.0
102
RTVSPost2010PropOp38
 70
     1
102
RTVSPost2010Prop39
140
1.0
102
RTVSPost2010PropOp39
 70
     1
102
RTVSPost2010Prop40
 90
        0
102
RTVSPost2010PropOp40
 70
     1
102
RTVSPost2010Prop41ColorIndex
 90
       18
102
RTVSPost2010Prop41ColorRGB
 90
        0
102
RTVSPost2010PropOp41
 70
     1
102
RTVSPost2010Prop42
 90
       50
102
RTVSPost2010PropOp42
 70
     1
102
RTVSPost2010Prop43
 90
        3
102
RTVSPost2010PropOp43
 70
     1
102
RTVSPost2010Prop44ColorIndex
 90
        5
102
RTVSPost2010Prop44ColorRGB
 90
      255
102
RTVSPost2010PropOp44
 70
     1
102
RTVSPost2010Prop45
280
     0
102
RTVSPost2010PropOp45
 70
     1
102
RTVSPost2010Prop46
 90
       50
102
RTVSPost2010PropOp46
 70
     1
102
RTVSPost2010Prop47
 90
       50
102
RTVSPost2010PropOp47
 70
     1
102
RTVSPost2010Prop48
 90
       50
102
RTVSPost2010PropOp48
 70
     1
102
RTVSPost2010Prop49
280
     0
102
RTVSPost2010PropOp49
 70
     1
102
RTVSPost2010Prop50
 90
       50
102
RTVSPost2010PropOp50
 70
     1
102
RTVSPost2010Prop51ColorIndex
 90
      256
102
RTVSPost2010Prop51ColorRGB
 90
-16777216
102
RTVSPost2010PropOp51
 70
     0
102
RTVSPost2010Prop52
140
1.0
102
RTVSPost2010PropOp52
 70
     0
102
RTVSPost2010Prop53
 90
        2
102
RTVSPost2010PropOp53
 70
     1
102
RTVSPost2010Prop54
  1
strokes_ogs.tif
102
RTVSPost2010PropOp54
 70
     1
102
RTVSPost2010Prop55
280
     0
102
RTVSPost2010PropOp55
 70
     1
102
RTVSPost2010Prop56
140
1.0
102
RTVSPost2010PropOp56
 70
     1
102
RTVSPost2010Prop57
140
1.0
102
RTVSPost2010PropOp57
 70
     1
102
RTVSPropertyOp0
 70
     1
102
RTVSPropertyOp1
 70
     1
102
RTVSPropertyOp2
 70
     1
102
RTVSPropertyOp3
 70
     1
102
RTVSPropertyOp4
 70
     1
102
RTVSPropertyOp5
 70
     1
102
RTVSPropertyOp6
 70
     1
102
RTVSPropertyOp7
 70
     1
102
RTVSPropertyOp8
 70
     1
102
RTVSPropertyOp9
 70
     1
102
RTVSPropertyOp10
 70
     1
102
RTVSPropertyOp11
 70
     1
102
RTVSPropertyOp12
 70
     1
102
RTVSPropertyOp13
 70
     1
102
RTVSPropertyOp14
 70
     1
102
RTVSPropertyOp15
 70
     1
102
RTVSPropertyOp16
 70
     1
102
RTVSPropertyOp17
 70
     1
102
RTVSPropertyOp18
 70
     1
102
RTVSPropertyOp19
 70
     1
102
RTVSPropertyOp20
 70
     1
102
RTVSPropertyOp21
 70
     1
102
RTVSPropertyOp22
 70
     1
102
RTVSPropertyOp23
 70
     1
102
RTVSPropertyOp24
 70
     1
102
RTVSPropertyOp25
 70
     1
102
RTVSPropertyOp26
 70
     1
102
RTVSPropertyOp27
 70
     1
102
RTVSPropertyOp28
 70
     1
102
RTVSPropertyOp29
 70
     1
102
RTVSPropertyOp30
 70
     1
102
RTVSPropertyOp31
 70
     1
102
RTVSPropertyOp32
 70
     1
102
RTVSPropertyOp33
 70
     1
102
RTVSPropertyOp34
 70
     1
102
RTVSPropertyOp35
 70
     1
102
RTVSPropertyOp36
 70
     1
102
RTVSPropertyOp37
 70
     1
102
RTVSPropertyOp38
 70
     1
102
RTVSPropertyOp39
 70
     1
102
RTVSPropertyOp40
 70
     1
102
RTVSPropertyOp41
 70
     1
102
RTVSPropertyOp42
 70
     1
102
RTVSPropertyOp43
 70
     1
102
RTVSPropertyOp44
 70
     1
102
RTVSPropertyOp45
 70
     1
102
RTVSPropertyOp46
 70
     1
102
RTVSPropertyOp47
 70
     1
102
RTVSPropertyOp48
 70
     1
102
RTVSPropertyOp49
 70
     1
102
RTVSPropertyOp50
 70
     1
102
RTVSPropertyOp51
 70
     0
102
RTVSPropertyOp52
 70
     0
102
RTVSPropertyOp53
 70
     1
102
RTVSPropertyOp54
 70
     1
102
RTVSPropertyOp55
 70
     1
102
RTVSPropertyOp56
 70
     1
102
RTVSPropertyOp57
 70
     1
102
RTVSPropertyOp58
 70
     1
102
RTVSPropertyOp59
 70
     1
102
RTVSPropertyOp60
 70
     1
102
RTVSPropertyOp61
 70
     1
102
RTVSPropertyOp62
 70
     1
  0
XRECORD
  5
62C
102
{ACAD_REACTORS
330
62B
102
}
330
62B
100
AcDbXrecord
280
     1
102
RTVSPost2010Prop28
280
     0
102
RTVSPost2010PropOp28
 70
     1
102
RTVSPost2010Prop29
280
     1
102
RTVSPost2010PropOp29
 70
     1
102
RTVSPost2010Prop30
280
     1
102
RTVSPost2010PropOp30
 70
     1
102
RTVSPost2010Prop31
280
     0
102
RTVSPost2010PropOp31
 70
     1
102
RTVSPost2010Prop32
280
     0
102
RTVSPost2010PropOp32
 70
     1
102
RTVSPost2010Prop33
280
     0
102
RTVSPost2010PropOp33
 70
     1
102
RTVSPost2010Prop34
280
     0
102
RTVSPost2010PropOp34
 70
     1
102
RTVSPost2010Prop35
280
     0
102
RTVSPost2010PropOp35
 70
     1
102
RTVSPost2010Prop36
280
     0
102
RTVSPost2010PropOp36
 70
     1
102
RTVSPost2010Prop37
 90
       50
102
RTVSPost2010PropOp37
 70
     1
102
RTVSPost2010Prop38
140
0.0
102
RTVSPost2010PropOp38
 70
     1
102
RTVSPost2010Prop39
140
1.0
102
RTVSPost2010PropOp39
 70
     1
102
RTVSPost2010Prop40
 90
        0
102
RTVSPost2010PropOp40
 70
     1
102
RTVSPost2010Prop41ColorIndex
 90
       18
102
RTVSPost2010Prop41ColorRGB
 90
        0
102
RTVSPost2010PropOp41
 70
     1
102
RTVSPost2010Prop42
 90
       50
102
RTVSPost2010PropOp42
 70
     1
102
RTVSPost2010Prop43
 90
        3
102
RTVSPost2010PropOp43
 70
     1
102
RTVSPost2010Prop44ColorIndex
 90
        5
102
RTVSPost2010Prop44ColorRGB
 90
      255
102
RTVSPost2010PropOp44
 70
     1
102
RTVSPost2010Prop45
280
     0
102
RTVSPost2010PropOp45
 70
     1
102
RTVSPost2010Prop46
 90
       50
102
RTVSPost2010PropOp46
 70
     1
102
RTVSPost2010Prop47
 90
       50
102
RTVSPost2010PropOp47
 70
     1
102
RTVSPost2010Prop48
 90
       50
102
RTVSPost2010PropOp48
 70
     1
102
RTVSPost2010Prop49
280
     0
102
RTVSPost2010PropOp49
 70
     1
102
RTVSPost2010Prop50
 90
       50
102
RTVSPost2010PropOp50
 70
     1
102
RTVSPost2010Prop51ColorIndex
 90
      256
102
RTVSPost2010Prop51ColorRGB
 90
-16777216
102
RTVSPost2010PropOp51
 70
     0
102
RTVSPost2010Prop52
140
1.0
102
RTVSPost2010PropOp52
 70
     0
102
RTVSPost2010Prop53
 90
        2
102
RTVSPost2010PropOp53
 70
     1
102
RTVSPost2010Prop54
  1
strokes_ogs.tif
102
RTVSPost2010PropOp54
 70
     1
102
RTVSPost2010Prop55
280
     0
102
RTVSPost2010PropOp55
 70
     1
102
RTVSPost2010Prop56
140
1.0
102
RTVSPost2010PropOp56
 70
     1
102
RTVSPost2010Prop57
140
1.0
102
RTVSPost2010PropOp57
 70
     1
102
RTVSPropertyOp0
 70
     1
102
RTVSPropertyOp1
 70
     1
102
RTVSPropertyOp2
 70
     1
102
RTVSPropertyOp3
 70
     1
102
RTVSPropertyOp4
 70
     1
102
RTVSPropertyOp5
 70
     1
102
RTVSPropertyOp6
 70
     1
102
RTVSPropertyOp7
 70
     1
102
RTVSPropertyOp8
 70
     1
102
RTVSPropertyOp9
 70
     1
102
RTVSPropertyOp10
 70
     1
102
RTVSPropertyOp11
 70
     1
102
RTVSPropertyOp12
 70
     1
102
RTVSPropertyOp13
 70
     1
102
RTVSPropertyOp14
 70
     1
102
RTVSPropertyOp15
 70
     1
102
RTVSPropertyOp16
 70
     1
102
RTVSPropertyOp17
 70
     1
102
RTVSPropertyOp18
 70
     1
102
RTVSPropertyOp19
 70
     1
102
RTVSPropertyOp20
 70
     1
102
RTVSPropertyOp21
 70
     1
102
RTVSPropertyOp22
 70
     1
102
RTVSPropertyOp23
 70
     1
102
RTVSPropertyOp24
 70
     1
102
RTVSPropertyOp25
 70
     1
102
RTVSPropertyOp26
 70
     1
102
RTVSPropertyOp27
 70
     1
102
RTVSPropertyOp28
 70
     1
102
RTVSPropertyOp29
 70
     1
102
RTVSPropertyOp30
 70
     1
102
RTVSPropertyOp31
 70
     1
102
RTVSPropertyOp32
 70
     1
102
RTVSPropertyOp33
 70
     1
102
RTVSPropertyOp34
 70
     1
102
RTVSPropertyOp35
 70
     1
102
RTVSPropertyOp36
 70
     1
102
RTVSPropertyOp37
 70
     1
102
RTVSPropertyOp38
 70
     1
102
RTVSPropertyOp39
 70
     1
102
RTVSPropertyOp40
 70
     1
102
RTVSPropertyOp41
 70
     1
102
RTVSPropertyOp42
 70
     1
102
RTVSPropertyOp43
 70
     1
102
RTVSPropertyOp44
 70
     1
102
RTVSPropertyOp45
 70
     1
102
RTVSPropertyOp46
 70
     1
102
RTVSPropertyOp47
 70
     1
102
RTVSPropertyOp48
 70
     1
102
RTVSPropertyOp49
 70
     1
102
RTVSPropertyOp50
 70
     1
102
RTVSPropertyOp51
 70
     0
102
RTVSPropertyOp52
 70
     0
102
RTVSPropertyOp53
 70
     1
102
RTVSPropertyOp54
 70
     1
102
RTVSPropertyOp55
 70
     1
102
RTVSPropertyOp56
 70
     1
102
RTVSPropertyOp57
 70
     1
102
RTVSPropertyOp58
 70
     1
102
RTVSPropertyOp59
 70
     1
102
RTVSPropertyOp60
 70
     1
102
RTVSPropertyOp61
 70
     1
102
RTVSPropertyOp62
 70
     1
  0
XRECORD
  5
62E
102
{ACAD_REACTORS
330
62D
102
}
330
62D
100
AcDbXrecord
280
     1
102
RTVSPost2010Prop28
280
     0
102
RTVSPost2010PropOp28
 70
     1
102
RTVSPost2010Prop29
280
     1
102
RTVSPost2010PropOp29
 70
     1
102
RTVSPost2010Prop30
280
     1
102
RTVSPost2010PropOp30
 70
     1
102
RTVSPost2010Prop31
280
     0
102
RTVSPost2010PropOp31
 70
     1
102
RTVSPost2010Prop32
280
     0
102
RTVSPost2010PropOp32
 70
     1
102
RTVSPost2010Prop33
280
     0
102
RTVSPost2010PropOp33
 70
     1
102
RTVSPost2010Prop34
280
     0
102
RTVSPost2010PropOp34
 70
     1
102
RTVSPost2010Prop35
280
     0
102
RTVSPost2010PropOp35
 70
     1
102
RTVSPost2010Prop36
280
     0
102
RTVSPost2010PropOp36
 70
     1
102
RTVSPost2010Prop37
 90
       50
102
RTVSPost2010PropOp37
 70
     1
102
RTVSPost2010Prop38
140
0.0
102
RTVSPost2010PropOp38
 70
     1
102
RTVSPost2010Prop39
140
1.0
102
RTVSPost2010PropOp39
 70
     1
102
RTVSPost2010Prop40
 90
        0
102
RTVSPost2010PropOp40
 70
     1
102
RTVSPost2010Prop41ColorIndex
 90
       18
102
RTVSPost2010Prop41ColorRGB
 90
        0
102
RTVSPost2010PropOp41
 70
     1
102
RTVSPost2010Prop42
 90
       50
102
RTVSPost2010PropOp42
 70
     1
102
RTVSPost2010Prop43
 90
        3
102
RTVSPost2010PropOp43
 70
     1
102
RTVSPost2010Prop44ColorIndex
 90
        5
102
RTVSPost2010Prop44ColorRGB
 90
      255
102
RTVSPost2010PropOp44
 70
     1
102
RTVSPost2010Prop45
280
     0
102
RTVSPost2010PropOp45
 70
     1
102
RTVSPost2010Prop46
 90
       50
102
RTVSPost2010PropOp46
 70
     1
102
RTVSPost2010Prop47
 90
       50
102
RTVSPost2010PropOp47
 70
     1
102
RTVSPost2010Prop48
 90
       50
102
RTVSPost2010PropOp48
 70
     1
102
RTVSPost2010Prop49
280
     0
102
RTVSPost2010PropOp49
 70
     1
102
RTVSPost2010Prop50
 90
       50
102
RTVSPost2010PropOp50
 70
     1
102
RTVSPost2010Prop51ColorIndex
 90
      256
102
RTVSPost2010Prop51ColorRGB
 90
-16777216
102
RTVSPost2010PropOp51
 70
     0
102
RTVSPost2010Prop52
140
1.0
102
RTVSPost2010PropOp52
 70
     0
102
RTVSPost2010Prop53
 90
        2
102
RTVSPost2010PropOp53
 70
     1
102
RTVSPost2010Prop54
  1
strokes_ogs.tif
102
RTVSPost2010PropOp54
 70
     1
102
RTVSPost2010Prop55
280
     0
102
RTVSPost2010PropOp55
 70
     1
102
RTVSPost2010Prop56
140
1.0
102
RTVSPost2010PropOp56
 70
     1
102
RTVSPost2010Prop57
140
1.0
102
RTVSPost2010PropOp57
 70
     1
102
RTVSPropertyOp0
 70
     1
102
RTVSPropertyOp1
 70
     1
102
RTVSPropertyOp2
 70
     1
102
RTVSPropertyOp3
 70
     1
102
RTVSPropertyOp4
 70
     1
102
RTVSPropertyOp5
 70
     1
102
RTVSPropertyOp6
 70
     1
102
RTVSPropertyOp7
 70
     1
102
RTVSPropertyOp8
 70
     1
102
RTVSPropertyOp9
 70
     1
102
RTVSPropertyOp10
 70
     1
102
RTVSPropertyOp11
 70
     1
102
RTVSPropertyOp12
 70
     1
102
RTVSPropertyOp13
 70
     1
102
RTVSPropertyOp14
 70
     1
102
RTVSPropertyOp15
 70
     1
102
RTVSPropertyOp16
 70
     1
102
RTVSPropertyOp17
 70
     1
102
RTVSPropertyOp18
 70
     1
102
RTVSPropertyOp19
 70
     1
102
RTVSPropertyOp20
 70
     1
102
RTVSPropertyOp21
 70
     1
102
RTVSPropertyOp22
 70
     1
102
RTVSPropertyOp23
 70
     1
102
RTVSPropertyOp24
 70
     1
102
RTVSPropertyOp25
 70
     1
102
RTVSPropertyOp26
 70
     1
102
RTVSPropertyOp27
 70
     1
102
RTVSPropertyOp28
 70
     1
102
RTVSPropertyOp29
 70
     1
102
RTVSPropertyOp30
 70
     1
102
RTVSPropertyOp31
 70
     1
102
RTVSPropertyOp32
 70
     1
102
RTVSPropertyOp33
 70
     1
102
RTVSPropertyOp34
 70
     1
102
RTVSPropertyOp35
 70
     1
102
RTVSPropertyOp36
 70
     1
102
RTVSPropertyOp37
 70
     1
102
RTVSPropertyOp38
 70
     1
102
RTVSPropertyOp39
 70
     1
102
RTVSPropertyOp40
 70
     1
102
RTVSPropertyOp41
 70
     1
102
RTVSPropertyOp42
 70
     1
102
RTVSPropertyOp43
 70
     1
102
RTVSPropertyOp44
 70
     1
102
RTVSPropertyOp45
 70
     1
102
RTVSPropertyOp46
 70
     1
102
RTVSPropertyOp47
 70
     1
102
RTVSPropertyOp48
 70
     1
102
RTVSPropertyOp49
 70
     1
102
RTVSPropertyOp50
 70
     1
102
RTVSPropertyOp51
 70
     0
102
RTVSPropertyOp52
 70
     0
102
RTVSPropertyOp53
 70
     1
102
RTVSPropertyOp54
 70
     1
102
RTVSPropertyOp55
 70
     1
102
RTVSPropertyOp56
 70
     1
102
RTVSPropertyOp57
 70
     1
102
RTVSPropertyOp58
 70
     1
102
RTVSPropertyOp59
 70
     1
102
RTVSPropertyOp60
 70
     1
102
RTVSPropertyOp61
 70
     1
102
RTVSPropertyOp62
 70
     1
  0
XRECORD
  5
630
102
{ACAD_REACTORS
330
62F
102
}
330
62F
100
AcDbXrecord
280
     1
102
RTVSPost2010Prop28
280
     0
102
RTVSPost2010PropOp28
 70
     1
102
RTVSPost2010Prop29
280
     1
102
RTVSPost2010PropOp29
 70
     1
102
RTVSPost2010Prop30
280
     1
102
RTVSPost2010PropOp30
 70
     1
102
RTVSPost2010Prop31
280
     0
102
RTVSPost2010PropOp31
 70
     1
102
RTVSPost2010Prop32
280
     0
102
RTVSPost2010PropOp32
 70
     1
102
RTVSPost2010Prop33
280
     0
102
RTVSPost2010PropOp33
 70
     1
102
RTVSPost2010Prop34
280
     0
102
RTVSPost2010PropOp34
 70
     1
102
RTVSPost2010Prop35
280
     0
102
RTVSPost2010PropOp35
 70
     1
102
RTVSPost2010Prop36
280
     0
102
RTVSPost2010PropOp36
 70
     1
102
RTVSPost2010Prop37
 90
       50
102
RTVSPost2010PropOp37
 70
     1
102
RTVSPost2010Prop38
140
0.0
102
RTVSPost2010PropOp38
 70
     1
102
RTVSPost2010Prop39
140
1.0
102
RTVSPost2010PropOp39
 70
     1
102
RTVSPost2010Prop40
 90
        0
102
RTVSPost2010PropOp40
 70
     1
102
RTVSPost2010Prop41ColorIndex
 90
       18
102
RTVSPost2010Prop41ColorRGB
 90
        0
102
RTVSPost2010PropOp41
 70
     1
102
RTVSPost2010Prop42
 90
       50
102
RTVSPost2010PropOp42
 70
     1
102
RTVSPost2010Prop43
 90
        3
102
RTVSPost2010PropOp43
 70
     1
102
RTVSPost2010Prop44ColorIndex
 90
        5
102
RTVSPost2010Prop44ColorRGB
 90
      255
102
RTVSPost2010PropOp44
 70
     1
102
RTVSPost2010Prop45
280
     0
102
RTVSPost2010PropOp45
 70
     1
102
RTVSPost2010Prop46
 90
       50
102
RTVSPost2010PropOp46
 70
     1
102
RTVSPost2010Prop47
 90
       50
102
RTVSPost2010PropOp47
 70
     1
102
RTVSPost2010Prop48
 90
       50
102
RTVSPost2010PropOp48
 70
     1
102
RTVSPost2010Prop49
280
     0
102
RTVSPost2010PropOp49
 70
     1
102
RTVSPost2010Prop50
 90
       50
102
RTVSPost2010PropOp50
 70
     1
102
RTVSPost2010Prop51ColorIndex
 90
      256
102
RTVSPost2010Prop51ColorRGB
 90
-16777216
102
RTVSPost2010PropOp51
 70
     0
102
RTVSPost2010Prop52
140
1.0
102
RTVSPost2010PropOp52
 70
     0
102
RTVSPost2010Prop53
 90
        2
102
RTVSPost2010PropOp53
 70
     1
102
RTVSPost2010Prop54
  1
strokes_ogs.tif
102
RTVSPost2010PropOp54
 70
     1
102
RTVSPost2010Prop55
280
     0
102
RTVSPost2010PropOp55
 70
     1
102
RTVSPost2010Prop56
140
1.0
102
RTVSPost2010PropOp56
 70
     1
102
RTVSPost2010Prop57
140
1.0
102
RTVSPost2010PropOp57
 70
     1
102
RTVSPropertyOp0
 70
     1
102
RTVSPropertyOp1
 70
     1
102
RTVSPropertyOp2
 70
     1
102
RTVSPropertyOp3
 70
     1
102
RTVSPropertyOp4
 70
     1
102
RTVSPropertyOp5
 70
     1
102
RTVSPropertyOp6
 70
     1
102
RTVSPropertyOp7
 70
     1
102
RTVSPropertyOp8
 70
     1
102
RTVSPropertyOp9
 70
     1
102
RTVSPropertyOp10
 70
     1
102
RTVSPropertyOp11
 70
     1
102
RTVSPropertyOp12
 70
     1
102
RTVSPropertyOp13
 70
     1
102
RTVSPropertyOp14
 70
     1
102
RTVSPropertyOp15
 70
     1
102
RTVSPropertyOp16
 70
     1
102
RTVSPropertyOp17
 70
     1
102
RTVSPropertyOp18
 70
     1
102
RTVSPropertyOp19
 70
     1
102
RTVSPropertyOp20
 70
     1
102
RTVSPropertyOp21
 70
     1
102
RTVSPropertyOp22
 70
     1
102
RTVSPropertyOp23
 70
     1
102
RTVSPropertyOp24
 70
     1
102
RTVSPropertyOp25
 70
     1
102
RTVSPropertyOp26
 70
     1
102
RTVSPropertyOp27
 70
     1
102
RTVSPropertyOp28
 70
     1
102
RTVSPropertyOp29
 70
     1
102
RTVSPropertyOp30
 70
     1
102
RTVSPropertyOp31
 70
     1
102
RTVSPropertyOp32
 70
     1
102
RTVSPropertyOp33
 70
     1
102
RTVSPropertyOp34
 70
     1
102
RTVSPropertyOp35
 70
     1
102
RTVSPropertyOp36
 70
     1
102
RTVSPropertyOp37
 70
     1
102
RTVSPropertyOp38
 70
     1
102
RTVSPropertyOp39
 70
     1
102
RTVSPropertyOp40
 70
     1
102
RTVSPropertyOp41
 70
     1
102
RTVSPropertyOp42
 70
     1
102
RTVSPropertyOp43
 70
     1
102
RTVSPropertyOp44
 70
     1
102
RTVSPropertyOp45
 70
     1
102
RTVSPropertyOp46
 70
     1
102
RTVSPropertyOp47
 70
     1
102
RTVSPropertyOp48
 70
     1
102
RTVSPropertyOp49
 70
     1
102
RTVSPropertyOp50
 70
     1
102
RTVSPropertyOp51
 70
     0
102
RTVSPropertyOp52
 70
     0
102
RTVSPropertyOp53
 70
     1
102
RTVSPropertyOp54
 70
     1
102
RTVSPropertyOp55
 70
     1
102
RTVSPropertyOp56
 70
     1
102
RTVSPropertyOp57
 70
     1
102
RTVSPropertyOp58
 70
     1
102
RTVSPropertyOp59
 70
     1
102
RTVSPropertyOp60
 70
     1
102
RTVSPropertyOp61
 70
     1
102
RTVSPropertyOp62
 70
     1
  0
XRECORD
  5
638
102
{ACAD_REACTORS
330
637
102
}
330
637
100
AcDbXrecord
280
     1
102
RTVSPost2010Prop28
280
     0
102
RTVSPost2010PropOp28
 70
     1
102
RTVSPost2010Prop29
280
     1
102
RTVSPost2010PropOp29
 70
     1
102
RTVSPost2010Prop30
280
     1
102
RTVSPost2010PropOp30
 70
     1
102
RTVSPost2010Prop31
280
     0
102
RTVSPost2010PropOp31
 70
     1
102
RTVSPost2010Prop32
280
     0
102
RTVSPost2010PropOp32
 70
     1
102
RTVSPost2010Prop33
280
     0
102
RTVSPost2010PropOp33
 70
     1
102
RTVSPost2010Prop34
280
     0
102
RTVSPost2010PropOp34
 70
     1
102
RTVSPost2010Prop35
280
     0
102
RTVSPost2010PropOp35
 70
     1
102
RTVSPost2010Prop36
280
     0
102
RTVSPost2010PropOp36
 70
     1
102
RTVSPost2010Prop37
 90
       50
102
RTVSPost2010PropOp37
 70
     1
102
RTVSPost2010Prop38
140
0.0
102
RTVSPost2010PropOp38
 70
     1
102
RTVSPost2010Prop39
140
1.0
102
RTVSPost2010PropOp39
 70
     1
102
RTVSPost2010Prop40
 90
        0
102
RTVSPost2010PropOp40
 70
     1
102
RTVSPost2010Prop41ColorIndex
 90
       18
102
RTVSPost2010Prop41ColorRGB
 90
        0
102
RTVSPost2010PropOp41
 70
     1
102
RTVSPost2010Prop42
 90
       50
102
RTVSPost2010PropOp42
 70
     1
102
RTVSPost2010Prop43
 90
        3
102
RTVSPost2010PropOp43
 70
     1
102
RTVSPost2010Prop44ColorIndex
 90
        5
102
RTVSPost2010Prop44ColorRGB
 90
      255
102
RTVSPost2010PropOp44
 70
     1
102
RTVSPost2010Prop45
280
     0
102
RTVSPost2010PropOp45
 70
     1
102
RTVSPost2010Prop46
 90
       50
102
RTVSPost2010PropOp46
 70
     1
102
RTVSPost2010Prop47
 90
       50
102
RTVSPost2010PropOp47
 70
     1
102
RTVSPost2010Prop48
 90
       50
102
RTVSPost2010PropOp48
 70
     1
102
RTVSPost2010Prop49
280
     0
102
RTVSPost2010PropOp49
 70
     1
102
RTVSPost2010Prop50
 90
       50
102
RTVSPost2010PropOp50
 70
     1
102
RTVSPost2010Prop51ColorIndex
 90
      256
102
RTVSPost2010Prop51ColorRGB
 90
-16777216
102
RTVSPost2010PropOp51
 70
     0
102
RTVSPost2010Prop52
140
1.0
102
RTVSPost2010PropOp52
 70
     0
102
RTVSPost2010Prop53
 90
        2
102
RTVSPost2010PropOp53
 70
     1
102
RTVSPost2010Prop54
  1
strokes_ogs.tif
102
RTVSPost2010PropOp54
 70
     1
102
RTVSPost2010Prop55
280
     0
102
RTVSPost2010PropOp55
 70
     1
102
RTVSPost2010Prop56
140
1.0
102
RTVSPost2010PropOp56
 70
     1
102
RTVSPost2010Prop57
140
1.0
102
RTVSPost2010PropOp57
 70
     1
102
RTVSPropertyOp0
 70
     1
102
RTVSPropertyOp1
 70
     1
102
RTVSPropertyOp2
 70
     1
102
RTVSPropertyOp3
 70
     1
102
RTVSPropertyOp4
 70
     1
102
RTVSPropertyOp5
 70
     1
102
RTVSPropertyOp6
 70
     1
102
RTVSPropertyOp7
 70
     1
102
RTVSPropertyOp8
 70
     1
102
RTVSPropertyOp9
 70
     1
102
RTVSPropertyOp10
 70
     1
102
RTVSPropertyOp11
 70
     1
102
RTVSPropertyOp12
 70
     1
102
RTVSPropertyOp13
 70
     1
102
RTVSPropertyOp14
 70
     1
102
RTVSPropertyOp15
 70
     1
102
RTVSPropertyOp16
 70
     1
102
RTVSPropertyOp17
 70
     1
102
RTVSPropertyOp18
 70
     1
102
RTVSPropertyOp19
 70
     1
102
RTVSPropertyOp20
 70
     1
102
RTVSPropertyOp21
 70
     1
102
RTVSPropertyOp22
 70
     1
102
RTVSPropertyOp23
 70
     1
102
RTVSPropertyOp24
 70
     1
102
RTVSPropertyOp25
 70
     1
102
RTVSPropertyOp26
 70
     1
102
RTVSPropertyOp27
 70
     1
102
RTVSPropertyOp28
 70
     1
102
RTVSPropertyOp29
 70
     1
102
RTVSPropertyOp30
 70
     1
102
RTVSPropertyOp31
 70
     1
102
RTVSPropertyOp32
 70
     1
102
RTVSPropertyOp33
 70
     1
102
RTVSPropertyOp34
 70
     1
102
RTVSPropertyOp35
 70
     1
102
RTVSPropertyOp36
 70
     1
102
RTVSPropertyOp37
 70
     1
102
RTVSPropertyOp38
 70
     1
102
RTVSPropertyOp39
 70
     1
102
RTVSPropertyOp40
 70
     1
102
RTVSPropertyOp41
 70
     1
102
RTVSPropertyOp42
 70
     1
102
RTVSPropertyOp43
 70
     1
102
RTVSPropertyOp44
 70
     1
102
RTVSPropertyOp45
 70
     1
102
RTVSPropertyOp46
 70
     1
102
RTVSPropertyOp47
 70
     1
102
RTVSPropertyOp48
 70
     1
102
RTVSPropertyOp49
 70
     1
102
RTVSPropertyOp50
 70
     1
102
RTVSPropertyOp51
 70
     0
102
RTVSPropertyOp52
 70
     0
102
RTVSPropertyOp53
 70
     1
102
RTVSPropertyOp54
 70
     1
102
RTVSPropertyOp55
 70
     1
102
RTVSPropertyOp56
 70
     1
102
RTVSPropertyOp57
 70
     1
102
RTVSPropertyOp58
 70
     1
102
RTVSPropertyOp59
 70
     1
102
RTVSPropertyOp60
 70
     1
102
RTVSPropertyOp61
 70
     1
102
RTVSPropertyOp62
 70
     1
  0
XRECORD
  5
654
102
{ACAD_REACTORS
330
653
102
}
330
653
100
AcDbXrecord
280
     1
102
RTVSPost2010Prop28
280
     0
102
RTVSPost2010PropOp28
 70
     1
102
RTVSPost2010Prop29
280
     1
102
RTVSPost2010PropOp29
 70
     1
102
RTVSPost2010Prop30
280
     1
102
RTVSPost2010PropOp30
 70
     1
102
RTVSPost2010Prop31
280
     0
102
RTVSPost2010PropOp31
 70
     1
102
RTVSPost2010Prop32
280
     0
102
RTVSPost2010PropOp32
 70
     1
102
RTVSPost2010Prop33
280
     0
102
RTVSPost2010PropOp33
 70
     1
102
RTVSPost2010Prop34
280
     0
102
RTVSPost2010PropOp34
 70
     1
102
RTVSPost2010Prop35
280
     0
102
RTVSPost2010PropOp35
 70
     1
102
RTVSPost2010Prop36
280
     0
102
RTVSPost2010PropOp36
 70
     1
102
RTVSPost2010Prop37
 90
       50
102
RTVSPost2010PropOp37
 70
     0
102
RTVSPost2010Prop38
140
0.0
102
RTVSPost2010PropOp38
 70
     0
102
RTVSPost2010Prop39
140
1.0
102
RTVSPost2010PropOp39
 70
     0
102
RTVSPost2010Prop40
 90
        0
102
RTVSPost2010PropOp40
 70
     0
102
RTVSPost2010Prop41ColorIndex
 90
       18
102
RTVSPost2010Prop41ColorRGB
 90
        0
102
RTVSPost2010PropOp41
 70
     0
102
RTVSPost2010Prop42
 90
       50
102
RTVSPost2010PropOp42
 70
     0
102
RTVSPost2010Prop43
 90
        3
102
RTVSPost2010PropOp43
 70
     0
102
RTVSPost2010Prop44ColorIndex
 90
        5
102
RTVSPost2010Prop44ColorRGB
 90
      255
102
RTVSPost2010PropOp44
 70
     0
102
RTVSPost2010Prop45
280
     0
102
RTVSPost2010PropOp45
 70
     1
102
RTVSPost2010Prop46
 90
       50
102
RTVSPost2010PropOp46
 70
     0
102
RTVSPost2010Prop47
 90
       50
102
RTVSPost2010PropOp47
 70
     0
102
RTVSPost2010Prop48
 90
       50
102
RTVSPost2010PropOp48
 70
     0
102
RTVSPost2010Prop49
280
     0
102
RTVSPost2010PropOp49
 70
     1
102
RTVSPost2010Prop50
 90
       50
102
RTVSPost2010PropOp50
 70
     0
102
RTVSPost2010Prop51ColorIndex
 90
      256
102
RTVSPost2010Prop51ColorRGB
 90
-16777216
102
RTVSPost2010PropOp51
 70
     0
102
RTVSPost2010Prop52
140
1.0
102
RTVSPost2010PropOp52
 70
     0
102
RTVSPost2010Prop53
 90
        2
102
RTVSPost2010PropOp53
 70
     0
102
RTVSPost2010Prop54
  1
strokes_ogs.tif
102
RTVSPost2010PropOp54
 70
     0
102
RTVSPost2010Prop55
280
     0
102
RTVSPost2010PropOp55
 70
     1
102
RTVSPost2010Prop56
140
1.0
102
RTVSPost2010PropOp56
 70
     0
102
RTVSPost2010Prop57
140
1.0
102
RTVSPost2010PropOp57
 70
     0
102
RTVSPropertyOp0
 70
     0
102
RTVSPropertyOp1
 70
     0
102
RTVSPropertyOp2
 70
     0
102
RTVSPropertyOp3
 70
     0
102
RTVSPropertyOp4
 70
     0
102
RTVSPropertyOp5
 70
     0
102
RTVSPropertyOp6
 70
     0
102
RTVSPropertyOp7
 70
     0
102
RTVSPropertyOp8
 70
     0
102
RTVSPropertyOp9
 70
     0
102
RTVSPropertyOp10
 70
     0
102
RTVSPropertyOp11
 70
     0
102
RTVSPropertyOp12
 70
     0
102
RTVSPropertyOp13
 70
     0
102
RTVSPropertyOp14
 70
     2
102
RTVSPropertyOp15
 70
     0
102
RTVSPropertyOp16
 70
     0
102
RTVSPropertyOp17
 70
     0
102
RTVSPropertyOp18
 70
     0
102
RTVSPropertyOp19
 70
     0
102
RTVSPropertyOp20
 70
     0
102
RTVSPropertyOp21
 70
     0
102
RTVSPropertyOp22
 70
     0
102
RTVSPropertyOp23
 70
     0
102
RTVSPropertyOp24
 70
     0
102
RTVSPropertyOp25
 70
     0
102
RTVSPropertyOp26
 70
     0
102
RTVSPropertyOp27
 70
     0
102
RTVSPropertyOp28
 70
     1
102
RTVSPropertyOp29
 70
     1
102
RTVSPropertyOp30
 70
     1
102
RTVSPropertyOp31
 70
     1
102
RTVSPropertyOp32
 70
     1
102
RTVSPropertyOp33
 70
     1
102
RTVSPropertyOp34
 70
     1
102
RTVSPropertyOp35
 70
     1
102
RTVSPropertyOp36
 70
     1
102
RTVSPropertyOp37
 70
     0
102
RTVSPropertyOp38
 70
     0
102
RTVSPropertyOp39
 70
     0
102
RTVSPropertyOp40
 70
     0
102
RTVSPropertyOp41
 70
     0
102
RTVSPropertyOp42
 70
     0
102
RTVSPropertyOp43
 70
     0
102
RTVSPropertyOp44
 70
     0
102
RTVSPropertyOp45
 70
     1
102
RTVSPropertyOp46
 70
     0
102
RTVSPropertyOp47
 70
     0
102
RTVSPropertyOp48
 70
     0
102
RTVSPropertyOp49
 70
     1
102
RTVSPropertyOp50
 70
     0
102
RTVSPropertyOp51
 70
     0
102
RTVSPropertyOp52
 70
     0
102
RTVSPropertyOp53
 70
     0
102
RTVSPropertyOp54
 70
     0
102
RTVSPropertyOp55
 70
     1
102
RTVSPropertyOp56
 70
     0
102
RTVSPropertyOp57
 70
     0
102
RTVSPropertyOp58
 70
     0
102
RTVSPropertyOp59
 70
     0
102
RTVSPropertyOp60
 70
     0
102
RTVSPropertyOp61
 70
     0
102
RTVSPropertyOp62
 70
     0
  0
XRECORD
  5
644
102
{ACAD_REACTORS
330
643
102
}
330
643
100
AcDbXrecord
280
     1
102
RTVSPost2010Prop28
280
     0
102
RTVSPost2010PropOp28
 70
     1
102
RTVSPost2010Prop29
280
     1
102
RTVSPost2010PropOp29
 70
     1
102
RTVSPost2010Prop30
280
     1
102
RTVSPost2010PropOp30
 70
     1
102
RTVSPost2010Prop31
280
     0
102
RTVSPost2010PropOp31
 70
     1
102
RTVSPost2010Prop32
280
     0
102
RTVSPost2010PropOp32
 70
     1
102
RTVSPost2010Prop33
280
     0
102
RTVSPost2010PropOp33
 70
     1
102
RTVSPost2010Prop34
280
     0
102
RTVSPost2010PropOp34
 70
     1
102
RTVSPost2010Prop35
280
     0
102
RTVSPost2010PropOp35
 70
     1
102
RTVSPost2010Prop36
280
     0
102
RTVSPost2010PropOp36
 70
     1
102
RTVSPost2010Prop37
 90
       50
102
RTVSPost2010PropOp37
 70
     1
102
RTVSPost2010Prop38
140
0.0
102
RTVSPost2010PropOp38
 70
     1
102
RTVSPost2010Prop39
140
1.0
102
RTVSPost2010PropOp39
 70
     1
102
RTVSPost2010Prop40
 90
        0
102
RTVSPost2010PropOp40
 70
     1
102
RTVSPost2010Prop41ColorIndex
 90
       18
102
RTVSPost2010Prop41ColorRGB
 90
        0
102
RTVSPost2010PropOp41
 70
     1
102
RTVSPost2010Prop42
 90
       50
102
RTVSPost2010PropOp42
 70
     1
102
RTVSPost2010Prop43
 90
        3
102
RTVSPost2010PropOp43
 70
     1
102
RTVSPost2010Prop44ColorIndex
 90
        5
102
RTVSPost2010Prop44ColorRGB
 90
      255
102
RTVSPost2010PropOp44
 70
     1
102
RTVSPost2010Prop45
280
     0
102
RTVSPost2010PropOp45
 70
     1
102
RTVSPost2010Prop46
 90
       50
102
RTVSPost2010PropOp46
 70
     1
102
RTVSPost2010Prop47
 90
       50
102
RTVSPost2010PropOp47
 70
     1
102
RTVSPost2010Prop48
 90
       50
102
RTVSPost2010PropOp48
 70
     1
102
RTVSPost2010Prop49
280
     0
102
RTVSPost2010PropOp49
 70
     1
102
RTVSPost2010Prop50
 90
       50
102
RTVSPost2010PropOp50
 70
     1
102
RTVSPost2010Prop51ColorIndex
 90
      256
102
RTVSPost2010Prop51ColorRGB
 90
-16777216
102
RTVSPost2010PropOp51
 70
     0
102
RTVSPost2010Prop52
140
1.0
102
RTVSPost2010PropOp52
 70
     0
102
RTVSPost2010Prop53
 90
        2
102
RTVSPost2010PropOp53
 70
     1
102
RTVSPost2010Prop54
  1
strokes_ogs.tif
102
RTVSPost2010PropOp54
 70
     1
102
RTVSPost2010Prop55
280
     0
102
RTVSPost2010PropOp55
 70
     1
102
RTVSPost2010Prop56
140
1.0
102
RTVSPost2010PropOp56
 70
     1
102
RTVSPost2010Prop57
140
1.0
102
RTVSPost2010PropOp57
 70
     1
102
RTVSPropertyOp0
 70
     1
102
RTVSPropertyOp1
 70
     1
102
RTVSPropertyOp2
 70
     1
102
RTVSPropertyOp3
 70
     1
102
RTVSPropertyOp4
 70
     1
102
RTVSPropertyOp5
 70
     1
102
RTVSPropertyOp6
 70
     1
102
RTVSPropertyOp7
 70
     1
102
RTVSPropertyOp8
 70
     1
102
RTVSPropertyOp9
 70
     1
102
RTVSPropertyOp10
 70
     1
102
RTVSPropertyOp11
 70
     1
102
RTVSPropertyOp12
 70
     1
102
RTVSPropertyOp13
 70
     1
102
RTVSPropertyOp14
 70
     1
102
RTVSPropertyOp15
 70
     1
102
RTVSPropertyOp16
 70
     1
102
RTVSPropertyOp17
 70
     1
102
RTVSPropertyOp18
 70
     1
102
RTVSPropertyOp19
 70
     1
102
RTVSPropertyOp20
 70
     1
102
RTVSPropertyOp21
 70
     1
102
RTVSPropertyOp22
 70
     1
102
RTVSPropertyOp23
 70
     1
102
RTVSPropertyOp24
 70
     1
102
RTVSPropertyOp25
 70
     1
102
RTVSPropertyOp26
 70
     1
102
RTVSPropertyOp27
 70
     1
102
RTVSPropertyOp28
 70
     1
102
RTVSPropertyOp29
 70
     1
102
RTVSPropertyOp30
 70
     1
102
RTVSPropertyOp31
 70
     1
102
RTVSPropertyOp32
 70
     1
102
RTVSPropertyOp33
 70
     1
102
RTVSPropertyOp34
 70
     1
102
RTVSPropertyOp35
 70
     1
102
RTVSPropertyOp36
 70
     1
102
RTVSPropertyOp37
 70
     1
102
RTVSPropertyOp38
 70
     1
102
RTVSPropertyOp39
 70
     1
102
RTVSPropertyOp40
 70
     1
102
RTVSPropertyOp41
 70
     1
102
RTVSPropertyOp42
 70
     1
102
RTVSPropertyOp43
 70
     1
102
RTVSPropertyOp44
 70
     1
102
RTVSPropertyOp45
 70
     1
102
RTVSPropertyOp46
 70
     1
102
RTVSPropertyOp47
 70
     1
102
RTVSPropertyOp48
 70
     1
102
RTVSPropertyOp49
 70
     1
102
RTVSPropertyOp50
 70
     1
102
RTVSPropertyOp51
 70
     0
102
RTVSPropertyOp52
 70
     0
102
RTVSPropertyOp53
 70
     1
102
RTVSPropertyOp54
 70
     1
102
RTVSPropertyOp55
 70
     1
102
RTVSPropertyOp56
 70
     1
102
RTVSPropertyOp57
 70
     1
102
RTVSPropertyOp58
 70
     1
102
RTVSPropertyOp59
 70
     1
102
RTVSPropertyOp60
 70
     1
102
RTVSPropertyOp61
 70
     1
102
RTVSPropertyOp62
 70
     1
  0
XRECORD
  5
656
102
{ACAD_REACTORS
330
655
102
}
330
655
100
AcDbXrecord
280
     1
102
RTVSPost2010Prop28
280
     0
102
RTVSPost2010PropOp28
 70
     1
102
RTVSPost2010Prop29
280
     1
102
RTVSPost2010PropOp29
 70
     1
102
RTVSPost2010Prop30
280
     1
102
RTVSPost2010PropOp30
 70
     1
102
RTVSPost2010Prop31
280
     0
102
RTVSPost2010PropOp31
 70
     1
102
RTVSPost2010Prop32
280
     0
102
RTVSPost2010PropOp32
 70
     1
102
RTVSPost2010Prop33
280
     0
102
RTVSPost2010PropOp33
 70
     1
102
RTVSPost2010Prop34
280
     0
102
RTVSPost2010PropOp34
 70
     1
102
RTVSPost2010Prop35
280
     0
102
RTVSPost2010PropOp35
 70
     1
102
RTVSPost2010Prop36
280
     0
102
RTVSPost2010PropOp36
 70
     1
102
RTVSPost2010Prop37
 90
       50
102
RTVSPost2010PropOp37
 70
     0
102
RTVSPost2010Prop38
140
0.0
102
RTVSPost2010PropOp38
 70
     0
102
RTVSPost2010Prop39
140
1.0
102
RTVSPost2010PropOp39
 70
     0
102
RTVSPost2010Prop40
 90
        0
102
RTVSPost2010PropOp40
 70
     0
102
RTVSPost2010Prop41ColorIndex
 90
       18
102
RTVSPost2010Prop41ColorRGB
 90
        0
102
RTVSPost2010PropOp41
 70
     0
102
RTVSPost2010Prop42
 90
       50
102
RTVSPost2010PropOp42
 70
     0
102
RTVSPost2010Prop43
 90
        3
102
RTVSPost2010PropOp43
 70
     0
102
RTVSPost2010Prop44ColorIndex
 90
        5
102
RTVSPost2010Prop44ColorRGB
 90
      255
102
RTVSPost2010PropOp44
 70
     0
102
RTVSPost2010Prop45
280
     0
102
RTVSPost2010PropOp45
 70
     1
102
RTVSPost2010Prop46
 90
       50
102
RTVSPost2010PropOp46
 70
     0
102
RTVSPost2010Prop47
 90
       50
102
RTVSPost2010PropOp47
 70
     0
102
RTVSPost2010Prop48
 90
       50
102
RTVSPost2010PropOp48
 70
     0
102
RTVSPost2010Prop49
280
     0
102
RTVSPost2010PropOp49
 70
     1
102
RTVSPost2010Prop50
 90
       50
102
RTVSPost2010PropOp50
 70
     0
102
RTVSPost2010Prop51ColorIndex
 90
      256
102
RTVSPost2010Prop51ColorRGB
 90
-16777216
102
RTVSPost2010PropOp51
 70
     0
102
RTVSPost2010Prop52
140
1.0
102
RTVSPost2010PropOp52
 70
     0
102
RTVSPost2010Prop53
 90
        2
102
RTVSPost2010PropOp53
 70
     0
102
RTVSPost2010Prop54
  1
strokes_ogs.tif
102
RTVSPost2010PropOp54
 70
     0
102
RTVSPost2010Prop55
280
     0
102
RTVSPost2010PropOp55
 70
     1
102
RTVSPost2010Prop56
140
1.0
102
RTVSPost2010PropOp56
 70
     0
102
RTVSPost2010Prop57
140
1.0
102
RTVSPost2010PropOp57
 70
     0
102
RTVSPropertyOp0
 70
     0
102
RTVSPropertyOp1
 70
     0
102
RTVSPropertyOp2
 70
     0
102
RTVSPropertyOp3
 70
     0
102
RTVSPropertyOp4
 70
     0
102
RTVSPropertyOp5
 70
     0
102
RTVSPropertyOp6
 70
     0
102
RTVSPropertyOp7
 70
     0
102
RTVSPropertyOp8
 70
     0
102
RTVSPropertyOp9
 70
     0
102
RTVSPropertyOp10
 70
     0
102
RTVSPropertyOp11
 70
     0
102
RTVSPropertyOp12
 70
     0
102
RTVSPropertyOp13
 70
     0
102
RTVSPropertyOp14
 70
     2
102
RTVSPropertyOp15
 70
     0
102
RTVSPropertyOp16
 70
     0
102
RTVSPropertyOp17
 70
     0
102
RTVSPropertyOp18
 70
     0
102
RTVSPropertyOp19
 70
     0
102
RTVSPropertyOp20
 70
     0
102
RTVSPropertyOp21
 70
     0
102
RTVSPropertyOp22
 70
     0
102
RTVSPropertyOp23
 70
     0
102
RTVSPropertyOp24
 70
     0
102
RTVSPropertyOp25
 70
     0
102
RTVSPropertyOp26
 70
     0
102
RTVSPropertyOp27
 70
     0
102
RTVSPropertyOp28
 70
     1
102
RTVSPropertyOp29
 70
     1
102
RTVSPropertyOp30
 70
     1
102
RTVSPropertyOp31
 70
     1
102
RTVSPropertyOp32
 70
     1
102
RTVSPropertyOp33
 70
     1
102
RTVSPropertyOp34
 70
     1
102
RTVSPropertyOp35
 70
     1
102
RTVSPropertyOp36
 70
     1
102
RTVSPropertyOp37
 70
     0
102
RTVSPropertyOp38
 70
     0
102
RTVSPropertyOp39
 70
     0
102
RTVSPropertyOp40
 70
     0
102
RTVSPropertyOp41
 70
     0
102
RTVSPropertyOp42
 70
     0
102
RTVSPropertyOp43
 70
     0
102
RTVSPropertyOp44
 70
     0
102
RTVSPropertyOp45
 70
     1
102
RTVSPropertyOp46
 70
     0
102
RTVSPropertyOp47
 70
     0
102
RTVSPropertyOp48
 70
     0
102
RTVSPropertyOp49
 70
     1
102
RTVSPropertyOp50
 70
     0
102
RTVSPropertyOp51
 70
     0
102
RTVSPropertyOp52
 70
     0
102
RTVSPropertyOp53
 70
     0
102
RTVSPropertyOp54
 70
     0
102
RTVSPropertyOp55
 70
     1
102
RTVSPropertyOp56
 70
     0
102
RTVSPropertyOp57
 70
     0
102
RTVSPropertyOp58
 70
     0
102
RTVSPropertyOp59
 70
     0
102
RTVSPropertyOp60
 70
     0
102
RTVSPropertyOp61
 70
     0
102
RTVSPropertyOp62
 70
     0
  0
XRECORD
  5
63C
102
{ACAD_REACTORS
330
63B
102
}
330
63B
100
AcDbXrecord
280
     1
102
RTVSPost2010Prop28
280
     0
102
RTVSPost2010PropOp28
 70
     1
102
RTVSPost2010Prop29
280
     1
102
RTVSPost2010PropOp29
 70
     1
102
RTVSPost2010Prop30
280
     1
102
RTVSPost2010PropOp30
 70
     1
102
RTVSPost2010Prop31
280
     0
102
RTVSPost2010PropOp31
 70
     1
102
RTVSPost2010Prop32
280
     0
102
RTVSPost2010PropOp32
 70
     1
102
RTVSPost2010Prop33
280
     0
102
RTVSPost2010PropOp33
 70
     1
102
RTVSPost2010Prop34
280
     0
102
RTVSPost2010PropOp34
 70
     1
102
RTVSPost2010Prop35
280
     0
102
RTVSPost2010PropOp35
 70
     1
102
RTVSPost2010Prop36
280
     0
102
RTVSPost2010PropOp36
 70
     1
102
RTVSPost2010Prop37
 90
       50
102
RTVSPost2010PropOp37
 70
     1
102
RTVSPost2010Prop38
140
0.0
102
RTVSPost2010PropOp38
 70
     1
102
RTVSPost2010Prop39
140
1.0
102
RTVSPost2010PropOp39
 70
     1
102
RTVSPost2010Prop40
 90
        0
102
RTVSPost2010PropOp40
 70
     1
102
RTVSPost2010Prop41ColorIndex
 90
       18
102
RTVSPost2010Prop41ColorRGB
 90
        0
102
RTVSPost2010PropOp41
 70
     1
102
RTVSPost2010Prop42
 90
       50
102
RTVSPost2010PropOp42
 70
     1
102
RTVSPost2010Prop43
 90
        3
102
RTVSPost2010PropOp43
 70
     1
102
RTVSPost2010Prop44ColorIndex
 90
        5
102
RTVSPost2010Prop44ColorRGB
 90
      255
102
RTVSPost2010PropOp44
 70
     1
102
RTVSPost2010Prop45
280
     0
102
RTVSPost2010PropOp45
 70
     1
102
RTVSPost2010Prop46
 90
       50
102
RTVSPost2010PropOp46
 70
     1
102
RTVSPost2010Prop47
 90
       50
102
RTVSPost2010PropOp47
 70
     1
102
RTVSPost2010Prop48
 90
       50
102
RTVSPost2010PropOp48
 70
     1
102
RTVSPost2010Prop49
280
     0
102
RTVSPost2010PropOp49
 70
     1
102
RTVSPost2010Prop50
 90
       50
102
RTVSPost2010PropOp50
 70
     1
102
RTVSPost2010Prop51ColorIndex
 90
      256
102
RTVSPost2010Prop51ColorRGB
 90
-16777216
102
RTVSPost2010PropOp51
 70
     0
102
RTVSPost2010Prop52
140
1.0
102
RTVSPost2010PropOp52
 70
     0
102
RTVSPost2010Prop53
 90
        2
102
RTVSPost2010PropOp53
 70
     1
102
RTVSPost2010Prop54
  1
strokes_ogs.tif
102
RTVSPost2010PropOp54
 70
     1
102
RTVSPost2010Prop55
280
     0
102
RTVSPost2010PropOp55
 70
     1
102
RTVSPost2010Prop56
140
1.0
102
RTVSPost2010PropOp56
 70
     1
102
RTVSPost2010Prop57
140
1.0
102
RTVSPost2010PropOp57
 70
     1
102
RTVSPropertyOp0
 70
     1
102
RTVSPropertyOp1
 70
     1
102
RTVSPropertyOp2
 70
     1
102
RTVSPropertyOp3
 70
     1
102
RTVSPropertyOp4
 70
     1
102
RTVSPropertyOp5
 70
     1
102
RTVSPropertyOp6
 70
     1
102
RTVSPropertyOp7
 70
     1
102
RTVSPropertyOp8
 70
     1
102
RTVSPropertyOp9
 70
     1
102
RTVSPropertyOp10
 70
     1
102
RTVSPropertyOp11
 70
     1
102
RTVSPropertyOp12
 70
     1
102
RTVSPropertyOp13
 70
     1
102
RTVSPropertyOp14
 70
     1
102
RTVSPropertyOp15
 70
     1
102
RTVSPropertyOp16
 70
     1
102
RTVSPropertyOp17
 70
     1
102
RTVSPropertyOp18
 70
     1
102
RTVSPropertyOp19
 70
     1
102
RTVSPropertyOp20
 70
     1
102
RTVSPropertyOp21
 70
     1
102
RTVSPropertyOp22
 70
     1
102
RTVSPropertyOp23
 70
     1
102
RTVSPropertyOp24
 70
     1
102
RTVSPropertyOp25
 70
     1
102
RTVSPropertyOp26
 70
     1
102
RTVSPropertyOp27
 70
     1
102
RTVSPropertyOp28
 70
     1
102
RTVSPropertyOp29
 70
     1
102
RTVSPropertyOp30
 70
     1
102
RTVSPropertyOp31
 70
     1
102
RTVSPropertyOp32
 70
     1
102
RTVSPropertyOp33
 70
     1
102
RTVSPropertyOp34
 70
     1
102
RTVSPropertyOp35
 70
     1
102
RTVSPropertyOp36
 70
     1
102
RTVSPropertyOp37
 70
     1
102
RTVSPropertyOp38
 70
     1
102
RTVSPropertyOp39
 70
     1
102
RTVSPropertyOp40
 70
     1
102
RTVSPropertyOp41
 70
     1
102
RTVSPropertyOp42
 70
     1
102
RTVSPropertyOp43
 70
     1
102
RTVSPropertyOp44
 70
     1
102
RTVSPropertyOp45
 70
     1
102
RTVSPropertyOp46
 70
     1
102
RTVSPropertyOp47
 70
     1
102
RTVSPropertyOp48
 70
     1
102
RTVSPropertyOp49
 70
     1
102
RTVSPropertyOp50
 70
     1
102
RTVSPropertyOp51
 70
     0
102
RTVSPropertyOp52
 70
     0
102
RTVSPropertyOp53
 70
     1
102
RTVSPropertyOp54
 70
     1
102
RTVSPropertyOp55
 70
     1
102
RTVSPropertyOp56
 70
     1
102
RTVSPropertyOp57
 70
     1
102
RTVSPropertyOp58
 70
     1
102
RTVSPropertyOp59
 70
     1
102
RTVSPropertyOp60
 70
     1
102
RTVSPropertyOp61
 70
     1
102
RTVSPropertyOp62
 70
     1
  0
XRECORD
  5
652
102
{ACAD_REACTORS
330
651
102
}
330
651
100
AcDbXrecord
280
     1
102
RTVSPost2010Prop28
280
     0
102
RTVSPost2010PropOp28
 70
     1
102
RTVSPost2010Prop29
280
     1
102
RTVSPost2010PropOp29
 70
     1
102
RTVSPost2010Prop30
280
     1
102
RTVSPost2010PropOp30
 70
     1
102
RTVSPost2010Prop31
280
     0
102
RTVSPost2010PropOp31
 70
     1
102
RTVSPost2010Prop32
280
     0
102
RTVSPost2010PropOp32
 70
     1
102
RTVSPost2010Prop33
280
     0
102
RTVSPost2010PropOp33
 70
     1
102
RTVSPost2010Prop34
280
     0
102
RTVSPost2010PropOp34
 70
     1
102
RTVSPost2010Prop35
280
     0
102
RTVSPost2010PropOp35
 70
     1
102
RTVSPost2010Prop36
280
     0
102
RTVSPost2010PropOp36
 70
     1
102
RTVSPost2010Prop37
 90
       50
102
RTVSPost2010PropOp37
 70
     1
102
RTVSPost2010Prop38
140
0.0
102
RTVSPost2010PropOp38
 70
     1
102
RTVSPost2010Prop39
140
1.0
102
RTVSPost2010PropOp39
 70
     1
102
RTVSPost2010Prop40
 90
        0
102
RTVSPost2010PropOp40
 70
     1
102
RTVSPost2010Prop41ColorIndex
 90
       18
102
RTVSPost2010Prop41ColorRGB
 90
        0
102
RTVSPost2010PropOp41
 70
     1
102
RTVSPost2010Prop42
 90
       50
102
RTVSPost2010PropOp42
 70
     1
102
RTVSPost2010Prop43
 90
        3
102
RTVSPost2010PropOp43
 70
     1
102
RTVSPost2010Prop44ColorIndex
 90
        5
102
RTVSPost2010Prop44ColorRGB
 90
      255
102
RTVSPost2010PropOp44
 70
     1
102
RTVSPost2010Prop45
280
     0
102
RTVSPost2010PropOp45
 70
     1
102
RTVSPost2010Prop46
 90
       50
102
RTVSPost2010PropOp46
 70
     1
102
RTVSPost2010Prop47
 90
       50
102
RTVSPost2010PropOp47
 70
     1
102
RTVSPost2010Prop48
 90
       50
102
RTVSPost2010PropOp48
 70
     1
102
RTVSPost2010Prop49
280
     0
102
RTVSPost2010PropOp49
 70
     1
102
RTVSPost2010Prop50
 90
       50
102
RTVSPost2010PropOp50
 70
     1
102
RTVSPost2010Prop51ColorIndex
 90
      256
102
RTVSPost2010Prop51ColorRGB
 90
-16777216
102
RTVSPost2010PropOp51
 70
     0
102
RTVSPost2010Prop52
140
1.0
102
RTVSPost2010PropOp52
 70
     0
102
RTVSPost2010Prop53
 90
        2
102
RTVSPost2010PropOp53
 70
     1
102
RTVSPost2010Prop54
  1
strokes_ogs.tif
102
RTVSPost2010PropOp54
 70
     1
102
RTVSPost2010Prop55
280
     0
102
RTVSPost2010PropOp55
 70
     1
102
RTVSPost2010Prop56
140
1.0
102
RTVSPost2010PropOp56
 70
     1
102
RTVSPost2010Prop57
140
1.0
102
RTVSPost2010PropOp57
 70
     1
102
RTVSPropertyOp0
 70
     1
102
RTVSPropertyOp1
 70
     1
102
RTVSPropertyOp2
 70
     1
102
RTVSPropertyOp3
 70
     1
102
RTVSPropertyOp4
 70
     1
102
RTVSPropertyOp5
 70
     1
102
RTVSPropertyOp6
 70
     1
102
RTVSPropertyOp7
 70
     1
102
RTVSPropertyOp8
 70
     1
102
RTVSPropertyOp9
 70
     1
102
RTVSPropertyOp10
 70
     1
102
RTVSPropertyOp11
 70
     1
102
RTVSPropertyOp12
 70
     1
102
RTVSPropertyOp13
 70
     1
102
RTVSPropertyOp14
 70
     1
102
RTVSPropertyOp15
 70
     1
102
RTVSPropertyOp16
 70
     1
102
RTVSPropertyOp17
 70
     1
102
RTVSPropertyOp18
 70
     1
102
RTVSPropertyOp19
 70
     1
102
RTVSPropertyOp20
 70
     1
102
RTVSPropertyOp21
 70
     1
102
RTVSPropertyOp22
 70
     1
102
RTVSPropertyOp23
 70
     1
102
RTVSPropertyOp24
 70
     1
102
RTVSPropertyOp25
 70
     1
102
RTVSPropertyOp26
 70
     1
102
RTVSPropertyOp27
 70
     1
102
RTVSPropertyOp28
 70
     1
102
RTVSPropertyOp29
 70
     1
102
RTVSPropertyOp30
 70
     1
102
RTVSPropertyOp31
 70
     1
102
RTVSPropertyOp32
 70
     1
102
RTVSPropertyOp33
 70
     1
102
RTVSPropertyOp34
 70
     1
102
RTVSPropertyOp35
 70
     1
102
RTVSPropertyOp36
 70
     1
102
RTVSPropertyOp37
 70
     1
102
RTVSPropertyOp38
 70
     1
102
RTVSPropertyOp39
 70
     1
102
RTVSPropertyOp40
 70
     1
102
RTVSPropertyOp41
 70
     1
102
RTVSPropertyOp42
 70
     1
102
RTVSPropertyOp43
 70
     1
102
RTVSPropertyOp44
 70
     1
102
RTVSPropertyOp45
 70
     1
102
RTVSPropertyOp46
 70
     1
102
RTVSPropertyOp47
 70
     1
102
RTVSPropertyOp48
 70
     1
102
RTVSPropertyOp49
 70
     1
102
RTVSPropertyOp50
 70
     1
102
RTVSPropertyOp51
 70
     0
102
RTVSPropertyOp52
 70
     0
102
RTVSPropertyOp53
 70
     1
102
RTVSPropertyOp54
 70
     1
102
RTVSPropertyOp55
 70
     1
102
RTVSPropertyOp56
 70
     1
102
RTVSPropertyOp57
 70
     1
102
RTVSPropertyOp58
 70
     1
102
RTVSPropertyOp59
 70
     1
102
RTVSPropertyOp60
 70
     1
102
RTVSPropertyOp61
 70
     1
102
RTVSPropertyOp62
 70
     1
  0
XRECORD
  5
650
102
{ACAD_REACTORS
330
64F
102
}
330
64F
100
AcDbXrecord
280
     1
102
RTVSPost2010Prop28
280
     0
102
RTVSPost2010PropOp28
 70
     1
102
RTVSPost2010Prop29
280
     1
102
RTVSPost2010PropOp29
 70
     1
102
RTVSPost2010Prop30
280
     1
102
RTVSPost2010PropOp30
 70
     1
102
RTVSPost2010Prop31
280
     0
102
RTVSPost2010PropOp31
 70
     1
102
RTVSPost2010Prop32
280
     0
102
RTVSPost2010PropOp32
 70
     1
102
RTVSPost2010Prop33
280
     0
102
RTVSPost2010PropOp33
 70
     1
102
RTVSPost2010Prop34
280
     0
102
RTVSPost2010PropOp34
 70
     1
102
RTVSPost2010Prop35
280
     0
102
RTVSPost2010PropOp35
 70
     1
102
RTVSPost2010Prop36
280
     0
102
RTVSPost2010PropOp36
 70
     1
102
RTVSPost2010Prop37
 90
       50
102
RTVSPost2010PropOp37
 70
     1
102
RTVSPost2010Prop38
140
0.0
102
RTVSPost2010PropOp38
 70
     1
102
RTVSPost2010Prop39
140
1.0
102
RTVSPost2010PropOp39
 70
     1
102
RTVSPost2010Prop40
 90
        0
102
RTVSPost2010PropOp40
 70
     1
102
RTVSPost2010Prop41ColorIndex
 90
       18
102
RTVSPost2010Prop41ColorRGB
 90
        0
102
RTVSPost2010PropOp41
 70
     1
102
RTVSPost2010Prop42
 90
       50
102
RTVSPost2010PropOp42
 70
     1
102
RTVSPost2010Prop43
 90
        3
102
RTVSPost2010PropOp43
 70
     1
102
RTVSPost2010Prop44ColorIndex
 90
        5
102
RTVSPost2010Prop44ColorRGB
 90
      255
102
RTVSPost2010PropOp44
 70
     1
102
RTVSPost2010Prop45
280
     0
102
RTVSPost2010PropOp45
 70
     1
102
RTVSPost2010Prop46
 90
       50
102
RTVSPost2010PropOp46
 70
     1
102
RTVSPost2010Prop47
 90
       50
102
RTVSPost2010PropOp47
 70
     1
102
RTVSPost2010Prop48
 90
       50
102
RTVSPost2010PropOp48
 70
     1
102
RTVSPost2010Prop49
280
     0
102
RTVSPost2010PropOp49
 70
     1
102
RTVSPost2010Prop50
 90
       50
102
RTVSPost2010PropOp50
 70
     1
102
RTVSPost2010Prop51ColorIndex
 90
      256
102
RTVSPost2010Prop51ColorRGB
 90
-16777216
102
RTVSPost2010PropOp51
 70
     0
102
RTVSPost2010Prop52
140
1.0
102
RTVSPost2010PropOp52
 70
     0
102
RTVSPost2010Prop53
 90
        2
102
RTVSPost2010PropOp53
 70
     1
102
RTVSPost2010Prop54
  1
strokes_ogs.tif
102
RTVSPost2010PropOp54
 70
     1
102
RTVSPost2010Prop55
280
     0
102
RTVSPost2010PropOp55
 70
     1
102
RTVSPost2010Prop56
140
1.0
102
RTVSPost2010PropOp56
 70
     1
102
RTVSPost2010Prop57
140
1.0
102
RTVSPost2010PropOp57
 70
     1
102
RTVSPropertyOp0
 70
     1
102
RTVSPropertyOp1
 70
     1
102
RTVSPropertyOp2
 70
     1
102
RTVSPropertyOp3
 70
     1
102
RTVSPropertyOp4
 70
     1
102
RTVSPropertyOp5
 70
     1
102
RTVSPropertyOp6
 70
     1
102
RTVSPropertyOp7
 70
     1
102
RTVSPropertyOp8
 70
     1
102
RTVSPropertyOp9
 70
     1
102
RTVSPropertyOp10
 70
     1
102
RTVSPropertyOp11
 70
     1
102
RTVSPropertyOp12
 70
     1
102
RTVSPropertyOp13
 70
     1
102
RTVSPropertyOp14
 70
     1
102
RTVSPropertyOp15
 70
     1
102
RTVSPropertyOp16
 70
     1
102
RTVSPropertyOp17
 70
     1
102
RTVSPropertyOp18
 70
     1
102
RTVSPropertyOp19
 70
     1
102
RTVSPropertyOp20
 70
     1
102
RTVSPropertyOp21
 70
     1
102
RTVSPropertyOp22
 70
     1
102
RTVSPropertyOp23
 70
     1
102
RTVSPropertyOp24
 70
     1
102
RTVSPropertyOp25
 70
     1
102
RTVSPropertyOp26
 70
     1
102
RTVSPropertyOp27
 70
     1
102
RTVSPropertyOp28
 70
     1
102
RTVSPropertyOp29
 70
     1
102
RTVSPropertyOp30
 70
     1
102
RTVSPropertyOp31
 70
     1
102
RTVSPropertyOp32
 70
     1
102
RTVSPropertyOp33
 70
     1
102
RTVSPropertyOp34
 70
     1
102
RTVSPropertyOp35
 70
     1
102
RTVSPropertyOp36
 70
     1
102
RTVSPropertyOp37
 70
     1
102
RTVSPropertyOp38
 70
     1
102
RTVSPropertyOp39
 70
     1
102
RTVSPropertyOp40
 70
     1
102
RTVSPropertyOp41
 70
     1
102
RTVSPropertyOp42
 70
     1
102
RTVSPropertyOp43
 70
     1
102
RTVSPropertyOp44
 70
     1
102
RTVSPropertyOp45
 70
     1
102
RTVSPropertyOp46
 70
     1
102
RTVSPropertyOp47
 70
     1
102
RTVSPropertyOp48
 70
     1
102
RTVSPropertyOp49
 70
     1
102
RTVSPropertyOp50
 70
     1
102
RTVSPropertyOp51
 70
     0
102
RTVSPropertyOp52
 70
     0
102
RTVSPropertyOp53
 70
     1
102
RTVSPropertyOp54
 70
     1
102
RTVSPropertyOp55
 70
     1
102
RTVSPropertyOp56
 70
     1
102
RTVSPropertyOp57
 70
     1
102
RTVSPropertyOp58
 70
     1
102
RTVSPropertyOp59
 70
     1
102
RTVSPropertyOp60
 70
     1
102
RTVSPropertyOp61
 70
     1
102
RTVSPropertyOp62
 70
     1
  0
XRECORD
  5
64A
102
{ACAD_REACTORS
330
649
102
}
330
649
100
AcDbXrecord
280
     1
102
RTVSPost2010Prop28
280
     0
102
RTVSPost2010PropOp28
 70
     1
102
RTVSPost2010Prop29
280
     1
102
RTVSPost2010PropOp29
 70
     1
102
RTVSPost2010Prop30
280
     1
102
RTVSPost2010PropOp30
 70
     1
102
RTVSPost2010Prop31
280
     0
102
RTVSPost2010PropOp31
 70
     1
102
RTVSPost2010Prop32
280
     0
102
RTVSPost2010PropOp32
 70
     1
102
RTVSPost2010Prop33
280
     0
102
RTVSPost2010PropOp33
 70
     1
102
RTVSPost2010Prop34
280
     0
102
RTVSPost2010PropOp34
 70
     1
102
RTVSPost2010Prop35
280
     0
102
RTVSPost2010PropOp35
 70
     1
102
RTVSPost2010Prop36
280
     0
102
RTVSPost2010PropOp36
 70
     1
102
RTVSPost2010Prop37
 90
       50
102
RTVSPost2010PropOp37
 70
     1
102
RTVSPost2010Prop38
140
0.0
102
RTVSPost2010PropOp38
 70
     1
102
RTVSPost2010Prop39
140
1.0
102
RTVSPost2010PropOp39
 70
     1
102
RTVSPost2010Prop40
 90
        0
102
RTVSPost2010PropOp40
 70
     1
102
RTVSPost2010Prop41ColorIndex
 90
       18
102
RTVSPost2010Prop41ColorRGB
 90
        0
102
RTVSPost2010PropOp41
 70
     1
102
RTVSPost2010Prop42
 90
       50
102
RTVSPost2010PropOp42
 70
     1
102
RTVSPost2010Prop43
 90
        3
102
RTVSPost2010PropOp43
 70
     1
102
RTVSPost2010Prop44ColorIndex
 90
        5
102
RTVSPost2010Prop44ColorRGB
 90
      255
102
RTVSPost2010PropOp44
 70
     1
102
RTVSPost2010Prop45
280
     0
102
RTVSPost2010PropOp45
 70
     1
102
RTVSPost2010Prop46
 90
       50
102
RTVSPost2010PropOp46
 70
     1
102
RTVSPost2010Prop47
 90
       50
102
RTVSPost2010PropOp47
 70
     1
102
RTVSPost2010Prop48
 90
       50
102
RTVSPost2010PropOp48
 70
     1
102
RTVSPost2010Prop49
280
     0
102
RTVSPost2010PropOp49
 70
     1
102
RTVSPost2010Prop50
 90
       50
102
RTVSPost2010PropOp50
 70
     1
102
RTVSPost2010Prop51ColorIndex
 90
      256
102
RTVSPost2010Prop51ColorRGB
 90
-16777216
102
RTVSPost2010PropOp51
 70
     0
102
RTVSPost2010Prop52
140
1.0
102
RTVSPost2010PropOp52
 70
     0
102
RTVSPost2010Prop53
 90
        2
102
RTVSPost2010PropOp53
 70
     1
102
RTVSPost2010Prop54
  1
strokes_ogs.tif
102
RTVSPost2010PropOp54
 70
     1
102
RTVSPost2010Prop55
280
     0
102
RTVSPost2010PropOp55
 70
     1
102
RTVSPost2010Prop56
140
1.0
102
RTVSPost2010PropOp56
 70
     1
102
RTVSPost2010Prop57
140
1.0
102
RTVSPost2010PropOp57
 70
     1
102
RTVSPropertyOp0
 70
     1
102
RTVSPropertyOp1
 70
     1
102
RTVSPropertyOp2
 70
     1
102
RTVSPropertyOp3
 70
     1
102
RTVSPropertyOp4
 70
     1
102
RTVSPropertyOp5
 70
     1
102
RTVSPropertyOp6
 70
     1
102
RTVSPropertyOp7
 70
     1
102
RTVSPropertyOp8
 70
     1
102
RTVSPropertyOp9
 70
     1
102
RTVSPropertyOp10
 70
     1
102
RTVSPropertyOp11
 70
     1
102
RTVSPropertyOp12
 70
     1
102
RTVSPropertyOp13
 70
     1
102
RTVSPropertyOp14
 70
     1
102
RTVSPropertyOp15
 70
     1
102
RTVSPropertyOp16
 70
     1
102
RTVSPropertyOp17
 70
     1
102
RTVSPropertyOp18
 70
     1
102
RTVSPropertyOp19
 70
     1
102
RTVSPropertyOp20
 70
     1
102
RTVSPropertyOp21
 70
     1
102
RTVSPropertyOp22
 70
     1
102
RTVSPropertyOp23
 70
     1
102
RTVSPropertyOp24
 70
     1
102
RTVSPropertyOp25
 70
     1
102
RTVSPropertyOp26
 70
     1
102
RTVSPropertyOp27
 70
     1
102
RTVSPropertyOp28
 70
     1
102
RTVSPropertyOp29
 70
     1
102
RTVSPropertyOp30
 70
     1
102
RTVSPropertyOp31
 70
     1
102
RTVSPropertyOp32
 70
     1
102
RTVSPropertyOp33
 70
     1
102
RTVSPropertyOp34
 70
     1
102
RTVSPropertyOp35
 70
     1
102
RTVSPropertyOp36
 70
     1
102
RTVSPropertyOp37
 70
     1
102
RTVSPropertyOp38
 70
     1
102
RTVSPropertyOp39
 70
     1
102
RTVSPropertyOp40
 70
     1
102
RTVSPropertyOp41
 70
     1
102
RTVSPropertyOp42
 70
     1
102
RTVSPropertyOp43
 70
     1
102
RTVSPropertyOp44
 70
     1
102
RTVSPropertyOp45
 70
     1
102
RTVSPropertyOp46
 70
     1
102
RTVSPropertyOp47
 70
     1
102
RTVSPropertyOp48
 70
     1
102
RTVSPropertyOp49
 70
     1
102
RTVSPropertyOp50
 70
     1
102
RTVSPropertyOp51
 70
     0
102
RTVSPropertyOp52
 70
     0
102
RTVSPropertyOp53
 70
     1
102
RTVSPropertyOp54
 70
     1
102
RTVSPropertyOp55
 70
     1
102
RTVSPropertyOp56
 70
     1
102
RTVSPropertyOp57
 70
     1
102
RTVSPropertyOp58
 70
     1
102
RTVSPropertyOp59
 70
     1
102
RTVSPropertyOp60
 70
     1
102
RTVSPropertyOp61
 70
     1
102
RTVSPropertyOp62
 70
     1
  0
XRECORD
  5
64C
102
{ACAD_REACTORS
330
64B
102
}
330
64B
100
AcDbXrecord
280
     1
102
RTVSPost2010Prop28
280
     0
102
RTVSPost2010PropOp28
 70
     1
102
RTVSPost2010Prop29
280
     1
102
RTVSPost2010PropOp29
 70
     1
102
RTVSPost2010Prop30
280
     1
102
RTVSPost2010PropOp30
 70
     1
102
RTVSPost2010Prop31
280
     0
102
RTVSPost2010PropOp31
 70
     1
102
RTVSPost2010Prop32
280
     0
102
RTVSPost2010PropOp32
 70
     1
102
RTVSPost2010Prop33
280
     0
102
RTVSPost2010PropOp33
 70
     1
102
RTVSPost2010Prop34
280
     0
102
RTVSPost2010PropOp34
 70
     1
102
RTVSPost2010Prop35
280
     0
102
RTVSPost2010PropOp35
 70
     1
102
RTVSPost2010Prop36
280
     0
102
RTVSPost2010PropOp36
 70
     1
102
RTVSPost2010Prop37
 90
       50
102
RTVSPost2010PropOp37
 70
     1
102
RTVSPost2010Prop38
140
0.0
102
RTVSPost2010PropOp38
 70
     1
102
RTVSPost2010Prop39
140
1.0
102
RTVSPost2010PropOp39
 70
     1
102
RTVSPost2010Prop40
 90
        0
102
RTVSPost2010PropOp40
 70
     1
102
RTVSPost2010Prop41ColorIndex
 90
       18
102
RTVSPost2010Prop41ColorRGB
 90
        0
102
RTVSPost2010PropOp41
 70
     1
102
RTVSPost2010Prop42
 90
       50
102
RTVSPost2010PropOp42
 70
     1
102
RTVSPost2010Prop43
 90
        3
102
RTVSPost2010PropOp43
 70
     1
102
RTVSPost2010Prop44ColorIndex
 90
        5
102
RTVSPost2010Prop44ColorRGB
 90
      255
102
RTVSPost2010PropOp44
 70
     1
102
RTVSPost2010Prop45
280
     0
102
RTVSPost2010PropOp45
 70
     1
102
RTVSPost2010Prop46
 90
       50
102
RTVSPost2010PropOp46
 70
     1
102
RTVSPost2010Prop47
 90
       50
102
RTVSPost2010PropOp47
 70
     1
102
RTVSPost2010Prop48
 90
       50
102
RTVSPost2010PropOp48
 70
     1
102
RTVSPost2010Prop49
280
     0
102
RTVSPost2010PropOp49
 70
     1
102
RTVSPost2010Prop50
 90
       50
102
RTVSPost2010PropOp50
 70
     1
102
RTVSPost2010Prop51ColorIndex
 90
      256
102
RTVSPost2010Prop51ColorRGB
 90
-16777216
102
RTVSPost2010PropOp51
 70
     0
102
RTVSPost2010Prop52
140
1.0
102
RTVSPost2010PropOp52
 70
     0
102
RTVSPost2010Prop53
 90
        2
102
RTVSPost2010PropOp53
 70
     1
102
RTVSPost2010Prop54
  1
strokes_ogs.tif
102
RTVSPost2010PropOp54
 70
     1
102
RTVSPost2010Prop55
280
     0
102
RTVSPost2010PropOp55
 70
     1
102
RTVSPost2010Prop56
140
1.0
102
RTVSPost2010PropOp56
 70
     1
102
RTVSPost2010Prop57
140
1.0
102
RTVSPost2010PropOp57
 70
     1
102
RTVSPropertyOp0
 70
     1
102
RTVSPropertyOp1
 70
     1
102
RTVSPropertyOp2
 70
     1
102
RTVSPropertyOp3
 70
     1
102
RTVSPropertyOp4
 70
     1
102
RTVSPropertyOp5
 70
     1
102
RTVSPropertyOp6
 70
     1
102
RTVSPropertyOp7
 70
     1
102
RTVSPropertyOp8
 70
     1
102
RTVSPropertyOp9
 70
     1
102
RTVSPropertyOp10
 70
     1
102
RTVSPropertyOp11
 70
     1
102
RTVSPropertyOp12
 70
     1
102
RTVSPropertyOp13
 70
     1
102
RTVSPropertyOp14
 70
     1
102
RTVSPropertyOp15
 70
     1
102
RTVSPropertyOp16
 70
     1
102
RTVSPropertyOp17
 70
     1
102
RTVSPropertyOp18
 70
     1
102
RTVSPropertyOp19
 70
     1
102
RTVSPropertyOp20
 70
     1
102
RTVSPropertyOp21
 70
     1
102
RTVSPropertyOp22
 70
     1
102
RTVSPropertyOp23
 70
     1
102
RTVSPropertyOp24
 70
     1
102
RTVSPropertyOp25
 70
     1
102
RTVSPropertyOp26
 70
     1
102
RTVSPropertyOp27
 70
     1
102
RTVSPropertyOp28
 70
     1
102
RTVSPropertyOp29
 70
     1
102
RTVSPropertyOp30
 70
     1
102
RTVSPropertyOp31
 70
     1
102
RTVSPropertyOp32
 70
     1
102
RTVSPropertyOp33
 70
     1
102
RTVSPropertyOp34
 70
     1
102
RTVSPropertyOp35
 70
     1
102
RTVSPropertyOp36
 70
     1
102
RTVSPropertyOp37
 70
     1
102
RTVSPropertyOp38
 70
     1
102
RTVSPropertyOp39
 70
     1
102
RTVSPropertyOp40
 70
     1
102
RTVSPropertyOp41
 70
     1
102
RTVSPropertyOp42
 70
     1
102
RTVSPropertyOp43
 70
     1
102
RTVSPropertyOp44
 70
     1
102
RTVSPropertyOp45
 70
     1
102
RTVSPropertyOp46
 70
     1
102
RTVSPropertyOp47
 70
     1
102
RTVSPropertyOp48
 70
     1
102
RTVSPropertyOp49
 70
     1
102
RTVSPropertyOp50
 70
     1
102
RTVSPropertyOp51
 70
     0
102
RTVSPropertyOp52
 70
     0
102
RTVSPropertyOp53
 70
     1
102
RTVSPropertyOp54
 70
     1
102
RTVSPropertyOp55
 70
     1
102
RTVSPropertyOp56
 70
     1
102
RTVSPropertyOp57
 70
     1
102
RTVSPropertyOp58
 70
     1
102
RTVSPropertyOp59
 70
     1
102
RTVSPropertyOp60
 70
     1
102
RTVSPropertyOp61
 70
     1
102
RTVSPropertyOp62
 70
     1
  0
XRECORD
  5
642
102
{ACAD_REACTORS
330
641
102
}
330
641
100
AcDbXrecord
280
     1
102
RTVSPost2010Prop28
280
     0
102
RTVSPost2010PropOp28
 70
     1
102
RTVSPost2010Prop29
280
     1
102
RTVSPost2010PropOp29
 70
     1
102
RTVSPost2010Prop30
280
     1
102
RTVSPost2010PropOp30
 70
     1
102
RTVSPost2010Prop31
280
     0
102
RTVSPost2010PropOp31
 70
     1
102
RTVSPost2010Prop32
280
     0
102
RTVSPost2010PropOp32
 70
     1
102
RTVSPost2010Prop33
280
     0
102
RTVSPost2010PropOp33
 70
     1
102
RTVSPost2010Prop34
280
     0
102
RTVSPost2010PropOp34
 70
     1
102
RTVSPost2010Prop35
280
     0
102
RTVSPost2010PropOp35
 70
     1
102
RTVSPost2010Prop36
280
     0
102
RTVSPost2010PropOp36
 70
     1
102
RTVSPost2010Prop37
 90
       50
102
RTVSPost2010PropOp37
 70
     1
102
RTVSPost2010Prop38
140
0.0
102
RTVSPost2010PropOp38
 70
     1
102
RTVSPost2010Prop39
140
1.0
102
RTVSPost2010PropOp39
 70
     1
102
RTVSPost2010Prop40
 90
        0
102
RTVSPost2010PropOp40
 70
     1
102
RTVSPost2010Prop41ColorIndex
 90
       18
102
RTVSPost2010Prop41ColorRGB
 90
        0
102
RTVSPost2010PropOp41
 70
     1
102
RTVSPost2010Prop42
 90
       50
102
RTVSPost2010PropOp42
 70
     1
102
RTVSPost2010Prop43
 90
        3
102
RTVSPost2010PropOp43
 70
     1
102
RTVSPost2010Prop44ColorIndex
 90
        5
102
RTVSPost2010Prop44ColorRGB
 90
      255
102
RTVSPost2010PropOp44
 70
     1
102
RTVSPost2010Prop45
280
     0
102
RTVSPost2010PropOp45
 70
     1
102
RTVSPost2010Prop46
 90
       50
102
RTVSPost2010PropOp46
 70
     1
102
RTVSPost2010Prop47
 90
       50
102
RTVSPost2010PropOp47
 70
     1
102
RTVSPost2010Prop48
 90
       50
102
RTVSPost2010PropOp48
 70
     1
102
RTVSPost2010Prop49
280
     0
102
RTVSPost2010PropOp49
 70
     1
102
RTVSPost2010Prop50
 90
       50
102
RTVSPost2010PropOp50
 70
     1
102
RTVSPost2010Prop51ColorIndex
 90
      256
102
RTVSPost2010Prop51ColorRGB
 90
-16777216
102
RTVSPost2010PropOp51
 70
     0
102
RTVSPost2010Prop52
140
1.0
102
RTVSPost2010PropOp52
 70
     0
102
RTVSPost2010Prop53
 90
        2
102
RTVSPost2010PropOp53
 70
     1
102
RTVSPost2010Prop54
  1
strokes_ogs.tif
102
RTVSPost2010PropOp54
 70
     1
102
RTVSPost2010Prop55
280
     0
102
RTVSPost2010PropOp55
 70
     1
102
RTVSPost2010Prop56
140
1.0
102
RTVSPost2010PropOp56
 70
     1
102
RTVSPost2010Prop57
140
1.0
102
RTVSPost2010PropOp57
 70
     1
102
RTVSPropertyOp0
 70
     1
102
RTVSPropertyOp1
 70
     1
102
RTVSPropertyOp2
 70
     1
102
RTVSPropertyOp3
 70
     1
102
RTVSPropertyOp4
 70
     1
102
RTVSPropertyOp5
 70
     1
102
RTVSPropertyOp6
 70
     1
102
RTVSPropertyOp7
 70
     1
102
RTVSPropertyOp8
 70
     1
102
RTVSPropertyOp9
 70
     1
102
RTVSPropertyOp10
 70
     1
102
RTVSPropertyOp11
 70
     1
102
RTVSPropertyOp12
 70
     1
102
RTVSPropertyOp13
 70
     1
102
RTVSPropertyOp14
 70
     1
102
RTVSPropertyOp15
 70
     1
102
RTVSPropertyOp16
 70
     1
102
RTVSPropertyOp17
 70
     1
102
RTVSPropertyOp18
 70
     1
102
RTVSPropertyOp19
 70
     1
102
RTVSPropertyOp20
 70
     1
102
RTVSPropertyOp21
 70
     1
102
RTVSPropertyOp22
 70
     1
102
RTVSPropertyOp23
 70
     1
102
RTVSPropertyOp24
 70
     1
102
RTVSPropertyOp25
 70
     1
102
RTVSPropertyOp26
 70
     1
102
RTVSPropertyOp27
 70
     1
102
RTVSPropertyOp28
 70
     1
102
RTVSPropertyOp29
 70
     1
102
RTVSPropertyOp30
 70
     1
102
RTVSPropertyOp31
 70
     1
102
RTVSPropertyOp32
 70
     1
102
RTVSPropertyOp33
 70
     1
102
RTVSPropertyOp34
 70
     1
102
RTVSPropertyOp35
 70
     1
102
RTVSPropertyOp36
 70
     1
102
RTVSPropertyOp37
 70
     1
102
RTVSPropertyOp38
 70
     1
102
RTVSPropertyOp39
 70
     1
102
RTVSPropertyOp40
 70
     1
102
RTVSPropertyOp41
 70
     1
102
RTVSPropertyOp42
 70
     1
102
RTVSPropertyOp43
 70
     1
102
RTVSPropertyOp44
 70
     1
102
RTVSPropertyOp45
 70
     1
102
RTVSPropertyOp46
 70
     1
102
RTVSPropertyOp47
 70
     1
102
RTVSPropertyOp48
 70
     1
102
RTVSPropertyOp49
 70
     1
102
RTVSPropertyOp50
 70
     1
102
RTVSPropertyOp51
 70
     0
102
RTVSPropertyOp52
 70
     0
102
RTVSPropertyOp53
 70
     1
102
RTVSPropertyOp54
 70
     1
102
RTVSPropertyOp55
 70
     1
102
RTVSPropertyOp56
 70
     1
102
RTVSPropertyOp57
 70
     1
102
RTVSPropertyOp58
 70
     1
102
RTVSPropertyOp59
 70
     1
102
RTVSPropertyOp60
 70
     1
102
RTVSPropertyOp61
 70
     1
102
RTVSPropertyOp62
 70
     1
  0
XRECORD
  5
636
102
{ACAD_REACTORS
330
635
102
}
330
635
100
AcDbXrecord
280
     1
102
RTVSPost2010Prop28
280
     0
102
RTVSPost2010PropOp28
 70
     1
102
RTVSPost2010Prop29
280
     1
102
RTVSPost2010PropOp29
 70
     1
102
RTVSPost2010Prop30
280
     1
102
RTVSPost2010PropOp30
 70
     1
102
RTVSPost2010Prop31
280
     0
102
RTVSPost2010PropOp31
 70
     1
102
RTVSPost2010Prop32
280
     0
102
RTVSPost2010PropOp32
 70
     1
102
RTVSPost2010Prop33
280
     0
102
RTVSPost2010PropOp33
 70
     1
102
RTVSPost2010Prop34
280
     0
102
RTVSPost2010PropOp34
 70
     1
102
RTVSPost2010Prop35
280
     0
102
RTVSPost2010PropOp35
 70
     1
102
RTVSPost2010Prop36
280
     0
102
RTVSPost2010PropOp36
 70
     1
102
RTVSPost2010Prop37
 90
       50
102
RTVSPost2010PropOp37
 70
     1
102
RTVSPost2010Prop38
140
0.0
102
RTVSPost2010PropOp38
 70
     1
102
RTVSPost2010Prop39
140
1.0
102
RTVSPost2010PropOp39
 70
     1
102
RTVSPost2010Prop40
 90
        0
102
RTVSPost2010PropOp40
 70
     1
102
RTVSPost2010Prop41ColorIndex
 90
       18
102
RTVSPost2010Prop41ColorRGB
 90
        0
102
RTVSPost2010PropOp41
 70
     1
102
RTVSPost2010Prop42
 90
       50
102
RTVSPost2010PropOp42
 70
     1
102
RTVSPost2010Prop43
 90
        3
102
RTVSPost2010PropOp43
 70
     1
102
RTVSPost2010Prop44ColorIndex
 90
        5
102
RTVSPost2010Prop44ColorRGB
 90
      255
102
RTVSPost2010PropOp44
 70
     1
102
RTVSPost2010Prop45
280
     0
102
RTVSPost2010PropOp45
 70
     1
102
RTVSPost2010Prop46
 90
       50
102
RTVSPost2010PropOp46
 70
     1
102
RTVSPost2010Prop47
 90
       50
102
RTVSPost2010PropOp47
 70
     1
102
RTVSPost2010Prop48
 90
       50
102
RTVSPost2010PropOp48
 70
     1
102
RTVSPost2010Prop49
280
     0
102
RTVSPost2010PropOp49
 70
     1
102
RTVSPost2010Prop50
 90
       50
102
RTVSPost2010PropOp50
 70
     1
102
RTVSPost2010Prop51ColorIndex
 90
      256
102
RTVSPost2010Prop51ColorRGB
 90
-16777216
102
RTVSPost2010PropOp51
 70
     0
102
RTVSPost2010Prop52
140
1.0
102
RTVSPost2010PropOp52
 70
     0
102
RTVSPost2010Prop53
 90
        2
102
RTVSPost2010PropOp53
 70
     1
102
RTVSPost2010Prop54
  1
strokes_ogs.tif
102
RTVSPost2010PropOp54
 70
     1
102
RTVSPost2010Prop55
280
     0
102
RTVSPost2010PropOp55
 70
     1
102
RTVSPost2010Prop56
140
1.0
102
RTVSPost2010PropOp56
 70
     1
102
RTVSPost2010Prop57
140
1.0
102
RTVSPost2010PropOp57
 70
     1
102
RTVSPropertyOp0
 70
     1
102
RTVSPropertyOp1
 70
     1
102
RTVSPropertyOp2
 70
     1
102
RTVSPropertyOp3
 70
     1
102
RTVSPropertyOp4
 70
     1
102
RTVSPropertyOp5
 70
     1
102
RTVSPropertyOp6
 70
     1
102
RTVSPropertyOp7
 70
     1
102
RTVSPropertyOp8
 70
     1
102
RTVSPropertyOp9
 70
     1
102
RTVSPropertyOp10
 70
     1
102
RTVSPropertyOp11
 70
     1
102
RTVSPropertyOp12
 70
     1
102
RTVSPropertyOp13
 70
     1
102
RTVSPropertyOp14
 70
     1
102
RTVSPropertyOp15
 70
     1
102
RTVSPropertyOp16
 70
     1
102
RTVSPropertyOp17
 70
     1
102
RTVSPropertyOp18
 70
     1
102
RTVSPropertyOp19
 70
     1
102
RTVSPropertyOp20
 70
     1
102
RTVSPropertyOp21
 70
     1
102
RTVSPropertyOp22
 70
     1
102
RTVSPropertyOp23
 70
     1
102
RTVSPropertyOp24
 70
     1
102
RTVSPropertyOp25
 70
     1
102
RTVSPropertyOp26
 70
     1
102
RTVSPropertyOp27
 70
     1
102
RTVSPropertyOp28
 70
     1
102
RTVSPropertyOp29
 70
     1
102
RTVSPropertyOp30
 70
     1
102
RTVSPropertyOp31
 70
     1
102
RTVSPropertyOp32
 70
     1
102
RTVSPropertyOp33
 70
     1
102
RTVSPropertyOp34
 70
     1
102
RTVSPropertyOp35
 70
     1
102
RTVSPropertyOp36
 70
     1
102
RTVSPropertyOp37
 70
     1
102
RTVSPropertyOp38
 70
     1
102
RTVSPropertyOp39
 70
     1
102
RTVSPropertyOp40
 70
     1
102
RTVSPropertyOp41
 70
     1
102
RTVSPropertyOp42
 70
     1
102
RTVSPropertyOp43
 70
     1
102
RTVSPropertyOp44
 70
     1
102
RTVSPropertyOp45
 70
     1
102
RTVSPropertyOp46
 70
     1
102
RTVSPropertyOp47
 70
     1
102
RTVSPropertyOp48
 70
     1
102
RTVSPropertyOp49
 70
     1
102
RTVSPropertyOp50
 70
     1
102
RTVSPropertyOp51
 70
     0
102
RTVSPropertyOp52
 70
     0
102
RTVSPropertyOp53
 70
     1
102
RTVSPropertyOp54
 70
     1
102
RTVSPropertyOp55
 70
     1
102
RTVSPropertyOp56
 70
     1
102
RTVSPropertyOp57
 70
     1
102
RTVSPropertyOp58
 70
     1
102
RTVSPropertyOp59
 70
     1
102
RTVSPropertyOp60
 70
     1
102
RTVSPropertyOp61
 70
     1
102
RTVSPropertyOp62
 70
     1
  0
XRECORD
  5
64E
102
{ACAD_REACTORS
330
64D
102
}
330
64D
100
AcDbXrecord
280
     1
102
RTVSPost2010Prop28
280
     0
102
RTVSPost2010PropOp28
 70
     1
102
RTVSPost2010Prop29
280
     1
102
RTVSPost2010PropOp29
 70
     1
102
RTVSPost2010Prop30
280
     1
102
RTVSPost2010PropOp30
 70
     1
102
RTVSPost2010Prop31
280
     0
102
RTVSPost2010PropOp31
 70
     1
102
RTVSPost2010Prop32
280
     0
102
RTVSPost2010PropOp32
 70
     1
102
RTVSPost2010Prop33
280
     0
102
RTVSPost2010PropOp33
 70
     1
102
RTVSPost2010Prop34
280
     0
102
RTVSPost2010PropOp34
 70
     1
102
RTVSPost2010Prop35
280
     0
102
RTVSPost2010PropOp35
 70
     1
102
RTVSPost2010Prop36
280
     0
102
RTVSPost2010PropOp36
 70
     1
102
RTVSPost2010Prop37
 90
       50
102
RTVSPost2010PropOp37
 70
     1
102
RTVSPost2010Prop38
140
0.0
102
RTVSPost2010PropOp38
 70
     1
102
RTVSPost2010Prop39
140
1.0
102
RTVSPost2010PropOp39
 70
     1
102
RTVSPost2010Prop40
 90
        0
102
RTVSPost2010PropOp40
 70
     1
102
RTVSPost2010Prop41ColorIndex
 90
       18
102
RTVSPost2010Prop41ColorRGB
 90
        0
102
RTVSPost2010PropOp41
 70
     1
102
RTVSPost2010Prop42
 90
       50
102
RTVSPost2010PropOp42
 70
     1
102
RTVSPost2010Prop43
 90
        3
102
RTVSPost2010PropOp43
 70
     1
102
RTVSPost2010Prop44ColorIndex
 90
        5
102
RTVSPost2010Prop44ColorRGB
 90
      255
102
RTVSPost2010PropOp44
 70
     1
102
RTVSPost2010Prop45
280
     0
102
RTVSPost2010PropOp45
 70
     1
102
RTVSPost2010Prop46
 90
       50
102
RTVSPost2010PropOp46
 70
     1
102
RTVSPost2010Prop47
 90
       50
102
RTVSPost2010PropOp47
 70
     1
102
RTVSPost2010Prop48
 90
       50
102
RTVSPost2010PropOp48
 70
     1
102
RTVSPost2010Prop49
280
     0
102
RTVSPost2010PropOp49
 70
     1
102
RTVSPost2010Prop50
 90
       50
102
RTVSPost2010PropOp50
 70
     1
102
RTVSPost2010Prop51ColorIndex
 90
      256
102
RTVSPost2010Prop51ColorRGB
 90
-16777216
102
RTVSPost2010PropOp51
 70
     0
102
RTVSPost2010Prop52
140
1.0
102
RTVSPost2010PropOp52
 70
     0
102
RTVSPost2010Prop53
 90
        2
102
RTVSPost2010PropOp53
 70
     1
102
RTVSPost2010Prop54
  1
strokes_ogs.tif
102
RTVSPost2010PropOp54
 70
     1
102
RTVSPost2010Prop55
280
     0
102
RTVSPost2010PropOp55
 70
     1
102
RTVSPost2010Prop56
140
1.0
102
RTVSPost2010PropOp56
 70
     1
102
RTVSPost2010Prop57
140
1.0
102
RTVSPost2010PropOp57
 70
     1
102
RTVSPropertyOp0
 70
     1
102
RTVSPropertyOp1
 70
     1
102
RTVSPropertyOp2
 70
     1
102
RTVSPropertyOp3
 70
     1
102
RTVSPropertyOp4
 70
     1
102
RTVSPropertyOp5
 70
     1
102
RTVSPropertyOp6
 70
     1
102
RTVSPropertyOp7
 70
     1
102
RTVSPropertyOp8
 70
     1
102
RTVSPropertyOp9
 70
     1
102
RTVSPropertyOp10
 70
     1
102
RTVSPropertyOp11
 70
     1
102
RTVSPropertyOp12
 70
     1
102
RTVSPropertyOp13
 70
     1
102
RTVSPropertyOp14
 70
     1
102
RTVSPropertyOp15
 70
     1
102
RTVSPropertyOp16
 70
     1
102
RTVSPropertyOp17
 70
     1
102
RTVSPropertyOp18
 70
     1
102
RTVSPropertyOp19
 70
     1
102
RTVSPropertyOp20
 70
     1
102
RTVSPropertyOp21
 70
     1
102
RTVSPropertyOp22
 70
     1
102
RTVSPropertyOp23
 70
     1
102
RTVSPropertyOp24
 70
     1
102
RTVSPropertyOp25
 70
     1
102
RTVSPropertyOp26
 70
     1
102
RTVSPropertyOp27
 70
     1
102
RTVSPropertyOp28
 70
     1
102
RTVSPropertyOp29
 70
     1
102
RTVSPropertyOp30
 70
     1
102
RTVSPropertyOp31
 70
     1
102
RTVSPropertyOp32
 70
     1
102
RTVSPropertyOp33
 70
     1
102
RTVSPropertyOp34
 70
     1
102
RTVSPropertyOp35
 70
     1
102
RTVSPropertyOp36
 70
     1
102
RTVSPropertyOp37
 70
     1
102
RTVSPropertyOp38
 70
     1
102
RTVSPropertyOp39
 70
     1
102
RTVSPropertyOp40
 70
     1
102
RTVSPropertyOp41
 70
     1
102
RTVSPropertyOp42
 70
     1
102
RTVSPropertyOp43
 70
     1
102
RTVSPropertyOp44
 70
     1
102
RTVSPropertyOp45
 70
     1
102
RTVSPropertyOp46
 70
     1
102
RTVSPropertyOp47
 70
     1
102
RTVSPropertyOp48
 70
     1
102
RTVSPropertyOp49
 70
     1
102
RTVSPropertyOp50
 70
     1
102
RTVSPropertyOp51
 70
     0
102
RTVSPropertyOp52
 70
     0
102
RTVSPropertyOp53
 70
     1
102
RTVSPropertyOp54
 70
     1
102
RTVSPropertyOp55
 70
     1
102
RTVSPropertyOp56
 70
     1
102
RTVSPropertyOp57
 70
     1
102
RTVSPropertyOp58
 70
     1
102
RTVSPropertyOp59
 70
     1
102
RTVSPropertyOp60
 70
     1
102
RTVSPropertyOp61
 70
     1
102
RTVSPropertyOp62
 70
     1
  0
ENDSEC
  0
EOF
