  0
SECTION
  2
HEADER
  9
$ACADVER
  1
AC1015
  9
$ACADMAINTVER
 70
    20
  9
$DWGCODEPAGE
  3
ANSI_932
  9
$INSBASE
 10
0.0
 20
0.0
 30
0.0
  9
$EXTMIN
 10
-0.0232543666186445
 20
-0.1101379186265845
 30
-0.0015258207003583
  9
$EXTMAX
 10
0.3861225614489347
 20
0.3832704506168181
 30
0.0000000349246037
  9
$LIMMIN
 10
0.0
 20
0.0
  9
$LIMMAX
 10
12.0
 20
9.0
  9
$ORTHOMODE
 70
     0
  9
$REGENMODE
 70
     1
  9
$FILLMODE
 70
     1
  9
$QTEXTMODE
 70
     0
  9
$MIRRTEXT
 70
     1
  9
$LTSCALE
 40
1.0
  9
$ATTMODE
 70
     1
  9
$TEXTSIZE
 40
0.2
  9
$TRACEWID
 40
0.05
  9
$TEXTSTYLE
  7
Standard
  9
$CLAYER
  8
0
  9
$CELTYPE
  6
ByBlock
  9
$CECOLOR
 62
   256
  9
$CELTSCALE
 40
1.0
  9
$DISPSILH
 70
     0
  9
$DIMSCALE
 40
1.0
  9
$DIMASZ
 40
0.18
  9
$DIMEXO
 40
0.0625
  9
$DIMDLI
 40
0.38
  9
$DIMRND
 40
0.0
  9
$DIMDLE
 40
0.0
  9
$DIMEXE
 40
0.18
  9
$DIMTP
 40
0.0
  9
$DIMTM
 40
0.0
  9
$DIMTXT
 40
0.18
  9
$DIMCEN
 40
0.09
  9
$DIMTSZ
 40
0.0
  9
$DIMTOL
 70
     0
  9
$DIMLIM
 70
     0
  9
$DIMTIH
 70
     1
  9
$DIMTOH
 70
     1
  9
$DIMSE1
 70
     0
  9
$DIMSE2
 70
     0
  9
$DIMTAD
 70
     0
  9
$DIMZIN
 70
     0
  9
$DIMBLK
  1

  9
$DIMASO
 70
     1
  9
$DIMSHO
 70
     1
  9
$DIMPOST
  1

  9
$DIMAPOST
  1

  9
$DIMALT
 70
     0
  9
$DIMALTD
 70
     2
  9
$DIMALTF
 40
25.4
  9
$DIMLFAC
 40
1.0
  9
$DIMTOFL
 70
     0
  9
$DIMTVP
 40
0.0
  9
$DIMTIX
 70
     0
  9
$DIMSOXD
 70
     0
  9
$DIMSAH
 70
     0
  9
$DIMBLK1
  1

  9
$DIMBLK2
  1

  9
$DIMSTYLE
  2
Standard
  9
$DIMCLRD
 70
     0
  9
$DIMCLRE
 70
     0
  9
$DIMCLRT
 70
     0
  9
$DIMTFAC
 40
1.0
  9
$DIMGAP
 40
0.09
  9
$DIMJUST
 70
     0
  9
$DIMSD1
 70
     0
  9
$DIMSD2
 70
     0
  9
$DIMTOLJ
 70
     1
  9
$DIMTZIN
 70
     0
  9
$DIMALTZ
 70
     0
  9
$DIMALTTZ
 70
     0
  9
$DIMUPT
 70
     0
  9
$DIMDEC
 70
     4
  9
$DIMTDEC
 70
     4
  9
$DIMALTU
 70
     2
  9
$DIMALTTD
 70
     2
  9
$DIMTXSTY
  7
Standard
  9
$DIMAUNIT
 70
     0
  9
$DIMADEC
 70
     0
  9
$DIMALTRND
 40
0.0
  9
$DIMAZIN
 70
     0
  9
$DIMDSEP
 70
    46
  9
$DIMATFIT
 70
     3
  9
$DIMFRAC
 70
     0
  9
$DIMLDRBLK
  1

  9
$DIMLUNIT
 70
     2
  9
$DIMLWD
 70
    -2
  9
$DIMLWE
 70
    -2
  9
$DIMTMOVE
 70
     0
  9
$LUNITS
 70
     2
  9
$LUPREC
 70
     4
  9
$SKETCHINC
 40
0.1
  9
$FILLETRAD
 40
0.5
  9
$AUNITS
 70
     0
  9
$AUPREC
 70
     0
  9
$MENU
  1
.
  9
$ELEVATION
 40
0.0
  9
$PELEVATION
 40
0.0
  9
$THICKNESS
 40
0.0
  9
$LIMCHECK
 70
     0
  9
$CHAMFERA
 40
0.5
  9
$CHAMFERB
 40
0.5
  9
$CHAMFERC
 40
1.0
  9
$CHAMFERD
 40
0.0
  9
$SKPOLY
 70
     0
  9
$TDCREATE
 40
2457106.723856551
  9
$TDUCREATE
 40
2457106.348856551
  9
$TDUPDATE
 40
2457353.371849780
  9
$TDUUPDATE
 40
2457352.996849780
  9
$TDINDWG
 40
0.0014259954
  9
$TDUSRTIMER
 40
0.0014259954
  9
$USRTIMER
 70
     1
  9
$ANGBASE
 50
0.0
  9
$ANGDIR
 70
     0
  9
$PDMODE
 70
     0
  9
$PDSIZE
 40
0.0
  9
$PLINEWID
 40
0.0
  9
$SPLFRAME
 70
     0
  9
$SPLINETYPE
 70
     6
  9
$SPLINESEGS
 70
     8
  9
$HANDSEED
  5
507
  9
$SURFTAB1
 70
     6
  9
$SURFTAB2
 70
     6
  9
$SURFTYPE
 70
     6
  9
$SURFU
 70
     6
  9
$SURFV
 70
     6
  9
$UCSBASE
  2

  9
$UCSNAME
  2

  9
$UCSORG
 10
0.0
 20
0.0
 30
0.0
  9
$UCSXDIR
 10
1.0
 20
0.0
 30
0.0
  9
$UCSYDIR
 10
0.0
 20
1.0
 30
0.0
  9
$UCSORTHOREF
  2

  9
$UCSORTHOVIEW
 70
     0
  9
$UCSORGTOP
 10
0.0
 20
0.0
 30
0.0
  9
$UCSORGBOTTOM
 10
0.0
 20
0.0
 30
0.0
  9
$UCSORGLEFT
 10
0.0
 20
0.0
 30
0.0
  9
$UCSORGRIGHT
 10
0.0
 20
0.0
 30
0.0
  9
$UCSORGFRONT
 10
0.0
 20
0.0
 30
0.0
  9
$UCSORGBACK
 10
0.0
 20
0.0
 30
0.0
  9
$PUCSBASE
  2

  9
$PUCSNAME
  2

  9
$PUCSORG
 10
0.0
 20
0.0
 30
0.0
  9
$PUCSXDIR
 10
1.0
 20
0.0
 30
0.0
  9
$PUCSYDIR
 10
0.0
 20
1.0
 30
0.0
  9
$PUCSORTHOREF
  2

  9
$PUCSORTHOVIEW
 70
     0
  9
$PUCSORGTOP
 10
0.0
 20
0.0
 30
0.0
  9
$PUCSORGBOTTOM
 10
0.0
 20
0.0
 30
0.0
  9
$PUCSORGLEFT
 10
0.0
 20
0.0
 30
0.0
  9
$PUCSORGRIGHT
 10
0.0
 20
0.0
 30
0.0
  9
$PUCSORGFRONT
 10
0.0
 20
0.0
 30
0.0
  9
$PUCSORGBACK
 10
0.0
 20
0.0
 30
0.0
  9
$USERI1
 70
     0
  9
$USERI2
 70
     0
  9
$USERI3
 70
     0
  9
$USERI4
 70
     0
  9
$USERI5
 70
     0
  9
$USERR1
 40
0.0
  9
$USERR2
 40
0.0
  9
$USERR3
 40
0.0
  9
$USERR4
 40
0.0
  9
$USERR5
 40
0.0
  9
$WORLDVIEW
 70
     1
  9
$SHADEDGE
 70
     3
  9
$SHADEDIF
 70
    70
  9
$TILEMODE
 70
     1
  9
$MAXACTVP
 70
    64
  9
$PINSBASE
 10
0.0
 20
0.0
 30
0.0
  9
$PLIMCHECK
 70
     0
  9
$PEXTMIN
 10
1.000000000000000E+20
 20
1.000000000000000E+20
 30
1.000000000000000E+20
  9
$PEXTMAX
 10
-1.000000000000000E+20
 20
-1.000000000000000E+20
 30
-1.000000000000000E+20
  9
$PLIMMIN
 10
0.0
 20
0.0
  9
$PLIMMAX
 10
12.0
 20
9.0
  9
$UNITMODE
 70
     0
  9
$VISRETAIN
 70
     1
  9
$PLINEGEN
 70
     0
  9
$PSLTSCALE
 70
     1
  9
$TREEDEPTH
 70
  3020
  9
$CMLSTYLE
  2
Standard
  9
$CMLJUST
 70
     0
  9
$CMLSCALE
 40
1.0
  9
$PROXYGRAPHICS
 70
     1
  9
$MEASUREMENT
 70
     0
  9
$CELWEIGHT
370
    -1
  9
$ENDCAPS
280
     0
  9
$JOINSTYLE
280
     0
  9
$LWDISPLAY
290
     0
  9
$INSUNITS
 70
     0
  9
$HYPERLINKBASE
  1

  9
$STYLESHEET
  1

  9
$XEDIT
290
     1
  9
$CEPSNTYPE
380
     0
  9
$PSTYLEMODE
290
     1
  9
$FINGERPRINTGUID
  2
{9728ED1A-E8D0-4869-8AB8-E798BB23F794}
  9
$VERSIONGUID
  2
{D8DFC5C6-9121-4877-BC7A-A4749CB7FA9E}
  9
$EXTNAMES
290
     1
  9
$PSVPSCALE
 40
0.0
  9
$OLESTARTUP
290
     0
  0
ENDSEC
  0
SECTION
  2
CLASSES
  0
CLASS
  1
ACDBDICTIONARYWDFLT
  2
AcDbDictionaryWithDefault
  3
ObjectDBX Classes
 90
        0
280
     0
281
     0
  0
CLASS
  1
MATERIAL
  2
AcDbMaterial
  3
ObjectDBX Classes
 90
     1153
280
     0
281
     0
  0
CLASS
  1
VISUALSTYLE
  2
AcDbVisualStyle
  3
ObjectDBX Classes
 90
     4095
280
     0
281
     0
  0
CLASS
  1
TABLESTYLE
  2
AcDbTableStyle
  3
ObjectDBX Classes
 90
     4095
280
     0
281
     0
  0
CLASS
  1
SCALE
  2
AcDbScale
  3
ObjectDBX Classes
 90
     1153
280
     0
281
     0
  0
CLASS
  1
MLEADERSTYLE
  2
AcDbMLeaderStyle
  3
ACDB_MLEADERSTYLE_CLASS
 90
     4095
280
     0
281
     0
  0
CLASS
  1
ACDBSECTIONVIEWSTYLE
  2
AcDbSectionViewStyle
  3
ObjectDBX Classes
 90
     1025
280
     0
281
     0
  0
CLASS
  1
ACDBDETAILVIEWSTYLE
  2
AcDbDetailViewStyle
  3
ObjectDBX Classes
 90
     1025
280
     0
281
     0
  0
CLASS
  1
ACME_DOCUMENT
  2
AcMeDbDoc
  3
AcMeServices
 90
     1024
280
     0
281
     0
  0
CLASS
  1
AMGSETTINGSOBJ
  2
AmgSettingsObj
  3
"AcadM|Product Description: AutoCAD Mechanical|Company: Autodesk, Inc."
 90
     1024
280
     0
281
     0
  0
CLASS
  1
ACMESCOPE
  2
AcMeScope
  3
AcMeServices
 90
     1024
280
     0
281
     0
  0
CLASS
  1
ACMECOMMANDHISTORY
  2
AcMeCommandHistory
  3
AcMeServices
 90
     1024
280
     0
281
     0
  0
CLASS
  1
ACIMSYSVARMAN
  2
AcImSysVarManager
  3
AcMeServices
 90
     1024
280
     0
281
     0
  0
CLASS
  1
ACIMINTSYSVAR
  2
AcImIntSysVar
  3
AcMeServices
 90
     1024
280
     0
281
     0
  0
CLASS
  1
ACMESTATEMGR
  2
AcMeStateMgr
  3
AcMeServices
 90
     1024
280
     0
281
     0
  0
CLASS
  1
ACDBENTITYCACHE
  2
AcMeEntityCache
  3
AcMeServices
 90
     1024
280
     0
281
     0
  0
CLASS
  1
ACGREFMASTER
  2
AcGrefMaster
  3
AcAttribServices
 90
     1024
280
     0
281
     0
  0
CLASS
  1
ACME_DATABASE
  2
AcMeDbDatabase
  3
AcMeServices
 90
     1024
280
     0
281
     0
  0
CLASS
  1
ACRFINSADJUSTERMGR
  2
AcRfInsAdjusterMgr
  3
AcMeServices
 90
     1024
280
     0
281
     0
  0
CLASS
  1
ACGREFACADMASTER
  2
AcGrefacadMaster
  3
AcGrefServices
 90
     1024
280
     0
281
     0
  0
CLASS
  1
AMDTMENUSTATEMGR
  2
AmdtMenuStateMgr
  3
McadcomServices
 90
     1024
280
     0
281
     0
  0
CLASS
  1
AMDTMCOMMENUSTATE
  2
AmdtMcomMenuState
  3
McadcomServices
 90
     1024
280
     0
281
     0
  0
CLASS
  1
AMIMASTER
  2
AmiMaster
  3
AmiServices
 90
     1024
280
     0
281
     0
  0
CLASS
  1
MAPIAMMOUDLE
  2
MApiAmModule
  3
MApiAmServices
 90
     1024
280
     0
281
     0
  0
CLASS
  1
ACIMSTRSYSVAR
  2
AcImStrSysVar
  3
AcMeServices
 90
     1024
280
     0
281
     0
  0
CLASS
  1
AMDTAMMENUSTATE
  2
AmdtAmMenuState
  3
DesignerAssemblies
 90
     1024
280
     0
281
     0
  0
CLASS
  1
ACAMPROJECT
  2
AcAmProject
  3
DesignerAssemblies
 90
     1024
280
     0
281
     0
  0
CLASS
  1
ACAMGRCOMPDEF
  2
AcAmGrCompDef
  3
DesignerAssemblies
 90
     1024
280
     0
281
     0
  0
CLASS
  1
ACAMCOMPDEF
  2
AcAmCompDef
  3
DesignerAssemblies
 90
     1024
280
     0
281
     0
  0
CLASS
  1
ACAMCOMPDEFMGR
  2
AcAmCompDefMgr
  3
DesignerAssemblies
 90
     1024
280
     0
281
     0
  0
CLASS
  1
AMCONTEXTMGR
  2
AcAmContextMgr
  3
DesignerAssemblies
 90
     1024
280
     0
281
     0
  0
CLASS
  1
ACAMCONTEXTMODELER
  2
AcAmContextModeler
  3
DesignerAssemblies
 90
     1024
280
     0
281
     0
  0
CLASS
  1
ACMDATADICTIONARY
  2
AcmDataDictionary
  3
"AcmSymBB|Product Description: AutoCAD Mechanical|Company: Autodesk, Inc."
 90
     1024
280
     0
281
     0
  0
CLASS
  1
ACAMGRCOMPDEFSET
  2
AcAmGrCompDefSet
  3
DesignerAssemblies
 90
     1024
280
     0
281
     0
  0
CLASS
  1
AMDTBROWSERDBTAB
  2
AmdtBrowserDbTab
  3
McadcomServices
 90
     1024
280
     0
281
     0
  0
CLASS
  1
CBROWSERAPPOBJECT
  2
CBrowserAppObject
  3
McadcomServices
 90
     1024
280
     0
281
     0
  0
CLASS
  1
DM_PLACEHOLDER
  2
AcDmSelsetPlaceholder
  3
McadcomServices
 90
     1024
280
     0
281
     0
  0
CLASS
  1
ACMSTANDARDANSI
  2
AcmStandardANSI
  3
"Amdt_StdImp|Product Description: AutoCAD Mechanical|Company: Autodesk, Inc."
 90
     1024
280
     0
281
     0
  0
CLASS
  1
ACMSURFSTANDARDANSI
  2
AcmSurfTextStdANSI
  3
"Amdt_StdImp|Product Description: AutoCAD Mechanical|Company: Autodesk, Inc."
 90
     1024
280
     0
281
     0
  0
CLASS
  1
ACMFCFSTANDARDANSI
  2
AcmFCFStdANSI
  3
"Amdt_StdImp|Product Description: AutoCAD Mechanical|Company: Autodesk, Inc."
 90
     1024
280
     0
281
     0
  0
CLASS
  1
ACMWELDSTANDARDANSI
  2
AcmWeldingStdANSI
  3
"Amdt_StdImp|Product Description: AutoCAD Mechanical|Company: Autodesk, Inc."
 90
     1024
280
     0
281
     0
  0
CLASS
  1
ACMIDSTANDARDANSI
  2
AcmIdStdANSI
  3
"Amdt_StdImp|Product Description: AutoCAD Mechanical|Company: Autodesk, Inc."
 90
     1024
280
     0
281
     0
  0
CLASS
  1
ACMDATUMSTANDARDANSI
  2
AcmDatumStdANSI
  3
"Amdt_StdImp|Product Description: AutoCAD Mechanical|Company: Autodesk, Inc."
 90
     1024
280
     0
281
     0
  0
CLASS
  1
ACMBOMSTANDARDANSI
  2
AcmBOMStdANSI
  3
"Amdt_StdImp|Product Description: AutoCAD Mechanical|Company: Autodesk, Inc."
 90
     1024
280
     0
281
     0
  0
CLASS
  1
ACMDETAILSTANDARDANSI
  2
AmdtDetailSymStdANSI
  3
"Amdt_StdImp|Product Description: AutoCAD Mechanical|Company: Autodesk, Inc."
 90
     1024
280
     0
281
     0
  0
CLASS
  1
ACMSECTIONSTANDARDANSI
  2
AmdtSectionSymStdANSI
  3
"Amdt_StdImp|Product Description: AutoCAD Mechanical|Company: Autodesk, Inc."
 90
     1024
280
     0
281
     0
  0
CLASS
  1
ACMCENTERLINESTANDARDANSI
  2
AmdtCenterLineStdANSI
  3
"Amdt_StdImp|Product Description: AutoCAD Mechanical|Company: Autodesk, Inc."
 90
     1024
280
     0
281
     0
  0
CLASS
  1
ACMTHREADLINESTANDARDANSI
  2
AmdtThreadLineStdANSI
  3
"Amdt_StdImp|Product Description: AutoCAD Mechanical|Company: Autodesk, Inc."
 90
     1024
280
     0
281
     0
  0
CLASS
  1
ACMNOTESTANDARDANSI
  2
AmdtNoteStdANSI
  3
"Amdt_StdImp|Product Description: AutoCAD Mechanical|Company: Autodesk, Inc."
 90
     1024
280
     0
281
     0
  0
CLASS
  1
ACMTAPERSTANDARDANSI
  2
AcmTaperStdANSI
  3
"Amdt_StdImp|Product Description: AutoCAD Mechanical|Company: Autodesk, Inc."
 90
     1024
280
     0
281
     0
  0
CLASS
  1
ACMANOOTATIONVIEWSTANDARDANSI
  2
AmdtAnViewStdANSI
  3
"Amdt_StdImp|Product Description: AutoCAD Mechanical|Company: Autodesk, Inc."
 90
     1024
280
     0
281
     0
  0
CLASS
  1
ACAMGLAYSTD
  2
AcAmgLayStd
  3
"AmgLay|Product Description: AutoCAD Mechanical|Company: Autodesk, Inc."
 90
     1024
280
     0
281
     0
  0
CLASS
  1
ACAMGDIMSTD
  2
AcAmgDimStd
  3
"AmgDim|Product Description: AutoCAD Mechanical|Company: Autodesk, Inc."
 90
     1024
280
     0
281
     0
  0
CLASS
  1
AMGOBJPROPCFG
  2
AmgObjPropCfg
  3
"AmgLay|Product Description: AutoCAD Mechanical|Company: Autodesk, Inc."
 90
     1024
280
     0
281
     0
  0
CLASS
  1
ACAMGHOLECHARTSTDANSI
  2
AcAmgHoleChartStdANSI
  3
AmgDim|Product Description: AutoCAD Mechanical|Company: Autodesk, Inc.
 90
     1024
280
     0
281
     0
  0
CLASS
  1
ACAMGTITLESTD
  2
AcAmgTitleStd
  3
"AmgTitle|Product Description: AutoCAD Mechanical|Company: Autodesk, Inc."
 90
     1024
280
     0
281
     0
  0
CLASS
  1
AMDTNOTETEMPLATEDB
  2
AmdtNoteTemplateDB
  3
AcmSymBB|Product Description: AutoCAD Mechanical|Company: Autodesk, Inc.
 90
     1024
280
     0
281
     0
  0
CLASS
  1
ACAMGFILTERDAT
  2
AcAmgFilterDat
  3
"AcadM|Product Description: AutoCAD Mechanical|Company: Autodesk, Inc."
 90
     1024
280
     0
281
     0
  0
CLASS
  1
SORTENTSTABLE
  2
AcDbSortentsTable
  3
ObjectDBX Classes
 90
        0
280
     0
281
     0
  0
CLASS
  1
CELLSTYLEMAP
  2
AcDbCellStyleMap
  3
ObjectDBX Classes
 90
     1152
280
     0
281
     0
  0
CLASS
  1
DICTIONARYVAR
  2
AcDbDictionaryVar
  3
ObjectDBX Classes
 90
        0
280
     0
281
     0
  0
CLASS
  1
ACDBPLACEHOLDER
  2
AcDbPlaceHolder
  3
ObjectDBX Classes
 90
        0
280
     0
281
     0
  0
CLASS
  1
LAYOUT
  2
AcDbLayout
  3
ObjectDBX Classes
 90
        0
280
     0
281
     0
  0
ENDSEC
  0
SECTION
  2
TABLES
  0
TABLE
  2
VPORT
  5
8
330
0
100
AcDbSymbolTable
 70
     1
  0
VPORT
  5
122
330
8
100
AcDbSymbolTableRecord
100
AcDbViewportTableRecord
  2
*Active
 70
     0
 10
0.0
 20
0.0
 11
1.0
 21
1.0
 12
0.1265474450879758
 22
0.2027461727498907
 13
0.0
 23
0.0
 14
0.5
 24
0.5
 15
0.5
 25
0.5
 16
0.0
 26
0.0
 36
1.0
 17
0.0
 27
0.0
 37
0.0
 40
0.9843307282636795
 41
1.681623931623931
 42
50.0
 43
0.0
 44
0.0
 50
0.0
 51
0.0
 71
     0
 72
   100
 73
     1
 74
     3
 75
     0
 76
     0
 77
     0
 78
     0
281
     0
 65
     1
110
0.0
120
0.0
130
0.0
111
1.0
121
0.0
131
0.0
112
0.0
122
1.0
132
0.0
 79
     0
146
0.0
1001
ACAD_NAV_VCDISPLAY
1070
     3
  0
ENDTAB
  0
TABLE
  2
LTYPE
  5
5
330
0
100
AcDbSymbolTable
 70
     8
  0
LTYPE
  5
14
330
5
100
AcDbSymbolTableRecord
100
AcDbLinetypeTableRecord
  2
ByBlock
 70
     0
  3

 72
    65
 73
     0
 40
0.0
  0
LTYPE
  5
15
330
5
100
AcDbSymbolTableRecord
100
AcDbLinetypeTableRecord
  2
ByLayer
 70
     0
  3

 72
    65
 73
     0
 40
0.0
  0
LTYPE
  5
16
330
5
100
AcDbSymbolTableRecord
100
AcDbLinetypeTableRecord
  2
Continuous
 70
     0
  3
Solid line
 72
    65
 73
     0
 40
0.0
  0
LTYPE
  5
172
330
5
100
AcDbSymbolTableRecord
100
AcDbLinetypeTableRecord
  2
PHANTOM2
 70
     0
  3
Phantom (.5x) ___ _ _ ___ _ _ ___ _ _ ___ _ _
 72
    65
 73
     6
 40
1.25
 49
0.625
 74
     0
 49
-0.125
 74
     0
 49
0.125
 74
     0
 49
-0.125
 74
     0
 49
0.125
 74
     0
 49
-0.125
 74
     0
  0
LTYPE
  5
187
330
5
100
AcDbSymbolTableRecord
100
AcDbLinetypeTableRecord
  2
HIDDEN
 70
     0
  3
Hidden __ __ __ __ __ __ __ __ __ __ __ __ __ _
 72
    65
 73
     2
 40
0.375
 49
0.25
 74
     0
 49
-0.125
 74
     0
  0
LTYPE
  5
188
330
5
100
AcDbSymbolTableRecord
100
AcDbLinetypeTableRecord
  2
CENTER
 70
     0
  3
Center ____ _ ____ _ ____ _ ____ _ ____ _ ____
 72
    65
 73
     4
 40
2.0
 49
1.25
 74
     0
 49
-0.25
 74
     0
 49
0.25
 74
     0
 49
-0.25
 74
     0
  0
LTYPE
  5
1C2
330
5
100
AcDbSymbolTableRecord
100
AcDbLinetypeTableRecord
  2
CENTER2
 70
     0
  3
Center (.5x) ___ _ ___ _ ___ _ ___ _ ___ _ ___
 72
    65
 73
     4
 40
1.125
 49
0.75
 74
     0
 49
-0.125
 74
     0
 49
0.125
 74
     0
 49
-0.125
 74
     0
  0
LTYPE
  5
1C3
330
5
100
AcDbSymbolTableRecord
100
AcDbLinetypeTableRecord
  2
HIDDEN2
 70
     0
  3
Hidden (.5x) _ _ _ _ _ _ _ _ _ _ _ _ _ _ _ _ _
 72
    65
 73
     2
 40
0.1875
 49
0.125
 74
     0
 49
-0.0625
 74
     0
  0
LTYPE
  5
1D1
330
5
100
AcDbSymbolTableRecord
100
AcDbLinetypeTableRecord
  2
ACANSTGB
 70
     0
  3
__ . . __ . .
 72
    65
 73
     6
 40
0.35433070866
 49
0.15748031496
 74
     0
 49
-0.03937007874
 74
     0
 49
0.03937007874
 74
     0
 49
-0.03937007874
 74
     0
 49
0.03937007874
 74
     0
 49
-0.03937007874
 74
     0
  0
LTYPE
  5
1D2
330
5
100
AcDbSymbolTableRecord
100
AcDbLinetypeTableRecord
  2
ACANSTGL
 70
     0
  3
_ _ _ _ _
 72
    65
 73
     2
 40
0.11811023622
 49
0.07874015748
 74
     0
 49
-0.03937007874
 74
     0
  0
ENDTAB
  0
TABLE
  2
LAYER
  5
2
330
0
100
AcDbSymbolTable
 70
     2
  0
LAYER
  5
10
102
{ACAD_XDICTIONARY
360
4B1
102
}
330
2
100
AcDbSymbolTableRecord
100
AcDbLayerTableRecord
  2
0
 70
     0
 62
     7
  6
Continuous
370
    -3
390
F
  0
LAYER
  5
445
102
{ACAD_XDICTIONARY
360
4B3
102
}
330
2
100
AcDbSymbolTableRecord
100
AcDbLayerTableRecord
  2
AM_CL
 70
     0
 62
     1
  6
Continuous
370
    15
390
F
1001
AcAecLayerStandard
1000

1000

  0
ENDTAB
  0
TABLE
  2
STYLE
  5
3
330
0
100
AcDbSymbolTable
 70
     3
  0
STYLE
  5
11
330
3
100
AcDbSymbolTableRecord
100
AcDbTextStyleTableRecord
  2
Standard
 70
     0
 40
0.0
 41
1.0
 50
0.0
 71
     0
 42
0.2
  3
txt
  4

  0
STYLE
  5
1CF
330
3
100
AcDbSymbolTableRecord
100
AcDbTextStyleTableRecord
  2
ACANSTS
 70
     0
 40
1.0
 41
1.0
 50
0.0
 71
     0
 42
0.2
  3
romans.shx
  4
extfont.shx
  0
STYLE
  5
1D0
330
3
100
AcDbSymbolTableRecord
100
AcDbTextStyleTableRecord
  2
ACANSGDT
 70
     0
 40
0.0
 41
1.0
 50
0.0
 71
     0
 42
0.2
  3
amgdt.shx
  4

  0
ENDTAB
  0
TABLE
  2
VIEW
  5
6
330
0
100
AcDbSymbolTable
 70
     0
  0
ENDTAB
  0
TABLE
  2
UCS
  5
7
330
0
100
AcDbSymbolTable
 70
     0
  0
ENDTAB
  0
TABLE
  2
APPID
  5
9
330
0
100
AcDbSymbolTable
 70
    14
  0
APPID
  5
12
330
9
100
AcDbSymbolTableRecord
100
AcDbRegAppTableRecord
  2
ACAD
 70
     0
  0
APPID
  5
180
330
9
100
AcDbSymbolTableRecord
100
AcDbRegAppTableRecord
  2
MCAD_NO_VIS
 70
     0
  0
APPID
  5
181
330
9
100
AcDbSymbolTableRecord
100
AcDbRegAppTableRecord
  2
ACAD_TEMP_GRAPHIC
 70
     0
  0
APPID
  5
18D
330
9
100
AcDbSymbolTableRecord
100
AcDbRegAppTableRecord
  2
ACATTRIBSERVICES
 70
     0
  0
APPID
  5
1A5
330
9
100
AcDbSymbolTableRecord
100
AcDbRegAppTableRecord
  2
DESIGNERASSEMBLIES
 70
     0
  0
APPID
  5
1BF
330
9
100
AcDbSymbolTableRecord
100
AcDbRegAppTableRecord
  2
ACAD_DSTYLE_DIMJAG
 70
     0
  0
APPID
  5
1C0
330
9
100
AcDbSymbolTableRecord
100
AcDbRegAppTableRecord
  2
ACAD_DSTYLE_DIMBREAK
 70
     0
  0
APPID
  5
1DA
330
9
100
AcDbSymbolTableRecord
100
AcDbRegAppTableRecord
  2
ACAD_NAV_VCDISPLAY
 70
     0
  0
APPID
  5
446
330
9
100
AcDbSymbolTableRecord
100
AcDbRegAppTableRecord
  2
AcAecLayerStandard
 70
     0
  0
APPID
  5
500
330
9
100
AcDbSymbolTableRecord
100
AcDbRegAppTableRecord
  2
ACAD_MLEADERVER
 70
     0
  0
APPID
  5
503
330
9
100
AcDbSymbolTableRecord
100
AcDbRegAppTableRecord
  2
ACAD_DSTYLE_DIMARC_LENGTH_SYMBOL
 70
     0
  0
APPID
  5
504
330
9
100
AcDbSymbolTableRecord
100
AcDbRegAppTableRecord
  2
ACAD_DSTYLE_DIM_LINETYPE
 70
     0
  0
APPID
  5
505
330
9
100
AcDbSymbolTableRecord
100
AcDbRegAppTableRecord
  2
ACAD_DSTYLE_DIM_EXT1_LINETYPE
 70
     0
  0
APPID
  5
506
330
9
100
AcDbSymbolTableRecord
100
AcDbRegAppTableRecord
  2
ACAD_DSTYLE_DIM_EXT2_LINETYPE
 70
     0
  0
ENDTAB
  0
TABLE
  2
DIMSTYLE
  5
A
330
0
100
AcDbSymbolTable
 70
     7
100
AcDbDimStyleTable
 71
     0
  0
DIMSTYLE
105
21
330
A
100
AcDbSymbolTableRecord
100
AcDbDimStyleTableRecord
  2
Standard
 70
     0
340
11
  0
DIMSTYLE
105
1BE
102
{ACAD_REACTORS
330
1AE
102
}
330
A
100
AcDbSymbolTableRecord
100
AcDbDimStyleTableRecord
  2
AM_ANSI
 70
     0
  4
mm
 41
0.12
 42
0.05
 43
0.5
 44
0.1
 47
0.1
 48
0.1
 78
     7
 79
     2
140
0.12
141
0.0
146
0.71
147
0.06
176
   256
177
   256
178
     2
274
     4
284
     7
340
11
371
    -1
372
    -1
1001
ACAD_DSTYLE_DIMJAG
1070
   388
1040
1.5
1001
ACAD_DSTYLE_DIMBREAK
1070
   391
1040
0.125
1001
ACAD_DSTYLE_DIMARC_LENGTH_SYMBOL
1070
   379
1070
     1
1001
ACAD_DSTYLE_DIM_LINETYPE
1070
   380
1005
14
1001
ACAD_DSTYLE_DIM_EXT1_LINETYPE
1070
   381
1005
14
1001
ACAD_DSTYLE_DIM_EXT2_LINETYPE
1070
   382
1005
14
  0
DIMSTYLE
105
1C4
330
A
100
AcDbSymbolTableRecord
100
AcDbDimStyleTableRecord
  2
AM_ANSI$3
 70
     0
  4
mm
 41
0.12
 42
0.05
 43
0.5
 44
0.1
 47
0.1
 48
0.1
 78
     7
 79
     2
140
0.12
141
0.0
146
0.71
147
0.06
176
   256
177
   256
178
     2
274
     4
284
     7
288
     1
289
     0
340
11
371
    -1
372
    -1
1001
ACAD_DSTYLE_DIMBREAK
1070
   391
1040
0.125
1001
ACAD_DSTYLE_DIMJAG
1070
   388
1040
1.5
1001
ACAD_DSTYLE_DIMARC_LENGTH_SYMBOL
1070
   379
1070
     1
1001
ACAD_DSTYLE_DIM_LINETYPE
1070
   380
1005
14
1001
ACAD_DSTYLE_DIM_EXT1_LINETYPE
1070
   381
1005
14
1001
ACAD_DSTYLE_DIM_EXT2_LINETYPE
1070
   382
1005
14
  0
DIMSTYLE
105
1C5
330
A
100
AcDbSymbolTableRecord
100
AcDbDimStyleTableRecord
  2
AM_ANSI$4
 70
     0
  4
mm
 41
0.12
 42
0.05
 43
0.5
 44
0.1
 47
0.1
 48
0.1
 78
     7
 79
     2
140
0.12
141
0.0
146
0.71
147
0.06
176
   256
177
   256
178
     2
274
     4
284
     7
288
     1
289
     0
340
11
371
    -1
372
    -1
1001
ACAD_DSTYLE_DIMBREAK
1070
   391
1040
0.125
1001
ACAD_DSTYLE_DIMJAG
1070
   388
1040
1.5
1001
ACAD_DSTYLE_DIMARC_LENGTH_SYMBOL
1070
   379
1070
     1
1001
ACAD_DSTYLE_DIM_LINETYPE
1070
   380
1005
14
1001
ACAD_DSTYLE_DIM_EXT1_LINETYPE
1070
   381
1005
14
1001
ACAD_DSTYLE_DIM_EXT2_LINETYPE
1070
   382
1005
14
  0
DIMSTYLE
105
1C6
330
A
100
AcDbSymbolTableRecord
100
AcDbDimStyleTableRecord
  2
AM_ANSI$7
 70
     0
  4
mm
 41
0.12
 42
0.05
 43
0.5
 44
0.1
 47
0.1
 48
0.1
 78
     7
 79
     2
140
0.12
141
0.0
146
0.71
147
0.06
176
   256
177
   256
178
     2
274
     4
284
     7
340
11
371
    -1
372
    -1
1001
ACAD_DSTYLE_DIMBREAK
1070
   391
1040
0.125
1001
ACAD_DSTYLE_DIMJAG
1070
   388
1040
1.5
1001
ACAD_DSTYLE_DIMARC_LENGTH_SYMBOL
1070
   379
1070
     1
1001
ACAD_DSTYLE_DIM_LINETYPE
1070
   380
1005
14
1001
ACAD_DSTYLE_DIM_EXT1_LINETYPE
1070
   381
1005
14
1001
ACAD_DSTYLE_DIM_EXT2_LINETYPE
1070
   382
1005
14
  0
DIMSTYLE
105
1C7
330
A
100
AcDbSymbolTableRecord
100
AcDbDimStyleTableRecord
  2
AM_ANSI$SF
 70
     0
  4
mm
 41
0.12
 42
0.05
 43
0.5
 44
0.1
 47
0.1
 48
0.1
 75
     1
 76
     1
 78
     7
 79
     2
140
0.12
141
0.0
146
0.71
147
0.06
176
   256
177
   256
178
     2
274
     4
284
     7
340
11
371
    -1
372
    -1
1001
ACAD_DSTYLE_DIMBREAK
1070
   391
1040
0.125
1001
ACAD_DSTYLE_DIMJAG
1070
   388
1040
1.5
1001
ACAD_DSTYLE_DIMARC_LENGTH_SYMBOL
1070
   379
1070
     1
1001
ACAD_DSTYLE_DIM_LINETYPE
1070
   380
1005
14
1001
ACAD_DSTYLE_DIM_EXT1_LINETYPE
1070
   381
1005
14
1001
ACAD_DSTYLE_DIM_EXT2_LINETYPE
1070
   382
1005
14
  0
DIMSTYLE
105
1CC
330
A
100
AcDbSymbolTableRecord
100
AcDbDimStyleTableRecord
  2
AM_ANSI$SH
 70
     0
  4
mm
 41
0.12
 42
0.05
 43
0.5
 44
0.1
 47
0.1
 48
0.1
 75
     1
 76
     1
 78
     7
 79
     2
140
0.12
141
0.0
146
0.71
147
0.06
173
     1
176
   256
177
   256
178
     2
274
     4
284
     7
340
11
343
1C8
371
    -1
372
    -1
1001
ACAD_DSTYLE_DIMBREAK
1070
   391
1040
0.125
1001
ACAD_DSTYLE_DIMJAG
1070
   388
1040
1.5
1001
ACAD_DSTYLE_DIMARC_LENGTH_SYMBOL
1070
   379
1070
     1
1001
ACAD_DSTYLE_DIM_LINETYPE
1070
   380
1005
14
1001
ACAD_DSTYLE_DIM_EXT1_LINETYPE
1070
   381
1005
14
1001
ACAD_DSTYLE_DIM_EXT2_LINETYPE
1070
   382
1005
14
  0
ENDTAB
  0
TABLE
  2
BLOCK_RECORD
  5
1
330
0
100
AcDbSymbolTable
 70
     4
  0
BLOCK_RECORD
  5
1D
102
{ACAD_XDICTIONARY
360
448
102
}
330
1
100
AcDbSymbolTableRecord
100
AcDbBlockTableRecord
  2
*Model_Space
340
1E
  0
BLOCK_RECORD
  5
1B
330
1
100
AcDbSymbolTableRecord
100
AcDbBlockTableRecord
  2
*Paper_Space
340
1C
  0
BLOCK_RECORD
  5
1C8
330
1
100
AcDbSymbolTableRecord
100
AcDbBlockTableRecord
  2
GENAXEH
340
0
  0
ENDTAB
  0
ENDSEC
  0
SECTION
  2
BLOCKS
  0
BLOCK
  5
123
330
1D
100
AcDbEntity
  8
0
100
AcDbBlockBegin
  2
*Model_Space
 70
     0
 10
0.0
 20
0.0
 30
0.0
  3
*Model_Space
  1

  0
ENDBLK
  5
124
330
1D
100
AcDbEntity
  8
0
100
AcDbBlockEnd
  0
BLOCK
  5
125
330
1B
100
AcDbEntity
 67
     1
  8
0
100
AcDbBlockBegin
  2
*Paper_Space
 70
     0
 10
0.0
 20
0.0
 30
0.0
  3
*Paper_Space
  1

  0
ENDBLK
  5
126
330
1B
100
AcDbEntity
 67
     1
  8
0
100
AcDbBlockEnd
  0
BLOCK
  5
1CA
330
1C8
100
AcDbEntity
  8
0
100
AcDbBlockBegin
  2
GENAXEH
 70
     0
 10
0.0
 20
0.0
 30
0.0
  3
GENAXEH
  1

  0
LINE
  5
1C9
330
1C8
100
AcDbEntity
  8
0
100
AcDbLine
 10
-1.0
 20
0.0
 30
0.0
 11
1.0
 21
0.0
 31
0.0
  0
ENDBLK
  5
1CB
330
1C8
100
AcDbEntity
  8
0
100
AcDbBlockEnd
  0
ENDSEC
  0
SECTION
  2
ENTITIES
  0
LINE
  5
22
330
1D
100
AcDbEntity
  8
0
  6
Continuous
100
AcDbLine
 10
-0.016455
 20
0.11
 30
0.0
 11
-0.018353
 21
0.11
 31
0.0
  0
LINE
  5
23
330
1D
100
AcDbEntity
  8
0
  6
Continuous
100
AcDbLine
 10
-0.0095
 20
0.11
 30
0.0
 11
-0.013435
 21
0.11
 31
0.0
  0
LINE
  5
24
330
1D
100
AcDbEntity
  8
0
  6
Continuous
100
AcDbLine
 10
-0.019
 20
0.11
 30
0.0
 11
-0.019
 21
0.10961
 31
0.0
  0
LINE
  5
25
330
1D
100
AcDbEntity
  8
0
  6
Continuous
100
AcDbLine
 10
-0.018353
 20
0.11
 30
0.0
 11
-0.019
 21
0.11
 31
0.0
  0
LINE
  5
26
330
1D
100
AcDbEntity
  8
0
  6
Continuous
100
AcDbLine
 10
-0.013435
 20
0.11
 30
0.0
 11
-0.016455
 21
0.11
 31
0.0
  0
LINE
  5
27
330
1D
100
AcDbEntity
  8
0
  6
Continuous
100
AcDbLine
 10
-0.004918
 20
0.11
 30
0.0
 11
-0.0095
 21
0.11
 31
0.0
  0
LINE
  5
28
330
1D
100
AcDbEntity
  8
0
  6
Continuous
100
AcDbLine
 10
-0.019
 20
0.10961
 30
0.0
 11
-0.019
 21
0.060193
 31
0.0
  0
LINE
  5
29
330
1D
100
AcDbEntity
  8
0
  6
Continuous
100
AcDbLine
 10
0.0
 20
0.11
 30
0.0
 11
-0.004918
 21
0.11
 31
0.0
  0
LINE
  5
2A
330
1D
100
AcDbEntity
  8
0
  6
Continuous
100
AcDbLine
 10
0.0
 20
0.100949
 30
0.0
 11
-0.000697
 21
0.100994
 31
0.0
  0
LINE
  5
2B
330
1D
100
AcDbEntity
  8
0
  6
Continuous
100
AcDbLine
 10
-0.001062
 20
0.100509
 30
0.0
 11
-0.001062
 21
0.069293
 31
0.0
  0
LINE
  5
2C
330
1D
100
AcDbEntity
  8
0
  6
Continuous
100
AcDbLine
 10
-0.001577
 20
0.101289
 30
0.0
 11
-0.001063
 21
0.101017
 31
0.0
  0
LINE
  5
2D
330
1D
100
AcDbEntity
  8
0
  6
Continuous
100
AcDbLine
 10
-0.001577
 20
0.101289
 30
0.0
 11
-0.004601
 21
0.103386
 31
0.0
  0
LINE
  5
2E
330
1D
100
AcDbEntity
  8
0
  6
Continuous
100
AcDbLine
 10
-0.004601
 20
0.103386
 30
0.0
 11
-0.00155
 21
0.103268
 31
0.0
  0
LINE
  5
2F
330
1D
100
AcDbEntity
  8
0
  6
Continuous
100
AcDbLine
 10
-0.00069
 20
0.106142
 30
0.0
 11
-0.001062
 21
0.106139
 31
0.0
  0
LINE
  5
30
330
1D
100
AcDbEntity
  8
0
  6
Continuous
100
AcDbLine
 10
-0.004918
 20
0.102445
 30
0.0
 11
-0.004918
 21
0.067357
 31
0.0
  0
LINE
  5
31
330
1D
100
AcDbEntity
  8
0
  6
Continuous
100
AcDbLine
 10
-0.001063
 20
0.101017
 30
0.0
 11
-0.001062
 21
0.100509
 31
0.0
  0
LINE
  5
32
330
1D
100
AcDbEntity
  8
0
  6
Continuous
100
AcDbLine
 10
-0.001073
 20
0.101622
 30
0.0
 11
-0.001063
 21
0.101017
 31
0.0
  0
LINE
  5
33
330
1D
100
AcDbEntity
  8
0
  6
Continuous
100
AcDbLine
 10
-0.001063
 20
0.101017
 30
0.0
 11
-0.000697
 21
0.100994
 31
0.0
  0
LINE
  5
34
330
1D
100
AcDbEntity
  8
0
  6
Continuous
100
AcDbLine
 10
-0.004918
 20
0.103014
 30
0.0
 11
-0.004918
 21
0.102445
 31
0.0
  0
LINE
  5
35
330
1D
100
AcDbEntity
  8
0
  6
Continuous
100
AcDbLine
 10
-0.004918
 20
0.103585
 30
0.0
 11
-0.004918
 21
0.103014
 31
0.0
  0
LINE
  5
36
330
1D
100
AcDbEntity
  8
0
  6
Continuous
100
AcDbLine
 10
0.0
 20
0.106148
 30
0.0
 11
-0.00069
 21
0.106142
 31
0.0
  0
LINE
  5
37
330
1D
100
AcDbEntity
  8
0
  6
Continuous
100
AcDbLine
 10
-0.004918
 20
0.103705
 30
0.0
 11
-0.004918
 21
0.103585
 31
0.0
  0
LINE
  5
38
330
1D
100
AcDbEntity
  8
0
  6
Continuous
100
AcDbLine
 10
-0.00429
 20
0.10611
 30
0.0
 11
-0.004918
 21
0.106104
 31
0.0
  0
LINE
  5
39
330
1D
100
AcDbEntity
  8
0
  6
Continuous
100
AcDbLine
 10
-0.004918
 20
0.106104
 30
0.0
 11
-0.004918
 21
0.105949
 31
0.0
  0
LINE
  5
3A
330
1D
100
AcDbEntity
  8
0
  6
Continuous
100
AcDbLine
 10
-0.00154
 20
0.106134
 30
0.0
 11
-0.00429
 21
0.10611
 31
0.0
  0
LINE
  5
3B
330
1D
100
AcDbEntity
  8
0
  6
Continuous
100
AcDbLine
 10
-0.001062
 20
0.106139
 30
0.0
 11
-0.00154
 21
0.106134
 31
0.0
  0
LINE
  5
3C
330
1D
100
AcDbEntity
  8
0
  6
Continuous
100
AcDbLine
 10
-0.004918
 20
0.104827
 30
0.0
 11
-0.004918
 21
0.103705
 31
0.0
  0
LINE
  5
3D
330
1D
100
AcDbEntity
  8
0
  6
Continuous
100
AcDbLine
 10
-0.004448
 20
0.104731
 30
0.0
 11
-0.004918
 21
0.103705
 31
0.0
  0
LINE
  5
3E
330
1D
100
AcDbEntity
  8
0
  6
Continuous
100
AcDbLine
 10
-0.004918
 20
0.105949
 30
0.0
 11
-0.004918
 21
0.104827
 31
0.0
  0
LINE
  5
3F
330
1D
100
AcDbEntity
  8
0
  6
Continuous
100
AcDbLine
 10
-0.004448
 20
0.104731
 30
0.0
 11
-0.004573
 21
0.103632
 31
0.0
  0
LINE
  5
40
330
1D
100
AcDbEntity
  8
0
  6
Continuous
100
AcDbLine
 10
-0.001548
 20
0.10401
 30
0.0
 11
-0.004573
 21
0.103632
 31
0.0
  0
LINE
  5
41
330
1D
100
AcDbEntity
  8
0
  6
Continuous
100
AcDbLine
 10
-0.004573
 20
0.103632
 30
0.0
 11
-0.00155
 21
0.103268
 31
0.0
  0
LINE
  5
42
330
1D
100
AcDbEntity
  8
0
  6
Continuous
100
AcDbLine
 10
-0.018353
 20
0.059802
 30
0.0
 11
-0.016455
 21
0.059802
 31
0.0
  0
LINE
  5
43
330
1D
100
AcDbEntity
  8
0
  6
Continuous
100
AcDbLine
 10
-0.013435
 20
0.059802
 30
0.0
 11
-0.0095
 21
0.059802
 31
0.0
  0
LINE
  5
44
330
1D
100
AcDbEntity
  8
0
  6
Continuous
100
AcDbLine
 10
-0.019
 20
0.059802
 30
0.0
 11
-0.018353
 21
0.059802
 31
0.0
  0
LINE
  5
45
330
1D
100
AcDbEntity
  8
0
  6
Continuous
100
AcDbLine
 10
-0.019
 20
0.060193
 30
0.0
 11
-0.019
 21
0.059802
 31
0.0
  0
LINE
  5
46
330
1D
100
AcDbEntity
  8
0
  6
Continuous
100
AcDbLine
 10
-0.016455
 20
0.059802
 30
0.0
 11
-0.013435
 21
0.059802
 31
0.0
  0
LINE
  5
47
330
1D
100
AcDbEntity
  8
0
  6
Continuous
100
AcDbLine
 10
-0.0095
 20
0.059802
 30
0.0
 11
-0.004918
 21
0.059802
 31
0.0
  0
LINE
  5
48
330
1D
100
AcDbEntity
  8
0
  6
Continuous
100
AcDbLine
 10
-0.004918
 20
0.059802
 30
0.0
 11
0.0
 21
0.059802
 31
0.0
  0
LINE
  5
49
330
1D
100
AcDbEntity
  8
0
  6
Continuous
100
AcDbLine
 10
-0.000697
 20
0.068809
 30
0.0
 11
0.0
 21
0.068853
 31
0.0
  0
LINE
  5
4A
330
1D
100
AcDbEntity
  8
0
  6
Continuous
100
AcDbLine
 10
-0.001063
 20
0.068785
 30
0.0
 11
-0.001577
 21
0.068513
 31
0.0
  0
LINE
  5
4B
330
1D
100
AcDbEntity
  8
0
  6
Continuous
100
AcDbLine
 10
-0.001577
 20
0.068513
 30
0.0
 11
-0.004601
 21
0.066416
 31
0.0
  0
LINE
  5
4C
330
1D
100
AcDbEntity
  8
0
  6
Continuous
100
AcDbLine
 10
-0.004601
 20
0.066416
 30
0.0
 11
-0.00155
 21
0.066534
 31
0.0
  0
LINE
  5
4D
330
1D
100
AcDbEntity
  8
0
  6
Continuous
100
AcDbLine
 10
-0.001062
 20
0.063664
 30
0.0
 11
-0.00069
 21
0.06366
 31
0.0
  0
LINE
  5
4E
330
1D
100
AcDbEntity
  8
0
  6
Continuous
100
AcDbLine
 10
-0.001062
 20
0.069293
 30
0.0
 11
-0.001063
 21
0.068785
 31
0.0
  0
LINE
  5
4F
330
1D
100
AcDbEntity
  8
0
  6
Continuous
100
AcDbLine
 10
-0.000697
 20
0.068809
 30
0.0
 11
-0.001063
 21
0.068785
 31
0.0
  0
LINE
  5
50
330
1D
100
AcDbEntity
  8
0
  6
Continuous
100
AcDbLine
 10
-0.001063
 20
0.068785
 30
0.0
 11
-0.001073
 21
0.06818
 31
0.0
  0
LINE
  5
51
330
1D
100
AcDbEntity
  8
0
  6
Continuous
100
AcDbLine
 10
-0.004918
 20
0.067357
 30
0.0
 11
-0.004918
 21
0.066788
 31
0.0
  0
LINE
  5
52
330
1D
100
AcDbEntity
  8
0
  6
Continuous
100
AcDbLine
 10
-0.004918
 20
0.066788
 30
0.0
 11
-0.004918
 21
0.066217
 31
0.0
  0
LINE
  5
53
330
1D
100
AcDbEntity
  8
0
  6
Continuous
100
AcDbLine
 10
-0.00069
 20
0.06366
 30
0.0
 11
0.0
 21
0.063654
 31
0.0
  0
LINE
  5
54
330
1D
100
AcDbEntity
  8
0
  6
Continuous
100
AcDbLine
 10
-0.004918
 20
0.066217
 30
0.0
 11
-0.004918
 21
0.066097
 31
0.0
  0
LINE
  5
55
330
1D
100
AcDbEntity
  8
0
  6
Continuous
100
AcDbLine
 10
-0.004918
 20
0.063853
 30
0.0
 11
-0.004918
 21
0.063698
 31
0.0
  0
LINE
  5
56
330
1D
100
AcDbEntity
  8
0
  6
Continuous
100
AcDbLine
 10
-0.004918
 20
0.063698
 30
0.0
 11
-0.00429
 21
0.063692
 31
0.0
  0
LINE
  5
57
330
1D
100
AcDbEntity
  8
0
  6
Continuous
100
AcDbLine
 10
-0.00429
 20
0.063692
 30
0.0
 11
-0.00154
 21
0.063668
 31
0.0
  0
LINE
  5
58
330
1D
100
AcDbEntity
  8
0
  6
Continuous
100
AcDbLine
 10
-0.00154
 20
0.063668
 30
0.0
 11
-0.001062
 21
0.063664
 31
0.0
  0
LINE
  5
59
330
1D
100
AcDbEntity
  8
0
  6
Continuous
100
AcDbLine
 10
-0.004448
 20
0.065071
 30
0.0
 11
-0.004918
 21
0.066097
 31
0.0
  0
LINE
  5
5A
330
1D
100
AcDbEntity
  8
0
  6
Continuous
100
AcDbLine
 10
-0.004918
 20
0.066097
 30
0.0
 11
-0.004918
 21
0.064975
 31
0.0
  0
LINE
  5
5B
330
1D
100
AcDbEntity
  8
0
  6
Continuous
100
AcDbLine
 10
-0.004918
 20
0.064975
 30
0.0
 11
-0.004918
 21
0.063853
 31
0.0
  0
LINE
  5
5C
330
1D
100
AcDbEntity
  8
0
  6
Continuous
100
AcDbLine
 10
-0.00155
 20
0.066534
 30
0.0
 11
-0.004573
 21
0.06617
 31
0.0
  0
LINE
  5
5D
330
1D
100
AcDbEntity
  8
0
  6
Continuous
100
AcDbLine
 10
-0.001548
 20
0.065792
 30
0.0
 11
-0.004573
 21
0.06617
 31
0.0
  0
LINE
  5
5E
330
1D
100
AcDbEntity
  8
0
  6
Continuous
100
AcDbLine
 10
-0.004573
 20
0.06617
 30
0.0
 11
-0.004448
 21
0.065071
 31
0.0
  0
LINE
  5
5F
330
1D
100
AcDbEntity
  8
0
  6
Continuous
100
AcDbLine
 10
0.018353
 20
0.11
 30
0.0
 11
0.016455
 21
0.11
 31
0.0
  0
LINE
  5
60
330
1D
100
AcDbEntity
  8
0
  6
Continuous
100
AcDbLine
 10
0.013435
 20
0.11
 30
0.0
 11
0.0095
 21
0.11
 31
0.0
  0
LINE
  5
61
330
1D
100
AcDbEntity
  8
0
  6
Continuous
100
AcDbLine
 10
0.019
 20
0.11
 30
0.0
 11
0.018353
 21
0.11
 31
0.0
  0
LINE
  5
62
330
1D
100
AcDbEntity
  8
0
  6
Continuous
100
AcDbLine
 10
0.019
 20
0.10961
 30
0.0
 11
0.019
 21
0.11
 31
0.0
  0
LINE
  5
63
330
1D
100
AcDbEntity
  8
0
  6
Continuous
100
AcDbLine
 10
0.016455
 20
0.11
 30
0.0
 11
0.013435
 21
0.11
 31
0.0
  0
LINE
  5
64
330
1D
100
AcDbEntity
  8
0
  6
Continuous
100
AcDbLine
 10
0.0095
 20
0.11
 30
0.0
 11
0.004918
 21
0.11
 31
0.0
  0
LINE
  5
65
330
1D
100
AcDbEntity
  8
0
  6
Continuous
100
AcDbLine
 10
0.019
 20
0.060193
 30
0.0
 11
0.019
 21
0.10961
 31
0.0
  0
LINE
  5
66
330
1D
100
AcDbEntity
  8
0
  6
Continuous
100
AcDbLine
 10
0.004918
 20
0.11
 30
0.0
 11
0.0
 21
0.11
 31
0.0
  0
LINE
  5
67
330
1D
100
AcDbEntity
  8
0
  6
Continuous
100
AcDbLine
 10
0.0
 20
0.101605
 30
0.0
 11
0.0
 21
0.100949
 31
0.0
  0
LINE
  5
68
330
1D
100
AcDbEntity
  8
0
  6
Continuous
100
AcDbLine
 10
0.0
 20
0.100949
 30
0.0
 11
0.0
 21
0.100445
 31
0.0
  0
LINE
  5
69
330
1D
100
AcDbEntity
  8
0
  6
Continuous
100
AcDbLine
 10
0.000697
 20
0.100994
 30
0.0
 11
0.0
 21
0.100949
 31
0.0
  0
LINE
  5
6A
330
1D
100
AcDbEntity
  8
0
  6
Continuous
100
AcDbLine
 10
0.001062
 20
0.069293
 30
0.0
 11
0.001062
 21
0.100509
 31
0.0
  0
LINE
  5
6B
330
1D
100
AcDbEntity
  8
0
  6
Continuous
100
AcDbLine
 10
0.001063
 20
0.101017
 30
0.0
 11
0.001577
 21
0.101289
 31
0.0
  0
LINE
  5
6C
330
1D
100
AcDbEntity
  8
0
  6
Continuous
100
AcDbLine
 10
0.001577
 20
0.101289
 30
0.0
 11
0.004601
 21
0.103386
 31
0.0
  0
LINE
  5
6D
330
1D
100
AcDbEntity
  8
0
  6
Continuous
100
AcDbLine
 10
0.004601
 20
0.103386
 30
0.0
 11
0.00155
 21
0.103268
 31
0.0
  0
LINE
  5
6E
330
1D
100
AcDbEntity
  8
0
  6
Continuous
100
AcDbLine
 10
0.001062
 20
0.106139
 30
0.0
 11
0.00069
 21
0.106142
 31
0.0
  0
LINE
  5
6F
330
1D
100
AcDbEntity
  8
0
  6
Continuous
100
AcDbLine
 10
0.004918
 20
0.067357
 30
0.0
 11
0.004918
 21
0.102445
 31
0.0
  0
LINE
  5
70
330
1D
100
AcDbEntity
  8
0
  6
Continuous
100
AcDbLine
 10
0.001062
 20
0.100509
 30
0.0
 11
0.001063
 21
0.101017
 31
0.0
  0
LINE
  5
71
330
1D
100
AcDbEntity
  8
0
  6
Continuous
100
AcDbLine
 10
0.000697
 20
0.100994
 30
0.0
 11
0.001063
 21
0.101017
 31
0.0
  0
LINE
  5
72
330
1D
100
AcDbEntity
  8
0
  6
Continuous
100
AcDbLine
 10
0.001063
 20
0.101017
 30
0.0
 11
0.001073
 21
0.101622
 31
0.0
  0
LINE
  5
73
330
1D
100
AcDbEntity
  8
0
  6
Continuous
100
AcDbLine
 10
0.004918
 20
0.102445
 30
0.0
 11
0.004918
 21
0.103014
 31
0.0
  0
LINE
  5
74
330
1D
100
AcDbEntity
  8
0
  6
Continuous
100
AcDbLine
 10
0.004918
 20
0.103014
 30
0.0
 11
0.004918
 21
0.103585
 31
0.0
  0
LINE
  5
75
330
1D
100
AcDbEntity
  8
0
  6
Continuous
100
AcDbLine
 10
0.00069
 20
0.106142
 30
0.0
 11
0.0
 21
0.106148
 31
0.0
  0
LINE
  5
76
330
1D
100
AcDbEntity
  8
0
  6
Continuous
100
AcDbLine
 10
0.004918
 20
0.103585
 30
0.0
 11
0.004918
 21
0.103705
 31
0.0
  0
LINE
  5
77
330
1D
100
AcDbEntity
  8
0
  6
Continuous
100
AcDbLine
 10
0.004918
 20
0.105949
 30
0.0
 11
0.004918
 21
0.106104
 31
0.0
  0
LINE
  5
78
330
1D
100
AcDbEntity
  8
0
  6
Continuous
100
AcDbLine
 10
0.004918
 20
0.106104
 30
0.0
 11
0.00429
 21
0.10611
 31
0.0
  0
LINE
  5
79
330
1D
100
AcDbEntity
  8
0
  6
Continuous
100
AcDbLine
 10
0.00429
 20
0.10611
 30
0.0
 11
0.00154
 21
0.106134
 31
0.0
  0
LINE
  5
7A
330
1D
100
AcDbEntity
  8
0
  6
Continuous
100
AcDbLine
 10
0.00154
 20
0.106134
 30
0.0
 11
0.001062
 21
0.106139
 31
0.0
  0
LINE
  5
7B
330
1D
100
AcDbEntity
  8
0
  6
Continuous
100
AcDbLine
 10
0.004448
 20
0.104731
 30
0.0
 11
0.004918
 21
0.103705
 31
0.0
  0
LINE
  5
7C
330
1D
100
AcDbEntity
  8
0
  6
Continuous
100
AcDbLine
 10
0.004918
 20
0.103705
 30
0.0
 11
0.004918
 21
0.104827
 31
0.0
  0
LINE
  5
7D
330
1D
100
AcDbEntity
  8
0
  6
Continuous
100
AcDbLine
 10
0.004918
 20
0.104827
 30
0.0
 11
0.004918
 21
0.105949
 31
0.0
  0
LINE
  5
7E
330
1D
100
AcDbEntity
  8
0
  6
Continuous
100
AcDbLine
 10
0.00155
 20
0.103268
 30
0.0
 11
0.004573
 21
0.103632
 31
0.0
  0
LINE
  5
7F
330
1D
100
AcDbEntity
  8
0
  6
Continuous
100
AcDbLine
 10
0.001548
 20
0.10401
 30
0.0
 11
0.004573
 21
0.103632
 31
0.0
  0
LINE
  5
80
330
1D
100
AcDbEntity
  8
0
  6
Continuous
100
AcDbLine
 10
0.004573
 20
0.103632
 30
0.0
 11
0.004448
 21
0.104731
 31
0.0
  0
LINE
  5
81
330
1D
100
AcDbEntity
  8
0
  6
Continuous
100
AcDbLine
 10
0.016455
 20
0.059802
 30
0.0
 11
0.018353
 21
0.059802
 31
0.0
  0
LINE
  5
82
330
1D
100
AcDbEntity
  8
0
  6
Continuous
100
AcDbLine
 10
0.0095
 20
0.059802
 30
0.0
 11
0.013435
 21
0.059802
 31
0.0
  0
LINE
  5
83
330
1D
100
AcDbEntity
  8
0
  6
Continuous
100
AcDbLine
 10
0.019
 20
0.059802
 30
0.0
 11
0.019
 21
0.060193
 31
0.0
  0
LINE
  5
84
330
1D
100
AcDbEntity
  8
0
  6
Continuous
100
AcDbLine
 10
0.018353
 20
0.059802
 30
0.0
 11
0.019
 21
0.059802
 31
0.0
  0
LINE
  5
85
330
1D
100
AcDbEntity
  8
0
  6
Continuous
100
AcDbLine
 10
0.013435
 20
0.059802
 30
0.0
 11
0.016455
 21
0.059802
 31
0.0
  0
LINE
  5
86
330
1D
100
AcDbEntity
  8
0
  6
Continuous
100
AcDbLine
 10
0.004918
 20
0.059802
 30
0.0
 11
0.0095
 21
0.059802
 31
0.0
  0
LINE
  5
87
330
1D
100
AcDbEntity
  8
0
  6
Continuous
100
AcDbLine
 10
0.0
 20
0.059802
 30
0.0
 11
0.004918
 21
0.059802
 31
0.0
  0
LINE
  5
88
330
1D
100
AcDbEntity
  8
0
  6
Continuous
100
AcDbLine
 10
0.0
 20
0.068853
 30
0.0
 11
0.0
 21
0.068197
 31
0.0
  0
LINE
  5
89
330
1D
100
AcDbEntity
  8
0
  6
Continuous
100
AcDbLine
 10
0.0
 20
0.068853
 30
0.0
 11
0.000697
 21
0.068809
 31
0.0
  0
LINE
  5
8A
330
1D
100
AcDbEntity
  8
0
  6
Continuous
100
AcDbLine
 10
0.0
 20
0.069358
 30
0.0
 11
0.0
 21
0.068853
 31
0.0
  0
LINE
  5
8B
330
1D
100
AcDbEntity
  8
0
  6
Continuous
100
AcDbLine
 10
0.001577
 20
0.068513
 30
0.0
 11
0.001063
 21
0.068785
 31
0.0
  0
LINE
  5
8C
330
1D
100
AcDbEntity
  8
0
  6
Continuous
100
AcDbLine
 10
0.001577
 20
0.068513
 30
0.0
 11
0.004601
 21
0.066416
 31
0.0
  0
LINE
  5
8D
330
1D
100
AcDbEntity
  8
0
  6
Continuous
100
AcDbLine
 10
0.004601
 20
0.066416
 30
0.0
 11
0.00155
 21
0.066534
 31
0.0
  0
LINE
  5
8E
330
1D
100
AcDbEntity
  8
0
  6
Continuous
100
AcDbLine
 10
0.00069
 20
0.06366
 30
0.0
 11
0.001062
 21
0.063664
 31
0.0
  0
LINE
  5
8F
330
1D
100
AcDbEntity
  8
0
  6
Continuous
100
AcDbLine
 10
0.001063
 20
0.068785
 30
0.0
 11
0.001062
 21
0.069293
 31
0.0
  0
LINE
  5
90
330
1D
100
AcDbEntity
  8
0
  6
Continuous
100
AcDbLine
 10
0.001073
 20
0.06818
 30
0.0
 11
0.001063
 21
0.068785
 31
0.0
  0
LINE
  5
91
330
1D
100
AcDbEntity
  8
0
  6
Continuous
100
AcDbLine
 10
0.001063
 20
0.068785
 30
0.0
 11
0.000697
 21
0.068809
 31
0.0
  0
LINE
  5
92
330
1D
100
AcDbEntity
  8
0
  6
Continuous
100
AcDbLine
 10
0.004918
 20
0.066788
 30
0.0
 11
0.004918
 21
0.067357
 31
0.0
  0
LINE
  5
93
330
1D
100
AcDbEntity
  8
0
  6
Continuous
100
AcDbLine
 10
0.004918
 20
0.066217
 30
0.0
 11
0.004918
 21
0.066788
 31
0.0
  0
LINE
  5
94
330
1D
100
AcDbEntity
  8
0
  6
Continuous
100
AcDbLine
 10
0.0
 20
0.063654
 30
0.0
 11
0.00069
 21
0.06366
 31
0.0
  0
LINE
  5
95
330
1D
100
AcDbEntity
  8
0
  6
Continuous
100
AcDbLine
 10
0.004918
 20
0.066097
 30
0.0
 11
0.004918
 21
0.066217
 31
0.0
  0
LINE
  5
96
330
1D
100
AcDbEntity
  8
0
  6
Continuous
100
AcDbLine
 10
0.00429
 20
0.063692
 30
0.0
 11
0.004918
 21
0.063698
 31
0.0
  0
LINE
  5
97
330
1D
100
AcDbEntity
  8
0
  6
Continuous
100
AcDbLine
 10
0.004918
 20
0.063698
 30
0.0
 11
0.004918
 21
0.063853
 31
0.0
  0
LINE
  5
98
330
1D
100
AcDbEntity
  8
0
  6
Continuous
100
AcDbLine
 10
0.00154
 20
0.063668
 30
0.0
 11
0.00429
 21
0.063692
 31
0.0
  0
LINE
  5
99
330
1D
100
AcDbEntity
  8
0
  6
Continuous
100
AcDbLine
 10
0.001062
 20
0.063664
 30
0.0
 11
0.00154
 21
0.063668
 31
0.0
  0
LINE
  5
9A
330
1D
100
AcDbEntity
  8
0
  6
Continuous
100
AcDbLine
 10
0.004918
 20
0.064975
 30
0.0
 11
0.004918
 21
0.066097
 31
0.0
  0
LINE
  5
9B
330
1D
100
AcDbEntity
  8
0
  6
Continuous
100
AcDbLine
 10
0.004448
 20
0.065071
 30
0.0
 11
0.004918
 21
0.066097
 31
0.0
  0
LINE
  5
9C
330
1D
100
AcDbEntity
  8
0
  6
Continuous
100
AcDbLine
 10
0.004918
 20
0.063853
 30
0.0
 11
0.004918
 21
0.064975
 31
0.0
  0
LINE
  5
9D
330
1D
100
AcDbEntity
  8
0
  6
Continuous
100
AcDbLine
 10
0.004448
 20
0.065071
 30
0.0
 11
0.004573
 21
0.06617
 31
0.0
  0
LINE
  5
9E
330
1D
100
AcDbEntity
  8
0
  6
Continuous
100
AcDbLine
 10
0.001548
 20
0.065792
 30
0.0
 11
0.004573
 21
0.06617
 31
0.0
  0
LINE
  5
9F
330
1D
100
AcDbEntity
  8
0
  6
Continuous
100
AcDbLine
 10
0.004573
 20
0.06617
 30
0.0
 11
0.00155
 21
0.066534
 31
0.0
  0
LINE
  5
A0
330
1D
100
AcDbEntity
  8
0
  6
Continuous
100
AcDbLine
 10
0.0
 20
0.069358
 30
0.0
 11
0.0
 21
0.100445
 31
0.0
  0
LINE
  5
A1
330
1D
100
AcDbEntity
  8
0
  6
Continuous
100
AcDbLine
 10
-0.006973
 20
-0.003623
 30
0.0
 11
-0.003666
 21
-0.002484
 31
0.0
  0
LINE
  5
A2
330
1D
100
AcDbEntity
  8
0
  6
Continuous
100
AcDbLine
 10
-0.009598
 20
-0.005396
 30
0.0
 11
-0.006973
 21
-0.003623
 31
0.0
  0
LINE
  5
A3
330
1D
100
AcDbEntity
  8
0
  6
Continuous
100
AcDbLine
 10
-0.011283
 20
-0.007632
 30
0.0
 11
-0.009598
 21
-0.005396
 31
0.0
  0
LINE
  5
A4
330
1D
100
AcDbEntity
  8
0
  6
Continuous
100
AcDbLine
 10
-0.011863
 20
-0.009472
 30
0.0
 11
-0.011863
 21
-0.010109
 31
0.0
  0
LINE
  5
A5
330
1D
100
AcDbEntity
  8
0
  6
Continuous
100
AcDbLine
 10
-0.011863
 20
-0.010109
 30
0.0
 11
-0.011283
 21
-0.007632
 31
0.0
  0
LINE
  5
A6
330
1D
100
AcDbEntity
  8
0
  6
Continuous
100
AcDbLine
 10
-0.011863
 20
-0.010109
 30
0.0
 11
-0.011283
 21
-0.012587
 31
0.0
  0
LINE
  5
A7
330
1D
100
AcDbEntity
  8
0
  6
Continuous
100
AcDbLine
 10
-0.011283
 20
-0.012587
 30
0.0
 11
-0.009598
 21
-0.014822
 31
0.0
  0
LINE
  5
A8
330
1D
100
AcDbEntity
  8
0
  6
Continuous
100
AcDbLine
 10
-0.009598
 20
-0.014822
 30
0.0
 11
-0.006973
 21
-0.016596
 31
0.0
  0
LINE
  5
A9
330
1D
100
AcDbEntity
  8
0
  6
Continuous
100
AcDbLine
 10
-0.006973
 20
-0.016596
 30
0.0
 11
-0.003666
 21
-0.017735
 31
0.0
  0
LINE
  5
AA
330
1D
100
AcDbEntity
  8
0
  6
Continuous
100
AcDbLine
 10
-0.003666
 20
-0.017735
 30
0.0
 11
0.0
 21
-0.018127
 31
0.0
  0
LINE
  5
AB
330
1D
100
AcDbEntity
  8
0
  6
Continuous
100
AcDbLine
 10
0.0
 20
-0.018127
 30
0.0
 11
0.003666
 21
-0.017735
 31
0.0
  0
LINE
  5
AC
330
1D
100
AcDbEntity
  8
0
  6
Continuous
100
AcDbLine
 10
0.003666
 20
-0.017735
 30
0.0
 11
0.006973
 21
-0.016596
 31
0.0
  0
LINE
  5
AD
330
1D
100
AcDbEntity
  8
0
  6
Continuous
100
AcDbLine
 10
0.006973
 20
-0.016596
 30
0.0
 11
0.009598
 21
-0.014822
 31
0.0
  0
LINE
  5
AE
330
1D
100
AcDbEntity
  8
0
  6
Continuous
100
AcDbLine
 10
0.009598
 20
-0.014822
 30
0.0
 11
0.011283
 21
-0.012587
 31
0.0
  0
LINE
  5
AF
330
1D
100
AcDbEntity
  8
0
  6
Continuous
100
AcDbLine
 10
0.011283
 20
-0.012587
 30
0.0
 11
0.011863
 21
-0.010109
 31
0.0
  0
LINE
  5
B0
330
1D
100
AcDbEntity
  8
0
  6
Continuous
100
AcDbLine
 10
0.011863
 20
-0.010109
 30
0.0
 11
0.011863
 21
-0.009472
 31
0.0
  0
LINE
  5
B1
330
1D
100
AcDbEntity
  8
0
  6
Continuous
100
AcDbLine
 10
0.011283
 20
-0.007632
 30
0.0
 11
0.011863
 21
-0.010109
 31
0.0
  0
LINE
  5
B2
330
1D
100
AcDbEntity
  8
0
  6
Continuous
100
AcDbLine
 10
0.009598
 20
-0.005396
 30
0.0
 11
0.011283
 21
-0.007632
 31
0.0
  0
LINE
  5
B3
330
1D
100
AcDbEntity
  8
0
  6
Continuous
100
AcDbLine
 10
0.006973
 20
-0.003623
 30
0.0
 11
0.009598
 21
-0.005396
 31
0.0
  0
LINE
  5
B4
330
1D
100
AcDbEntity
  8
0
  6
Continuous
100
AcDbLine
 10
0.003666
 20
-0.002484
 30
0.0
 11
0.006973
 21
-0.003623
 31
0.0
  0
LINE
  5
B5
330
1D
100
AcDbEntity
  8
0
  6
Continuous
100
AcDbLine
 10
0.0
 20
-0.002091
 30
0.0
 11
0.003666
 21
-0.002484
 31
0.0
  0
LINE
  5
B6
330
1D
100
AcDbEntity
  8
0
  6
Continuous
100
AcDbLine
 10
-0.003666
 20
-0.002484
 30
0.0
 11
0.0
 21
-0.002091
 31
0.0
  0
LINE
  5
B7
330
1D
100
AcDbEntity
  8
0
  6
Continuous
100
AcDbLine
 10
0.011863
 20
-0.009472
 30
0.0
 11
0.011863
 21
-0.006447
 31
0.0
  0
LINE
  5
B8
330
1D
100
AcDbEntity
  8
0
  6
Continuous
100
AcDbLine
 10
-0.011863
 20
-0.006447
 30
0.0
 11
-0.011863
 21
-0.009472
 31
0.0
  0
LINE
  5
B9
330
1D
100
AcDbEntity
  8
0
  6
Continuous
100
AcDbLine
 10
-0.005304
 20
-0.005177
 30
0.0
 11
-0.002789
 21
-0.004311
 31
0.0
  0
LINE
  5
BA
330
1D
100
AcDbEntity
  8
0
  6
Continuous
100
AcDbLine
 10
-0.0073
 20
-0.006526
 30
0.0
 11
-0.005304
 21
-0.005177
 31
0.0
  0
LINE
  5
BB
330
1D
100
AcDbEntity
  8
0
  6
Continuous
100
AcDbLine
 10
-0.008581
 20
-0.008226
 30
0.0
 11
-0.0073
 21
-0.006526
 31
0.0
  0
LINE
  5
BC
330
1D
100
AcDbEntity
  8
0
  6
Continuous
100
AcDbLine
 10
-0.009022
 20
-0.010109
 30
0.0
 11
-0.008581
 21
-0.008226
 31
0.0
  0
LINE
  5
BD
330
1D
100
AcDbEntity
  8
0
  6
Continuous
100
AcDbLine
 10
0.008581
 20
-0.008226
 30
0.0
 11
0.009022
 21
-0.010109
 31
0.0
  0
LINE
  5
BE
330
1D
100
AcDbEntity
  8
0
  6
Continuous
100
AcDbLine
 10
0.0073
 20
-0.006526
 30
0.0
 11
0.008581
 21
-0.008226
 31
0.0
  0
LINE
  5
BF
330
1D
100
AcDbEntity
  8
0
  6
Continuous
100
AcDbLine
 10
0.005304
 20
-0.005177
 30
0.0
 11
0.0073
 21
-0.006526
 31
0.0
  0
LINE
  5
C0
330
1D
100
AcDbEntity
  8
0
  6
Continuous
100
AcDbLine
 10
0.002789
 20
-0.004311
 30
0.0
 11
0.005304
 21
-0.005177
 31
0.0
  0
LINE
  5
C1
330
1D
100
AcDbEntity
  8
0
  6
Continuous
100
AcDbLine
 10
0.0
 20
-0.004012
 30
0.0
 11
0.002789
 21
-0.004311
 31
0.0
  0
LINE
  5
C2
330
1D
100
AcDbEntity
  8
0
  6
Continuous
100
AcDbLine
 10
-0.002789
 20
-0.004311
 30
0.0
 11
0.0
 21
-0.004012
 31
0.0
  0
LINE
  5
C3
330
1D
100
AcDbEntity
  8
0
  6
Continuous
100
AcDbLine
 10
-0.005304
 20
-0.01466
 30
0.0
 11
-0.0073
 21
-0.013311
 31
0.0
  0
LINE
  5
C4
330
1D
100
AcDbEntity
  8
0
  6
Continuous
100
AcDbLine
 10
-0.0073
 20
-0.013693
 30
0.0
 11
-0.005304
 21
-0.015042
 31
0.0
  0
LINE
  5
C5
330
1D
100
AcDbEntity
  8
0
  6
Continuous
100
AcDbLine
 10
0.005304
 20
-0.01466
 30
0.0
 11
0.002789
 21
-0.015526
 31
0.0
  0
LINE
  5
C6
330
1D
100
AcDbEntity
  8
0
  6
Continuous
100
AcDbLine
 10
0.002789
 20
-0.015908
 30
0.0
 11
0.005304
 21
-0.015042
 31
0.0
  0
LINE
  5
C7
330
1D
100
AcDbEntity
  8
0
  6
Continuous
100
AcDbLine
 10
0.0073
 20
-0.013311
 30
0.0
 11
0.005304
 21
-0.01466
 31
0.0
  0
LINE
  5
C8
330
1D
100
AcDbEntity
  8
0
  6
Continuous
100
AcDbLine
 10
0.005304
 20
-0.015042
 30
0.0
 11
0.0073
 21
-0.013693
 31
0.0
  0
LINE
  5
C9
330
1D
100
AcDbEntity
  8
0
  6
Continuous
100
AcDbLine
 10
-0.002789
 20
-0.015526
 30
0.0
 11
-0.005304
 21
-0.01466
 31
0.0
  0
LINE
  5
CA
330
1D
100
AcDbEntity
  8
0
  6
Continuous
100
AcDbLine
 10
-0.005304
 20
-0.015042
 30
0.0
 11
-0.002789
 21
-0.015908
 31
0.0
  0
LINE
  5
CB
330
1D
100
AcDbEntity
  8
0
  6
Continuous
100
AcDbLine
 10
0.008581
 20
-0.011611
 30
0.0
 11
0.0073
 21
-0.013311
 31
0.0
  0
LINE
  5
CC
330
1D
100
AcDbEntity
  8
0
  6
Continuous
100
AcDbLine
 10
0.0073
 20
-0.013693
 30
0.0
 11
0.008581
 21
-0.011993
 31
0.0
  0
LINE
  5
CD
330
1D
100
AcDbEntity
  8
0
  6
Continuous
100
AcDbLine
 10
0.0
 20
-0.015824
 30
0.0
 11
-0.002789
 21
-0.015526
 31
0.0
  0
LINE
  5
CE
330
1D
100
AcDbEntity
  8
0
  6
Continuous
100
AcDbLine
 10
-0.002789
 20
-0.015908
 30
0.0
 11
0.0
 21
-0.016206
 31
0.0
  0
LINE
  5
CF
330
1D
100
AcDbEntity
  8
0
  6
Continuous
100
AcDbLine
 10
-0.008581
 20
-0.011611
 30
0.0
 11
-0.009022
 21
-0.009727
 31
0.0
  0
LINE
  5
D0
330
1D
100
AcDbEntity
  8
0
  6
Continuous
100
AcDbLine
 10
-0.009022
 20
-0.010109
 30
0.0
 11
-0.008581
 21
-0.011993
 31
0.0
  0
LINE
  5
D1
330
1D
100
AcDbEntity
  8
0
  6
Continuous
100
AcDbLine
 10
0.009022
 20
-0.009727
 30
0.0
 11
0.008581
 21
-0.011611
 31
0.0
  0
LINE
  5
D2
330
1D
100
AcDbEntity
  8
0
  6
Continuous
100
AcDbLine
 10
0.008581
 20
-0.011993
 30
0.0
 11
0.009022
 21
-0.010109
 31
0.0
  0
LINE
  5
D3
330
1D
100
AcDbEntity
  8
0
  6
Continuous
100
AcDbLine
 10
0.002789
 20
-0.015526
 30
0.0
 11
0.0
 21
-0.015824
 31
0.0
  0
LINE
  5
D4
330
1D
100
AcDbEntity
  8
0
  6
Continuous
100
AcDbLine
 10
0.0
 20
-0.016206
 30
0.0
 11
0.002789
 21
-0.015908
 31
0.0
  0
LINE
  5
D5
330
1D
100
AcDbEntity
  8
0
  6
Continuous
100
AcDbLine
 10
-0.0073
 20
-0.013311
 30
0.0
 11
-0.008581
 21
-0.011611
 31
0.0
  0
LINE
  5
D6
330
1D
100
AcDbEntity
  8
0
  6
Continuous
100
AcDbLine
 10
-0.008581
 20
-0.011993
 30
0.0
 11
-0.0073
 21
-0.013693
 31
0.0
  0
LINE
  5
D7
330
1D
100
AcDbEntity
  8
0
  6
Continuous
100
AcDbLine
 10
-0.016199
 20
0.025078
 30
0.0
 11
-0.01615
 21
0.023551
 31
0.0
  0
LINE
  5
D8
330
1D
100
AcDbEntity
  8
0
  6
Continuous
100
AcDbLine
 10
0.019224
 20
0.043401
 30
0.0
 11
0.019015
 21
0.057401
 31
0.0
  0
LINE
  5
D9
330
1D
100
AcDbEntity
  8
0
  6
Continuous
100
AcDbLine
 10
-0.016252
 20
0.026751
 30
0.0
 11
-0.016225
 21
0.025904
 31
0.0
  0
LINE
  5
DA
330
1D
100
AcDbEntity
  8
0
  6
Continuous
100
AcDbLine
 10
-0.016225
 20
0.025904
 30
0.0
 11
-0.016199
 21
0.025078
 31
0.0
  0
LINE
  5
DB
330
1D
100
AcDbEntity
  8
0
  6
Continuous
100
AcDbLine
 10
-0.013732
 20
0.036176
 30
0.0
 11
-0.013796
 21
0.033203
 31
0.0
  0
LINE
  5
DC
330
1D
100
AcDbEntity
  8
0
  6
Continuous
100
AcDbLine
 10
-0.013635
 20
0.041197
 30
0.0
 11
-0.013732
 21
0.036176
 31
0.0
  0
LINE
  5
DD
330
1D
100
AcDbEntity
  8
0
  6
Continuous
100
AcDbLine
 10
-0.013635
 20
0.041197
 30
0.0
 11
-0.013532
 21
0.04692
 31
0.0
  0
LINE
  5
DE
330
1D
100
AcDbEntity
  8
0
  6
Continuous
100
AcDbLine
 10
-0.019015
 20
0.057401
 30
0.0
 11
-0.019224
 21
0.043401
 31
0.0
  0
LINE
  5
DF
330
1D
100
AcDbEntity
  8
0
  6
Continuous
100
AcDbLine
 10
-0.019224
 20
0.043401
 30
0.0
 11
-0.019593
 21
0.028401
 31
0.0
  0
LINE
  5
E0
330
1D
100
AcDbEntity
  8
0
  6
Continuous
100
AcDbLine
 10
-0.019593
 20
0.028401
 30
0.0
 11
-0.020086
 21
0.008387
 31
0.0
  0
LINE
  5
E1
330
1D
100
AcDbEntity
  8
0
  6
Continuous
100
AcDbLine
 10
0.01615
 20
0.023551
 30
0.0
 11
0.016199
 21
0.025078
 31
0.0
  0
LINE
  5
E2
330
1D
100
AcDbEntity
  8
0
  6
Continuous
100
AcDbLine
 10
0.016225
 20
0.025904
 30
0.0
 11
0.016252
 21
0.026751
 31
0.0
  0
LINE
  5
E3
330
1D
100
AcDbEntity
  8
0
  6
Continuous
100
AcDbLine
 10
0.016199
 20
0.025078
 30
0.0
 11
0.016225
 21
0.025904
 31
0.0
  0
LINE
  5
E4
330
1D
100
AcDbEntity
  8
0
  6
Continuous
100
AcDbLine
 10
0.013796
 20
0.033203
 30
0.0
 11
0.013732
 21
0.036176
 31
0.0
  0
LINE
  5
E5
330
1D
100
AcDbEntity
  8
0
  6
Continuous
100
AcDbLine
 10
0.013732
 20
0.036176
 30
0.0
 11
0.013635
 21
0.041197
 31
0.0
  0
LINE
  5
E6
330
1D
100
AcDbEntity
  8
0
  6
Continuous
100
AcDbLine
 10
0.022975
 20
-0.109
 30
0.0
 11
0.020835
 21
-0.022037
 31
0.0
  0
LINE
  5
E7
330
1D
100
AcDbEntity
  8
0
  6
Continuous
100
AcDbLine
 10
0.013532
 20
0.04692
 30
0.0
 11
0.013635
 21
0.041197
 31
0.0
  0
LINE
  5
E8
330
1D
100
AcDbEntity
  8
0
  6
Continuous
100
AcDbLine
 10
-0.020835
 20
-0.022037
 30
0.0
 11
-0.022975
 21
-0.109
 31
0.0
  0
LINE
  5
E9
330
1D
100
AcDbEntity
  8
0
  6
Continuous
100
AcDbLine
 10
0.019593
 20
0.028401
 30
0.0
 11
0.019224
 21
0.043401
 31
0.0
  0
LINE
  5
EA
330
1D
100
AcDbEntity
  8
0
  6
Continuous
100
AcDbLine
 10
0.020086
 20
0.008387
 30
0.0
 11
0.019593
 21
0.028401
 31
0.0
  0
LINE
  5
EB
330
1D
100
AcDbEntity
  8
0
  6
Continuous
100
AcDbLine
 10
-0.013732
 20
-0.001284
 30
0.0
 11
-0.010411
 21
0.002191
 31
0.0
  0
LINE
  5
EC
330
1D
100
AcDbEntity
  8
0
  6
Continuous
100
AcDbLine
 10
-0.010411
 20
0.002191
 30
0.0
 11
-0.00562
 21
0.004493
 31
0.0
  0
LINE
  5
ED
330
1D
100
AcDbEntity
  8
0
  6
Continuous
100
AcDbLine
 10
-0.00562
 20
0.004493
 30
0.0
 11
0.0
 21
0.005309
 31
0.0
  0
LINE
  5
EE
330
1D
100
AcDbEntity
  8
0
  6
Continuous
100
AcDbLine
 10
-0.015225
 20
-0.005473
 30
0.0
 11
-0.015202
 21
-0.005897
 31
0.0
  0
LINE
  5
EF
330
1D
100
AcDbEntity
  8
0
  6
Continuous
100
AcDbLine
 10
-0.013732
 20
-0.001284
 30
0.0
 11
-0.015202
 21
-0.005897
 31
0.0
  0
LINE
  5
F0
330
1D
100
AcDbEntity
  8
0
  6
Continuous
100
AcDbLine
 10
-0.015202
 20
-0.005897
 30
0.0
 11
-0.013699
 21
-0.010582
 31
0.0
  0
LINE
  5
F1
330
1D
100
AcDbEntity
  8
0
  6
Continuous
100
AcDbLine
 10
-0.013699
 20
-0.010582
 30
0.0
 11
-0.010259
 21
-0.014495
 31
0.0
  0
LINE
  5
F2
330
1D
100
AcDbEntity
  8
0
  6
Continuous
100
AcDbLine
 10
0.013732
 20
-0.001284
 30
0.0
 11
0.010411
 21
0.002191
 31
0.0
  0
LINE
  5
F3
330
1D
100
AcDbEntity
  8
0
  6
Continuous
100
AcDbLine
 10
0.010411
 20
0.002191
 30
0.0
 11
0.00562
 21
0.004493
 31
0.0
  0
LINE
  5
F4
330
1D
100
AcDbEntity
  8
0
  6
Continuous
100
AcDbLine
 10
0.00562
 20
0.004493
 30
0.0
 11
0.0
 21
0.005309
 31
0.0
  0
LINE
  5
F5
330
1D
100
AcDbEntity
  8
0
  6
Continuous
100
AcDbLine
 10
0.015202
 20
-0.005897
 30
0.0
 11
0.015225
 21
-0.005473
 31
0.0
  0
LINE
  5
F6
330
1D
100
AcDbEntity
  8
0
  6
Continuous
100
AcDbLine
 10
0.013732
 20
-0.001284
 30
0.0
 11
0.015202
 21
-0.005897
 31
0.0
  0
LINE
  5
F7
330
1D
100
AcDbEntity
  8
0
  6
Continuous
100
AcDbLine
 10
0.013699
 20
-0.010582
 30
0.0
 11
0.015202
 21
-0.005897
 31
0.0
  0
LINE
  5
F8
330
1D
100
AcDbEntity
  8
0
  6
Continuous
100
AcDbLine
 10
0.010259
 20
-0.014495
 30
0.0
 11
0.013699
 21
-0.010582
 31
0.0
  0
LINE
  5
F9
330
1D
100
AcDbEntity
  8
0
  6
Continuous
100
AcDbLine
 10
0.0
 20
0.058401
 30
0.0
 11
-0.004918
 21
0.058401
 31
0.0
  0
LINE
  5
FA
330
1D
100
AcDbEntity
  8
0
  6
Continuous
100
AcDbLine
 10
-0.013435
 20
0.058401
 30
0.0
 11
-0.016454
 21
0.058401
 31
0.0
  0
LINE
  5
FB
330
1D
100
AcDbEntity
  8
0
  6
Continuous
100
AcDbLine
 10
-0.019
 20
0.058401
 30
0.0
 11
-0.019015
 21
0.057401
 31
0.0
  0
LINE
  5
FC
330
1D
100
AcDbEntity
  8
0
  6
Continuous
100
AcDbLine
 10
-0.018353
 20
0.058401
 30
0.0
 11
-0.019
 21
0.058401
 31
0.0
  0
LINE
  5
FD
330
1D
100
AcDbEntity
  8
0
  6
Continuous
100
AcDbLine
 10
-0.004918
 20
0.058401
 30
0.0
 11
-0.0095
 21
0.058401
 31
0.0
  0
LINE
  5
FE
330
1D
100
AcDbEntity
  8
0
  6
Continuous
100
AcDbLine
 10
-0.0095
 20
0.058401
 30
0.0
 11
-0.013435
 21
0.058401
 31
0.0
  0
LINE
  5
FF
330
1D
100
AcDbEntity
  8
0
  6
Continuous
100
AcDbLine
 10
-0.016454
 20
0.058401
 30
0.0
 11
-0.018353
 21
0.058401
 31
0.0
  0
LINE
  5
100
330
1D
100
AcDbEntity
  8
0
  6
Continuous
100
AcDbLine
 10
0.004918
 20
0.058401
 30
0.0
 11
0.0
 21
0.058401
 31
0.0
  0
LINE
  5
101
330
1D
100
AcDbEntity
  8
0
  6
Continuous
100
AcDbLine
 10
0.016454
 20
0.058401
 30
0.0
 11
0.013435
 21
0.058401
 31
0.0
  0
LINE
  5
102
330
1D
100
AcDbEntity
  8
0
  6
Continuous
100
AcDbLine
 10
0.019015
 20
0.057401
 30
0.0
 11
0.019
 21
0.058401
 31
0.0
  0
LINE
  5
103
330
1D
100
AcDbEntity
  8
0
  6
Continuous
100
AcDbLine
 10
0.019
 20
0.058401
 30
0.0
 11
0.018353
 21
0.058401
 31
0.0
  0
LINE
  5
104
330
1D
100
AcDbEntity
  8
0
  6
Continuous
100
AcDbLine
 10
0.0095
 20
0.058401
 30
0.0
 11
0.004918
 21
0.058401
 31
0.0
  0
LINE
  5
105
330
1D
100
AcDbEntity
  8
0
  6
Continuous
100
AcDbLine
 10
0.013435
 20
0.058401
 30
0.0
 11
0.0095
 21
0.058401
 31
0.0
  0
LINE
  5
106
330
1D
100
AcDbEntity
  8
0
  6
Continuous
100
AcDbLine
 10
0.018353
 20
0.058401
 30
0.0
 11
0.016454
 21
0.058401
 31
0.0
  0
LINE
  5
107
330
1D
100
AcDbEntity
  8
0
  6
Continuous
100
AcDbLine
 10
-0.016263
 20
-0.11
 30
0.0
 11
-0.0115
 21
-0.11
 31
0.0
  0
LINE
  5
108
330
1D
100
AcDbEntity
  8
0
  6
Continuous
100
AcDbLine
 10
-0.022216
 20
-0.11
 30
0.0
 11
-0.019919
 21
-0.11
 31
0.0
  0
LINE
  5
109
330
1D
100
AcDbEntity
  8
0
  6
Continuous
100
AcDbLine
 10
-0.005953
 20
-0.11
 30
0.0
 11
0.0
 21
-0.11
 31
0.0
  0
LINE
  5
10A
330
1D
100
AcDbEntity
  8
0
  6
Continuous
100
AcDbLine
 10
-0.019919
 20
-0.11
 30
0.0
 11
-0.016263
 21
-0.11
 31
0.0
  0
LINE
  5
10B
330
1D
100
AcDbEntity
  8
0
  6
Continuous
100
AcDbLine
 10
-0.022975
 20
-0.109
 30
0.0
 11
-0.023
 21
-0.11
 31
0.0
  0
LINE
  5
10C
330
1D
100
AcDbEntity
  8
0
  6
Continuous
100
AcDbLine
 10
-0.023
 20
-0.11
 30
0.0
 11
-0.022216
 21
-0.11
 31
0.0
  0
LINE
  5
10D
330
1D
100
AcDbEntity
  8
0
  6
Continuous
100
AcDbLine
 10
-0.0115
 20
-0.11
 30
0.0
 11
-0.005953
 21
-0.11
 31
0.0
  0
LINE
  5
10E
330
1D
100
AcDbEntity
  8
0
  6
Continuous
100
AcDbLine
 10
0.0115
 20
-0.11
 30
0.0
 11
0.016263
 21
-0.11
 31
0.0
  0
LINE
  5
10F
330
1D
100
AcDbEntity
  8
0
  6
Continuous
100
AcDbLine
 10
0.019919
 20
-0.11
 30
0.0
 11
0.022216
 21
-0.11
 31
0.0
  0
LINE
  5
110
330
1D
100
AcDbEntity
  8
0
  6
Continuous
100
AcDbLine
 10
0.0
 20
-0.11
 30
0.0
 11
0.005953
 21
-0.11
 31
0.0
  0
LINE
  5
111
330
1D
100
AcDbEntity
  8
0
  6
Continuous
100
AcDbLine
 10
0.016263
 20
-0.11
 30
0.0
 11
0.019919
 21
-0.11
 31
0.0
  0
LINE
  5
112
330
1D
100
AcDbEntity
  8
0
  6
Continuous
100
AcDbLine
 10
0.023
 20
-0.11
 30
0.0
 11
0.022975
 21
-0.109
 31
0.0
  0
LINE
  5
113
330
1D
100
AcDbEntity
  8
0
  6
Continuous
100
AcDbLine
 10
0.022216
 20
-0.11
 30
0.0
 11
0.023
 21
-0.11
 31
0.0
  0
LINE
  5
114
330
1D
100
AcDbEntity
  8
0
  6
Continuous
100
AcDbLine
 10
0.005953
 20
-0.11
 30
0.0
 11
0.0115
 21
-0.11
 31
0.0
  0
LINE
  5
115
330
1D
100
AcDbEntity
  8
0
  6
Continuous
100
AcDbLine
 10
0.015225
 20
-0.005473
 30
0.0
 11
0.01615
 21
0.023551
 31
0.0
  0
LINE
  5
116
330
1D
100
AcDbEntity
  8
0
  6
Continuous
100
AcDbLine
 10
0.013793
 20
0.031501
 30
0.0
 11
0.013796
 21
0.033203
 31
0.0
  0
LINE
  5
117
330
1D
100
AcDbEntity
  8
0
  6
Continuous
100
AcDbLine
 10
-0.013796
 20
0.033203
 30
0.0
 11
-0.013793
 21
0.031501
 31
0.0
  0
LINE
  5
118
330
1D
100
AcDbEntity
  8
0
  6
Continuous
100
AcDbLine
 10
-0.01615
 20
0.023551
 30
0.0
 11
-0.015225
 21
-0.005473
 31
0.0
  0
LINE
  5
119
330
1D
100
AcDbEntity
  8
0
  6
Continuous
100
AcDbLine
 10
-0.016043
 20
0.020172
 30
0.0
 11
-0.016923
 21
0.027618
 31
0.0
  0
LINE
  5
11A
330
1D
100
AcDbEntity
  8
0
  6
Continuous
100
AcDbLine
 10
-0.016923
 20
0.027618
 30
0.0
 11
-0.01595
 21
0.017264
 31
0.0
  0
LINE
  5
11B
330
1D
100
AcDbEntity
  8
0
  6
Continuous
100
AcDbLine
 10
0.016657
 20
0.027386
 30
0.0
 11
0.016034
 21
0.019902
 31
0.0
  0
LINE
  5
11C
330
1D
100
AcDbEntity
  8
0
  6
Continuous
100
AcDbLine
 10
0.017991
 20
0.058401
 30
0.0
 11
0.017991
 21
0.059802
 31
0.0
  0
LINE
  5
11D
330
1D
100
AcDbEntity
  8
0
  6
Continuous
100
AcDbLine
 10
-0.017991
 20
0.059802
 30
0.0
 11
-0.017991
 21
0.058401
 31
0.0
  0
LINE
  5
11E
330
1D
100
AcDbEntity
  8
0
  6
Continuous
100
AcDbLine
 10
-0.020086
 20
0.008387
 30
0.0
 11
-0.020835
 21
-0.022037
 31
0.0
  0
LINE
  5
11F
330
1D
100
AcDbEntity
  8
0
  6
Continuous
100
AcDbLine
 10
0.020835
 20
-0.022037
 30
0.0
 11
0.020086
 21
0.008387
 31
0.0
  0
LINE
  5
120
330
1D
100
AcDbEntity
  8
0
  6
Continuous
100
AcDbLine
 10
0.0
 20
0.001679
 30
0.0
 11
0.003666
 21
0.001281
 31
0.0
  0
LINE
  5
121
330
1D
100
AcDbEntity
  8
0
  6
Continuous
100
AcDbLine
 10
-0.003666
 20
0.001281
 30
0.0
 11
0.0
 21
0.001679
 31
0.0
  0
LINE
  5
25B
330
1D
100
AcDbEntity
  8
0
  6
Continuous
100
AcDbLine
 10
-0.018353
 20
0.3553374506168181
 30
0.0
 11
-0.016455
 21
0.3507724506168181
 31
0.0
  0
LINE
  5
25C
330
1D
100
AcDbEntity
  8
0
  6
Continuous
100
AcDbLine
 10
-0.018353
 20
0.3651824506168181
 30
0.0
 11
-0.019
 21
0.3602804506168181
 31
0.0
  0
LINE
  5
25D
330
1D
100
AcDbEntity
  8
0
  6
Continuous
100
AcDbLine
 10
0.0
 20
0.3792724506168181
 30
0.0
 11
-0.004918
 21
0.3786264506168182
 31
0.0
  0
LINE
  5
25E
330
1D
100
AcDbEntity
  8
0
  6
Continuous
100
AcDbLine
 10
-0.016455
 20
0.3697694506168181
 30
0.0
 11
-0.018353
 21
0.3651824506168181
 31
0.0
  0
LINE
  5
25F
330
1D
100
AcDbEntity
  8
0
  6
Continuous
100
AcDbLine
 10
-0.0095
 20
0.3767284506168181
 30
0.0
 11
-0.013435
 21
0.3737074506168181
 31
0.0
  0
LINE
  5
260
330
1D
100
AcDbEntity
  8
0
  6
Continuous
100
AcDbLine
 10
-0.013435
 20
0.3468374506168181
 30
0.0
 11
-0.0095
 21
0.3438174506168181
 31
0.0
  0
LINE
  5
261
330
1D
100
AcDbEntity
  8
0
  6
Continuous
100
AcDbLine
 10
-0.004918
 20
0.3786264506168182
 30
0.0
 11
-0.0095
 21
0.3767284506168181
 31
0.0
  0
LINE
  5
262
330
1D
100
AcDbEntity
  8
0
  6
Continuous
100
AcDbLine
 10
-0.018353
 20
0.3553374506168181
 30
0.0
 11
-0.019
 21
0.3602804506168181
 31
0.0
  0
LINE
  5
263
330
1D
100
AcDbEntity
  8
0
  6
Continuous
100
AcDbLine
 10
-0.016455
 20
0.3697694506168181
 30
0.0
 11
-0.013435
 21
0.3737074506168181
 31
0.0
  0
LINE
  5
264
330
1D
100
AcDbEntity
  8
0
  6
Continuous
100
AcDbLine
 10
-0.016455
 20
0.3507724506168181
 30
0.0
 11
-0.013435
 21
0.3468374506168181
 31
0.0
  0
LINE
  5
265
330
1D
100
AcDbEntity
  8
0
  6
Continuous
100
AcDbLine
 10
-0.004918
 20
0.3419194506168181
 30
0.0
 11
-0.0095
 21
0.3438174506168181
 31
0.0
  0
LINE
  5
266
330
1D
100
AcDbEntity
  8
0
  6
Continuous
100
AcDbLine
 10
0.0
 20
0.3412724506168181
 30
0.0
 11
-0.004918
 21
0.3419194506168181
 31
0.0
  0
LINE
  5
267
330
1D
100
AcDbEntity
  8
0
  6
Continuous
100
AcDbLine
 10
0.0
 20
0.3354634506168181
 30
0.0
 11
-0.000697
 21
0.3357514506168181
 31
0.0
  0
LINE
  5
268
330
1D
100
AcDbEntity
  8
0
  6
Continuous
100
AcDbLine
 10
-0.001577
 20
0.3367044506168181
 30
0.0
 11
-0.001063
 21
0.3359134506168181
 31
0.0
  0
LINE
  5
269
330
1D
100
AcDbEntity
  8
0
  6
Continuous
100
AcDbLine
 10
-0.004601
 20
0.3413474506168181
 30
0.0
 11
-0.001577
 21
0.3367044506168181
 31
0.0
  0
LINE
  5
26A
330
1D
100
AcDbEntity
  8
0
  6
Continuous
100
AcDbLine
 10
-0.004601
 20
0.3413474506168181
 30
0.0
 11
-0.00155
 21
0.3391844506168181
 31
0.0
  0
LINE
  5
26B
330
1D
100
AcDbEntity
  8
0
  6
Continuous
100
AcDbLine
 10
-0.00069
 20
0.3413434506168181
 30
0.0
 11
-0.001062
 21
0.3413924506168181
 31
0.0
  0
LINE
  5
26C
330
1D
100
AcDbEntity
  8
0
  6
Continuous
100
AcDbLine
 10
-0.001073
 20
0.3365604506168181
 30
0.0
 11
-0.001063
 21
0.3359134506168181
 31
0.0
  0
LINE
  5
26D
330
1D
100
AcDbEntity
  8
0
  6
Continuous
100
AcDbLine
 10
-0.001063
 20
0.3359134506168181
 30
0.0
 11
-0.000697
 21
0.3357514506168181
 31
0.0
  0
LINE
  5
26E
330
1D
100
AcDbEntity
  8
0
  6
Continuous
100
AcDbLine
 10
0.0
 20
0.3412524506168181
 30
0.0
 11
-0.00069
 21
0.3413434506168181
 31
0.0
  0
LINE
  5
26F
330
1D
100
AcDbEntity
  8
0
  6
Continuous
100
AcDbLine
 10
-0.004918
 20
0.3419004506168181
 30
0.0
 11
-0.004601
 21
0.3413474506168181
 31
0.0
  0
LINE
  5
270
330
1D
100
AcDbEntity
  8
0
  6
Continuous
100
AcDbLine
 10
-0.004918
 20
0.3419004506168181
 30
0.0
 11
-0.004323
 21
0.3417584506168181
 31
0.0
  0
LINE
  5
271
330
1D
100
AcDbEntity
  8
0
  6
Continuous
100
AcDbLine
 10
-0.00429
 20
0.3418174506168181
 30
0.0
 11
-0.004918
 21
0.3419004506168181
 31
0.0
  0
LINE
  5
272
330
1D
100
AcDbEntity
  8
0
  6
Continuous
100
AcDbLine
 10
-0.00154
 20
0.3414554506168181
 30
0.0
 11
-0.00429
 21
0.3418174506168181
 31
0.0
  0
LINE
  5
273
330
1D
100
AcDbEntity
  8
0
  6
Continuous
100
AcDbLine
 10
-0.001062
 20
0.3413924506168181
 30
0.0
 11
-0.00154
 21
0.3414554506168181
 31
0.0
  0
LINE
  5
274
330
1D
100
AcDbEntity
  8
0
  6
Continuous
100
AcDbLine
 10
-0.004918
 20
0.3419004506168181
 30
0.0
 11
-0.004448
 21
0.3415734506168182
 31
0.0
  0
LINE
  5
275
330
1D
100
AcDbEntity
  8
0
  6
Continuous
100
AcDbLine
 10
-0.004448
 20
0.3415734506168182
 30
0.0
 11
-0.004573
 21
0.3413894506168181
 31
0.0
  0
LINE
  5
276
330
1D
100
AcDbEntity
  8
0
  6
Continuous
100
AcDbLine
 10
-0.001548
 20
0.3402084506168181
 30
0.0
 11
-0.004573
 21
0.3413894506168181
 31
0.0
  0
LINE
  5
277
330
1D
100
AcDbEntity
  8
0
  6
Continuous
100
AcDbLine
 10
-0.004573
 20
0.3413894506168181
 30
0.0
 11
-0.00155
 21
0.3391844506168181
 31
0.0
  0
LINE
  5
278
330
1D
100
AcDbEntity
  8
0
  6
Continuous
100
AcDbLine
 10
0.016455
 20
0.3507724506168181
 30
0.0
 11
0.018353
 21
0.3553374506168181
 31
0.0
  0
LINE
  5
279
330
1D
100
AcDbEntity
  8
0
  6
Continuous
100
AcDbLine
 10
0.019
 20
0.3602804506168181
 30
0.0
 11
0.018353
 21
0.3651824506168181
 31
0.0
  0
LINE
  5
27A
330
1D
100
AcDbEntity
  8
0
  6
Continuous
100
AcDbLine
 10
0.004918
 20
0.3786264506168182
 30
0.0
 11
0.0
 21
0.3792724506168181
 31
0.0
  0
LINE
  5
27B
330
1D
100
AcDbEntity
  8
0
  6
Continuous
100
AcDbLine
 10
0.018353
 20
0.3651824506168181
 30
0.0
 11
0.016455
 21
0.3697694506168181
 31
0.0
  0
LINE
  5
27C
330
1D
100
AcDbEntity
  8
0
  6
Continuous
100
AcDbLine
 10
0.013435
 20
0.3737074506168181
 30
0.0
 11
0.0095
 21
0.3767284506168181
 31
0.0
  0
LINE
  5
27D
330
1D
100
AcDbEntity
  8
0
  6
Continuous
100
AcDbLine
 10
0.0095
 20
0.3438174506168181
 30
0.0
 11
0.013435
 21
0.3468374506168181
 31
0.0
  0
LINE
  5
27E
330
1D
100
AcDbEntity
  8
0
  6
Continuous
100
AcDbLine
 10
0.0095
 20
0.3767284506168181
 30
0.0
 11
0.004918
 21
0.3786264506168182
 31
0.0
  0
LINE
  5
27F
330
1D
100
AcDbEntity
  8
0
  6
Continuous
100
AcDbLine
 10
0.019
 20
0.3602804506168181
 30
0.0
 11
0.018353
 21
0.3553374506168181
 31
0.0
  0
LINE
  5
280
330
1D
100
AcDbEntity
  8
0
  6
Continuous
100
AcDbLine
 10
0.013435
 20
0.3737074506168181
 30
0.0
 11
0.016455
 21
0.3697694506168181
 31
0.0
  0
LINE
  5
281
330
1D
100
AcDbEntity
  8
0
  6
Continuous
100
AcDbLine
 10
0.013435
 20
0.3468374506168181
 30
0.0
 11
0.016455
 21
0.3507724506168181
 31
0.0
  0
LINE
  5
282
330
1D
100
AcDbEntity
  8
0
  6
Continuous
100
AcDbLine
 10
0.0095
 20
0.3438174506168181
 30
0.0
 11
0.004918
 21
0.3419194506168181
 31
0.0
  0
LINE
  5
283
330
1D
100
AcDbEntity
  8
0
  6
Continuous
100
AcDbLine
 10
0.004918
 20
0.3419194506168181
 30
0.0
 11
0.0
 21
0.3412724506168181
 31
0.0
  0
LINE
  5
284
330
1D
100
AcDbEntity
  8
0
  6
Continuous
100
AcDbLine
 10
0.0
 20
0.3362934506168181
 30
0.0
 11
0.0
 21
0.3354634506168181
 31
0.0
  0
LINE
  5
285
330
1D
100
AcDbEntity
  8
0
  6
Continuous
100
AcDbLine
 10
0.000697
 20
0.3357514506168181
 30
0.0
 11
0.0
 21
0.3354634506168181
 31
0.0
  0
LINE
  5
286
330
1D
100
AcDbEntity
  8
0
  6
Continuous
100
AcDbLine
 10
0.001063
 20
0.3359134506168181
 30
0.0
 11
0.001577
 21
0.3367044506168181
 31
0.0
  0
LINE
  5
287
330
1D
100
AcDbEntity
  8
0
  6
Continuous
100
AcDbLine
 10
0.001577
 20
0.3367044506168181
 30
0.0
 11
0.004601
 21
0.3413474506168181
 31
0.0
  0
LINE
  5
288
330
1D
100
AcDbEntity
  8
0
  6
Continuous
100
AcDbLine
 10
0.004601
 20
0.3413474506168181
 30
0.0
 11
0.00155
 21
0.3391844506168181
 31
0.0
  0
LINE
  5
289
330
1D
100
AcDbEntity
  8
0
  6
Continuous
100
AcDbLine
 10
0.001062
 20
0.3413924506168181
 30
0.0
 11
0.00069
 21
0.3413434506168181
 31
0.0
  0
LINE
  5
28A
330
1D
100
AcDbEntity
  8
0
  6
Continuous
100
AcDbLine
 10
0.000697
 20
0.3357514506168181
 30
0.0
 11
0.001063
 21
0.3359134506168181
 31
0.0
  0
LINE
  5
28B
330
1D
100
AcDbEntity
  8
0
  6
Continuous
100
AcDbLine
 10
0.001063
 20
0.3359134506168181
 30
0.0
 11
0.001073
 21
0.3365604506168181
 31
0.0
  0
LINE
  5
28C
330
1D
100
AcDbEntity
  8
0
  6
Continuous
100
AcDbLine
 10
0.00069
 20
0.3413434506168181
 30
0.0
 11
0.0
 21
0.3412524506168181
 31
0.0
  0
LINE
  5
28D
330
1D
100
AcDbEntity
  8
0
  6
Continuous
100
AcDbLine
 10
0.004601
 20
0.3413474506168181
 30
0.0
 11
0.004918
 21
0.3419004506168181
 31
0.0
  0
LINE
  5
28E
330
1D
100
AcDbEntity
  8
0
  6
Continuous
100
AcDbLine
 10
0.004323
 20
0.3417584506168181
 30
0.0
 11
0.004918
 21
0.3419004506168181
 31
0.0
  0
LINE
  5
28F
330
1D
100
AcDbEntity
  8
0
  6
Continuous
100
AcDbLine
 10
0.004918
 20
0.3419004506168181
 30
0.0
 11
0.00429
 21
0.3418174506168181
 31
0.0
  0
LINE
  5
290
330
1D
100
AcDbEntity
  8
0
  6
Continuous
100
AcDbLine
 10
0.00429
 20
0.3418174506168181
 30
0.0
 11
0.00154
 21
0.3414554506168181
 31
0.0
  0
LINE
  5
291
330
1D
100
AcDbEntity
  8
0
  6
Continuous
100
AcDbLine
 10
0.00154
 20
0.3414554506168181
 30
0.0
 11
0.001062
 21
0.3413924506168181
 31
0.0
  0
LINE
  5
292
330
1D
100
AcDbEntity
  8
0
  6
Continuous
100
AcDbLine
 10
0.004448
 20
0.3415734506168182
 30
0.0
 11
0.004918
 21
0.3419004506168181
 31
0.0
  0
LINE
  5
293
330
1D
100
AcDbEntity
  8
0
  6
Continuous
100
AcDbLine
 10
0.00155
 20
0.3391844506168181
 30
0.0
 11
0.004573
 21
0.3413894506168181
 31
0.0
  0
LINE
  5
294
330
1D
100
AcDbEntity
  8
0
  6
Continuous
100
AcDbLine
 10
0.001548
 20
0.3402084506168181
 30
0.0
 11
0.004573
 21
0.3413894506168181
 31
0.0
  0
LINE
  5
295
330
1D
100
AcDbEntity
  8
0
  6
Continuous
100
AcDbLine
 10
0.004573
 20
0.3413894506168181
 30
0.0
 11
0.004448
 21
0.3415734506168182
 31
0.0
  0
LINE
  5
296
330
1D
100
AcDbEntity
  8
0
  6
Continuous
100
AcDbLine
 10
-0.016199
 20
0.3435964506168181
 30
0.0
 11
-0.01615
 21
0.3399984506168181
 31
0.0
  0
LINE
  5
297
330
1D
100
AcDbEntity
  8
0
  6
Continuous
100
AcDbLine
 10
-0.013444
 20
0.3468284506168181
 30
0.0
 11
-0.009527
 21
0.3437704506168181
 31
0.0
  0
LINE
  5
298
330
1D
100
AcDbEntity
  8
0
  6
Continuous
100
AcDbLine
 10
-0.013964
 20
0.3472464506168182
 30
0.0
 11
-0.013444
 21
0.3468284506168181
 31
0.0
  0
LINE
  5
299
330
1D
100
AcDbEntity
  8
0
  6
Continuous
100
AcDbLine
 10
-0.016984
 20
0.3504654506168181
 30
0.0
 11
-0.016923
 21
0.3502994506168181
 31
0.0
  0
LINE
  5
29A
330
1D
100
AcDbEntity
  8
0
  6
Continuous
100
AcDbLine
 10
-0.016252
 20
0.3475374506168181
 30
0.0
 11
-0.016225
 21
0.3455414506168181
 31
0.0
  0
LINE
  5
29B
330
1D
100
AcDbEntity
  8
0
  6
Continuous
100
AcDbLine
 10
-0.016225
 20
0.3455414506168181
 30
0.0
 11
-0.016199
 21
0.3435964506168181
 31
0.0
  0
LINE
  5
29C
330
1D
100
AcDbEntity
  8
0
  6
Continuous
100
AcDbLine
 10
-0.013732
 20
0.3431344506168181
 30
0.0
 11
-0.013796
 21
0.3396384506168181
 31
0.0
  0
LINE
  5
29D
330
1D
100
AcDbEntity
  8
0
  6
Continuous
100
AcDbLine
 10
-0.013635
 20
0.3457304506168181
 30
0.0
 11
-0.013732
 21
0.3431344506168181
 31
0.0
  0
LINE
  5
29E
330
1D
100
AcDbEntity
  8
0
  6
Continuous
100
AcDbLine
 10
-0.016657
 20
0.3495674506168181
 30
0.0
 11
-0.016252
 21
0.3475374506168181
 31
0.0
  0
LINE
  5
29F
330
1D
100
AcDbEntity
  8
0
  6
Continuous
100
AcDbLine
 10
-0.013635
 20
0.3457304506168181
 30
0.0
 11
-0.013532
 21
0.3467394506168181
 31
0.0
  0
LINE
  5
2A0
330
1D
100
AcDbEntity
  8
0
  6
Continuous
100
AcDbLine
 10
0.013443
 20
0.3468284506168181
 30
0.0
 11
0.013964
 21
0.3472464506168182
 31
0.0
  0
LINE
  5
2A1
330
1D
100
AcDbEntity
  8
0
  6
Continuous
100
AcDbLine
 10
0.01615
 20
0.3399984506168181
 30
0.0
 11
0.016199
 21
0.3435964506168181
 31
0.0
  0
LINE
  5
2A2
330
1D
100
AcDbEntity
  8
0
  6
Continuous
100
AcDbLine
 10
0.016923
 20
0.3502994506168181
 30
0.0
 11
0.016984
 21
0.3504654506168181
 31
0.0
  0
LINE
  5
2A3
330
1D
100
AcDbEntity
  8
0
  6
Continuous
100
AcDbLine
 10
0.016225
 20
0.3455414506168181
 30
0.0
 11
0.016252
 21
0.3475374506168181
 31
0.0
  0
LINE
  5
2A4
330
1D
100
AcDbEntity
  8
0
  6
Continuous
100
AcDbLine
 10
0.016199
 20
0.3435964506168181
 30
0.0
 11
0.016225
 21
0.3455414506168181
 31
0.0
  0
LINE
  5
2A5
330
1D
100
AcDbEntity
  8
0
  6
Continuous
100
AcDbLine
 10
0.013796
 20
0.3396384506168181
 30
0.0
 11
0.013732
 21
0.3431344506168181
 31
0.0
  0
LINE
  5
2A6
330
1D
100
AcDbEntity
  8
0
  6
Continuous
100
AcDbLine
 10
0.013732
 20
0.3431344506168181
 30
0.0
 11
0.013635
 21
0.3457304506168181
 31
0.0
  0
LINE
  5
2A7
330
1D
100
AcDbEntity
  8
0
  6
Continuous
100
AcDbLine
 10
0.013532
 20
0.3467394506168181
 30
0.0
 11
0.013635
 21
0.3457304506168181
 31
0.0
  0
LINE
  5
2A8
330
1D
100
AcDbEntity
  8
0
  6
Continuous
100
AcDbLine
 10
0.016252
 20
0.3475374506168181
 30
0.0
 11
0.016657
 21
0.3495674506168181
 31
0.0
  0
LINE
  5
2A9
330
1D
100
AcDbEntity
  8
0
  6
Continuous
100
AcDbLine
 10
-0.013732
 20
0.2657384506168181
 30
0.0
 11
-0.010411
 21
0.2620454506168181
 31
0.0
  0
LINE
  5
2AA
330
1D
100
AcDbEntity
  8
0
  6
Continuous
100
AcDbLine
 10
-0.010411
 20
0.2620454506168181
 30
0.0
 11
-0.00562
 21
0.2595994506168181
 31
0.0
  0
LINE
  5
2AB
330
1D
100
AcDbEntity
  8
0
  6
Continuous
100
AcDbLine
 10
-0.00562
 20
0.2595994506168181
 30
0.0
 11
0.0
 21
0.2587324506168182
 31
0.0
  0
LINE
  5
2AC
330
1D
100
AcDbEntity
  8
0
  6
Continuous
100
AcDbLine
 10
-0.015202
 20
0.2706404506168181
 30
0.0
 11
-0.013732
 21
0.2657384506168181
 31
0.0
  0
LINE
  5
2AD
330
1D
100
AcDbEntity
  8
0
  6
Continuous
100
AcDbLine
 10
-0.015225
 20
0.2716224506168181
 30
0.0
 11
-0.015202
 21
0.2706404506168181
 31
0.0
  0
LINE
  5
2AE
330
1D
100
AcDbEntity
  8
0
  6
Continuous
100
AcDbLine
 10
0.010411
 20
0.2620454506168181
 30
0.0
 11
0.013732
 21
0.2657384506168181
 31
0.0
  0
LINE
  5
2AF
330
1D
100
AcDbEntity
  8
0
  6
Continuous
100
AcDbLine
 10
0.00562
 20
0.2595994506168181
 30
0.0
 11
0.010411
 21
0.2620454506168181
 31
0.0
  0
LINE
  5
2B0
330
1D
100
AcDbEntity
  8
0
  6
Continuous
100
AcDbLine
 10
0.0
 20
0.2587324506168182
 30
0.0
 11
0.00562
 21
0.2595994506168181
 31
0.0
  0
LINE
  5
2B1
330
1D
100
AcDbEntity
  8
0
  6
Continuous
100
AcDbLine
 10
0.015202
 20
0.2706404506168181
 30
0.0
 11
0.015225
 21
0.2716224506168181
 31
0.0
  0
LINE
  5
2B2
330
1D
100
AcDbEntity
  8
0
  6
Continuous
100
AcDbLine
 10
0.013732
 20
0.2657384506168181
 30
0.0
 11
0.015202
 21
0.2706404506168181
 31
0.0
  0
LINE
  5
2B3
330
1D
100
AcDbEntity
  8
0
  6
Continuous
100
AcDbLine
 10
0.009504
 20
0.3438114506168181
 30
0.0
 11
0.013443
 21
0.3468284506168181
 31
0.0
  0
LINE
  5
2B4
330
1D
100
AcDbEntity
  8
0
  6
Continuous
100
AcDbLine
 10
-0.022216
 20
0.3543144506168181
 30
0.0
 11
-0.019919
 21
0.3487664506168181
 31
0.0
  0
LINE
  5
2B5
330
1D
100
AcDbEntity
  8
0
  6
Continuous
100
AcDbLine
 10
-0.005953
 20
0.3824864506168181
 30
0.0
 11
-0.0115
 21
0.3801884506168181
 31
0.0
  0
LINE
  5
2B6
330
1D
100
AcDbEntity
  8
0
  6
Continuous
100
AcDbLine
 10
-0.016263
 20
0.3765334506168181
 30
0.0
 11
-0.019919
 21
0.3717694506168181
 31
0.0
  0
LINE
  5
2B7
330
1D
100
AcDbEntity
  8
0
  6
Continuous
100
AcDbLine
 10
-0.022216
 20
0.3662214506168182
 30
0.0
 11
-0.023
 21
0.3602684506168181
 31
0.0
  0
LINE
  5
2B8
330
1D
100
AcDbEntity
  8
0
  6
Continuous
100
AcDbLine
 10
-0.019919
 20
0.3487664506168181
 30
0.0
 11
-0.016263
 21
0.3440024506168181
 31
0.0
  0
LINE
  5
2B9
330
1D
100
AcDbEntity
  8
0
  6
Continuous
100
AcDbLine
 10
0.0
 20
0.3832704506168181
 30
0.0
 11
-0.005953
 21
0.3824864506168181
 31
0.0
  0
LINE
  5
2BA
330
1D
100
AcDbEntity
  8
0
  6
Continuous
100
AcDbLine
 10
-0.023
 20
0.3602684506168181
 30
0.0
 11
-0.022216
 21
0.3543144506168181
 31
0.0
  0
LINE
  5
2BB
330
1D
100
AcDbEntity
  8
0
  6
Continuous
100
AcDbLine
 10
-0.0115
 20
0.3801884506168181
 30
0.0
 11
-0.016263
 21
0.3765334506168181
 31
0.0
  0
LINE
  5
2BC
330
1D
100
AcDbEntity
  8
0
  6
Continuous
100
AcDbLine
 10
-0.019919
 20
0.3717694506168181
 30
0.0
 11
-0.022216
 21
0.3662214506168182
 31
0.0
  0
LINE
  5
2BD
330
1D
100
AcDbEntity
  8
0
  6
Continuous
100
AcDbLine
 10
0.019919
 20
0.3487664506168181
 30
0.0
 11
0.022216
 21
0.3543144506168181
 31
0.0
  0
LINE
  5
2BE
330
1D
100
AcDbEntity
  8
0
  6
Continuous
100
AcDbLine
 10
0.0115
 20
0.3801884506168181
 30
0.0
 11
0.005953
 21
0.3824864506168181
 31
0.0
  0
LINE
  5
2BF
330
1D
100
AcDbEntity
  8
0
  6
Continuous
100
AcDbLine
 10
0.019919
 20
0.3717694506168181
 30
0.0
 11
0.016263
 21
0.3765334506168181
 31
0.0
  0
LINE
  5
2C0
330
1D
100
AcDbEntity
  8
0
  6
Continuous
100
AcDbLine
 10
0.023
 20
0.3602684506168181
 30
0.0
 11
0.022216
 21
0.3662214506168182
 31
0.0
  0
LINE
  5
2C1
330
1D
100
AcDbEntity
  8
0
  6
Continuous
100
AcDbLine
 10
0.016263
 20
0.3440024506168181
 30
0.0
 11
0.019919
 21
0.3487664506168181
 31
0.0
  0
LINE
  5
2C2
330
1D
100
AcDbEntity
  8
0
  6
Continuous
100
AcDbLine
 10
0.005953
 20
0.3824864506168181
 30
0.0
 11
0.0
 21
0.3832704506168181
 31
0.0
  0
LINE
  5
2C3
330
1D
100
AcDbEntity
  8
0
  6
Continuous
100
AcDbLine
 10
0.022216
 20
0.3543144506168181
 30
0.0
 11
0.023
 21
0.3602684506168181
 31
0.0
  0
LINE
  5
2C4
330
1D
100
AcDbEntity
  8
0
  6
Continuous
100
AcDbLine
 10
0.016263
 20
0.3765334506168181
 30
0.0
 11
0.0115
 21
0.3801884506168181
 31
0.0
  0
LINE
  5
2C5
330
1D
100
AcDbEntity
  8
0
  6
Continuous
100
AcDbLine
 10
0.022216
 20
0.3662214506168182
 30
0.0
 11
0.019919
 21
0.3717694506168181
 31
0.0
  0
LINE
  5
2C6
330
1D
100
AcDbEntity
  8
0
  6
Continuous
100
AcDbLine
 10
0.015225
 20
0.2716224506168181
 30
0.0
 11
0.01615
 21
0.3399984506168181
 31
0.0
  0
LINE
  5
2C7
330
1D
100
AcDbEntity
  8
0
  6
Continuous
100
AcDbLine
 10
0.013793
 20
0.3359914506168181
 30
0.0
 11
0.013796
 21
0.3396384506168181
 31
0.0
  0
LINE
  5
2C8
330
1D
100
AcDbEntity
  8
0
  6
Continuous
100
AcDbLine
 10
-0.013796
 20
0.3396384506168181
 30
0.0
 11
-0.013793
 21
0.3359914506168181
 31
0.0
  0
LINE
  5
2C9
330
1D
100
AcDbEntity
  8
0
  6
Continuous
100
AcDbLine
 10
-0.01615
 20
0.3399984506168181
 30
0.0
 11
-0.015225
 21
0.2716224506168181
 31
0.0
  0
LINE
  5
2CA
330
1D
100
AcDbEntity
  8
0
  6
Continuous
100
AcDbLine
 10
-0.016923
 20
0.3502994506168181
 30
0.0
 11
-0.016657
 21
0.3495674506168181
 31
0.0
  0
LINE
  5
2CB
330
1D
100
AcDbEntity
  8
0
  6
Continuous
100
AcDbLine
 10
0.016657
 20
0.3495674506168181
 30
0.0
 11
0.016923
 21
0.3502994506168181
 31
0.0
  0
LINE
  5
38B
330
1D
100
AcDbEntity
  8
0
  6
Continuous
100
AcDbLine
 10
0.3383155614489346
 20
0.100445
 30
0.0
 11
0.3383155614489346
 21
0.069358
 31
0.0
  0
LINE
  5
38C
330
1D
100
AcDbEntity
  8
0
  6
Continuous
100
AcDbLine
 10
0.3581895614489347
 20
0.11
 30
0.0
 11
0.3536245614489347
 21
0.11
 31
0.0
  0
LINE
  5
38D
330
1D
100
AcDbEntity
  8
0
  6
Continuous
100
AcDbLine
 10
0.3726215614489347
 20
0.11
 30
0.0
 11
0.3680345614489347
 21
0.11
 31
0.0
  0
LINE
  5
38E
330
1D
100
AcDbEntity
  8
0
  6
Continuous
100
AcDbLine
 10
0.3496895614489346
 20
0.11
 30
0.0
 11
0.3466695614489347
 21
0.11
 31
0.0
  0
LINE
  5
38F
330
1D
100
AcDbEntity
  8
0
  6
Continuous
100
AcDbLine
 10
0.3680345614489347
 20
0.11
 30
0.0
 11
0.3631325614489347
 21
0.11
 31
0.0
  0
LINE
  5
390
330
1D
100
AcDbEntity
  8
0
  6
Continuous
100
AcDbLine
 10
0.3814785614489347
 20
0.11
 30
0.0
 11
0.3795805614489347
 21
0.11
 31
0.0
  0
LINE
  5
391
330
1D
100
AcDbEntity
  8
0
  6
Continuous
100
AcDbLine
 10
0.3631325614489347
 20
0.11
 30
0.0
 11
0.3581895614489347
 21
0.11
 31
0.0
  0
LINE
  5
392
330
1D
100
AcDbEntity
  8
0
  6
Continuous
100
AcDbLine
 10
0.3821245614489347
 20
0.11
 30
0.0
 11
0.3814785614489347
 21
0.11
 31
0.0
  0
LINE
  5
393
330
1D
100
AcDbEntity
  8
0
  6
Continuous
100
AcDbLine
 10
0.3821245614489347
 20
0.10961
 30
0.0
 11
0.3821245614489347
 21
0.11
 31
0.0
  0
LINE
  5
394
330
1D
100
AcDbEntity
  8
0
  6
Continuous
100
AcDbLine
 10
0.3765595614489347
 20
0.11
 30
0.0
 11
0.3726215614489347
 21
0.11
 31
0.0
  0
LINE
  5
395
330
1D
100
AcDbEntity
  8
0
  6
Continuous
100
AcDbLine
 10
0.3536245614489347
 20
0.11
 30
0.0
 11
0.3496895614489346
 21
0.11
 31
0.0
  0
LINE
  5
396
330
1D
100
AcDbEntity
  8
0
  6
Continuous
100
AcDbLine
 10
0.3466695614489347
 20
0.11
 30
0.0
 11
0.3447715614489347
 21
0.11
 31
0.0
  0
LINE
  5
397
330
1D
100
AcDbEntity
  8
0
  6
Continuous
100
AcDbLine
 10
0.3795805614489347
 20
0.11
 30
0.0
 11
0.3765595614489347
 21
0.11
 31
0.0
  0
LINE
  5
398
330
1D
100
AcDbEntity
  8
0
  6
Continuous
100
AcDbLine
 10
0.3821245614489347
 20
0.060193
 30
0.0
 11
0.3821245614489347
 21
0.10961
 31
0.0
  0
LINE
  5
399
330
1D
100
AcDbEntity
  8
0
  6
Continuous
100
AcDbLine
 10
0.3441245614489347
 20
0.11
 30
0.0
 11
0.3441245614489347
 21
0.109511
 31
0.0
  0
LINE
  5
39A
330
1D
100
AcDbEntity
  8
0
  6
Continuous
100
AcDbLine
 10
0.3447715614489347
 20
0.11
 30
0.0
 11
0.3441245614489347
 21
0.11
 31
0.0
  0
LINE
  5
39B
330
1D
100
AcDbEntity
  8
0
  6
Continuous
100
AcDbLine
 10
0.3391455614489347
 20
0.101605
 30
0.0
 11
0.3383155614489346
 21
0.100949
 31
0.0
  0
LINE
  5
39C
330
1D
100
AcDbEntity
  8
0
  6
Continuous
100
AcDbLine
 10
0.3383155614489346
 20
0.100949
 30
0.0
 11
0.3383155614489346
 21
0.100445
 31
0.0
  0
LINE
  5
39D
330
1D
100
AcDbEntity
  8
0
  6
Continuous
100
AcDbLine
 10
0.3386035614489347
 20
0.100994
 30
0.0
 11
0.3383155614489346
 21
0.100949
 31
0.0
  0
LINE
  5
39E
330
1D
100
AcDbEntity
  8
0
  6
Continuous
100
AcDbLine
 10
0.3387635614489346
 20
0.069293
 30
0.0
 11
0.3387635614489346
 21
0.100509
 31
0.0
  0
LINE
  5
39F
330
1D
100
AcDbEntity
  8
0
  6
Continuous
100
AcDbLine
 10
0.3387655614489347
 20
0.101017
 30
0.0
 11
0.3395565614489347
 21
0.101289
 31
0.0
  0
LINE
  5
3A0
330
1D
100
AcDbEntity
  8
0
  6
Continuous
100
AcDbLine
 10
0.3395565614489347
 20
0.101289
 30
0.0
 11
0.3441995614489346
 21
0.103386
 31
0.0
  0
LINE
  5
3A1
330
1D
100
AcDbEntity
  8
0
  6
Continuous
100
AcDbLine
 10
0.3441995614489346
 20
0.103386
 30
0.0
 11
0.3420365614489347
 21
0.103268
 31
0.0
  0
LINE
  5
3A2
330
1D
100
AcDbEntity
  8
0
  6
Continuous
100
AcDbLine
 10
0.3442445614489347
 20
0.106139
 30
0.0
 11
0.3441955614489347
 21
0.106142
 31
0.0
  0
LINE
  5
3A3
330
1D
100
AcDbEntity
  8
0
  6
Continuous
100
AcDbLine
 10
0.3447525614489347
 20
0.067357
 30
0.0
 11
0.3447525614489347
 21
0.102445
 31
0.0
  0
LINE
  5
3A4
330
1D
100
AcDbEntity
  8
0
  6
Continuous
100
AcDbLine
 10
0.3387635614489346
 20
0.100509
 30
0.0
 11
0.3387655614489347
 21
0.101017
 31
0.0
  0
LINE
  5
3A5
330
1D
100
AcDbEntity
  8
0
  6
Continuous
100
AcDbLine
 10
0.3386035614489347
 20
0.100994
 30
0.0
 11
0.3387655614489347
 21
0.101017
 31
0.0
  0
LINE
  5
3A6
330
1D
100
AcDbEntity
  8
0
  6
Continuous
100
AcDbLine
 10
0.3387655614489347
 20
0.101017
 30
0.0
 11
0.3394125614489347
 21
0.101622
 31
0.0
  0
LINE
  5
3A7
330
1D
100
AcDbEntity
  8
0
  6
Continuous
100
AcDbLine
 10
0.3447525614489347
 20
0.102445
 30
0.0
 11
0.3447525614489347
 21
0.103014
 31
0.0
  0
LINE
  5
3A8
330
1D
100
AcDbEntity
  8
0
  6
Continuous
100
AcDbLine
 10
0.3447525614489347
 20
0.103014
 30
0.0
 11
0.3447525614489347
 21
0.103585
 31
0.0
  0
LINE
  5
3A9
330
1D
100
AcDbEntity
  8
0
  6
Continuous
100
AcDbLine
 10
0.3441045614489347
 20
0.106148
 30
0.0
 11
0.3431715614489347
 21
0.10486
 31
0.0
  0
LINE
  5
3AA
330
1D
100
AcDbEntity
  8
0
  6
Continuous
100
AcDbLine
 10
0.3441955614489347
 20
0.106142
 30
0.0
 11
0.3441045614489347
 21
0.106148
 31
0.0
  0
LINE
  5
3AB
330
1D
100
AcDbEntity
  8
0
  6
Continuous
100
AcDbLine
 10
0.3447525614489347
 20
0.103585
 30
0.0
 11
0.3447525614489347
 21
0.103705
 31
0.0
  0
LINE
  5
3AC
330
1D
100
AcDbEntity
  8
0
  6
Continuous
100
AcDbLine
 10
0.3447525614489347
 20
0.105949
 30
0.0
 11
0.3447525614489347
 21
0.106104
 31
0.0
  0
LINE
  5
3AD
330
1D
100
AcDbEntity
  8
0
  6
Continuous
100
AcDbLine
 10
0.3447525614489347
 20
0.106104
 30
0.0
 11
0.3446695614489347
 21
0.10611
 31
0.0
  0
LINE
  5
3AE
330
1D
100
AcDbEntity
  8
0
  6
Continuous
100
AcDbLine
 10
0.3446695614489347
 20
0.10611
 30
0.0
 11
0.3443075614489346
 21
0.106134
 31
0.0
  0
LINE
  5
3AF
330
1D
100
AcDbEntity
  8
0
  6
Continuous
100
AcDbLine
 10
0.3443075614489346
 20
0.106134
 30
0.0
 11
0.3442445614489347
 21
0.106139
 31
0.0
  0
LINE
  5
3B0
330
1D
100
AcDbEntity
  8
0
  6
Continuous
100
AcDbLine
 10
0.3414185614489347
 20
0.10316
 30
0.0
 11
0.3391455614489347
 21
0.101605
 31
0.0
  0
LINE
  5
3B1
330
1D
100
AcDbEntity
  8
0
  6
Continuous
100
AcDbLine
 10
0.3444255614489347
 20
0.104731
 30
0.0
 11
0.3447525614489347
 21
0.103705
 31
0.0
  0
LINE
  5
3B2
330
1D
100
AcDbEntity
  8
0
  6
Continuous
100
AcDbLine
 10
0.3447525614489347
 20
0.103705
 30
0.0
 11
0.3447525614489347
 21
0.104827
 31
0.0
  0
LINE
  5
3B3
330
1D
100
AcDbEntity
  8
0
  6
Continuous
100
AcDbLine
 10
0.3447525614489347
 20
0.104827
 30
0.0
 11
0.3447525614489347
 21
0.105949
 31
0.0
  0
LINE
  5
3B4
330
1D
100
AcDbEntity
  8
0
  6
Continuous
100
AcDbLine
 10
0.3420365614489347
 20
0.103268
 30
0.0
 11
0.3442415614489347
 21
0.103632
 31
0.0
  0
LINE
  5
3B5
330
1D
100
AcDbEntity
  8
0
  6
Continuous
100
AcDbLine
 10
0.3430605614489346
 20
0.10401
 30
0.0
 11
0.3442415614489347
 21
0.103632
 31
0.0
  0
LINE
  5
3B6
330
1D
100
AcDbEntity
  8
0
  6
Continuous
100
AcDbLine
 10
0.3442415614489347
 20
0.103632
 30
0.0
 11
0.3444255614489347
 21
0.104731
 31
0.0
  0
LINE
  5
3B7
330
1D
100
AcDbEntity
  8
0
  6
Continuous
100
AcDbLine
 10
0.3424665614489347
 20
0.103877
 30
0.0
 11
0.3414185614489347
 21
0.10316
 31
0.0
  0
LINE
  5
3B8
330
1D
100
AcDbEntity
  8
0
  6
Continuous
100
AcDbLine
 10
0.3431715614489347
 20
0.10486
 30
0.0
 11
0.3424665614489347
 21
0.103877
 31
0.0
  0
LINE
  5
3B9
330
1D
100
AcDbEntity
  8
0
  6
Continuous
100
AcDbLine
 10
0.3536245614489347
 20
0.059802
 30
0.0
 11
0.3581895614489347
 21
0.059802
 31
0.0
  0
LINE
  5
3BA
330
1D
100
AcDbEntity
  8
0
  6
Continuous
100
AcDbLine
 10
0.3680345614489347
 20
0.059802
 30
0.0
 11
0.3726215614489347
 21
0.059802
 31
0.0
  0
LINE
  5
3BB
330
1D
100
AcDbEntity
  8
0
  6
Continuous
100
AcDbLine
 10
0.3466695614489347
 20
0.059802
 30
0.0
 11
0.3496895614489346
 21
0.059802
 31
0.0
  0
LINE
  5
3BC
330
1D
100
AcDbEntity
  8
0
  6
Continuous
100
AcDbLine
 10
0.3631325614489347
 20
0.059802
 30
0.0
 11
0.3680345614489347
 21
0.059802
 31
0.0
  0
LINE
  5
3BD
330
1D
100
AcDbEntity
  8
0
  6
Continuous
100
AcDbLine
 10
0.3795805614489347
 20
0.059802
 30
0.0
 11
0.3814785614489347
 21
0.059802
 31
0.0
  0
LINE
  5
3BE
330
1D
100
AcDbEntity
  8
0
  6
Continuous
100
AcDbLine
 10
0.3581895614489347
 20
0.059802
 30
0.0
 11
0.3631325614489347
 21
0.059802
 31
0.0
  0
LINE
  5
3BF
330
1D
100
AcDbEntity
  8
0
  6
Continuous
100
AcDbLine
 10
0.3821245614489347
 20
0.059802
 30
0.0
 11
0.3821245614489347
 21
0.060193
 31
0.0
  0
LINE
  5
3C0
330
1D
100
AcDbEntity
  8
0
  6
Continuous
100
AcDbLine
 10
0.3814785614489347
 20
0.059802
 30
0.0
 11
0.3821245614489347
 21
0.059802
 31
0.0
  0
LINE
  5
3C1
330
1D
100
AcDbEntity
  8
0
  6
Continuous
100
AcDbLine
 10
0.3726215614489347
 20
0.059802
 30
0.0
 11
0.3765595614489347
 21
0.059802
 31
0.0
  0
LINE
  5
3C2
330
1D
100
AcDbEntity
  8
0
  6
Continuous
100
AcDbLine
 10
0.3496895614489346
 20
0.059802
 30
0.0
 11
0.3536245614489347
 21
0.059802
 31
0.0
  0
LINE
  5
3C3
330
1D
100
AcDbEntity
  8
0
  6
Continuous
100
AcDbLine
 10
0.3447715614489347
 20
0.059802
 30
0.0
 11
0.3466695614489347
 21
0.059802
 31
0.0
  0
LINE
  5
3C4
330
1D
100
AcDbEntity
  8
0
  6
Continuous
100
AcDbLine
 10
0.3765595614489347
 20
0.059802
 30
0.0
 11
0.3795805614489347
 21
0.059802
 31
0.0
  0
LINE
  5
3C5
330
1D
100
AcDbEntity
  8
0
  6
Continuous
100
AcDbLine
 10
0.3441245614489347
 20
0.059802
 30
0.0
 11
0.3447715614489347
 21
0.059802
 31
0.0
  0
LINE
  5
3C6
330
1D
100
AcDbEntity
  8
0
  6
Continuous
100
AcDbLine
 10
0.3441245614489347
 20
0.060291
 30
0.0
 11
0.3441245614489347
 21
0.059802
 31
0.0
  0
LINE
  5
3C7
330
1D
100
AcDbEntity
  8
0
  6
Continuous
100
AcDbLine
 10
0.3383155614489346
 20
0.068853
 30
0.0
 11
0.3391455614489347
 21
0.068197
 31
0.0
  0
LINE
  5
3C8
330
1D
100
AcDbEntity
  8
0
  6
Continuous
100
AcDbLine
 10
0.3383155614489346
 20
0.068853
 30
0.0
 11
0.3386035614489347
 21
0.068809
 31
0.0
  0
LINE
  5
3C9
330
1D
100
AcDbEntity
  8
0
  6
Continuous
100
AcDbLine
 10
0.3383155614489346
 20
0.069358
 30
0.0
 11
0.3383155614489346
 21
0.068853
 31
0.0
  0
LINE
  5
3CA
330
1D
100
AcDbEntity
  8
0
  6
Continuous
100
AcDbLine
 10
0.3395565614489347
 20
0.068513
 30
0.0
 11
0.3387655614489347
 21
0.068785
 31
0.0
  0
LINE
  5
3CB
330
1D
100
AcDbEntity
  8
0
  6
Continuous
100
AcDbLine
 10
0.3395565614489347
 20
0.068513
 30
0.0
 11
0.3441995614489346
 21
0.066416
 31
0.0
  0
LINE
  5
3CC
330
1D
100
AcDbEntity
  8
0
  6
Continuous
100
AcDbLine
 10
0.3441995614489346
 20
0.066416
 30
0.0
 11
0.3420365614489347
 21
0.066534
 31
0.0
  0
LINE
  5
3CD
330
1D
100
AcDbEntity
  8
0
  6
Continuous
100
AcDbLine
 10
0.3441955614489347
 20
0.06366
 30
0.0
 11
0.3442445614489347
 21
0.063664
 31
0.0
  0
LINE
  5
3CE
330
1D
100
AcDbEntity
  8
0
  6
Continuous
100
AcDbLine
 10
0.3387655614489347
 20
0.068785
 30
0.0
 11
0.3387635614489346
 21
0.069293
 31
0.0
  0
LINE
  5
3CF
330
1D
100
AcDbEntity
  8
0
  6
Continuous
100
AcDbLine
 10
0.3394125614489347
 20
0.06818
 30
0.0
 11
0.3387655614489347
 21
0.068785
 31
0.0
  0
LINE
  5
3D0
330
1D
100
AcDbEntity
  8
0
  6
Continuous
100
AcDbLine
 10
0.3387655614489347
 20
0.068785
 30
0.0
 11
0.3386035614489347
 21
0.068809
 31
0.0
  0
LINE
  5
3D1
330
1D
100
AcDbEntity
  8
0
  6
Continuous
100
AcDbLine
 10
0.3447525614489347
 20
0.066788
 30
0.0
 11
0.3447525614489347
 21
0.067357
 31
0.0
  0
LINE
  5
3D2
330
1D
100
AcDbEntity
  8
0
  6
Continuous
100
AcDbLine
 10
0.3447525614489347
 20
0.066217
 30
0.0
 11
0.3447525614489347
 21
0.066788
 31
0.0
  0
LINE
  5
3D3
330
1D
100
AcDbEntity
  8
0
  6
Continuous
100
AcDbLine
 10
0.3441045614489347
 20
0.063654
 30
0.0
 11
0.3441955614489347
 21
0.06366
 31
0.0
  0
LINE
  5
3D4
330
1D
100
AcDbEntity
  8
0
  6
Continuous
100
AcDbLine
 10
0.3431715614489347
 20
0.064942
 30
0.0
 11
0.3441045614489347
 21
0.063654
 31
0.0
  0
LINE
  5
3D5
330
1D
100
AcDbEntity
  8
0
  6
Continuous
100
AcDbLine
 10
0.3447525614489347
 20
0.066097
 30
0.0
 11
0.3447525614489347
 21
0.066217
 31
0.0
  0
LINE
  5
3D6
330
1D
100
AcDbEntity
  8
0
  6
Continuous
100
AcDbLine
 10
0.3446695614489347
 20
0.063692
 30
0.0
 11
0.3447525614489347
 21
0.063698
 31
0.0
  0
LINE
  5
3D7
330
1D
100
AcDbEntity
  8
0
  6
Continuous
100
AcDbLine
 10
0.3447525614489347
 20
0.063698
 30
0.0
 11
0.3447525614489347
 21
0.063853
 31
0.0
  0
LINE
  5
3D8
330
1D
100
AcDbEntity
  8
0
  6
Continuous
100
AcDbLine
 10
0.3443075614489346
 20
0.063668
 30
0.0
 11
0.3446695614489347
 21
0.063692
 31
0.0
  0
LINE
  5
3D9
330
1D
100
AcDbEntity
  8
0
  6
Continuous
100
AcDbLine
 10
0.3442445614489347
 20
0.063664
 30
0.0
 11
0.3443075614489346
 21
0.063668
 31
0.0
  0
LINE
  5
3DA
330
1D
100
AcDbEntity
  8
0
  6
Continuous
100
AcDbLine
 10
0.3391455614489347
 20
0.068197
 30
0.0
 11
0.3414185614489347
 21
0.066643
 31
0.0
  0
LINE
  5
3DB
330
1D
100
AcDbEntity
  8
0
  6
Continuous
100
AcDbLine
 10
0.3447525614489347
 20
0.064975
 30
0.0
 11
0.3447525614489347
 21
0.066097
 31
0.0
  0
LINE
  5
3DC
330
1D
100
AcDbEntity
  8
0
  6
Continuous
100
AcDbLine
 10
0.3444255614489347
 20
0.065071
 30
0.0
 11
0.3447525614489347
 21
0.066097
 31
0.0
  0
LINE
  5
3DD
330
1D
100
AcDbEntity
  8
0
  6
Continuous
100
AcDbLine
 10
0.3447525614489347
 20
0.063853
 30
0.0
 11
0.3447525614489347
 21
0.064975
 31
0.0
  0
LINE
  5
3DE
330
1D
100
AcDbEntity
  8
0
  6
Continuous
100
AcDbLine
 10
0.3444255614489347
 20
0.065071
 30
0.0
 11
0.3442415614489347
 21
0.06617
 31
0.0
  0
LINE
  5
3DF
330
1D
100
AcDbEntity
  8
0
  6
Continuous
100
AcDbLine
 10
0.3430605614489346
 20
0.065792
 30
0.0
 11
0.3442415614489347
 21
0.06617
 31
0.0
  0
LINE
  5
3E0
330
1D
100
AcDbEntity
  8
0
  6
Continuous
100
AcDbLine
 10
0.3442415614489347
 20
0.06617
 30
0.0
 11
0.3420365614489347
 21
0.066534
 31
0.0
  0
LINE
  5
3E1
330
1D
100
AcDbEntity
  8
0
  6
Continuous
100
AcDbLine
 10
0.3414185614489347
 20
0.066643
 30
0.0
 11
0.3424665614489347
 21
0.065926
 31
0.0
  0
LINE
  5
3E2
330
1D
100
AcDbEntity
  8
0
  6
Continuous
100
AcDbLine
 10
0.3424665614489347
 20
0.065926
 30
0.0
 11
0.3431715614489347
 21
0.064942
 31
0.0
  0
LINE
  5
3E3
330
1D
100
AcDbEntity
  8
0
  6
Continuous
100
AcDbLine
 10
0.2794755614489346
 20
-0.018127
 30
0.0
 11
0.2800345614489346
 21
-0.01749
 31
0.0
  0
LINE
  5
3E4
330
1D
100
AcDbEntity
  8
0
  6
Continuous
100
AcDbLine
 10
0.2790485614489347
 20
-0.017735
 30
0.0
 11
0.2794755614489346
 21
-0.018127
 31
0.0
  0
LINE
  5
3E5
330
1D
100
AcDbEntity
  8
0
  6
Continuous
100
AcDbLine
 10
0.2778075614489347
 20
-0.016596
 30
0.0
 11
0.2790485614489347
 21
-0.017735
 31
0.0
  0
LINE
  5
3E6
330
1D
100
AcDbEntity
  8
0
  6
Continuous
100
AcDbLine
 10
0.2758755614489346
 20
-0.014822
 30
0.0
 11
0.2778075614489347
 21
-0.016596
 31
0.0
  0
LINE
  5
3E7
330
1D
100
AcDbEntity
  8
0
  6
Continuous
100
AcDbLine
 10
0.2734405614489347
 20
-0.012587
 30
0.0
 11
0.2758755614489346
 21
-0.014822
 31
0.0
  0
LINE
  5
3E8
330
1D
100
AcDbEntity
  8
0
  6
Continuous
100
AcDbLine
 10
0.2707415614489347
 20
-0.010109
 30
0.0
 11
0.2734405614489347
 21
-0.012587
 31
0.0
  0
LINE
  5
3E9
330
1D
100
AcDbEntity
  8
0
  6
Continuous
100
AcDbLine
 10
0.2680425614489347
 20
-0.007632
 30
0.0
 11
0.2707415614489347
 21
-0.010109
 31
0.0
  0
LINE
  5
3EA
330
1D
100
AcDbEntity
  8
0
  6
Continuous
100
AcDbLine
 10
0.2656075614489346
 20
-0.005396
 30
0.0
 11
0.2680425614489347
 21
-0.007632
 31
0.0
  0
LINE
  5
3EB
330
1D
100
AcDbEntity
  8
0
  6
Continuous
100
AcDbLine
 10
0.2636755614489346
 20
-0.003623
 30
0.0
 11
0.2656075614489346
 21
-0.005396
 31
0.0
  0
LINE
  5
3EC
330
1D
100
AcDbEntity
  8
0
  6
Continuous
100
AcDbLine
 10
0.2624345614489347
 20
-0.002484
 30
0.0
 11
0.2636755614489346
 21
-0.003623
 31
0.0
  0
LINE
  5
3ED
330
1D
100
AcDbEntity
  8
0
  6
Continuous
100
AcDbLine
 10
0.2625655614489347
 20
-0.001454
 30
0.0
 11
0.2620065614489347
 21
-0.002091
 31
0.0
  0
LINE
  5
3EE
330
1D
100
AcDbEntity
  8
0
  6
Continuous
100
AcDbLine
 10
0.2620065614489347
 20
-0.002091
 30
0.0
 11
0.2624345614489347
 21
-0.002484
 31
0.0
  0
LINE
  5
3EF
330
1D
100
AcDbEntity
  8
0
  6
Continuous
100
AcDbLine
 10
0.2800345614489346
 20
-0.01749
 30
0.0
 11
0.2827125614489347
 21
-0.014572
 31
0.0
  0
LINE
  5
3F0
330
1D
100
AcDbEntity
  8
0
  6
Continuous
100
AcDbLine
 10
0.2654425614489347
 20
0.001679
 30
0.0
 11
0.2625655614489347
 21
-0.001454
 31
0.0
  0
LINE
  5
3F1
330
1D
100
AcDbEntity
  8
0
  6
Continuous
100
AcDbLine
 10
0.2865305614489347
 20
-0.016802
 30
0.0
 11
0.3334285614489347
 21
0.002331
 31
0.0
  0
LINE
  5
3F2
330
1D
100
AcDbEntity
  8
0
  6
Continuous
100
AcDbLine
 10
0.3441245614489347
 20
0.057401
 30
0.0
 11
0.3441245614489347
 21
0.053319
 31
0.0
  0
LINE
  5
3F3
330
1D
100
AcDbEntity
  8
0
  6
Continuous
100
AcDbLine
 10
0.2857985614489347
 20
-0.016118
 30
0.0
 11
0.3340645614489346
 21
0.003139
 31
0.0
  0
LINE
  5
3F4
330
1D
100
AcDbEntity
  8
0
  6
Continuous
100
AcDbLine
 10
0.3832095614489346
 20
0.008387
 30
0.0
 11
0.3827175614489347
 21
0.028401
 31
0.0
  0
LINE
  5
3F5
330
1D
100
AcDbEntity
  8
0
  6
Continuous
100
AcDbLine
 10
0.2836545614489347
 20
-0.014111
 30
0.0
 11
0.3359225614489347
 21
0.005497
 31
0.0
  0
LINE
  5
3F6
330
1D
100
AcDbEntity
  8
0
  6
Continuous
100
AcDbLine
 10
0.3823485614489346
 20
0.043401
 30
0.0
 11
0.3821395614489347
 21
0.057401
 31
0.0
  0
LINE
  5
3F7
330
1D
100
AcDbEntity
  8
0
  6
Continuous
100
AcDbLine
 10
0.3331955614489347
 20
0.037239
 30
0.0
 11
0.2625495614489346
 21
0.00574
 31
0.0
  0
LINE
  5
3F8
330
1D
100
AcDbEntity
  8
0
  6
Continuous
100
AcDbLine
 10
0.3428505614489347
 20
0.023551
 30
0.0
 11
0.3464485614489347
 21
0.025078
 31
0.0
  0
LINE
  5
3F9
330
1D
100
AcDbEntity
  8
0
  6
Continuous
100
AcDbLine
 10
0.3421705614489347
 20
0.006123
 30
0.0
 11
0.3386735614489347
 21
0.006529
 31
0.0
  0
LINE
  5
3FA
330
1D
100
AcDbEntity
  8
0
  6
Continuous
100
AcDbLine
 10
0.3421705614489347
 20
0.006123
 30
0.0
 11
0.3401025614489347
 21
0.003813
 31
0.0
  0
LINE
  5
3FB
330
1D
100
AcDbEntity
  8
0
  6
Continuous
100
AcDbLine
 10
0.3446595614489347
 20
0.002591
 30
0.0
 11
0.3421705614489347
 21
0.006123
 31
0.0
  0
LINE
  5
3FC
330
1D
100
AcDbEntity
  8
0
  6
Continuous
100
AcDbLine
 10
0.3446595614489347
 20
0.002591
 30
0.0
 11
0.3425845614489347
 21
0.000329
 31
0.0
  0
LINE
  5
3FD
330
1D
100
AcDbEntity
  8
0
  6
Continuous
100
AcDbLine
 10
0.3358965614489347
 20
0.003338
 30
0.0
 11
0.3393955614489347
 21
0.003023
 31
0.0
  0
LINE
  5
3FE
330
1D
100
AcDbEntity
  8
0
  6
Continuous
100
AcDbLine
 10
0.3401025614489347
 20
0.003813
 30
0.0
 11
0.3393955614489347
 21
0.003023
 31
0.0
  0
LINE
  5
3FF
330
1D
100
AcDbEntity
  8
0
  6
Continuous
100
AcDbLine
 10
0.3393955614489347
 20
0.003023
 30
0.0
 11
0.3418745614489347
 21
-0.000442
 31
0.0
  0
LINE
  5
400
330
1D
100
AcDbEntity
  8
0
  6
Continuous
100
AcDbLine
 10
0.3425845614489347
 20
0.000329
 30
0.0
 11
0.3418745614489347
 21
-0.000442
 31
0.0
  0
LINE
  5
401
330
1D
100
AcDbEntity
  8
0
  6
Continuous
100
AcDbLine
 10
0.3418745614489347
 20
-0.000442
 30
0.0
 11
0.3426785614489347
 21
-0.00613
 31
0.0
  0
LINE
  5
402
330
1D
100
AcDbEntity
  8
0
  6
Continuous
100
AcDbLine
 10
0.3483935614489347
 20
0.025904
 30
0.0
 11
0.3503895614489347
 21
0.026751
 31
0.0
  0
LINE
  5
403
330
1D
100
AcDbEntity
  8
0
  6
Continuous
100
AcDbLine
 10
0.3464485614489347
 20
0.025078
 30
0.0
 11
0.3483935614489347
 21
0.025904
 31
0.0
  0
LINE
  5
404
330
1D
100
AcDbEntity
  8
0
  6
Continuous
100
AcDbLine
 10
0.3441245614489347
 20
0.052506
 30
0.0
 11
0.3430715614489347
 21
0.046797
 31
0.0
  0
LINE
  5
405
330
1D
100
AcDbEntity
  8
0
  6
Continuous
100
AcDbLine
 10
0.3430715614489347
 20
0.046797
 30
0.0
 11
0.3404355614489347
 21
0.041816
 31
0.0
  0
LINE
  5
406
330
1D
100
AcDbEntity
  8
0
  6
Continuous
100
AcDbLine
 10
0.3404355614489347
 20
0.041816
 30
0.0
 11
0.3369135614489347
 21
0.038897
 31
0.0
  0
LINE
  5
407
330
1D
100
AcDbEntity
  8
0
  6
Continuous
100
AcDbLine
 10
0.3424905614489347
 20
0.033203
 30
0.0
 11
0.3459865614489347
 21
0.036176
 31
0.0
  0
LINE
  5
408
330
1D
100
AcDbEntity
  8
0
  6
Continuous
100
AcDbLine
 10
0.3459865614489347
 20
0.036176
 30
0.0
 11
0.3485825614489347
 21
0.041197
 31
0.0
  0
LINE
  5
409
330
1D
100
AcDbEntity
  8
0
  6
Continuous
100
AcDbLine
 10
0.3860985614489347
 20
-0.109
 30
0.0
 11
0.3839585614489346
 21
-0.022037
 31
0.0
  0
LINE
  5
40A
330
1D
100
AcDbEntity
  8
0
  6
Continuous
100
AcDbLine
 10
0.3495915614489347
 20
0.04692
 30
0.0
 11
0.3485825614489347
 21
0.041197
 31
0.0
  0
LINE
  5
40B
330
1D
100
AcDbEntity
  8
0
  6
Continuous
100
AcDbLine
 10
0.3420065614489347
 20
-0.033394
 30
0.0
 11
0.3401425614489347
 21
-0.109
 31
0.0
  0
LINE
  5
40C
330
1D
100
AcDbEntity
  8
0
  6
Continuous
100
AcDbLine
 10
0.3827175614489347
 20
0.028401
 30
0.0
 11
0.3823485614489346
 21
0.043401
 31
0.0
  0
LINE
  5
40D
330
1D
100
AcDbEntity
  8
0
  6
Continuous
100
AcDbLine
 10
0.2855205614489347
 20
-0.017215
 30
0.0
 11
0.2847805614489347
 21
-0.016518
 31
0.0
  0
LINE
  5
40E
330
1D
100
AcDbEntity
  8
0
  6
Continuous
100
AcDbLine
 10
0.2847855614489347
 20
-0.016523
 30
0.0
 11
0.2855205614489347
 21
-0.017215
 31
0.0
  0
LINE
  5
40F
330
1D
100
AcDbEntity
  8
0
  6
Continuous
100
AcDbLine
 10
0.2685905614489346
 20
-0.001284
 30
0.0
 11
0.2648975614489347
 21
0.002191
 31
0.0
  0
LINE
  5
410
330
1D
100
AcDbEntity
  8
0
  6
Continuous
100
AcDbLine
 10
0.2648975614489347
 20
0.002191
 30
0.0
 11
0.2624515614489347
 21
0.004493
 31
0.0
  0
LINE
  5
411
330
1D
100
AcDbEntity
  8
0
  6
Continuous
100
AcDbLine
 10
0.2615845614489347
 20
0.005309
 30
0.0
 11
0.2624515614489347
 21
0.004493
 31
0.0
  0
LINE
  5
412
330
1D
100
AcDbEntity
  8
0
  6
Continuous
100
AcDbLine
 10
0.2625495614489346
 20
0.00574
 30
0.0
 11
0.2615845614489347
 21
0.005309
 31
0.0
  0
LINE
  5
413
330
1D
100
AcDbEntity
  8
0
  6
Continuous
100
AcDbLine
 10
0.2685905614489346
 20
-0.001284
 30
0.0
 11
0.2734925614489347
 21
-0.005897
 31
0.0
  0
LINE
  5
414
330
1D
100
AcDbEntity
  8
0
  6
Continuous
100
AcDbLine
 10
0.2855205614489347
 20
-0.017215
 30
0.0
 11
0.2865305614489347
 21
-0.016802
 31
0.0
  0
LINE
  5
415
330
1D
100
AcDbEntity
  8
0
  6
Continuous
100
AcDbLine
 10
0.2847855614489347
 20
-0.016523
 30
0.0
 11
0.2855205614489347
 21
-0.017215
 31
0.0
  0
LINE
  5
416
330
1D
100
AcDbEntity
  8
0
  6
Continuous
100
AcDbLine
 10
0.2847855614489347
 20
-0.016523
 30
0.0
 11
0.2826305614489347
 21
-0.014495
 31
0.0
  0
LINE
  5
417
330
1D
100
AcDbEntity
  8
0
  6
Continuous
100
AcDbLine
 10
0.2744745614489346
 20
-0.005473
 30
0.0
 11
0.2734925614489347
 21
-0.005897
 31
0.0
  0
LINE
  5
418
330
1D
100
AcDbEntity
  8
0
  6
Continuous
100
AcDbLine
 10
0.2734925614489347
 20
-0.005897
 30
0.0
 11
0.2784715614489347
 21
-0.010582
 31
0.0
  0
LINE
  5
419
330
1D
100
AcDbEntity
  8
0
  6
Continuous
100
AcDbLine
 10
0.2826305614489347
 20
-0.014495
 30
0.0
 11
0.2836545614489347
 21
-0.014111
 31
0.0
  0
LINE
  5
41A
330
1D
100
AcDbEntity
  8
0
  6
Continuous
100
AcDbLine
 10
0.2826305614489347
 20
-0.014495
 30
0.0
 11
0.2784715614489347
 21
-0.010582
 31
0.0
  0
LINE
  5
41B
330
1D
100
AcDbEntity
  8
0
  6
Continuous
100
AcDbLine
 10
0.3441245614489347
 20
0.058401
 30
0.0
 11
0.3441245614489347
 21
0.057401
 31
0.0
  0
LINE
  5
41C
330
1D
100
AcDbEntity
  8
0
  6
Continuous
100
AcDbLine
 10
0.3447715614489347
 20
0.058401
 30
0.0
 11
0.3441245614489347
 21
0.058401
 31
0.0
  0
LINE
  5
41D
330
1D
100
AcDbEntity
  8
0
  6
Continuous
100
AcDbLine
 10
0.3765595614489347
 20
0.058401
 30
0.0
 11
0.3726245614489347
 21
0.058401
 31
0.0
  0
LINE
  5
41E
330
1D
100
AcDbEntity
  8
0
  6
Continuous
100
AcDbLine
 10
0.3821245614489347
 20
0.058401
 30
0.0
 11
0.3814765614489346
 21
0.058401
 31
0.0
  0
LINE
  5
41F
330
1D
100
AcDbEntity
  8
0
  6
Continuous
100
AcDbLine
 10
0.3821395614489347
 20
0.057401
 30
0.0
 11
0.3821245614489347
 21
0.058401
 31
0.0
  0
LINE
  5
420
330
1D
100
AcDbEntity
  8
0
  6
Continuous
100
AcDbLine
 10
0.3536245614489347
 20
0.058401
 30
0.0
 11
0.3496895614489346
 21
0.058401
 31
0.0
  0
LINE
  5
421
330
1D
100
AcDbEntity
  8
0
  6
Continuous
100
AcDbLine
 10
0.3680415614489347
 20
0.058401
 30
0.0
 11
0.3631245614489347
 21
0.058401
 31
0.0
  0
LINE
  5
422
330
1D
100
AcDbEntity
  8
0
  6
Continuous
100
AcDbLine
 10
0.3631245614489347
 20
0.058401
 30
0.0
 11
0.3582065614489347
 21
0.058401
 31
0.0
  0
LINE
  5
423
330
1D
100
AcDbEntity
  8
0
  6
Continuous
100
AcDbLine
 10
0.3466695614489347
 20
0.058401
 30
0.0
 11
0.3447715614489347
 21
0.058401
 31
0.0
  0
LINE
  5
424
330
1D
100
AcDbEntity
  8
0
  6
Continuous
100
AcDbLine
 10
0.3814765614489346
 20
0.058401
 30
0.0
 11
0.3795785614489347
 21
0.058401
 31
0.0
  0
LINE
  5
425
330
1D
100
AcDbEntity
  8
0
  6
Continuous
100
AcDbLine
 10
0.3795785614489347
 20
0.058401
 30
0.0
 11
0.3765595614489347
 21
0.058401
 31
0.0
  0
LINE
  5
426
330
1D
100
AcDbEntity
  8
0
  6
Continuous
100
AcDbLine
 10
0.3496895614489346
 20
0.058401
 30
0.0
 11
0.3466695614489347
 21
0.058401
 31
0.0
  0
LINE
  5
427
330
1D
100
AcDbEntity
  8
0
  6
Continuous
100
AcDbLine
 10
0.3726245614489347
 20
0.058401
 30
0.0
 11
0.3680415614489347
 21
0.058401
 31
0.0
  0
LINE
  5
428
330
1D
100
AcDbEntity
  8
0
  6
Continuous
100
AcDbLine
 10
0.3582065614489347
 20
0.058401
 30
0.0
 11
0.3536245614489347
 21
0.058401
 31
0.0
  0
LINE
  5
429
330
1D
100
AcDbEntity
  8
0
  6
Continuous
100
AcDbLine
 10
0.3431995614489347
 20
-0.11
 30
0.0
 11
0.3468545614489347
 21
-0.11
 31
0.0
  0
LINE
  5
42A
330
1D
100
AcDbEntity
  8
0
  6
Continuous
100
AcDbLine
 10
0.3516185614489347
 20
-0.11
 30
0.0
 11
0.3571665614489347
 21
-0.11
 31
0.0
  0
LINE
  5
42B
330
1D
100
AcDbEntity
  8
0
  6
Continuous
100
AcDbLine
 10
0.3830405614489347
 20
-0.11
 30
0.0
 11
0.3853385614489347
 21
-0.11
 31
0.0
  0
LINE
  5
42C
330
1D
100
AcDbEntity
  8
0
  6
Continuous
100
AcDbLine
 10
0.3401425614489347
 20
-0.109
 30
0.0
 11
0.3401175614489347
 21
-0.11
 31
0.0
  0
LINE
  5
42D
330
1D
100
AcDbEntity
  8
0
  6
Continuous
100
AcDbLine
 10
0.3401175614489347
 20
-0.11
 30
0.0
 11
0.3409015614489347
 21
-0.11
 31
0.0
  0
LINE
  5
42E
330
1D
100
AcDbEntity
  8
0
  6
Continuous
100
AcDbLine
 10
0.3746215614489347
 20
-0.11
 30
0.0
 11
0.3793855614489347
 21
-0.11
 31
0.0
  0
LINE
  5
42F
330
1D
100
AcDbEntity
  8
0
  6
Continuous
100
AcDbLine
 10
0.3631205614489347
 20
-0.11
 30
0.0
 11
0.3690735614489347
 21
-0.11
 31
0.0
  0
LINE
  5
430
330
1D
100
AcDbEntity
  8
0
  6
Continuous
100
AcDbLine
 10
0.3468545614489347
 20
-0.11
 30
0.0
 11
0.3516185614489347
 21
-0.11
 31
0.0
  0
LINE
  5
431
330
1D
100
AcDbEntity
  8
0
  6
Continuous
100
AcDbLine
 10
0.3861225614489347
 20
-0.11
 30
0.0
 11
0.3860985614489347
 21
-0.109
 31
0.0
  0
LINE
  5
432
330
1D
100
AcDbEntity
  8
0
  6
Continuous
100
AcDbLine
 10
0.3853385614489347
 20
-0.11
 30
0.0
 11
0.3861225614489347
 21
-0.11
 31
0.0
  0
LINE
  5
433
330
1D
100
AcDbEntity
  8
0
  6
Continuous
100
AcDbLine
 10
0.3571665614489347
 20
-0.11
 30
0.0
 11
0.3631205614489347
 21
-0.11
 31
0.0
  0
LINE
  5
434
330
1D
100
AcDbEntity
  8
0
  6
Continuous
100
AcDbLine
 10
0.3409015614489347
 20
-0.11
 30
0.0
 11
0.3431995614489347
 21
-0.11
 31
0.0
  0
LINE
  5
435
330
1D
100
AcDbEntity
  8
0
  6
Continuous
100
AcDbLine
 10
0.3793855614489347
 20
-0.11
 30
0.0
 11
0.3830405614489347
 21
-0.11
 31
0.0
  0
LINE
  5
436
330
1D
100
AcDbEntity
  8
0
  6
Continuous
100
AcDbLine
 10
0.3690735614489347
 20
-0.11
 30
0.0
 11
0.3746215614489347
 21
-0.11
 31
0.0
  0
LINE
  5
437
330
1D
100
AcDbEntity
  8
0
  6
Continuous
100
AcDbLine
 10
0.3388435614489347
 20
0.031501
 30
0.0
 11
0.3424905614489347
 21
0.033203
 31
0.0
  0
LINE
  5
438
330
1D
100
AcDbEntity
  8
0
  6
Continuous
100
AcDbLine
 10
0.3369135614489347
 20
0.038897
 30
0.0
 11
0.3331955614489347
 21
0.037239
 31
0.0
  0
LINE
  5
439
330
1D
100
AcDbEntity
  8
0
  6
Continuous
100
AcDbLine
 10
0.3428505614489347
 20
0.023551
 30
0.0
 11
0.2744745614489346
 21
-0.005473
 31
0.0
  0
LINE
  5
43A
330
1D
100
AcDbEntity
  8
0
  6
Continuous
100
AcDbLine
 10
0.3386735614489347
 20
0.006529
 30
0.0
 11
0.3359225614489347
 21
0.005497
 31
0.0
  0
LINE
  5
43B
330
1D
100
AcDbEntity
  8
0
  6
Continuous
100
AcDbLine
 10
0.3366045614489347
 20
0.004152
 30
0.0
 11
0.3386735614489347
 21
0.006529
 31
0.0
  0
LINE
  5
43C
330
1D
100
AcDbEntity
  8
0
  6
Continuous
100
AcDbLine
 10
0.3334285614489347
 20
0.002331
 30
0.0
 11
0.3358965614489347
 21
0.003338
 31
0.0
  0
LINE
  5
43D
330
1D
100
AcDbEntity
  8
0
  6
Continuous
100
AcDbLine
 10
0.3358965614489347
 20
0.003338
 30
0.0
 11
0.3366045614489347
 21
0.004152
 31
0.0
  0
LINE
  5
43E
330
1D
100
AcDbEntity
  8
0
  6
Continuous
100
AcDbLine
 10
0.3426785614489347
 20
-0.00613
 30
0.0
 11
0.3426585614489347
 21
-0.006943
 31
0.0
  0
LINE
  5
43F
330
1D
100
AcDbEntity
  8
0
  6
Continuous
100
AcDbLine
 10
0.3441245614489347
 20
0.053319
 30
0.0
 11
0.3441245614489347
 21
0.052506
 31
0.0
  0
LINE
  5
440
330
1D
100
AcDbEntity
  8
0
  6
Continuous
100
AcDbLine
 10
0.3524195614489347
 20
0.027386
 30
0.0
 11
0.3494095614489347
 21
0.004793
 31
0.0
  0
LINE
  5
441
330
1D
100
AcDbEntity
  8
0
  6
Continuous
100
AcDbLine
 10
0.3811155614489347
 20
0.058401
 30
0.0
 11
0.3811155614489347
 21
0.059802
 31
0.0
  0
LINE
  5
442
330
1D
100
AcDbEntity
  8
0
  6
Continuous
100
AcDbLine
 10
0.3451325614489347
 20
0.059802
 30
0.0
 11
0.3451325614489347
 21
0.058401
 31
0.0
  0
LINE
  5
443
330
1D
100
AcDbEntity
  8
0
  6
Continuous
100
AcDbLine
 10
0.3426585614489347
 20
-0.006943
 30
0.0
 11
0.3420065614489347
 21
-0.033394
 31
0.0
  0
LINE
  5
444
330
1D
100
AcDbEntity
  8
0
  6
Continuous
100
AcDbLine
 10
0.3839585614489346
 20
-0.022037
 30
0.0
 11
0.3832095614489346
 21
0.008387
 31
0.0
  0
ENDSEC
  0
SECTION
  2
OBJECTS
  0
DICTIONARY
  5
C
330
0
100
AcDbDictionary
281
     1
  3
ACAD_2007HEADERVARS_RT
350
4C6
  3
ACAD_CIP_PREVIOUS_PRODUCT_INFO
350
179
  3
ACAD_COLOR
350
15A
  3
ACAD_DETAILVIEWSTYLE
350
174
  3
ACAD_GROUP
350
D
  3
ACAD_LAYOUT
350
1A
  3
ACAD_MATERIAL
350
128
  3
ACAD_MLEADERSTYLE
350
16F
  3
ACAD_MLINESTYLE
350
17
  3
ACAD_PLOTSETTINGS
350
19
  3
ACAD_PLOTSTYLENAME
350
E
  3
ACAD_SCALELIST
350
15D
  3
ACAD_SECTIONVIEWSTYLE
350
171
  3
ACAD_TABLESTYLE
350
15B
  3
ACAD_VISUALSTYLE
350
141
  3
ACDB_RECOMPOSE_DATA
350
4C4
  3
AcDbVariableDictionary
350
4B5
  3
AcmDictionary
350
1A6
  3
AMG
350
17B
  3
AMGSNAPSETTINGS
350
1DB
  3
DWGPROPS
350
4C5
  0
DICTIONARY
  5
4B1
330
10
100
AcDbDictionary
280
     1
281
     1
  3
ADSK_XREC_LAYER_RECONCILED
360
4B2
  0
DICTIONARY
  5
4B3
330
445
100
AcDbDictionary
280
     1
281
     1
  3
ADSK_XREC_LAYER_RECONCILED
360
4B4
  0
DICTIONARY
  5
448
330
1D
100
AcDbDictionary
280
     1
281
     1
  3
ACAD_SORTENTS
360
449
  0
DICTIONARY
  5
4C6
102
{ACAD_REACTORS
330
C
102
}
330
C
100
AcDbDictionary
281
     1
  3
INTERFERECOLOR
350
4C7
  0
XRECORD
  5
179
102
{ACAD_REACTORS
330
C
102
}
330
C
100
AcDbXrecord
280
     1
300
AMECH_PP
300
2013
300
PDSS_F_S
  0
DICTIONARY
  5
15A
102
{ACAD_REACTORS
330
C
102
}
330
C
100
AcDbDictionary
281
     1
  0
DICTIONARY
  5
174
102
{ACAD_REACTORS
330
C
102
}
330
C
100
AcDbDictionary
281
     1
  3
Imperial24
350
175
  0
DICTIONARY
  5
D
102
{ACAD_REACTORS
330
C
102
}
330
C
100
AcDbDictionary
281
     1
  0
DICTIONARY
  5
1A
102
{ACAD_REACTORS
330
C
102
}
330
C
100
AcDbDictionary
281
     1
  3
Layout1
350
1C
  3
Model
350
1E
  0
DICTIONARY
  5
128
102
{ACAD_REACTORS
330
C
102
}
330
C
100
AcDbDictionary
281
     1
  3
ByBlock
350
131
  3
ByLayer
350
129
  3
Global
350
139
  0
DICTIONARY
  5
16F
102
{ACAD_REACTORS
330
C
102
}
330
C
100
AcDbDictionary
281
     1
  3
Standard
350
170
  0
DICTIONARY
  5
17
102
{ACAD_REACTORS
330
C
102
}
330
C
100
AcDbDictionary
281
     1
  3
Standard
350
18
  0
DICTIONARY
  5
19
102
{ACAD_REACTORS
330
C
102
}
330
C
100
AcDbDictionary
281
     1
  0
ACDBDICTIONARYWDFLT
  5
E
102
{ACAD_REACTORS
330
C
102
}
330
C
100
AcDbDictionary
281
     1
  3
Normal
350
F
100
AcDbDictionaryWithDefault
340
F
  0
DICTIONARY
  5
15D
102
{ACAD_REACTORS
330
C
102
}
330
C
100
AcDbDictionary
281
     1
  3
A0
350
15E
  3
A1
350
15F
  3
A2
350
160
  3
A3
350
161
  3
A4
350
162
  3
A5
350
163
  3
A6
350
164
  3
A7
350
165
  3
A8
350
166
  3
A9
350
167
  3
B0
350
168
  3
B1
350
169
  3
B2
350
16A
  3
B3
350
16B
  3
B4
350
16C
  3
B5
350
16D
  3
B6
350
16E
  0
DICTIONARY
  5
171
102
{ACAD_REACTORS
330
C
102
}
330
C
100
AcDbDictionary
281
     1
  3
Imperial24
350
173
  0
DICTIONARY
  5
15B
102
{ACAD_REACTORS
330
C
102
}
330
C
100
AcDbDictionary
281
     1
  3
Standard
350
15C
  0
DICTIONARY
  5
141
102
{ACAD_REACTORS
330
C
102
}
330
C
100
AcDbDictionary
281
     1
  3
2dWireframe
350
147
  3
Basic
350
146
  3
Brighten
350
14D
  3
ColorChange
350
151
  3
Conceptual
350
14A
  3
Dim
350
14C
  3
EdgeColorOff
350
159
  3
Facepattern
350
150
  3
Flat
350
142
  3
FlatWithEdges
350
143
  3
Gouraud
350
144
  3
GouraudWithEdges
350
145
  3
Hidden
350
149
  3
JitterOff
350
157
  3
Linepattern
350
14F
  3
OverhangOff
350
158
  3
Realistic
350
14B
  3
Shaded
350
156
  3
Shaded with edges
350
155
  3
Shades of Gray
350
152
  3
Sketchy
350
153
  3
Thicken
350
14E
  3
Wireframe
350
148
  3
X-Ray
350
154
  0
XRECORD
  5
4C4
102
{ACAD_REACTORS
330
C
102
}
330
C
100
AcDbXrecord
280
     1
 90
        1
330
15C
  0
DICTIONARY
  5
4B5
102
{ACAD_REACTORS
330
C
102
}
330
C
100
AcDbDictionary
281
     1
  3
CANNOSCALE
350
4BA
  3
CMLEADERSTYLE
350
4B7
  3
CTABLESTYLE
350
4B6
  3
CVIEWDETAILSTYLE
350
4B8
  3
CVIEWSECTIONSTYLE
350
4B9
  3
DGNFRAME
350
4C1
  3
DIMASSOC
350
4BF
  3
HIDETEXT
350
4BD
  3
INDEXCTL
350
4BC
  3
SOLIDHIST
350
4C0
  3
SORTENTS
350
4BB
  3
XCLIPFRAME
350
4BE
  0
DICTIONARY
  5
1A6
102
{ACAD_REACTORS
330
C
102
}
330
C
100
AcDbDictionary
281
     1
  3
AcmStdDictionary
350
1AD
  0
DICTIONARY
  5
17B
102
{ACAD_REACTORS
330
C
102
}
330
C
100
AcDbDictionary
281
     1
  0
DICTIONARY
  5
1DB
102
{ACAD_REACTORS
330
C
102
}
330
C
100
AcDbDictionary
281
     1
  0
XRECORD
  5
4C5
102
{ACAD_REACTORS
330
C
102
}
330
C
100
AcDbXrecord
280
     1
  1
DWGPROPS COOKIE
  2

  3

  4

  6

  7

  8
tomitais
  9

300
=
301
=
302
=
303
=
304
=
305
=
306
=
307
=
308
=
309
=
 40
0.001425150462963
 41
2457106.723856551
 42
2457353.37184978
  1

 90
        0
  0
XRECORD
  5
4B2
102
{ACAD_REACTORS
330
4B1
102
}
330
4B1
100
AcDbXrecord
280
     1
290
     1
  0
XRECORD
  5
4B4
102
{ACAD_REACTORS
330
4B3
102
}
330
4B3
100
AcDbXrecord
280
     1
290
     1
  0
SORTENTSTABLE
  5
449
102
{ACAD_REACTORS
330
448
102
}
330
448
100
AcDbSortentsTable
330
1D
331
3A8
  5
3B8
331
100
  5
110
331
3F6
  5
406
331
3E5
  5
3F5
331
3D4
  5
3E4
331
3C3
  5
3D3
331
3B9
  5
3C9
331
111
  5
121
331
43F
  5
453
331
7F
  5
8F
331
26
  5
36
331
407
  5
417
331
90
  5
A0
331
37
  5
47
331
418
  5
428
331
429
  5
439
331
A1
  5
B1
331
48
  5
58
331
261
  5
271
331
272
  5
282
331
B2
  5
C2
331
59
  5
69
331
283
  5
293
331
C3
  5
D3
331
6A
  5
7A
331
294
  5
2A4
331
D4
  5
E4
331
397
  5
3A7
331
2B6
  5
2C6
331
2A5
  5
2B5
331
E5
  5
F5
331
2C7
  5
396
331
398
  5
3A8
331
F0
  5
100
331
2C8
  5
397
331
3A9
  5
3B9
331
101
  5
111
331
3F7
  5
407
331
3E6
  5
3F6
331
3D5
  5
3E5
331
3C4
  5
3D4
331
3BA
  5
3CA
331
112
  5
25B
331
440
  5
454
331
80
  5
90
331
27
  5
37
331
408
  5
418
331
91
  5
A1
331
38
  5
48
331
419
  5
429
331
42A
  5
43A
331
A2
  5
B2
331
49
  5
59
331
262
  5
272
331
273
  5
283
331
B3
  5
C3
331
5A
  5
6A
331
284
  5
294
331
C4
  5
D4
331
6B
  5
7B
331
295
  5
2A5
331
D5
  5
E5
331
2B7
  5
2C7
331
2A6
  5
2B6
331
E6
  5
F6
331
2B8
  5
2C8
331
399
  5
3A9
331
F1
  5
101
331
2C9
  5
398
331
3AA
  5
3BA
331
102
  5
112
331
3F8
  5
408
331
3E7
  5
3F7
331
3D6
  5
3E6
331
3C5
  5
3D5
331
3BB
  5
3CB
331
113
  5
25C
331
441
  5
455
331
81
  5
91
331
28
  5
38
331
409
  5
419
331
92
  5
A2
331
39
  5
49
331
41A
  5
42A
331
42B
  5
43B
331
A3
  5
B3
331
4A
  5
5A
331
263
  5
273
331
274
  5
284
331
B4
  5
C4
331
5B
  5
6B
331
285
  5
295
331
C5
  5
D5
331
6C
  5
7C
331
296
  5
2A6
331
D6
  5
E6
331
2A7
  5
2B7
331
E7
  5
F7
331
2B9
  5
2C9
331
2A8
  5
2B8
331
E8
  5
F8
331
39A
  5
3AA
331
F2
  5
102
331
2CA
  5
399
331
3AB
  5
3BB
331
103
  5
113
331
3F9
  5
409
331
3E8
  5
3F8
331
3D7
  5
3E7
331
3C6
  5
3D6
331
3BC
  5
3CC
331
114
  5
25D
331
442
  5
456
331
82
  5
92
331
29
  5
39
331
40A
  5
41A
331
93
  5
A3
331
3A
  5
4A
331
41B
  5
42B
331
42C
  5
43C
331
A4
  5
B4
331
4B
  5
5B
331
264
  5
274
331
275
  5
285
331
B5
  5
C5
331
5C
  5
6C
331
286
  5
296
331
C6
  5
D6
331
6D
  5
7D
331
297
  5
2A7
331
D7
  5
E7
331
298
  5
2A8
331
D8
  5
E8
331
2BA
  5
2CA
331
2A9
  5
2B9
331
E9
  5
F9
331
39B
  5
3AB
331
F3
  5
103
331
2CB
  5
39A
331
3AC
  5
3BC
331
104
  5
114
331
3FA
  5
40A
331
3E9
  5
3F9
331
3D8
  5
3E8
331
3C7
  5
3D7
331
3BD
  5
3CD
331
115
  5
25E
331
443
  5
457
331
83
  5
93
331
2A
  5
3A
331
40B
  5
41B
331
94
  5
A4
331
3B
  5
4B
331
41C
  5
42C
331
42D
  5
43D
331
A5
  5
B5
331
4C
  5
5C
331
265
  5
275
331
276
  5
286
331
B6
  5
C6
331
5D
  5
6D
331
287
  5
297
331
C7
  5
D7
331
6E
  5
7E
331
288
  5
298
331
C8
  5
D8
331
299
  5
2A9
331
D9
  5
E9
331
38B
  5
39B
331
2AA
  5
2BA
331
EA
  5
FA
331
2BB
  5
2CB
331
39C
  5
3AC
331
F4
  5
104
331
3AD
  5
3BD
331
105
  5
115
331
3FB
  5
40B
331
3EA
  5
3FA
331
3D9
  5
3E9
331
3C8
  5
3D8
331
3BE
  5
3CE
331
116
  5
25F
331
444
  5
458
331
84
  5
94
331
2B
  5
3B
331
40C
  5
41C
331
95
  5
A5
331
3C
  5
4C
331
41D
  5
42D
331
42E
  5
43E
331
A6
  5
B6
331
4D
  5
5D
331
266
  5
276
331
277
  5
287
331
B7
  5
C7
331
6F
  5
7F
331
5E
  5
6E
331
278
  5
288
331
B8
  5
C8
331
289
  5
299
331
C9
  5
D9
331
70
  5
80
331
29A
  5
2AA
331
DA
  5
EA
331
38C
  5
39C
331
2AB
  5
2BB
331
EB
  5
FB
331
2BC
  5
38B
331
39D
  5
3AD
331
F5
  5
105
331
3AE
  5
3BE
331
106
  5
116
331
3FC
  5
40C
331
3EB
  5
3FB
331
3DA
  5
3EA
331
3C9
  5
3D9
331
3BF
  5
3CF
331
117
  5
260
331
40D
  5
41D
331
85
  5
95
331
2C
  5
3C
331
96
  5
A6
331
3D
  5
4D
331
41E
  5
42E
331
42F
  5
43F
331
A7
  5
B7
331
4E
  5
5E
331
5F
  5
6F
331
267
  5
277
331
430
  5
440
331
A8
  5
B8
331
268
  5
278
331
279
  5
289
331
B9
  5
C9
331
60
  5
70
331
28A
  5
29A
331
CA
  5
DA
331
71
  5
81
331
29B
  5
2AB
331
DB
  5
EB
331
38D
  5
39D
331
2AC
  5
2BC
331
EC
  5
FC
331
2BD
  5
38C
331
39E
  5
3AE
331
F6
  5
106
331
3AF
  5
3BF
331
107
  5
117
331
3FD
  5
40D
331
3EC
  5
3FC
331
3DB
  5
3EB
331
3CA
  5
3DA
331
118
  5
261
331
40E
  5
41E
331
86
  5
96
331
2D
  5
3D
331
97
  5
A7
331
3E
  5
4E
331
41F
  5
42F
331
4F
  5
5F
331
98
  5
A8
331
420
  5
430
331
431
  5
441
331
A9
  5
B9
331
50
  5
60
331
269
  5
279
331
27A
  5
28A
331
BA
  5
CA
331
61
  5
71
331
28B
  5
29B
331
CB
  5
DB
331
72
  5
82
331
29C
  5
2AC
331
DC
  5
EC
331
38E
  5
39E
331
2AD
  5
2BD
331
ED
  5
FD
331
2BE
  5
38D
331
39F
  5
3AF
331
F7
  5
107
331
3B0
  5
3C0
331
108
  5
118
331
3FE
  5
40E
331
3ED
  5
3FD
331
3DC
  5
3EC
331
3CB
  5
3DB
331
119
  5
262
331
87
  5
97
331
2E
  5
3E
331
40F
  5
41F
331
3F
  5
4F
331
410
  5
420
331
88
  5
98
331
421
  5
431
331
99
  5
A9
331
40
  5
50
331
432
  5
442
331
AA
  5
BA
331
51
  5
61
331
26A
  5
27A
331
27B
  5
28B
331
BB
  5
CB
331
62
  5
72
331
28C
  5
29C
331
CC
  5
DC
331
73
  5
83
331
29D
  5
2AD
331
DD
  5
ED
331
38F
  5
39F
331
2AE
  5
2BE
331
EE
  5
FE
331
2BF
  5
38E
331
3A0
  5
3B0
331
F8
  5
108
331
3B1
  5
3C1
331
109
  5
119
331
3FF
  5
40F
331
3EE
  5
3FE
331
3DD
  5
3ED
331
3CC
  5
3DC
331
11A
  5
263
331
2F
  5
3F
331
438
  5
44C
331
78
  5
88
331
400
  5
410
331
411
  5
421
331
89
  5
99
331
30
  5
40
331
422
  5
432
331
9A
  5
AA
331
41
  5
51
331
433
  5
443
331
AB
  5
BB
331
52
  5
62
331
26B
  5
27B
331
27C
  5
28C
331
BC
  5
CC
331
63
  5
73
331
28D
  5
29D
331
CD
  5
DD
331
74
  5
84
331
29E
  5
2AE
331
DE
  5
EE
331
390
  5
3A0
331
2AF
  5
2BF
331
EF
  5
FF
331
2C0
  5
38F
331
3A1
  5
3B1
331
F9
  5
109
331
3B2
  5
3C2
331
10A
  5
11A
331
3EF
  5
3FF
331
3DE
  5
3EE
331
3CD
  5
3DD
331
11B
  5
264
331
3F0
  5
400
331
439
  5
44D
331
79
  5
89
331
401
  5
411
331
8A
  5
9A
331
31
  5
41
331
412
  5
422
331
423
  5
433
331
9B
  5
AB
331
42
  5
52
331
25B
  5
26B
331
434
  5
444
331
AC
  5
BC
331
53
  5
63
331
26C
  5
27C
331
27D
  5
28D
331
BD
  5
CD
331
64
  5
74
331
28E
  5
29E
331
CE
  5
DE
331
75
  5
85
331
391
  5
3A1
331
2B0
  5
2C0
331
29F
  5
2AF
331
DF
  5
EF
331
2C1
  5
390
331
3A2
  5
3B2
331
FA
  5
10A
331
3B3
  5
3C3
331
10B
  5
11B
331
3DF
  5
3EF
331
3CE
  5
3DE
331
11C
  5
265
331
3F1
  5
401
331
3E0
  5
3F0
331
43A
  5
44E
331
7A
  5
8A
331
402
  5
412
331
8B
  5
9B
331
32
  5
42
331
413
  5
423
331
424
  5
434
331
9C
  5
AC
331
43
  5
53
331
25C
  5
26C
331
435
  5
447
331
AD
  5
BD
331
54
  5
64
331
26D
  5
27D
331
27E
  5
28E
331
BE
  5
CE
331
65
  5
75
331
28F
  5
29F
331
CF
  5
DF
331
76
  5
86
331
392
  5
3A2
331
2B1
  5
2C1
331
2A0
  5
2B0
331
E0
  5
F0
331
2C2
  5
391
331
3A3
  5
3B3
331
FB
  5
10B
331
3B4
  5
3C4
331
10C
  5
11C
331
3CF
  5
3DF
331
11D
  5
266
331
3F2
  5
402
331
3E1
  5
3F1
331
3D0
  5
3E0
331
43B
  5
44F
331
7B
  5
8B
331
22
  5
32
331
403
  5
413
331
8C
  5
9C
331
33
  5
43
331
414
  5
424
331
425
  5
435
331
9D
  5
AD
331
44
  5
54
331
25D
  5
26D
331
436
  5
44A
331
AE
  5
BE
331
55
  5
65
331
26E
  5
27E
331
27F
  5
28F
331
BF
  5
CF
331
66
  5
76
331
290
  5
2A0
331
D0
  5
E0
331
77
  5
87
331
393
  5
3A3
331
2B2
  5
2C2
331
2A1
  5
2B1
331
E1
  5
F1
331
2C3
  5
392
331
3A4
  5
3B4
331
FC
  5
10C
331
3B5
  5
3C5
331
10D
  5
11D
331
11E
  5
267
331
3F3
  5
403
331
3E2
  5
3F2
331
3D1
  5
3E1
331
3C0
  5
3D0
331
43C
  5
450
331
7C
  5
8C
331
23
  5
33
331
404
  5
414
331
8D
  5
9D
331
34
  5
44
331
415
  5
425
331
426
  5
436
331
9E
  5
AE
331
45
  5
55
331
25E
  5
26E
331
437
  5
44B
331
AF
  5
BF
331
56
  5
66
331
26F
  5
27F
331
280
  5
290
331
C0
  5
D0
331
67
  5
77
331
291
  5
2A1
331
D1
  5
E1
331
394
  5
3A4
331
2B3
  5
2C3
331
2A2
  5
2B2
331
E2
  5
F2
331
2C4
  5
393
331
3A5
  5
3B5
331
FD
  5
10D
331
3B6
  5
3C6
331
10E
  5
11E
331
11F
  5
268
331
3F4
  5
404
331
3E3
  5
3F3
331
3D2
  5
3E2
331
3C1
  5
3D1
331
120
  5
269
331
43D
  5
451
331
7D
  5
8D
331
24
  5
34
331
405
  5
415
331
8E
  5
9E
331
35
  5
45
331
416
  5
426
331
427
  5
437
331
9F
  5
AF
331
46
  5
56
331
25F
  5
26F
331
270
  5
280
331
B0
  5
C0
331
57
  5
67
331
281
  5
291
331
C1
  5
D1
331
68
  5
78
331
292
  5
2A2
331
D2
  5
E2
331
395
  5
3A5
331
2B4
  5
2C4
331
2A3
  5
2B3
331
E3
  5
F3
331
2C5
  5
394
331
3A6
  5
3B6
331
FE
  5
10E
331
3B7
  5
3C7
331
10F
  5
11F
331
3B8
  5
3C8
331
110
  5
120
331
3F5
  5
405
331
3E4
  5
3F4
331
3D3
  5
3E3
331
3C2
  5
3D2
331
121
  5
26A
331
43E
  5
452
331
7E
  5
8E
331
25
  5
35
331
406
  5
416
331
8F
  5
9F
331
36
  5
46
331
417
  5
427
331
428
  5
438
331
A0
  5
B0
331
47
  5
57
331
260
  5
270
331
271
  5
281
331
B1
  5
C1
331
58
  5
68
331
282
  5
292
331
C2
  5
D2
331
69
  5
79
331
293
  5
2A3
331
D3
  5
E3
331
396
  5
3A6
331
2B5
  5
2C5
331
2A4
  5
2B4
331
E4
  5
F4
331
2C6
  5
395
331
3A7
  5
3B7
331
FF
  5
10F
  0
XRECORD
  5
4C7
102
{ACAD_REACTORS
330
4C6
102
}
330
4C6
100
AcDbXrecord
280
     1
1004
1800000001000000000000C0000000000000000000000000
  0
ACDBDETAILVIEWSTYLE
  5
175
102
{ACAD_REACTORS
330
174
102
}
330
174
100
AcDbModelDocViewStyle
 70
     0
  3
Imperial24
290
     0
100
AcDbDetailViewStyle
 70
     0
 71
     0
 90
        3
 71
     1
340
11
 40
0.24
340
0
 40
0.24
300

 40
0.36
280
     3
 71
     2
340
16
 90
       25
 71
     3
340
11
 40
0.24
 90
        1
 40
0.75
 90
        1
300
%<\AcVar ViewType \f "%tc1">% %<\AcVar ViewDetailId>%\PSCALE %<\AcVar ViewScale \f "%sn">%
 71
     4
340
16
 90
       25
340
16
 90
       25
280
     0
  0
LAYOUT
  5
1C
102
{ACAD_XDICTIONARY
360
4C8
102
}
102
{ACAD_REACTORS
330
1A
102
}
330
1A
100
AcDbPlotSettings
  1

  2
none_device
  4

  6

 40
0.0
 41
0.0
 42
0.0
 43
0.0
 44
0.0
 45
0.0
 46
0.0
 47
0.0
 48
0.0
 49
0.0
140
0.0
141
0.0
142
1.0
143
1.0
 70
   688
 72
     0
 73
     0
 74
     5
  7

 75
    16
147
1.0
148
0.0
149
0.0
100
AcDbLayout
  1
Layout1
 70
     1
 71
     1
 10
0.0
 20
0.0
 11
12.0
 21
9.0
 12
0.0
 22
0.0
 32
0.0
 14
1.000000000000000E+20
 24
1.000000000000000E+20
 34
1.000000000000000E+20
 15
-1.000000000000000E+20
 25
-1.000000000000000E+20
 35
-1.000000000000000E+20
146
0.0
 13
0.0
 23
0.0
 33
0.0
 16
1.0
 26
0.0
 36
0.0
 17
0.0
 27
1.0
 37
0.0
 76
     0
330
1B
  0
LAYOUT
  5
1E
102
{ACAD_XDICTIONARY
360
4CA
102
}
102
{ACAD_REACTORS
330
1A
102
}
330
1A
100
AcDbPlotSettings
  1

  2
none_device
  4

  6

 40
0.0
 41
0.0
 42
0.0
 43
0.0
 44
0.0
 45
0.0
 46
0.0
 47
0.0
 48
0.0
 49
0.0
140
0.0
141
0.0
142
1.0
143
1.0
 70
  1712
 72
     0
 73
     0
 74
     0
  7

 75
     0
147
1.0
148
0.0
149
0.0
100
AcDbLayout
  1
Model
 70
     1
 71
     0
 10
0.0
 20
0.0
 11
12.0
 21
9.0
 12
0.0
 22
0.0
 32
0.0
 14
1.000000000000000E+20
 24
1.000000000000000E+20
 34
1.000000000000000E+20
 15
-1.000000000000000E+20
 25
-1.000000000000000E+20
 35
-1.000000000000000E+20
146
0.0
 13
0.0
 23
0.0
 33
0.0
 16
1.0
 26
0.0
 36
0.0
 17
0.0
 27
1.0
 37
0.0
 76
     0
330
1D
331
122
  0
MATERIAL
  5
131
102
{ACAD_XDICTIONARY
360
132
102
}
102
{ACAD_REACTORS
330
128
102
}
330
128
100
AcDbMaterial
  1
ByBlock
 72
     0
 43
0.0208333333333333
 43
0.0
 43
0.0
 43
0.0
 43
0.0
 43
0.0208333333333333
 43
0.0
 43
0.0
 43
0.0
 43
0.0
 43
1.0
 43
0.0
 43
0.0
 43
0.0
 43
0.0
 43
1.0
 77
     0
 47
0.0208333333333333
 47
0.0
 47
0.0
 47
0.0
 47
0.0
 47
0.0208333333333333
 47
0.0
 47
0.0
 47
0.0
 47
0.0
 47
1.0
 47
0.0
 47
0.0
 47
0.0
 47
0.0
 47
1.0
171
     0
 49
0.0208333333333333
 49
0.0
 49
0.0
 49
0.0
 49
0.0
 49
0.0208333333333333
 49
0.0
 49
0.0
 49
0.0
 49
0.0
 49
1.0
 49
0.0
 49
0.0
 49
0.0
 49
0.0
 49
1.0
175
     0
142
0.0208333333333333
142
0.0
142
0.0
142
0.0
142
0.0
142
0.0208333333333333
142
0.0
142
0.0
142
0.0
142
0.0
142
1.0
142
0.0
142
0.0
142
0.0
142
0.0
142
1.0
179
     0
144
0.0208333333333333
144
0.0
144
0.0
144
0.0
144
0.0
144
0.0208333333333333
144
0.0
144
0.0
144
0.0
144
0.0
144
1.0
144
0.0
144
0.0
144
0.0
144
0.0
144
1.0
147
0.0208333333333333
147
0.0
147
0.0
147
0.0
147
0.0
147
0.0208333333333333
147
0.0
147
0.0
147
0.0
147
0.0
147
1.0
147
0.0
147
0.0
147
0.0
147
0.0
147
1.0
  0
MATERIAL
  5
129
102
{ACAD_XDICTIONARY
360
12A
102
}
102
{ACAD_REACTORS
330
128
102
}
330
128
100
AcDbMaterial
  1
ByLayer
 72
     0
 43
0.0208333333333333
 43
0.0
 43
0.0
 43
0.0
 43
0.0
 43
0.0208333333333333
 43
0.0
 43
0.0
 43
0.0
 43
0.0
 43
1.0
 43
0.0
 43
0.0
 43
0.0
 43
0.0
 43
1.0
 77
     0
 47
0.0208333333333333
 47
0.0
 47
0.0
 47
0.0
 47
0.0
 47
0.0208333333333333
 47
0.0
 47
0.0
 47
0.0
 47
0.0
 47
1.0
 47
0.0
 47
0.0
 47
0.0
 47
0.0
 47
1.0
171
     0
 49
0.0208333333333333
 49
0.0
 49
0.0
 49
0.0
 49
0.0
 49
0.0208333333333333
 49
0.0
 49
0.0
 49
0.0
 49
0.0
 49
1.0
 49
0.0
 49
0.0
 49
0.0
 49
0.0
 49
1.0
175
     0
142
0.0208333333333333
142
0.0
142
0.0
142
0.0
142
0.0
142
0.0208333333333333
142
0.0
142
0.0
142
0.0
142
0.0
142
1.0
142
0.0
142
0.0
142
0.0
142
0.0
142
1.0
179
     0
144
0.0208333333333333
144
0.0
144
0.0
144
0.0
144
0.0
144
0.0208333333333333
144
0.0
144
0.0
144
0.0
144
0.0
144
1.0
144
0.0
144
0.0
144
0.0
144
0.0
144
1.0
147
0.0208333333333333
147
0.0
147
0.0
147
0.0
147
0.0
147
0.0208333333333333
147
0.0
147
0.0
147
0.0
147
0.0
147
1.0
147
0.0
147
0.0
147
0.0
147
0.0
147
1.0
  0
MATERIAL
  5
139
102
{ACAD_XDICTIONARY
360
13A
102
}
102
{ACAD_REACTORS
330
128
102
}
330
128
100
AcDbMaterial
  1
Global
 72
     0
 43
0.0208333333333333
 43
0.0
 43
0.0
 43
0.0
 43
0.0
 43
0.0208333333333333
 43
0.0
 43
0.0
 43
0.0
 43
0.0
 43
1.0
 43
0.0
 43
0.0
 43
0.0
 43
0.0
 43
1.0
 77
     0
 47
0.0208333333333333
 47
0.0
 47
0.0
 47
0.0
 47
0.0
 47
0.0208333333333333
 47
0.0
 47
0.0
 47
0.0
 47
0.0
 47
1.0
 47
0.0
 47
0.0
 47
0.0
 47
0.0
 47
1.0
171
     0
 49
0.0208333333333333
 49
0.0
 49
0.0
 49
0.0
 49
0.0
 49
0.0208333333333333
 49
0.0
 49
0.0
 49
0.0
 49
0.0
 49
1.0
 49
0.0
 49
0.0
 49
0.0
 49
0.0
 49
1.0
175
     0
142
0.0208333333333333
142
0.0
142
0.0
142
0.0
142
0.0
142
0.0208333333333333
142
0.0
142
0.0
142
0.0
142
0.0
142
1.0
142
0.0
142
0.0
142
0.0
142
0.0
142
1.0
179
     0
144
0.0208333333333333
144
0.0
144
0.0
144
0.0
144
0.0
144
0.0208333333333333
144
0.0
144
0.0
144
0.0
144
0.0
144
1.0
144
0.0
144
0.0
144
0.0
144
0.0
144
1.0
147
0.0208333333333333
147
0.0
147
0.0
147
0.0
147
0.0
147
0.0208333333333333
147
0.0
147
0.0
147
0.0
147
0.0
147
1.0
147
0.0
147
0.0
147
0.0
147
0.0
147
1.0
  0
MLEADERSTYLE
  5
170
102
{ACAD_XDICTIONARY
360
501
102
}
102
{ACAD_REACTORS
330
16F
102
}
330
16F
100
AcDbMLeaderStyle
170
     2
171
     1
172
     0
 90
        2
 40
0.0
 41
0.0
173
     1
 91
-1056964608
340
14
 92
       -2
290
     1
 42
0.09
291
     1
 43
0.36
  3
Standard
 44
0.18
300

342
11
174
     1
178
     6
175
     1
176
     0
 93
-1056964608
 45
0.18
292
     0
297
     0
 46
0.18
 94
-1056964608
 47
1.0
 49
1.0
140
1.0
293
     1
141
0.0
294
     1
177
     0
142
1.0
295
     0
296
     0
143
0.125
1001
ACAD_MLEADERVER
1070
     2
  0
MLINESTYLE
  5
18
102
{ACAD_REACTORS
330
17
102
}
330
17
100
AcDbMlineStyle
  2
STANDARD
 70
     0
  3

 62
   256
 51
90.0
 52
90.0
 71
     2
 49
0.5
 62
   256
  6
BYLAYER
 49
-0.5
 62
   256
  6
BYLAYER
  0
ACDBPLACEHOLDER
  5
F
102
{ACAD_REACTORS
330
E
102
}
330
E
  0
SCALE
  5
15E
102
{ACAD_REACTORS
330
15D
102
}
330
15D
100
AcDbScale
 70
     0
300
1:1
140
1.0
141
1.0
290
     1
  0
SCALE
  5
15F
102
{ACAD_REACTORS
330
15D
102
}
330
15D
100
AcDbScale
 70
     0
300
1/128" = 1'-0"
140
0.0078125
141
12.0
290
     0
  0
SCALE
  5
160
102
{ACAD_REACTORS
330
15D
102
}
330
15D
100
AcDbScale
 70
     0
300
1/64" = 1'-0"
140
0.015625
141
12.0
290
     0
  0
SCALE
  5
161
102
{ACAD_REACTORS
330
15D
102
}
330
15D
100
AcDbScale
 70
     0
300
1/32" = 1'-0"
140
0.03125
141
12.0
290
     0
  0
SCALE
  5
162
102
{ACAD_REACTORS
330
15D
102
}
330
15D
100
AcDbScale
 70
     0
300
1/16" = 1'-0"
140
0.0625
141
12.0
290
     0
  0
SCALE
  5
163
102
{ACAD_REACTORS
330
15D
102
}
330
15D
100
AcDbScale
 70
     0
300
3/32" = 1'-0"
140
0.09375
141
12.0
290
     0
  0
SCALE
  5
164
102
{ACAD_REACTORS
330
15D
102
}
330
15D
100
AcDbScale
 70
     0
300
1/8" = 1'-0"
140
0.125
141
12.0
290
     0
  0
SCALE
  5
165
102
{ACAD_REACTORS
330
15D
102
}
330
15D
100
AcDbScale
 70
     0
300
3/16" = 1'-0"
140
0.1875
141
12.0
290
     0
  0
SCALE
  5
166
102
{ACAD_REACTORS
330
15D
102
}
330
15D
100
AcDbScale
 70
     0
300
1/4" = 1'-0"
140
0.25
141
12.0
290
     0
  0
SCALE
  5
167
102
{ACAD_REACTORS
330
15D
102
}
330
15D
100
AcDbScale
 70
     0
300
3/8" = 1'-0"
140
0.375
141
12.0
290
     0
  0
SCALE
  5
168
102
{ACAD_REACTORS
330
15D
102
}
330
15D
100
AcDbScale
 70
     0
300
1/2" = 1'-0"
140
0.5
141
12.0
290
     0
  0
SCALE
  5
169
102
{ACAD_REACTORS
330
15D
102
}
330
15D
100
AcDbScale
 70
     0
300
3/4" = 1'-0"
140
0.75
141
12.0
290
     0
  0
SCALE
  5
16A
102
{ACAD_REACTORS
330
15D
102
}
330
15D
100
AcDbScale
 70
     0
300
1" = 1'-0"
140
1.0
141
12.0
290
     0
  0
SCALE
  5
16B
102
{ACAD_REACTORS
330
15D
102
}
330
15D
100
AcDbScale
 70
     0
300
1-1/2" = 1'-0"
140
1.5
141
12.0
290
     0
  0
SCALE
  5
16C
102
{ACAD_REACTORS
330
15D
102
}
330
15D
100
AcDbScale
 70
     0
300
3" = 1'-0"
140
3.0
141
12.0
290
     0
  0
SCALE
  5
16D
102
{ACAD_REACTORS
330
15D
102
}
330
15D
100
AcDbScale
 70
     0
300
6" = 1'-0"
140
6.0
141
12.0
290
     0
  0
SCALE
  5
16E
102
{ACAD_REACTORS
330
15D
102
}
330
15D
100
AcDbScale
 70
     0
300
1'-0" = 1'-0"
140
12.0
141
12.0
290
     0
  0
ACDBSECTIONVIEWSTYLE
  5
173
102
{ACAD_REACTORS
330
171
102
}
330
171
100
AcDbModelDocViewStyle
 70
     0
  3
Imperial24
290
     0
100
AcDbSectionViewStyle
 70
     0
 71
     0
 90
       78
 71
     1
340
11
 40
0.24
340
0
340
0
 40
0.24
300
I, O, Q, S, X, Z
 40
0.48
 90
        3
 40
0.18
 90
        1
 71
     2
340
172
 90
       25
340
16
 90
       50
 40
0.24
 40
0.0
 40
0.24
 71
     3
340
11
 40
0.24
 90
        1
 40
0.75
 90
        1
300
%<\AcVar ViewType \f "%tc1">% %<\AcVar ViewSectionStartId>%-%<\AcVar ViewSectionEndId>%\PSCALE %<\AcVar ViewScale \f "%sn">%
 71
     4
300
ANSI31
 40
1.0
 90
        0
290
     0
290
     0
 90
        6
 40
0.0
 40
1.570796326794896
 40
0.2617993877991494
 40
1.308996938995747
 40
-0.2617993877991494
 40
1.832595714594046
  0
TABLESTYLE
  5
15C
102
{ACAD_XDICTIONARY
360
4C2
102
}
102
{ACAD_REACTORS
330
15B
102
}
330
15B
100
AcDbTableStyle
  3
Standard
 70
     0
 71
     0
 40
0.06
 41
0.06
280
     0
281
     0
  7
Standard
140
0.18
170
     2
 62
     0
 63
     7
283
     0
274
    -2
284
     1
 64
     0
275
    -2
285
     1
 65
     0
276
    -2
286
     1
 66
     0
277
    -2
287
     1
 67
     0
278
    -2
288
     1
 68
     0
279
    -2
289
     1
 69
     0
  7
Standard
140
0.25
170
     5
 62
     0
 63
     7
283
     0
274
    -2
284
     1
 64
     0
275
    -2
285
     1
 65
     0
276
    -2
286
     1
 66
     0
277
    -2
287
     1
 67
     0
278
    -2
288
     1
 68
     0
279
    -2
289
     1
 69
     0
  7
Standard
140
0.18
170
     5
 62
     0
 63
     7
283
     0
274
    -2
284
     1
 64
     0
275
    -2
285
     1
 65
     0
276
    -2
286
     1
 66
     0
277
    -2
287
     1
 67
     0
278
    -2
288
     1
 68
     0
279
    -2
289
     1
 69
     0
  0
VISUALSTYLE
  5
147
102
{ACAD_XDICTIONARY
360
4D9
102
}
102
{ACAD_REACTORS
330
141
102
}
330
141
100
AcDbVisualStyle
  2
2dWireframe
 70
     4
 71
     0
 72
     2
 73
     0
 90
        0
 40
-0.6
 41
-30.0
 62
     5
 63
     7
 74
     1
 91
        4
 64
     7
 65
   257
 75
     1
175
     1
 42
1.0
 92
        0
 66
   257
 43
1.0
 76
     1
 77
     6
 78
     2
 67
     7
 79
     5
170
     0
171
     0
290
     0
174
     0
 93
        1
 44
0.0
173
     0
291
     0
 45
0.0
1001
ACAD
1000
AcDbSavedByObjectVersion
1070
     0
  0
VISUALSTYLE
  5
146
102
{ACAD_XDICTIONARY
360
4D7
102
}
102
{ACAD_REACTORS
330
141
102
}
330
141
100
AcDbVisualStyle
  2
Basic
 70
     7
 71
     1
 72
     0
 73
     1
 90
        0
 40
-0.6
 41
-30.0
 62
     5
 63
     7
 74
     0
 91
        4
 64
     7
 65
   257
 75
     1
175
     1
 42
1.0
 92
        8
 66
     7
 43
1.0
 76
     1
 77
     6
 78
     2
 67
     7
 79
     5
170
     0
171
     0
290
     0
174
     0
 93
        1
 44
0.0
173
     0
291
     1
 45
0.0
1001
ACAD
1000
AcDbSavedByObjectVersion
1070
     0
  0
VISUALSTYLE
  5
14D
102
{ACAD_XDICTIONARY
360
4E5
102
}
102
{ACAD_REACTORS
330
141
102
}
330
141
100
AcDbVisualStyle
  2
Brighten
 70
    12
 71
     2
 72
     2
 73
     0
 90
        0
 40
-0.6
 41
-30.0
 62
     5
 63
     7
 74
     1
 91
        4
 64
     7
 65
   257
 75
     1
175
     1
 42
1.0
 92
        8
 66
     7
 43
1.0
 76
     1
 77
     6
 78
     2
 67
     7
 79
     5
170
     0
171
     0
290
     0
174
     0
 93
        1
 44
50.0
173
     0
291
     1
 45
0.0
1001
ACAD
1000
AcDbSavedByObjectVersion
1070
     0
  0
VISUALSTYLE
  5
151
102
{ACAD_XDICTIONARY
360
4ED
102
}
102
{ACAD_REACTORS
330
141
102
}
330
141
100
AcDbVisualStyle
  2
ColorChange
 70
    16
 71
     2
 72
     2
 73
     3
 90
        0
 40
-0.6
 41
-30.0
 62
     5
 63
     8
 74
     1
 91
        4
 64
     7
 65
   257
 75
     1
175
     1
 42
1.0
 92
        8
 66
     8
 43
1.0
 76
     1
 77
     6
 78
     2
 67
     7
 79
     5
170
     0
171
     0
290
     0
174
     0
 93
        1
 44
0.0
173
     0
291
     1
 45
0.0
1001
ACAD
1000
AcDbSavedByObjectVersion
1070
     0
  0
VISUALSTYLE
  5
14A
102
{ACAD_XDICTIONARY
360
4DF
102
}
102
{ACAD_REACTORS
330
141
102
}
330
141
100
AcDbVisualStyle
  2
Conceptual
 70
     9
 71
     3
 72
     2
 73
     0
 90
        0
 40
-0.6
 41
-30.0
 62
     5
 63
     7
 74
     2
 91
        2
 64
     7
 65
   257
 75
     1
175
     1
 42
179.0
 92
        8
 66
     7
 43
1.0
 76
     1
 77
     6
 78
     2
 67
     7
 79
     3
170
     0
171
     0
290
     0
174
     0
 93
        1
 44
0.0
173
     0
291
     0
 45
0.0
1001
ACAD
1000
AcDbSavedByObjectVersion
1070
     0
  0
VISUALSTYLE
  5
14C
102
{ACAD_XDICTIONARY
360
4E3
102
}
102
{ACAD_REACTORS
330
141
102
}
330
141
100
AcDbVisualStyle
  2
Dim
 70
    11
 71
     2
 72
     2
 73
     0
 90
        0
 40
-0.6
 41
-30.0
 62
     5
 63
     7
 74
     1
 91
        4
 64
     7
 65
   257
 75
     1
175
     1
 42
1.0
 92
        8
 66
     7
 43
1.0
 76
     1
 77
     6
 78
     2
 67
     7
 79
     5
170
     0
171
     0
290
     0
174
     0
 93
        1
 44
-50.0
173
     0
291
     1
 45
0.0
1001
ACAD
1000
AcDbSavedByObjectVersion
1070
     0
  0
VISUALSTYLE
  5
159
102
{ACAD_XDICTIONARY
360
4FD
102
}
102
{ACAD_REACTORS
330
141
102
}
330
141
100
AcDbVisualStyle
  2
EdgeColorOff
 70
    22
 71
     2
 72
     2
 73
     0
 90
        0
 40
-0.6
 41
-30.0
 62
     5
 63
     7
 74
     1
 91
        4
 64
     7
 65
   257
 75
     1
175
     1
 42
1.0
 92
        8
 66
     7
 43
1.0
 76
     1
 77
     6
 78
     2
 67
     7
 79
     5
170
     0
171
     0
290
     0
174
     0
 93
        1
 44
0.0
173
     0
291
     1
 45
0.0
1001
ACAD
1000
AcDbSavedByObjectVersion
1070
     0
  0
VISUALSTYLE
  5
150
102
{ACAD_XDICTIONARY
360
4EB
102
}
102
{ACAD_REACTORS
330
141
102
}
330
141
100
AcDbVisualStyle
  2
Facepattern
 70
    15
 71
     2
 72
     2
 73
     0
 90
        0
 40
-0.6
 41
-30.0
 62
     5
 63
     7
 74
     1
 91
        4
 64
     7
 65
   257
 75
     1
175
     1
 42
1.0
 92
        8
 66
     7
 43
1.0
 76
     1
 77
     6
 78
     2
 67
     7
 79
     5
170
     0
171
     0
290
     0
174
     0
 93
        1
 44
0.0
173
     0
291
     1
 45
0.0
1001
ACAD
1000
AcDbSavedByObjectVersion
1070
     0
  0
VISUALSTYLE
  5
142
102
{ACAD_XDICTIONARY
360
4CF
102
}
102
{ACAD_REACTORS
330
141
102
}
330
141
100
AcDbVisualStyle
  2
Flat
 70
     0
 71
     2
 72
     1
 73
     1
 90
        2
 40
-0.6
 41
30.0
 62
     5
 63
     7
 74
     0
 91
        0
 64
     7
 65
   257
 75
     1
175
     1
 42
1.0
 92
        8
 66
     7
 43
1.0
 76
     1
 77
     6
 78
     2
 67
     7
 79
     5
170
     0
171
     0
290
     0
174
     0
 93
       13
 44
0.0
173
     0
291
     1
 45
0.0
1001
ACAD
1000
AcDbSavedByObjectVersion
1070
     0
  0
VISUALSTYLE
  5
143
102
{ACAD_XDICTIONARY
360
4D1
102
}
102
{ACAD_REACTORS
330
141
102
}
330
141
100
AcDbVisualStyle
  2
FlatWithEdges
 70
     1
 71
     2
 72
     1
 73
     1
 90
        2
 40
-0.6
 41
30.0
 62
     5
 63
     7
 74
     1
 91
        0
 64
     7
 65
   257
 75
     1
175
     1
 42
1.0
 92
        0
 66
   257
 43
1.0
 76
     1
 77
     6
 78
     2
 67
     7
 79
     5
170
     0
171
     0
290
     0
174
     0
 93
       13
 44
0.0
173
     0
291
     1
 45
0.0
1001
ACAD
1000
AcDbSavedByObjectVersion
1070
     0
  0
VISUALSTYLE
  5
144
102
{ACAD_XDICTIONARY
360
4D3
102
}
102
{ACAD_REACTORS
330
141
102
}
330
141
100
AcDbVisualStyle
  2
Gouraud
 70
     2
 71
     2
 72
     2
 73
     1
 90
        2
 40
-0.6
 41
30.0
 62
     5
 63
     7
 74
     0
 91
        0
 64
     7
 65
   257
 75
     1
175
     1
 42
1.0
 92
        0
 66
     7
 43
1.0
 76
     1
 77
     6
 78
     2
 67
     7
 79
     5
170
     0
171
     0
290
     0
174
     0
 93
       13
 44
0.0
173
     0
291
     1
 45
0.0
1001
ACAD
1000
AcDbSavedByObjectVersion
1070
     0
  0
VISUALSTYLE
  5
145
102
{ACAD_XDICTIONARY
360
4D5
102
}
102
{ACAD_REACTORS
330
141
102
}
330
141
100
AcDbVisualStyle
  2
GouraudWithEdges
 70
     3
 71
     2
 72
     2
 73
     1
 90
        2
 40
-0.6
 41
30.0
 62
     5
 63
     7
 74
     1
 91
        0
 64
     7
 65
   257
 75
     1
175
     1
 42
1.0
 92
        0
 66
   257
 43
1.0
 76
     1
 77
     6
 78
     2
 67
     7
 79
     5
170
     0
171
     0
290
     0
174
     0
 93
       13
 44
0.0
173
     0
291
     1
 45
0.0
1001
ACAD
1000
AcDbSavedByObjectVersion
1070
     0
  0
VISUALSTYLE
  5
149
102
{ACAD_XDICTIONARY
360
4DD
102
}
102
{ACAD_REACTORS
330
141
102
}
330
141
100
AcDbVisualStyle
  2
Hidden
 70
     6
 71
     1
 72
     2
 73
     2
 90
        0
 40
-0.6
 41
-30.0
 62
     5
 63
     7
 74
     2
 91
        2
 64
     7
 65
   257
 75
     2
175
     1
 42
40.0
 92
        0
 66
   257
 43
1.0
 76
     1
 77
     6
 78
     2
 67
     7
 79
     3
170
     0
171
     0
290
     0
174
     0
 93
        1
 44
0.0
173
     0
291
     0
 45
0.0
1001
ACAD
1000
AcDbSavedByObjectVersion
1070
     0
  0
VISUALSTYLE
  5
157
102
{ACAD_XDICTIONARY
360
4F9
102
}
102
{ACAD_REACTORS
330
141
102
}
330
141
100
AcDbVisualStyle
  2
JitterOff
 70
    20
 71
     2
 72
     2
 73
     0
 90
        0
 40
-0.6
 41
-30.0
 62
     5
 63
     7
 74
     1
 91
        4
 64
     7
 65
   257
 75
     1
175
     1
 42
1.0
 92
       10
 66
     7
 43
1.0
 76
     1
 77
     6
 78
     2
 67
     7
 79
     5
170
     0
171
     0
290
     0
174
     0
 93
        1
 44
0.0
173
     0
291
     1
 45
0.0
1001
ACAD
1000
AcDbSavedByObjectVersion
1070
     0
  0
VISUALSTYLE
  5
14F
102
{ACAD_XDICTIONARY
360
4E9
102
}
102
{ACAD_REACTORS
330
141
102
}
330
141
100
AcDbVisualStyle
  2
Linepattern
 70
    14
 71
     2
 72
     2
 73
     0
 90
        0
 40
-0.6
 41
-30.0
 62
     5
 63
     7
 74
     1
 91
        4
 64
     7
 65
   257
 75
     7
175
     7
 42
1.0
 92
        8
 66
     7
 43
1.0
 76
     1
 77
     6
 78
     2
 67
     7
 79
     5
170
     0
171
     0
290
     0
174
     0
 93
        1
 44
0.0
173
     0
291
     1
 45
0.0
1001
ACAD
1000
AcDbSavedByObjectVersion
1070
     0
  0
VISUALSTYLE
  5
158
102
{ACAD_XDICTIONARY
360
4FB
102
}
102
{ACAD_REACTORS
330
141
102
}
330
141
100
AcDbVisualStyle
  2
OverhangOff
 70
    21
 71
     2
 72
     2
 73
     0
 90
        0
 40
-0.6
 41
-30.0
 62
     5
 63
     7
 74
     1
 91
        4
 64
     7
 65
   257
 75
     1
175
     1
 42
1.0
 92
        9
 66
     7
 43
1.0
 76
     1
 77
     6
 78
     2
 67
     7
 79
     5
170
     0
171
     0
290
     0
174
     0
 93
        1
 44
0.0
173
     0
291
     1
 45
0.0
1001
ACAD
1000
AcDbSavedByObjectVersion
1070
     0
  0
VISUALSTYLE
  5
14B
102
{ACAD_XDICTIONARY
360
4E1
102
}
102
{ACAD_REACTORS
330
141
102
}
330
141
100
AcDbVisualStyle
  2
Realistic
 70
     8
 71
     2
 72
     3
 73
     0
 90
        2
 40
-0.6
 41
30.0
 62
     5
 63
     7
 74
     0
 91
        0
 64
     7
 65
   257
 75
     1
175
     1
 42
1.0
 92
        8
 66
   257
 43
1.0
 76
     1
 77
     6
 78
     2
 67
     7
 79
     3
170
     0
171
     0
290
     0
174
     0
 93
       13
 44
0.0
173
     0
291
     0
 45
0.0
1001
ACAD
1000
AcDbSavedByObjectVersion
1070
     0
  0
VISUALSTYLE
  5
156
102
{ACAD_XDICTIONARY
360
4F7
102
}
102
{ACAD_REACTORS
330
141
102
}
330
141
100
AcDbVisualStyle
  2
Shaded
 70
    27
 71
     2
 72
     2
 73
     1
 90
        2
 40
-0.6
 41
30.0
 62
     5
 63
     7
 74
     0
 91
        4
 64
     7
 65
   257
 75
     1
175
     1
 42
1.0
 92
        8
 66
   257
 43
1.0
 76
     1
 77
     6
 78
     2
 67
     8
 79
     3
170
     0
171
     0
290
     0
174
     0
 93
        5
 44
0.0
173
     0
291
     0
 45
0.0
1001
ACAD
1000
AcDbSavedByObjectVersion
1070
     0
  0
VISUALSTYLE
  5
155
102
{ACAD_XDICTIONARY
360
4F5
102
}
102
{ACAD_REACTORS
330
141
102
}
330
141
100
AcDbVisualStyle
  2
Shaded with edges
 70
    26
 71
     2
 72
     2
 73
     1
 90
        2
 40
-0.6
 41
30.0
 62
     5
 63
     7
 74
     1
 91
       10
 64
     7
 65
   257
 75
     2
175
     1
 42
1.0
 92
        8
 66
   257
 43
1.0
 76
     1
 77
     6
 78
     2
 67
     7
 79
     3
170
     0
171
     0
290
     0
174
     0
 93
        5
 44
0.0
173
     0
291
     0
 45
0.0
1001
ACAD
1000
AcDbSavedByObjectVersion
1070
     0
  0
VISUALSTYLE
  5
152
102
{ACAD_XDICTIONARY
360
4EF
102
}
102
{ACAD_REACTORS
330
141
102
}
330
141
100
AcDbVisualStyle
  2
Shades of Gray
 70
    23
 71
     2
 72
     2
 73
     3
 90
        0
 40
-0.6
 41
-30.0
 62
     5
 63
     7
 74
     2
 91
        2
 64
     7
 65
     7
 75
     1
175
     1
 42
40.0
 92
        8
 66
     7
 43
1.0
 76
     1
 77
     6
 78
     2
 67
     7
 79
     3
170
     0
171
     0
290
     0
174
     0
 93
        1
 44
0.0
173
     0
291
     0
 45
0.0
1001
ACAD
1000
AcDbSavedByObjectVersion
1070
     0
  0
VISUALSTYLE
  5
153
102
{ACAD_XDICTIONARY
360
4F1
102
}
102
{ACAD_REACTORS
330
141
102
}
330
141
100
AcDbVisualStyle
  2
Sketchy
 70
    24
 71
     1
 72
     2
 73
     2
 90
        0
 40
-0.6
 41
-30.0
 62
     5
 63
     7
 74
     2
 91
        2
 64
     7
 65
     7
 75
     1
175
     1
 42
40.0
 92
       11
 66
     7
 43
1.0
 76
     1
 77
     6
 78
     2
 67
     7
 79
     6
170
     0
171
     0
290
     0
174
     0
 93
        1
 44
0.0
173
     0
291
     0
 45
0.0
1001
ACAD
1000
AcDbSavedByObjectVersion
1070
     0
  0
VISUALSTYLE
  5
14E
102
{ACAD_XDICTIONARY
360
4E7
102
}
102
{ACAD_REACTORS
330
141
102
}
330
141
100
AcDbVisualStyle
  2
Thicken
 70
    13
 71
     2
 72
     2
 73
     0
 90
        0
 40
-0.6
 41
-30.0
 62
     5
 63
     7
 74
     1
 91
        4
 64
     7
 65
   257
 75
     1
175
     1
 42
1.0
 92
       12
 66
     7
 43
1.0
 76
     1
 77
     6
 78
     2
 67
     7
 79
     5
170
     0
171
     0
290
     0
174
     0
 93
        1
 44
0.0
173
     0
291
     1
 45
0.0
1001
ACAD
1000
AcDbSavedByObjectVersion
1070
     0
  0
VISUALSTYLE
  5
148
102
{ACAD_XDICTIONARY
360
4DB
102
}
102
{ACAD_REACTORS
330
141
102
}
330
141
100
AcDbVisualStyle
  2
Wireframe
 70
     5
 71
     0
 72
     2
 73
     0
 90
        0
 40
-0.6
 41
-30.0
 62
     5
 63
     7
 74
     1
 91
        4
 64
     7
 65
   257
 75
     1
175
     1
 42
1.0
 92
        0
 66
   257
 43
1.0
 76
     1
 77
     6
 78
     2
 67
     7
 79
     3
170
     0
171
     0
290
     0
174
     0
 93
        1
 44
0.0
173
     0
291
     0
 45
0.0
1001
ACAD
1000
AcDbSavedByObjectVersion
1070
     0
  0
VISUALSTYLE
  5
154
102
{ACAD_XDICTIONARY
360
4F3
102
}
102
{ACAD_REACTORS
330
141
102
}
330
141
100
AcDbVisualStyle
  2
X-Ray
 70
    25
 71
     2
 72
     2
 73
     1
 90
        1
 40
0.5
 41
-30.0
 62
     5
 63
     7
 74
     1
 91
        0
 64
     7
 65
   257
 75
     1
175
     1
 42
1.0
 92
        8
 66
     7
 43
1.0
 76
     1
 77
     6
 78
     2
 67
     7
 79
     3
170
     0
171
     0
290
     0
174
     0
 93
       13
 44
0.0
173
     0
291
     0
 45
0.0
1001
ACAD
1000
AcDbSavedByObjectVersion
1070
     0
  0
DICTIONARYVAR
  5
4BA
102
{ACAD_REACTORS
330
4B5
102
}
330
4B5
100
DictionaryVariables
280
     0
  1
1:1
  0
DICTIONARYVAR
  5
4B7
102
{ACAD_REACTORS
330
4B5
102
}
330
4B5
100
DictionaryVariables
280
     0
  1
STANDARD
  0
DICTIONARYVAR
  5
4B6
102
{ACAD_REACTORS
330
4B5
102
}
330
4B5
100
DictionaryVariables
280
     0
  1
STANDARD
  0
DICTIONARYVAR
  5
4B8
102
{ACAD_REACTORS
330
4B5
102
}
330
4B5
100
DictionaryVariables
280
     0
  1
Imperial24
  0
DICTIONARYVAR
  5
4B9
102
{ACAD_REACTORS
330
4B5
102
}
330
4B5
100
DictionaryVariables
280
     0
  1
Imperial24
  0
DICTIONARYVAR
  5
4C1
102
{ACAD_REACTORS
330
4B5
102
}
330
4B5
100
DictionaryVariables
280
     0
  1
2
  0
DICTIONARYVAR
  5
4BF
102
{ACAD_REACTORS
330
4B5
102
}
330
4B5
100
DictionaryVariables
280
     0
  1
2
  0
DICTIONARYVAR
  5
4BD
102
{ACAD_REACTORS
330
4B5
102
}
330
4B5
100
DictionaryVariables
280
     0
  1
1
  0
DICTIONARYVAR
  5
4BC
102
{ACAD_REACTORS
330
4B5
102
}
330
4B5
100
DictionaryVariables
280
     0
  1
0
  0
DICTIONARYVAR
  5
4C0
102
{ACAD_REACTORS
330
4B5
102
}
330
4B5
100
DictionaryVariables
280
     0
  1
1
  0
DICTIONARYVAR
  5
4BB
102
{ACAD_REACTORS
330
4B5
102
}
330
4B5
100
DictionaryVariables
280
     0
  1
127
  0
DICTIONARYVAR
  5
4BE
102
{ACAD_REACTORS
330
4B5
102
}
330
4B5
100
DictionaryVariables
280
     0
  1
0
  0
DICTIONARY
  5
1AD
102
{ACAD_REACTORS
330
1A6
102
}
330
1A6
100
AcDbDictionary
281
     1
  0
DICTIONARY
  5
4C8
330
1C
100
AcDbDictionary
280
     1
281
     1
  3
ACAD_XREC_ROUNDTRIP
360
4C9
  0
DICTIONARY
  5
4CA
330
1E
100
AcDbDictionary
280
     1
281
     1
  3
ACAD_XREC_ROUNDTRIP
360
4CB
  0
DICTIONARY
  5
132
330
131
100
AcDbDictionary
280
     1
281
     1
  3
ACAD_XREC_ROUNDTRIP
360
4CD
  3
BUMPTILE
360
134
  3
DIFFUSETILE
360
133
  3
OPACITYTILE
360
137
  3
REFLECTIONTILE
360
136
  3
REFRACTIONTILE
360
138
  3
SPECULARTILE
360
135
  0
DICTIONARY
  5
12A
330
129
100
AcDbDictionary
280
     1
281
     1
  3
ACAD_XREC_ROUNDTRIP
360
4CC
  3
BUMPTILE
360
12C
  3
DIFFUSETILE
360
12B
  3
OPACITYTILE
360
12F
  3
REFLECTIONTILE
360
12E
  3
REFRACTIONTILE
360
130
  3
SPECULARTILE
360
12D
  0
DICTIONARY
  5
13A
330
139
100
AcDbDictionary
280
     1
281
     1
  3
ACAD_XREC_ROUNDTRIP
360
4CE
  3
BUMPTILE
360
13C
  3
DIFFUSETILE
360
13B
  3
OPACITYTILE
360
13F
  3
REFLECTIONTILE
360
13E
  3
REFRACTIONTILE
360
140
  3
SPECULARTILE
360
13D
  0
DICTIONARY
  5
501
330
170
100
AcDbDictionary
280
     1
281
     1
  3
ACAD_XREC_ROUNDTRIP
360
502
  0
DICTIONARY
  5
4C2
330
15C
100
AcDbDictionary
280
     1
281
     1
  3
ACAD_ROUNDTRIP_2008_TABLESTYLE_CELLSTYLEMAP
360
4C3
  3
ACAD_XREC_ROUNDTRIP
360
4FF
  0
DICTIONARY
  5
4D9
330
147
100
AcDbDictionary
280
     1
281
     1
  3
ACAD_XREC_ROUNDTRIP
360
4DA
  0
DICTIONARY
  5
4D7
330
146
100
AcDbDictionary
280
     1
281
     1
  3
ACAD_XREC_ROUNDTRIP
360
4D8
  0
DICTIONARY
  5
4E5
330
14D
100
AcDbDictionary
280
     1
281
     1
  3
ACAD_XREC_ROUNDTRIP
360
4E6
  0
DICTIONARY
  5
4ED
330
151
100
AcDbDictionary
280
     1
281
     1
  3
ACAD_XREC_ROUNDTRIP
360
4EE
  0
DICTIONARY
  5
4DF
330
14A
100
AcDbDictionary
280
     1
281
     1
  3
ACAD_XREC_ROUNDTRIP
360
4E0
  0
DICTIONARY
  5
4E3
330
14C
100
AcDbDictionary
280
     1
281
     1
  3
ACAD_XREC_ROUNDTRIP
360
4E4
  0
DICTIONARY
  5
4FD
330
159
100
AcDbDictionary
280
     1
281
     1
  3
ACAD_XREC_ROUNDTRIP
360
4FE
  0
DICTIONARY
  5
4EB
330
150
100
AcDbDictionary
280
     1
281
     1
  3
ACAD_XREC_ROUNDTRIP
360
4EC
  0
DICTIONARY
  5
4CF
330
142
100
AcDbDictionary
280
     1
281
     1
  3
ACAD_XREC_ROUNDTRIP
360
4D0
  0
DICTIONARY
  5
4D1
330
143
100
AcDbDictionary
280
     1
281
     1
  3
ACAD_XREC_ROUNDTRIP
360
4D2
  0
DICTIONARY
  5
4D3
330
144
100
AcDbDictionary
280
     1
281
     1
  3
ACAD_XREC_ROUNDTRIP
360
4D4
  0
DICTIONARY
  5
4D5
330
145
100
AcDbDictionary
280
     1
281
     1
  3
ACAD_XREC_ROUNDTRIP
360
4D6
  0
DICTIONARY
  5
4DD
330
149
100
AcDbDictionary
280
     1
281
     1
  3
ACAD_XREC_ROUNDTRIP
360
4DE
  0
DICTIONARY
  5
4F9
330
157
100
AcDbDictionary
280
     1
281
     1
  3
ACAD_XREC_ROUNDTRIP
360
4FA
  0
DICTIONARY
  5
4E9
330
14F
100
AcDbDictionary
280
     1
281
     1
  3
ACAD_XREC_ROUNDTRIP
360
4EA
  0
DICTIONARY
  5
4FB
330
158
100
AcDbDictionary
280
     1
281
     1
  3
ACAD_XREC_ROUNDTRIP
360
4FC
  0
DICTIONARY
  5
4E1
330
14B
100
AcDbDictionary
280
     1
281
     1
  3
ACAD_XREC_ROUNDTRIP
360
4E2
  0
DICTIONARY
  5
4F7
330
156
100
AcDbDictionary
280
     1
281
     1
  3
ACAD_XREC_ROUNDTRIP
360
4F8
  0
DICTIONARY
  5
4F5
330
155
100
AcDbDictionary
280
     1
281
     1
  3
ACAD_XREC_ROUNDTRIP
360
4F6
  0
DICTIONARY
  5
4EF
330
152
100
AcDbDictionary
280
     1
281
     1
  3
ACAD_XREC_ROUNDTRIP
360
4F0
  0
DICTIONARY
  5
4F1
330
153
100
AcDbDictionary
280
     1
281
     1
  3
ACAD_XREC_ROUNDTRIP
360
4F2
  0
DICTIONARY
  5
4E7
330
14E
100
AcDbDictionary
280
     1
281
     1
  3
ACAD_XREC_ROUNDTRIP
360
4E8
  0
DICTIONARY
  5
4DB
330
148
100
AcDbDictionary
280
     1
281
     1
  3
ACAD_XREC_ROUNDTRIP
360
4DC
  0
DICTIONARY
  5
4F3
330
154
100
AcDbDictionary
280
     1
281
     1
  3
ACAD_XREC_ROUNDTRIP
360
4F4
  0
XRECORD
  5
4C9
102
{ACAD_REACTORS
330
4C8
102
}
330
4C8
100
AcDbXrecord
280
     1
102
SHADEPLOT
 70
     0
102
SHADEPLOTRESLEVEL
 70
     2
102
SHADEPLOTCUSTOMDPI
 70
   300
  0
XRECORD
  5
4CB
102
{ACAD_REACTORS
330
4CA
102
}
330
4CA
100
AcDbXrecord
280
     1
102
SHADEPLOT
 70
     0
102
SHADEPLOTRESLEVEL
 70
     2
102
SHADEPLOTCUSTOMDPI
 70
   300
  0
XRECORD
  5
4CD
102
{ACAD_REACTORS
330
132
102
}
330
132
100
AcDbXrecord
280
     1
102
MATERIAL
148
0.0
149
0.0
149
0.0
 93
        0
 94
      127
282
     0
 72
     0
 77
     0
171
     0
175
     0
179
     0
273
     0
  0
XRECORD
  5
134
102
{ACAD_REACTORS
330
132
102
}
330
132
100
AcDbXrecord
280
     1
270
     1
271
     1
  0
XRECORD
  5
133
102
{ACAD_REACTORS
330
132
102
}
330
132
100
AcDbXrecord
280
     1
270
     1
271
     1
  0
XRECORD
  5
137
102
{ACAD_REACTORS
330
132
102
}
330
132
100
AcDbXrecord
280
     1
270
     1
271
     1
  0
XRECORD
  5
136
102
{ACAD_REACTORS
330
132
102
}
330
132
100
AcDbXrecord
280
     1
270
     1
271
     1
  0
XRECORD
  5
138
102
{ACAD_REACTORS
330
132
102
}
330
132
100
AcDbXrecord
280
     1
270
     1
271
     1
  0
XRECORD
  5
135
102
{ACAD_REACTORS
330
132
102
}
330
132
100
AcDbXrecord
280
     1
270
     1
271
     1
  0
XRECORD
  5
4CC
102
{ACAD_REACTORS
330
12A
102
}
330
12A
100
AcDbXrecord
280
     1
102
MATERIAL
148
0.0
149
0.0
149
0.0
 93
        0
 94
      127
282
     0
 72
     0
 77
     0
171
     0
175
     0
179
     0
273
     0
  0
XRECORD
  5
12C
102
{ACAD_REACTORS
330
12A
102
}
330
12A
100
AcDbXrecord
280
     1
270
     1
271
     1
  0
XRECORD
  5
12B
102
{ACAD_REACTORS
330
12A
102
}
330
12A
100
AcDbXrecord
280
     1
270
     1
271
     1
  0
XRECORD
  5
12F
102
{ACAD_REACTORS
330
12A
102
}
330
12A
100
AcDbXrecord
280
     1
270
     1
271
     1
  0
XRECORD
  5
12E
102
{ACAD_REACTORS
330
12A
102
}
330
12A
100
AcDbXrecord
280
     1
270
     1
271
     1
  0
XRECORD
  5
130
102
{ACAD_REACTORS
330
12A
102
}
330
12A
100
AcDbXrecord
280
     1
270
     1
271
     1
  0
XRECORD
  5
12D
102
{ACAD_REACTORS
330
12A
102
}
330
12A
100
AcDbXrecord
280
     1
270
     1
271
     1
  0
XRECORD
  5
4CE
102
{ACAD_REACTORS
330
13A
102
}
330
13A
100
AcDbXrecord
280
     1
102
MATERIAL
148
0.0
149
0.0
149
0.0
 93
        0
 94
      127
282
     0
 72
     0
 77
     0
171
     0
175
     0
179
     0
273
     0
  0
XRECORD
  5
13C
102
{ACAD_REACTORS
330
13A
102
}
330
13A
100
AcDbXrecord
280
     1
270
     1
271
     1
  0
XRECORD
  5
13B
102
{ACAD_REACTORS
330
13A
102
}
330
13A
100
AcDbXrecord
280
     1
270
     1
271
     1
  0
XRECORD
  5
13F
102
{ACAD_REACTORS
330
13A
102
}
330
13A
100
AcDbXrecord
280
     1
270
     1
271
     1
  0
XRECORD
  5
13E
102
{ACAD_REACTORS
330
13A
102
}
330
13A
100
AcDbXrecord
280
     1
270
     1
271
     1
  0
XRECORD
  5
140
102
{ACAD_REACTORS
330
13A
102
}
330
13A
100
AcDbXrecord
280
     1
270
     1
271
     1
  0
XRECORD
  5
13D
102
{ACAD_REACTORS
330
13A
102
}
330
13A
100
AcDbXrecord
280
     1
270
     1
271
     1
  0
XRECORD
  5
502
102
{ACAD_REACTORS
330
501
102
}
330
501
100
AcDbXrecord
280
     1
102
ACAD_ROUNDTRIP_2012_MLEADER_STYLE
298
     1
  0
CELLSTYLEMAP
  5
4C3
102
{ACAD_REACTORS
330
4C2
102
}
330
4C2
100
AcDbCellStyleMap
 90
        3
300
CELLSTYLE
  1
TABLEFORMAT_BEGIN
 90
        5
170
     1
 91
        0
 92
    32768
 62
   257
 93
        1
300
CONTENTFORMAT
  1
CONTENTFORMAT_BEGIN
 90
        0
 91
        0
 92
      512
 93
        0
300

 40
0.0
140
1.0
 94
        5
 62
     0
340
11
144
0.25
309
CONTENTFORMAT_END
171
     0
 94
        0
309
TABLEFORMAT_END
  1
CELLSTYLE_BEGIN
 90
        1
 91
        1
300
_TITLE
309
CELLSTYLE_END
300
CELLSTYLE
  1
TABLEFORMAT_BEGIN
 90
        5
170
     1
 91
        0
 92
        0
 62
   257
 93
        1
300
CONTENTFORMAT
  1
CONTENTFORMAT_BEGIN
 90
        0
 91
        0
 92
      512
 93
        0
300

 40
0.0
140
1.0
 94
        5
 62
     0
340
11
144
0.18
309
CONTENTFORMAT_END
171
     0
 94
        0
309
TABLEFORMAT_END
  1
CELLSTYLE_BEGIN
 90
        2
 91
        1
300
_HEADER
309
CELLSTYLE_END
300
CELLSTYLE
  1
TABLEFORMAT_BEGIN
 90
        5
170
     1
 91
        0
 92
        0
 62
   257
 93
        1
300
CONTENTFORMAT
  1
CONTENTFORMAT_BEGIN
 90
        0
 91
        0
 92
      512
 93
        0
300

 40
0.0
140
1.0
 94
        2
 62
     0
340
11
144
0.18
309
CONTENTFORMAT_END
171
     0
 94
        0
309
TABLEFORMAT_END
  1
CELLSTYLE_BEGIN
 90
        3
 91
        2
300
_DATA
309
CELLSTYLE_END
  0
XRECORD
  5
4FF
102
{ACAD_REACTORS
330
4C2
102
}
330
4C2
100
AcDbXrecord
280
     1
102
ACAD_ROUNDTRIP_PRE2007_TABLESTYLE
 90
      512
 91
        0
  1

 92
      512
 93
        0
  2

 94
      512
 95
        0
  3

  0
XRECORD
  5
4DA
102
{ACAD_REACTORS
330
4D9
102
}
330
4D9
100
AcDbXrecord
280
     1
102
RTVSPost2010Prop28
280
     1
102
RTVSPost2010PropOp28
 70
     1
102
RTVSPost2010Prop29
280
     1
102
RTVSPost2010PropOp29
 70
     1
102
RTVSPost2010Prop30
280
     0
102
RTVSPost2010PropOp30
 70
     1
102
RTVSPost2010Prop31
280
     0
102
RTVSPost2010PropOp31
 70
     1
102
RTVSPost2010Prop32
280
     0
102
RTVSPost2010PropOp32
 70
     1
102
RTVSPost2010Prop33
280
     0
102
RTVSPost2010PropOp33
 70
     1
102
RTVSPost2010Prop34
280
     0
102
RTVSPost2010PropOp34
 70
     1
102
RTVSPost2010Prop35
280
     0
102
RTVSPost2010PropOp35
 70
     1
102
RTVSPost2010Prop36
280
     0
102
RTVSPost2010PropOp36
 70
     1
102
RTVSPost2010Prop37
 90
       50
102
RTVSPost2010PropOp37
 70
     1
102
RTVSPost2010Prop38
140
0.0
102
RTVSPost2010PropOp38
 70
     1
102
RTVSPost2010Prop39
140
1.0
102
RTVSPost2010PropOp39
 70
     1
102
RTVSPost2010Prop40
 90
        0
102
RTVSPost2010PropOp40
 70
     1
102
RTVSPost2010Prop41ColorIndex
 90
       18
102
RTVSPost2010Prop41ColorRGB
 90
        0
102
RTVSPost2010PropOp41
 70
     1
102
RTVSPost2010Prop42
 90
       50
102
RTVSPost2010PropOp42
 70
     1
102
RTVSPost2010Prop43
 90
        3
102
RTVSPost2010PropOp43
 70
     1
102
RTVSPost2010Prop44ColorIndex
 90
        5
102
RTVSPost2010Prop44ColorRGB
 90
      255
102
RTVSPost2010PropOp44
 70
     1
102
RTVSPost2010Prop45
280
     0
102
RTVSPost2010PropOp45
 70
     1
102
RTVSPost2010Prop46
 90
       50
102
RTVSPost2010PropOp46
 70
     1
102
RTVSPost2010Prop47
 90
       50
102
RTVSPost2010PropOp47
 70
     1
102
RTVSPost2010Prop48
 90
       50
102
RTVSPost2010PropOp48
 70
     1
102
RTVSPost2010Prop49
280
     0
102
RTVSPost2010PropOp49
 70
     1
102
RTVSPost2010Prop50
 90
       50
102
RTVSPost2010PropOp50
 70
     1
102
RTVSPost2010Prop51ColorIndex
 90
      256
102
RTVSPost2010Prop51ColorRGB
 90
-16777216
102
RTVSPost2010PropOp51
 70
     0
102
RTVSPost2010Prop52
140
1.0
102
RTVSPost2010PropOp52
 70
     0
102
RTVSPost2010Prop53
 90
        2
102
RTVSPost2010PropOp53
 70
     1
102
RTVSPost2010Prop54
  1
strokes_ogs.tif
102
RTVSPost2010PropOp54
 70
     1
102
RTVSPost2010Prop55
280
     0
102
RTVSPost2010PropOp55
 70
     1
102
RTVSPost2010Prop56
140
1.0
102
RTVSPost2010PropOp56
 70
     1
102
RTVSPost2010Prop57
140
1.0
102
RTVSPost2010PropOp57
 70
     1
102
RTVSPropertyOp0
 70
     1
102
RTVSPropertyOp1
 70
     1
102
RTVSPropertyOp2
 70
     1
102
RTVSPropertyOp3
 70
     1
102
RTVSPropertyOp4
 70
     1
102
RTVSPropertyOp5
 70
     1
102
RTVSPropertyOp6
 70
     1
102
RTVSPropertyOp7
 70
     1
102
RTVSPropertyOp8
 70
     1
102
RTVSPropertyOp9
 70
     1
102
RTVSPropertyOp10
 70
     1
102
RTVSPropertyOp11
 70
     1
102
RTVSPropertyOp12
 70
     1
102
RTVSPropertyOp13
 70
     1
102
RTVSPropertyOp14
 70
     1
102
RTVSPropertyOp15
 70
     1
102
RTVSPropertyOp16
 70
     1
102
RTVSPropertyOp17
 70
     1
102
RTVSPropertyOp18
 70
     1
102
RTVSPropertyOp19
 70
     1
102
RTVSPropertyOp20
 70
     1
102
RTVSPropertyOp21
 70
     1
102
RTVSPropertyOp22
 70
     1
102
RTVSPropertyOp23
 70
     1
102
RTVSPropertyOp24
 70
     1
102
RTVSPropertyOp25
 70
     1
102
RTVSPropertyOp26
 70
     1
102
RTVSPropertyOp27
 70
     1
102
RTVSPropertyOp28
 70
     1
102
RTVSPropertyOp29
 70
     1
102
RTVSPropertyOp30
 70
     1
102
RTVSPropertyOp31
 70
     1
102
RTVSPropertyOp32
 70
     1
102
RTVSPropertyOp33
 70
     1
102
RTVSPropertyOp34
 70
     1
102
RTVSPropertyOp35
 70
     1
102
RTVSPropertyOp36
 70
     1
102
RTVSPropertyOp37
 70
     1
102
RTVSPropertyOp38
 70
     1
102
RTVSPropertyOp39
 70
     1
102
RTVSPropertyOp40
 70
     1
102
RTVSPropertyOp41
 70
     1
102
RTVSPropertyOp42
 70
     1
102
RTVSPropertyOp43
 70
     1
102
RTVSPropertyOp44
 70
     1
102
RTVSPropertyOp45
 70
     1
102
RTVSPropertyOp46
 70
     1
102
RTVSPropertyOp47
 70
     1
102
RTVSPropertyOp48
 70
     1
102
RTVSPropertyOp49
 70
     1
102
RTVSPropertyOp50
 70
     1
102
RTVSPropertyOp51
 70
     0
102
RTVSPropertyOp52
 70
     0
102
RTVSPropertyOp53
 70
     1
102
RTVSPropertyOp54
 70
     1
102
RTVSPropertyOp55
 70
     1
102
RTVSPropertyOp56
 70
     1
102
RTVSPropertyOp57
 70
     1
102
RTVSPropertyOp58
 70
     1
102
RTVSPropertyOp59
 70
     1
102
RTVSPropertyOp60
 70
     1
102
RTVSPropertyOp61
 70
     1
102
RTVSPropertyOp62
 70
     1
  0
XRECORD
  5
4D8
102
{ACAD_REACTORS
330
4D7
102
}
330
4D7
100
AcDbXrecord
280
     1
102
RTVSPost2010Prop28
280
     0
102
RTVSPost2010PropOp28
 70
     1
102
RTVSPost2010Prop29
280
     1
102
RTVSPost2010PropOp29
 70
     1
102
RTVSPost2010Prop30
280
     1
102
RTVSPost2010PropOp30
 70
     1
102
RTVSPost2010Prop31
280
     0
102
RTVSPost2010PropOp31
 70
     1
102
RTVSPost2010Prop32
280
     0
102
RTVSPost2010PropOp32
 70
     1
102
RTVSPost2010Prop33
280
     0
102
RTVSPost2010PropOp33
 70
     1
102
RTVSPost2010Prop34
280
     0
102
RTVSPost2010PropOp34
 70
     1
102
RTVSPost2010Prop35
280
     0
102
RTVSPost2010PropOp35
 70
     1
102
RTVSPost2010Prop36
280
     0
102
RTVSPost2010PropOp36
 70
     1
102
RTVSPost2010Prop37
 90
       50
102
RTVSPost2010PropOp37
 70
     1
102
RTVSPost2010Prop38
140
0.0
102
RTVSPost2010PropOp38
 70
     1
102
RTVSPost2010Prop39
140
1.0
102
RTVSPost2010PropOp39
 70
     1
102
RTVSPost2010Prop40
 90
        0
102
RTVSPost2010PropOp40
 70
     1
102
RTVSPost2010Prop41ColorIndex
 90
       18
102
RTVSPost2010Prop41ColorRGB
 90
        0
102
RTVSPost2010PropOp41
 70
     1
102
RTVSPost2010Prop42
 90
       50
102
RTVSPost2010PropOp42
 70
     1
102
RTVSPost2010Prop43
 90
        3
102
RTVSPost2010PropOp43
 70
     1
102
RTVSPost2010Prop44ColorIndex
 90
        5
102
RTVSPost2010Prop44ColorRGB
 90
      255
102
RTVSPost2010PropOp44
 70
     1
102
RTVSPost2010Prop45
280
     0
102
RTVSPost2010PropOp45
 70
     1
102
RTVSPost2010Prop46
 90
       50
102
RTVSPost2010PropOp46
 70
     1
102
RTVSPost2010Prop47
 90
       50
102
RTVSPost2010PropOp47
 70
     1
102
RTVSPost2010Prop48
 90
       50
102
RTVSPost2010PropOp48
 70
     1
102
RTVSPost2010Prop49
280
     0
102
RTVSPost2010PropOp49
 70
     1
102
RTVSPost2010Prop50
 90
       50
102
RTVSPost2010PropOp50
 70
     1
102
RTVSPost2010Prop51ColorIndex
 90
      256
102
RTVSPost2010Prop51ColorRGB
 90
-16777216
102
RTVSPost2010PropOp51
 70
     0
102
RTVSPost2010Prop52
140
1.0
102
RTVSPost2010PropOp52
 70
     0
102
RTVSPost2010Prop53
 90
        2
102
RTVSPost2010PropOp53
 70
     1
102
RTVSPost2010Prop54
  1
strokes_ogs.tif
102
RTVSPost2010PropOp54
 70
     1
102
RTVSPost2010Prop55
280
     0
102
RTVSPost2010PropOp55
 70
     1
102
RTVSPost2010Prop56
140
1.0
102
RTVSPost2010PropOp56
 70
     1
102
RTVSPost2010Prop57
140
1.0
102
RTVSPost2010PropOp57
 70
     1
102
RTVSPropertyOp0
 70
     1
102
RTVSPropertyOp1
 70
     1
102
RTVSPropertyOp2
 70
     1
102
RTVSPropertyOp3
 70
     1
102
RTVSPropertyOp4
 70
     1
102
RTVSPropertyOp5
 70
     1
102
RTVSPropertyOp6
 70
     1
102
RTVSPropertyOp7
 70
     1
102
RTVSPropertyOp8
 70
     1
102
RTVSPropertyOp9
 70
     1
102
RTVSPropertyOp10
 70
     1
102
RTVSPropertyOp11
 70
     1
102
RTVSPropertyOp12
 70
     1
102
RTVSPropertyOp13
 70
     1
102
RTVSPropertyOp14
 70
     1
102
RTVSPropertyOp15
 70
     1
102
RTVSPropertyOp16
 70
     1
102
RTVSPropertyOp17
 70
     1
102
RTVSPropertyOp18
 70
     1
102
RTVSPropertyOp19
 70
     1
102
RTVSPropertyOp20
 70
     1
102
RTVSPropertyOp21
 70
     1
102
RTVSPropertyOp22
 70
     1
102
RTVSPropertyOp23
 70
     1
102
RTVSPropertyOp24
 70
     1
102
RTVSPropertyOp25
 70
     1
102
RTVSPropertyOp26
 70
     1
102
RTVSPropertyOp27
 70
     1
102
RTVSPropertyOp28
 70
     1
102
RTVSPropertyOp29
 70
     1
102
RTVSPropertyOp30
 70
     1
102
RTVSPropertyOp31
 70
     1
102
RTVSPropertyOp32
 70
     1
102
RTVSPropertyOp33
 70
     1
102
RTVSPropertyOp34
 70
     1
102
RTVSPropertyOp35
 70
     1
102
RTVSPropertyOp36
 70
     1
102
RTVSPropertyOp37
 70
     1
102
RTVSPropertyOp38
 70
     1
102
RTVSPropertyOp39
 70
     1
102
RTVSPropertyOp40
 70
     1
102
RTVSPropertyOp41
 70
     1
102
RTVSPropertyOp42
 70
     1
102
RTVSPropertyOp43
 70
     1
102
RTVSPropertyOp44
 70
     1
102
RTVSPropertyOp45
 70
     1
102
RTVSPropertyOp46
 70
     1
102
RTVSPropertyOp47
 70
     1
102
RTVSPropertyOp48
 70
     1
102
RTVSPropertyOp49
 70
     1
102
RTVSPropertyOp50
 70
     1
102
RTVSPropertyOp51
 70
     0
102
RTVSPropertyOp52
 70
     0
102
RTVSPropertyOp53
 70
     1
102
RTVSPropertyOp54
 70
     1
102
RTVSPropertyOp55
 70
     1
102
RTVSPropertyOp56
 70
     1
102
RTVSPropertyOp57
 70
     1
102
RTVSPropertyOp58
 70
     1
102
RTVSPropertyOp59
 70
     1
102
RTVSPropertyOp60
 70
     1
102
RTVSPropertyOp61
 70
     1
102
RTVSPropertyOp62
 70
     1
  0
XRECORD
  5
4E6
102
{ACAD_REACTORS
330
4E5
102
}
330
4E5
100
AcDbXrecord
280
     1
102
RTVSPost2010Prop28
280
     0
102
RTVSPost2010PropOp28
 70
     1
102
RTVSPost2010Prop29
280
     1
102
RTVSPost2010PropOp29
 70
     1
102
RTVSPost2010Prop30
280
     1
102
RTVSPost2010PropOp30
 70
     1
102
RTVSPost2010Prop31
280
     0
102
RTVSPost2010PropOp31
 70
     1
102
RTVSPost2010Prop32
280
     0
102
RTVSPost2010PropOp32
 70
     1
102
RTVSPost2010Prop33
280
     0
102
RTVSPost2010PropOp33
 70
     1
102
RTVSPost2010Prop34
280
     0
102
RTVSPost2010PropOp34
 70
     1
102
RTVSPost2010Prop35
280
     0
102
RTVSPost2010PropOp35
 70
     1
102
RTVSPost2010Prop36
280
     0
102
RTVSPost2010PropOp36
 70
     1
102
RTVSPost2010Prop37
 90
       50
102
RTVSPost2010PropOp37
 70
     1
102
RTVSPost2010Prop38
140
0.0
102
RTVSPost2010PropOp38
 70
     1
102
RTVSPost2010Prop39
140
1.0
102
RTVSPost2010PropOp39
 70
     1
102
RTVSPost2010Prop40
 90
        0
102
RTVSPost2010PropOp40
 70
     1
102
RTVSPost2010Prop41ColorIndex
 90
       18
102
RTVSPost2010Prop41ColorRGB
 90
        0
102
RTVSPost2010PropOp41
 70
     1
102
RTVSPost2010Prop42
 90
       50
102
RTVSPost2010PropOp42
 70
     1
102
RTVSPost2010Prop43
 90
        3
102
RTVSPost2010PropOp43
 70
     1
102
RTVSPost2010Prop44ColorIndex
 90
        5
102
RTVSPost2010Prop44ColorRGB
 90
      255
102
RTVSPost2010PropOp44
 70
     1
102
RTVSPost2010Prop45
280
     0
102
RTVSPost2010PropOp45
 70
     1
102
RTVSPost2010Prop46
 90
       50
102
RTVSPost2010PropOp46
 70
     1
102
RTVSPost2010Prop47
 90
       50
102
RTVSPost2010PropOp47
 70
     1
102
RTVSPost2010Prop48
 90
       50
102
RTVSPost2010PropOp48
 70
     1
102
RTVSPost2010Prop49
280
     0
102
RTVSPost2010PropOp49
 70
     1
102
RTVSPost2010Prop50
 90
       50
102
RTVSPost2010PropOp50
 70
     1
102
RTVSPost2010Prop51ColorIndex
 90
      256
102
RTVSPost2010Prop51ColorRGB
 90
-16777216
102
RTVSPost2010PropOp51
 70
     0
102
RTVSPost2010Prop52
140
1.0
102
RTVSPost2010PropOp52
 70
     0
102
RTVSPost2010Prop53
 90
        2
102
RTVSPost2010PropOp53
 70
     1
102
RTVSPost2010Prop54
  1
strokes_ogs.tif
102
RTVSPost2010PropOp54
 70
     1
102
RTVSPost2010Prop55
280
     0
102
RTVSPost2010PropOp55
 70
     1
102
RTVSPost2010Prop56
140
1.0
102
RTVSPost2010PropOp56
 70
     1
102
RTVSPost2010Prop57
140
1.0
102
RTVSPost2010PropOp57
 70
     1
102
RTVSPropertyOp0
 70
     1
102
RTVSPropertyOp1
 70
     1
102
RTVSPropertyOp2
 70
     1
102
RTVSPropertyOp3
 70
     1
102
RTVSPropertyOp4
 70
     1
102
RTVSPropertyOp5
 70
     1
102
RTVSPropertyOp6
 70
     1
102
RTVSPropertyOp7
 70
     1
102
RTVSPropertyOp8
 70
     1
102
RTVSPropertyOp9
 70
     1
102
RTVSPropertyOp10
 70
     1
102
RTVSPropertyOp11
 70
     1
102
RTVSPropertyOp12
 70
     1
102
RTVSPropertyOp13
 70
     1
102
RTVSPropertyOp14
 70
     1
102
RTVSPropertyOp15
 70
     1
102
RTVSPropertyOp16
 70
     1
102
RTVSPropertyOp17
 70
     1
102
RTVSPropertyOp18
 70
     1
102
RTVSPropertyOp19
 70
     1
102
RTVSPropertyOp20
 70
     1
102
RTVSPropertyOp21
 70
     1
102
RTVSPropertyOp22
 70
     1
102
RTVSPropertyOp23
 70
     1
102
RTVSPropertyOp24
 70
     1
102
RTVSPropertyOp25
 70
     1
102
RTVSPropertyOp26
 70
     1
102
RTVSPropertyOp27
 70
     1
102
RTVSPropertyOp28
 70
     1
102
RTVSPropertyOp29
 70
     1
102
RTVSPropertyOp30
 70
     1
102
RTVSPropertyOp31
 70
     1
102
RTVSPropertyOp32
 70
     1
102
RTVSPropertyOp33
 70
     1
102
RTVSPropertyOp34
 70
     1
102
RTVSPropertyOp35
 70
     1
102
RTVSPropertyOp36
 70
     1
102
RTVSPropertyOp37
 70
     1
102
RTVSPropertyOp38
 70
     1
102
RTVSPropertyOp39
 70
     1
102
RTVSPropertyOp40
 70
     1
102
RTVSPropertyOp41
 70
     1
102
RTVSPropertyOp42
 70
     1
102
RTVSPropertyOp43
 70
     1
102
RTVSPropertyOp44
 70
     1
102
RTVSPropertyOp45
 70
     1
102
RTVSPropertyOp46
 70
     1
102
RTVSPropertyOp47
 70
     1
102
RTVSPropertyOp48
 70
     1
102
RTVSPropertyOp49
 70
     1
102
RTVSPropertyOp50
 70
     1
102
RTVSPropertyOp51
 70
     0
102
RTVSPropertyOp52
 70
     0
102
RTVSPropertyOp53
 70
     1
102
RTVSPropertyOp54
 70
     1
102
RTVSPropertyOp55
 70
     1
102
RTVSPropertyOp56
 70
     1
102
RTVSPropertyOp57
 70
     1
102
RTVSPropertyOp58
 70
     1
102
RTVSPropertyOp59
 70
     1
102
RTVSPropertyOp60
 70
     1
102
RTVSPropertyOp61
 70
     1
102
RTVSPropertyOp62
 70
     1
  0
XRECORD
  5
4EE
102
{ACAD_REACTORS
330
4ED
102
}
330
4ED
100
AcDbXrecord
280
     1
102
RTVSPost2010Prop28
280
     0
102
RTVSPost2010PropOp28
 70
     1
102
RTVSPost2010Prop29
280
     1
102
RTVSPost2010PropOp29
 70
     1
102
RTVSPost2010Prop30
280
     1
102
RTVSPost2010PropOp30
 70
     1
102
RTVSPost2010Prop31
280
     0
102
RTVSPost2010PropOp31
 70
     1
102
RTVSPost2010Prop32
280
     0
102
RTVSPost2010PropOp32
 70
     1
102
RTVSPost2010Prop33
280
     0
102
RTVSPost2010PropOp33
 70
     1
102
RTVSPost2010Prop34
280
     0
102
RTVSPost2010PropOp34
 70
     1
102
RTVSPost2010Prop35
280
     0
102
RTVSPost2010PropOp35
 70
     1
102
RTVSPost2010Prop36
280
     0
102
RTVSPost2010PropOp36
 70
     1
102
RTVSPost2010Prop37
 90
       50
102
RTVSPost2010PropOp37
 70
     1
102
RTVSPost2010Prop38
140
0.0
102
RTVSPost2010PropOp38
 70
     1
102
RTVSPost2010Prop39
140
1.0
102
RTVSPost2010PropOp39
 70
     1
102
RTVSPost2010Prop40
 90
        0
102
RTVSPost2010PropOp40
 70
     1
102
RTVSPost2010Prop41ColorIndex
 90
       18
102
RTVSPost2010Prop41ColorRGB
 90
        0
102
RTVSPost2010PropOp41
 70
     1
102
RTVSPost2010Prop42
 90
       50
102
RTVSPost2010PropOp42
 70
     1
102
RTVSPost2010Prop43
 90
        3
102
RTVSPost2010PropOp43
 70
     1
102
RTVSPost2010Prop44ColorIndex
 90
        5
102
RTVSPost2010Prop44ColorRGB
 90
      255
102
RTVSPost2010PropOp44
 70
     1
102
RTVSPost2010Prop45
280
     0
102
RTVSPost2010PropOp45
 70
     1
102
RTVSPost2010Prop46
 90
       50
102
RTVSPost2010PropOp46
 70
     1
102
RTVSPost2010Prop47
 90
       50
102
RTVSPost2010PropOp47
 70
     1
102
RTVSPost2010Prop48
 90
       50
102
RTVSPost2010PropOp48
 70
     1
102
RTVSPost2010Prop49
280
     0
102
RTVSPost2010PropOp49
 70
     1
102
RTVSPost2010Prop50
 90
       50
102
RTVSPost2010PropOp50
 70
     1
102
RTVSPost2010Prop51ColorIndex
 90
      256
102
RTVSPost2010Prop51ColorRGB
 90
-16777216
102
RTVSPost2010PropOp51
 70
     0
102
RTVSPost2010Prop52
140
1.0
102
RTVSPost2010PropOp52
 70
     0
102
RTVSPost2010Prop53
 90
        2
102
RTVSPost2010PropOp53
 70
     1
102
RTVSPost2010Prop54
  1
strokes_ogs.tif
102
RTVSPost2010PropOp54
 70
     1
102
RTVSPost2010Prop55
280
     0
102
RTVSPost2010PropOp55
 70
     1
102
RTVSPost2010Prop56
140
1.0
102
RTVSPost2010PropOp56
 70
     1
102
RTVSPost2010Prop57
140
1.0
102
RTVSPost2010PropOp57
 70
     1
102
RTVSPropertyOp0
 70
     1
102
RTVSPropertyOp1
 70
     1
102
RTVSPropertyOp2
 70
     1
102
RTVSPropertyOp3
 70
     1
102
RTVSPropertyOp4
 70
     1
102
RTVSPropertyOp5
 70
     1
102
RTVSPropertyOp6
 70
     1
102
RTVSPropertyOp7
 70
     1
102
RTVSPropertyOp8
 70
     1
102
RTVSPropertyOp9
 70
     1
102
RTVSPropertyOp10
 70
     1
102
RTVSPropertyOp11
 70
     1
102
RTVSPropertyOp12
 70
     1
102
RTVSPropertyOp13
 70
     1
102
RTVSPropertyOp14
 70
     1
102
RTVSPropertyOp15
 70
     1
102
RTVSPropertyOp16
 70
     1
102
RTVSPropertyOp17
 70
     1
102
RTVSPropertyOp18
 70
     1
102
RTVSPropertyOp19
 70
     1
102
RTVSPropertyOp20
 70
     1
102
RTVSPropertyOp21
 70
     1
102
RTVSPropertyOp22
 70
     1
102
RTVSPropertyOp23
 70
     1
102
RTVSPropertyOp24
 70
     1
102
RTVSPropertyOp25
 70
     1
102
RTVSPropertyOp26
 70
     1
102
RTVSPropertyOp27
 70
     1
102
RTVSPropertyOp28
 70
     1
102
RTVSPropertyOp29
 70
     1
102
RTVSPropertyOp30
 70
     1
102
RTVSPropertyOp31
 70
     1
102
RTVSPropertyOp32
 70
     1
102
RTVSPropertyOp33
 70
     1
102
RTVSPropertyOp34
 70
     1
102
RTVSPropertyOp35
 70
     1
102
RTVSPropertyOp36
 70
     1
102
RTVSPropertyOp37
 70
     1
102
RTVSPropertyOp38
 70
     1
102
RTVSPropertyOp39
 70
     1
102
RTVSPropertyOp40
 70
     1
102
RTVSPropertyOp41
 70
     1
102
RTVSPropertyOp42
 70
     1
102
RTVSPropertyOp43
 70
     1
102
RTVSPropertyOp44
 70
     1
102
RTVSPropertyOp45
 70
     1
102
RTVSPropertyOp46
 70
     1
102
RTVSPropertyOp47
 70
     1
102
RTVSPropertyOp48
 70
     1
102
RTVSPropertyOp49
 70
     1
102
RTVSPropertyOp50
 70
     1
102
RTVSPropertyOp51
 70
     0
102
RTVSPropertyOp52
 70
     0
102
RTVSPropertyOp53
 70
     1
102
RTVSPropertyOp54
 70
     1
102
RTVSPropertyOp55
 70
     1
102
RTVSPropertyOp56
 70
     1
102
RTVSPropertyOp57
 70
     1
102
RTVSPropertyOp58
 70
     1
102
RTVSPropertyOp59
 70
     1
102
RTVSPropertyOp60
 70
     1
102
RTVSPropertyOp61
 70
     1
102
RTVSPropertyOp62
 70
     1
  0
XRECORD
  5
4E0
102
{ACAD_REACTORS
330
4DF
102
}
330
4DF
100
AcDbXrecord
280
     1
102
RTVSPost2010Prop28
280
     0
102
RTVSPost2010PropOp28
 70
     1
102
RTVSPost2010Prop29
280
     1
102
RTVSPost2010PropOp29
 70
     1
102
RTVSPost2010Prop30
280
     1
102
RTVSPost2010PropOp30
 70
     1
102
RTVSPost2010Prop31
280
     0
102
RTVSPost2010PropOp31
 70
     1
102
RTVSPost2010Prop32
280
     0
102
RTVSPost2010PropOp32
 70
     1
102
RTVSPost2010Prop33
280
     0
102
RTVSPost2010PropOp33
 70
     1
102
RTVSPost2010Prop34
280
     0
102
RTVSPost2010PropOp34
 70
     1
102
RTVSPost2010Prop35
280
     0
102
RTVSPost2010PropOp35
 70
     1
102
RTVSPost2010Prop36
280
     0
102
RTVSPost2010PropOp36
 70
     1
102
RTVSPost2010Prop37
 90
       50
102
RTVSPost2010PropOp37
 70
     1
102
RTVSPost2010Prop38
140
0.0
102
RTVSPost2010PropOp38
 70
     1
102
RTVSPost2010Prop39
140
1.0
102
RTVSPost2010PropOp39
 70
     1
102
RTVSPost2010Prop40
 90
        0
102
RTVSPost2010PropOp40
 70
     1
102
RTVSPost2010Prop41ColorIndex
 90
       18
102
RTVSPost2010Prop41ColorRGB
 90
        0
102
RTVSPost2010PropOp41
 70
     1
102
RTVSPost2010Prop42
 90
       50
102
RTVSPost2010PropOp42
 70
     1
102
RTVSPost2010Prop43
 90
        3
102
RTVSPost2010PropOp43
 70
     1
102
RTVSPost2010Prop44ColorIndex
 90
        5
102
RTVSPost2010Prop44ColorRGB
 90
      255
102
RTVSPost2010PropOp44
 70
     1
102
RTVSPost2010Prop45
280
     0
102
RTVSPost2010PropOp45
 70
     1
102
RTVSPost2010Prop46
 90
       50
102
RTVSPost2010PropOp46
 70
     1
102
RTVSPost2010Prop47
 90
       50
102
RTVSPost2010PropOp47
 70
     1
102
RTVSPost2010Prop48
 90
       50
102
RTVSPost2010PropOp48
 70
     1
102
RTVSPost2010Prop49
280
     0
102
RTVSPost2010PropOp49
 70
     1
102
RTVSPost2010Prop50
 90
       50
102
RTVSPost2010PropOp50
 70
     1
102
RTVSPost2010Prop51ColorIndex
 90
      256
102
RTVSPost2010Prop51ColorRGB
 90
-16777216
102
RTVSPost2010PropOp51
 70
     0
102
RTVSPost2010Prop52
140
1.0
102
RTVSPost2010PropOp52
 70
     0
102
RTVSPost2010Prop53
 90
        2
102
RTVSPost2010PropOp53
 70
     1
102
RTVSPost2010Prop54
  1
strokes_ogs.tif
102
RTVSPost2010PropOp54
 70
     1
102
RTVSPost2010Prop55
280
     0
102
RTVSPost2010PropOp55
 70
     1
102
RTVSPost2010Prop56
140
1.0
102
RTVSPost2010PropOp56
 70
     1
102
RTVSPost2010Prop57
140
1.0
102
RTVSPost2010PropOp57
 70
     1
102
RTVSPropertyOp0
 70
     1
102
RTVSPropertyOp1
 70
     1
102
RTVSPropertyOp2
 70
     1
102
RTVSPropertyOp3
 70
     1
102
RTVSPropertyOp4
 70
     1
102
RTVSPropertyOp5
 70
     1
102
RTVSPropertyOp6
 70
     1
102
RTVSPropertyOp7
 70
     1
102
RTVSPropertyOp8
 70
     1
102
RTVSPropertyOp9
 70
     1
102
RTVSPropertyOp10
 70
     1
102
RTVSPropertyOp11
 70
     1
102
RTVSPropertyOp12
 70
     1
102
RTVSPropertyOp13
 70
     1
102
RTVSPropertyOp14
 70
     1
102
RTVSPropertyOp15
 70
     1
102
RTVSPropertyOp16
 70
     1
102
RTVSPropertyOp17
 70
     1
102
RTVSPropertyOp18
 70
     1
102
RTVSPropertyOp19
 70
     1
102
RTVSPropertyOp20
 70
     1
102
RTVSPropertyOp21
 70
     1
102
RTVSPropertyOp22
 70
     1
102
RTVSPropertyOp23
 70
     1
102
RTVSPropertyOp24
 70
     1
102
RTVSPropertyOp25
 70
     1
102
RTVSPropertyOp26
 70
     1
102
RTVSPropertyOp27
 70
     1
102
RTVSPropertyOp28
 70
     1
102
RTVSPropertyOp29
 70
     1
102
RTVSPropertyOp30
 70
     1
102
RTVSPropertyOp31
 70
     1
102
RTVSPropertyOp32
 70
     1
102
RTVSPropertyOp33
 70
     1
102
RTVSPropertyOp34
 70
     1
102
RTVSPropertyOp35
 70
     1
102
RTVSPropertyOp36
 70
     1
102
RTVSPropertyOp37
 70
     1
102
RTVSPropertyOp38
 70
     1
102
RTVSPropertyOp39
 70
     1
102
RTVSPropertyOp40
 70
     1
102
RTVSPropertyOp41
 70
     1
102
RTVSPropertyOp42
 70
     1
102
RTVSPropertyOp43
 70
     1
102
RTVSPropertyOp44
 70
     1
102
RTVSPropertyOp45
 70
     1
102
RTVSPropertyOp46
 70
     1
102
RTVSPropertyOp47
 70
     1
102
RTVSPropertyOp48
 70
     1
102
RTVSPropertyOp49
 70
     1
102
RTVSPropertyOp50
 70
     1
102
RTVSPropertyOp51
 70
     0
102
RTVSPropertyOp52
 70
     0
102
RTVSPropertyOp53
 70
     1
102
RTVSPropertyOp54
 70
     1
102
RTVSPropertyOp55
 70
     1
102
RTVSPropertyOp56
 70
     1
102
RTVSPropertyOp57
 70
     1
102
RTVSPropertyOp58
 70
     1
102
RTVSPropertyOp59
 70
     1
102
RTVSPropertyOp60
 70
     1
102
RTVSPropertyOp61
 70
     1
102
RTVSPropertyOp62
 70
     1
  0
XRECORD
  5
4E4
102
{ACAD_REACTORS
330
4E3
102
}
330
4E3
100
AcDbXrecord
280
     1
102
RTVSPost2010Prop28
280
     0
102
RTVSPost2010PropOp28
 70
     1
102
RTVSPost2010Prop29
280
     1
102
RTVSPost2010PropOp29
 70
     1
102
RTVSPost2010Prop30
280
     1
102
RTVSPost2010PropOp30
 70
     1
102
RTVSPost2010Prop31
280
     0
102
RTVSPost2010PropOp31
 70
     1
102
RTVSPost2010Prop32
280
     0
102
RTVSPost2010PropOp32
 70
     1
102
RTVSPost2010Prop33
280
     0
102
RTVSPost2010PropOp33
 70
     1
102
RTVSPost2010Prop34
280
     0
102
RTVSPost2010PropOp34
 70
     1
102
RTVSPost2010Prop35
280
     0
102
RTVSPost2010PropOp35
 70
     1
102
RTVSPost2010Prop36
280
     0
102
RTVSPost2010PropOp36
 70
     1
102
RTVSPost2010Prop37
 90
       50
102
RTVSPost2010PropOp37
 70
     1
102
RTVSPost2010Prop38
140
0.0
102
RTVSPost2010PropOp38
 70
     1
102
RTVSPost2010Prop39
140
1.0
102
RTVSPost2010PropOp39
 70
     1
102
RTVSPost2010Prop40
 90
        0
102
RTVSPost2010PropOp40
 70
     1
102
RTVSPost2010Prop41ColorIndex
 90
       18
102
RTVSPost2010Prop41ColorRGB
 90
        0
102
RTVSPost2010PropOp41
 70
     1
102
RTVSPost2010Prop42
 90
       50
102
RTVSPost2010PropOp42
 70
     1
102
RTVSPost2010Prop43
 90
        3
102
RTVSPost2010PropOp43
 70
     1
102
RTVSPost2010Prop44ColorIndex
 90
        5
102
RTVSPost2010Prop44ColorRGB
 90
      255
102
RTVSPost2010PropOp44
 70
     1
102
RTVSPost2010Prop45
280
     0
102
RTVSPost2010PropOp45
 70
     1
102
RTVSPost2010Prop46
 90
       50
102
RTVSPost2010PropOp46
 70
     1
102
RTVSPost2010Prop47
 90
       50
102
RTVSPost2010PropOp47
 70
     1
102
RTVSPost2010Prop48
 90
       50
102
RTVSPost2010PropOp48
 70
     1
102
RTVSPost2010Prop49
280
     0
102
RTVSPost2010PropOp49
 70
     1
102
RTVSPost2010Prop50
 90
       50
102
RTVSPost2010PropOp50
 70
     1
102
RTVSPost2010Prop51ColorIndex
 90
      256
102
RTVSPost2010Prop51ColorRGB
 90
-16777216
102
RTVSPost2010PropOp51
 70
     0
102
RTVSPost2010Prop52
140
1.0
102
RTVSPost2010PropOp52
 70
     0
102
RTVSPost2010Prop53
 90
        2
102
RTVSPost2010PropOp53
 70
     1
102
RTVSPost2010Prop54
  1
strokes_ogs.tif
102
RTVSPost2010PropOp54
 70
     1
102
RTVSPost2010Prop55
280
     0
102
RTVSPost2010PropOp55
 70
     1
102
RTVSPost2010Prop56
140
1.0
102
RTVSPost2010PropOp56
 70
     1
102
RTVSPost2010Prop57
140
1.0
102
RTVSPost2010PropOp57
 70
     1
102
RTVSPropertyOp0
 70
     1
102
RTVSPropertyOp1
 70
     1
102
RTVSPropertyOp2
 70
     1
102
RTVSPropertyOp3
 70
     1
102
RTVSPropertyOp4
 70
     1
102
RTVSPropertyOp5
 70
     1
102
RTVSPropertyOp6
 70
     1
102
RTVSPropertyOp7
 70
     1
102
RTVSPropertyOp8
 70
     1
102
RTVSPropertyOp9
 70
     1
102
RTVSPropertyOp10
 70
     1
102
RTVSPropertyOp11
 70
     1
102
RTVSPropertyOp12
 70
     1
102
RTVSPropertyOp13
 70
     1
102
RTVSPropertyOp14
 70
     1
102
RTVSPropertyOp15
 70
     1
102
RTVSPropertyOp16
 70
     1
102
RTVSPropertyOp17
 70
     1
102
RTVSPropertyOp18
 70
     1
102
RTVSPropertyOp19
 70
     1
102
RTVSPropertyOp20
 70
     1
102
RTVSPropertyOp21
 70
     1
102
RTVSPropertyOp22
 70
     1
102
RTVSPropertyOp23
 70
     1
102
RTVSPropertyOp24
 70
     1
102
RTVSPropertyOp25
 70
     1
102
RTVSPropertyOp26
 70
     1
102
RTVSPropertyOp27
 70
     1
102
RTVSPropertyOp28
 70
     1
102
RTVSPropertyOp29
 70
     1
102
RTVSPropertyOp30
 70
     1
102
RTVSPropertyOp31
 70
     1
102
RTVSPropertyOp32
 70
     1
102
RTVSPropertyOp33
 70
     1
102
RTVSPropertyOp34
 70
     1
102
RTVSPropertyOp35
 70
     1
102
RTVSPropertyOp36
 70
     1
102
RTVSPropertyOp37
 70
     1
102
RTVSPropertyOp38
 70
     1
102
RTVSPropertyOp39
 70
     1
102
RTVSPropertyOp40
 70
     1
102
RTVSPropertyOp41
 70
     1
102
RTVSPropertyOp42
 70
     1
102
RTVSPropertyOp43
 70
     1
102
RTVSPropertyOp44
 70
     1
102
RTVSPropertyOp45
 70
     1
102
RTVSPropertyOp46
 70
     1
102
RTVSPropertyOp47
 70
     1
102
RTVSPropertyOp48
 70
     1
102
RTVSPropertyOp49
 70
     1
102
RTVSPropertyOp50
 70
     1
102
RTVSPropertyOp51
 70
     0
102
RTVSPropertyOp52
 70
     0
102
RTVSPropertyOp53
 70
     1
102
RTVSPropertyOp54
 70
     1
102
RTVSPropertyOp55
 70
     1
102
RTVSPropertyOp56
 70
     1
102
RTVSPropertyOp57
 70
     1
102
RTVSPropertyOp58
 70
     1
102
RTVSPropertyOp59
 70
     1
102
RTVSPropertyOp60
 70
     1
102
RTVSPropertyOp61
 70
     1
102
RTVSPropertyOp62
 70
     1
  0
XRECORD
  5
4FE
102
{ACAD_REACTORS
330
4FD
102
}
330
4FD
100
AcDbXrecord
280
     1
102
RTVSPost2010Prop28
280
     0
102
RTVSPost2010PropOp28
 70
     0
102
RTVSPost2010Prop29
280
     1
102
RTVSPost2010PropOp29
 70
     0
102
RTVSPost2010Prop30
280
     1
102
RTVSPost2010PropOp30
 70
     0
102
RTVSPost2010Prop31
280
     0
102
RTVSPost2010PropOp31
 70
     0
102
RTVSPost2010Prop32
280
     0
102
RTVSPost2010PropOp32
 70
     0
102
RTVSPost2010Prop33
280
     0
102
RTVSPost2010PropOp33
 70
     0
102
RTVSPost2010Prop34
280
     0
102
RTVSPost2010PropOp34
 70
     0
102
RTVSPost2010Prop35
280
     0
102
RTVSPost2010PropOp35
 70
     0
102
RTVSPost2010Prop36
280
     0
102
RTVSPost2010PropOp36
 70
     0
102
RTVSPost2010Prop37
 90
       50
102
RTVSPost2010PropOp37
 70
     0
102
RTVSPost2010Prop38
140
0.0
102
RTVSPost2010PropOp38
 70
     0
102
RTVSPost2010Prop39
140
1.0
102
RTVSPost2010PropOp39
 70
     0
102
RTVSPost2010Prop40
 90
        0
102
RTVSPost2010PropOp40
 70
     0
102
RTVSPost2010Prop41ColorIndex
 90
       18
102
RTVSPost2010Prop41ColorRGB
 90
        0
102
RTVSPost2010PropOp41
 70
     0
102
RTVSPost2010Prop42
 90
       50
102
RTVSPost2010PropOp42
 70
     0
102
RTVSPost2010Prop43
 90
        3
102
RTVSPost2010PropOp43
 70
     0
102
RTVSPost2010Prop44ColorIndex
 90
        5
102
RTVSPost2010Prop44ColorRGB
 90
      255
102
RTVSPost2010PropOp44
 70
     0
102
RTVSPost2010Prop45
280
     0
102
RTVSPost2010PropOp45
 70
     0
102
RTVSPost2010Prop46
 90
       50
102
RTVSPost2010PropOp46
 70
     0
102
RTVSPost2010Prop47
 90
       50
102
RTVSPost2010PropOp47
 70
     0
102
RTVSPost2010Prop48
 90
       50
102
RTVSPost2010PropOp48
 70
     0
102
RTVSPost2010Prop49
280
     0
102
RTVSPost2010PropOp49
 70
     0
102
RTVSPost2010Prop50
 90
       50
102
RTVSPost2010PropOp50
 70
     0
102
RTVSPost2010Prop51ColorIndex
 90
      256
102
RTVSPost2010Prop51ColorRGB
 90
-16777216
102
RTVSPost2010PropOp51
 70
     0
102
RTVSPost2010Prop52
140
1.0
102
RTVSPost2010PropOp52
 70
     0
102
RTVSPost2010Prop53
 90
        2
102
RTVSPost2010PropOp53
 70
     0
102
RTVSPost2010Prop54
  1
strokes_ogs.tif
102
RTVSPost2010PropOp54
 70
     0
102
RTVSPost2010Prop55
280
     0
102
RTVSPost2010PropOp55
 70
     0
102
RTVSPost2010Prop56
140
1.0
102
RTVSPost2010PropOp56
 70
     0
102
RTVSPost2010Prop57
140
1.0
102
RTVSPost2010PropOp57
 70
     0
102
RTVSPropertyOp0
 70
     0
102
RTVSPropertyOp1
 70
     0
102
RTVSPropertyOp2
 70
     0
102
RTVSPropertyOp3
 70
     0
102
RTVSPropertyOp4
 70
     0
102
RTVSPropertyOp5
 70
     0
102
RTVSPropertyOp6
 70
     0
102
RTVSPropertyOp7
 70
     0
102
RTVSPropertyOp8
 70
     0
102
RTVSPropertyOp9
 70
     0
102
RTVSPropertyOp10
 70
     0
102
RTVSPropertyOp11
 70
     0
102
RTVSPropertyOp12
 70
     0
102
RTVSPropertyOp13
 70
     0
102
RTVSPropertyOp14
 70
     2
102
RTVSPropertyOp15
 70
     0
102
RTVSPropertyOp16
 70
     0
102
RTVSPropertyOp17
 70
     0
102
RTVSPropertyOp18
 70
     0
102
RTVSPropertyOp19
 70
     0
102
RTVSPropertyOp20
 70
     0
102
RTVSPropertyOp21
 70
     0
102
RTVSPropertyOp22
 70
     0
102
RTVSPropertyOp23
 70
     0
102
RTVSPropertyOp24
 70
     0
102
RTVSPropertyOp25
 70
     0
102
RTVSPropertyOp26
 70
     0
102
RTVSPropertyOp27
 70
     0
102
RTVSPropertyOp28
 70
     0
102
RTVSPropertyOp29
 70
     0
102
RTVSPropertyOp30
 70
     0
102
RTVSPropertyOp31
 70
     0
102
RTVSPropertyOp32
 70
     0
102
RTVSPropertyOp33
 70
     0
102
RTVSPropertyOp34
 70
     0
102
RTVSPropertyOp35
 70
     0
102
RTVSPropertyOp36
 70
     0
102
RTVSPropertyOp37
 70
     0
102
RTVSPropertyOp38
 70
     0
102
RTVSPropertyOp39
 70
     0
102
RTVSPropertyOp40
 70
     0
102
RTVSPropertyOp41
 70
     0
102
RTVSPropertyOp42
 70
     0
102
RTVSPropertyOp43
 70
     0
102
RTVSPropertyOp44
 70
     0
102
RTVSPropertyOp45
 70
     0
102
RTVSPropertyOp46
 70
     0
102
RTVSPropertyOp47
 70
     0
102
RTVSPropertyOp48
 70
     0
102
RTVSPropertyOp49
 70
     0
102
RTVSPropertyOp50
 70
     0
102
RTVSPropertyOp51
 70
     0
102
RTVSPropertyOp52
 70
     0
102
RTVSPropertyOp53
 70
     0
102
RTVSPropertyOp54
 70
     0
102
RTVSPropertyOp55
 70
     0
102
RTVSPropertyOp56
 70
     0
102
RTVSPropertyOp57
 70
     0
102
RTVSPropertyOp58
 70
     0
102
RTVSPropertyOp59
 70
     0
102
RTVSPropertyOp60
 70
     0
102
RTVSPropertyOp61
 70
     0
102
RTVSPropertyOp62
 70
     0
  0
XRECORD
  5
4EC
102
{ACAD_REACTORS
330
4EB
102
}
330
4EB
100
AcDbXrecord
280
     1
102
RTVSPost2010Prop28
280
     0
102
RTVSPost2010PropOp28
 70
     1
102
RTVSPost2010Prop29
280
     1
102
RTVSPost2010PropOp29
 70
     1
102
RTVSPost2010Prop30
280
     1
102
RTVSPost2010PropOp30
 70
     1
102
RTVSPost2010Prop31
280
     0
102
RTVSPost2010PropOp31
 70
     1
102
RTVSPost2010Prop32
280
     0
102
RTVSPost2010PropOp32
 70
     1
102
RTVSPost2010Prop33
280
     0
102
RTVSPost2010PropOp33
 70
     1
102
RTVSPost2010Prop34
280
     0
102
RTVSPost2010PropOp34
 70
     1
102
RTVSPost2010Prop35
280
     0
102
RTVSPost2010PropOp35
 70
     1
102
RTVSPost2010Prop36
280
     0
102
RTVSPost2010PropOp36
 70
     1
102
RTVSPost2010Prop37
 90
       50
102
RTVSPost2010PropOp37
 70
     1
102
RTVSPost2010Prop38
140
0.0
102
RTVSPost2010PropOp38
 70
     1
102
RTVSPost2010Prop39
140
1.0
102
RTVSPost2010PropOp39
 70
     1
102
RTVSPost2010Prop40
 90
        0
102
RTVSPost2010PropOp40
 70
     1
102
RTVSPost2010Prop41ColorIndex
 90
       18
102
RTVSPost2010Prop41ColorRGB
 90
        0
102
RTVSPost2010PropOp41
 70
     1
102
RTVSPost2010Prop42
 90
       50
102
RTVSPost2010PropOp42
 70
     1
102
RTVSPost2010Prop43
 90
        3
102
RTVSPost2010PropOp43
 70
     1
102
RTVSPost2010Prop44ColorIndex
 90
        5
102
RTVSPost2010Prop44ColorRGB
 90
      255
102
RTVSPost2010PropOp44
 70
     1
102
RTVSPost2010Prop45
280
     0
102
RTVSPost2010PropOp45
 70
     1
102
RTVSPost2010Prop46
 90
       50
102
RTVSPost2010PropOp46
 70
     1
102
RTVSPost2010Prop47
 90
       50
102
RTVSPost2010PropOp47
 70
     1
102
RTVSPost2010Prop48
 90
       50
102
RTVSPost2010PropOp48
 70
     1
102
RTVSPost2010Prop49
280
     0
102
RTVSPost2010PropOp49
 70
     1
102
RTVSPost2010Prop50
 90
       50
102
RTVSPost2010PropOp50
 70
     1
102
RTVSPost2010Prop51ColorIndex
 90
      256
102
RTVSPost2010Prop51ColorRGB
 90
-16777216
102
RTVSPost2010PropOp51
 70
     0
102
RTVSPost2010Prop52
140
1.0
102
RTVSPost2010PropOp52
 70
     0
102
RTVSPost2010Prop53
 90
        2
102
RTVSPost2010PropOp53
 70
     1
102
RTVSPost2010Prop54
  1
strokes_ogs.tif
102
RTVSPost2010PropOp54
 70
     1
102
RTVSPost2010Prop55
280
     0
102
RTVSPost2010PropOp55
 70
     1
102
RTVSPost2010Prop56
140
1.0
102
RTVSPost2010PropOp56
 70
     1
102
RTVSPost2010Prop57
140
1.0
102
RTVSPost2010PropOp57
 70
     1
102
RTVSPropertyOp0
 70
     1
102
RTVSPropertyOp1
 70
     1
102
RTVSPropertyOp2
 70
     1
102
RTVSPropertyOp3
 70
     1
102
RTVSPropertyOp4
 70
     1
102
RTVSPropertyOp5
 70
     1
102
RTVSPropertyOp6
 70
     1
102
RTVSPropertyOp7
 70
     1
102
RTVSPropertyOp8
 70
     1
102
RTVSPropertyOp9
 70
     1
102
RTVSPropertyOp10
 70
     1
102
RTVSPropertyOp11
 70
     1
102
RTVSPropertyOp12
 70
     1
102
RTVSPropertyOp13
 70
     1
102
RTVSPropertyOp14
 70
     1
102
RTVSPropertyOp15
 70
     1
102
RTVSPropertyOp16
 70
     1
102
RTVSPropertyOp17
 70
     1
102
RTVSPropertyOp18
 70
     1
102
RTVSPropertyOp19
 70
     1
102
RTVSPropertyOp20
 70
     1
102
RTVSPropertyOp21
 70
     1
102
RTVSPropertyOp22
 70
     1
102
RTVSPropertyOp23
 70
     1
102
RTVSPropertyOp24
 70
     1
102
RTVSPropertyOp25
 70
     1
102
RTVSPropertyOp26
 70
     1
102
RTVSPropertyOp27
 70
     1
102
RTVSPropertyOp28
 70
     1
102
RTVSPropertyOp29
 70
     1
102
RTVSPropertyOp30
 70
     1
102
RTVSPropertyOp31
 70
     1
102
RTVSPropertyOp32
 70
     1
102
RTVSPropertyOp33
 70
     1
102
RTVSPropertyOp34
 70
     1
102
RTVSPropertyOp35
 70
     1
102
RTVSPropertyOp36
 70
     1
102
RTVSPropertyOp37
 70
     1
102
RTVSPropertyOp38
 70
     1
102
RTVSPropertyOp39
 70
     1
102
RTVSPropertyOp40
 70
     1
102
RTVSPropertyOp41
 70
     1
102
RTVSPropertyOp42
 70
     1
102
RTVSPropertyOp43
 70
     1
102
RTVSPropertyOp44
 70
     1
102
RTVSPropertyOp45
 70
     1
102
RTVSPropertyOp46
 70
     1
102
RTVSPropertyOp47
 70
     1
102
RTVSPropertyOp48
 70
     1
102
RTVSPropertyOp49
 70
     1
102
RTVSPropertyOp50
 70
     1
102
RTVSPropertyOp51
 70
     0
102
RTVSPropertyOp52
 70
     0
102
RTVSPropertyOp53
 70
     1
102
RTVSPropertyOp54
 70
     1
102
RTVSPropertyOp55
 70
     1
102
RTVSPropertyOp56
 70
     1
102
RTVSPropertyOp57
 70
     1
102
RTVSPropertyOp58
 70
     1
102
RTVSPropertyOp59
 70
     1
102
RTVSPropertyOp60
 70
     1
102
RTVSPropertyOp61
 70
     1
102
RTVSPropertyOp62
 70
     1
  0
XRECORD
  5
4D0
102
{ACAD_REACTORS
330
4CF
102
}
330
4CF
100
AcDbXrecord
280
     1
102
RTVSPost2010Prop28
280
     0
102
RTVSPost2010PropOp28
 70
     1
102
RTVSPost2010Prop29
280
     1
102
RTVSPost2010PropOp29
 70
     1
102
RTVSPost2010Prop30
280
     1
102
RTVSPost2010PropOp30
 70
     1
102
RTVSPost2010Prop31
280
     0
102
RTVSPost2010PropOp31
 70
     1
102
RTVSPost2010Prop32
280
     0
102
RTVSPost2010PropOp32
 70
     1
102
RTVSPost2010Prop33
280
     0
102
RTVSPost2010PropOp33
 70
     1
102
RTVSPost2010Prop34
280
     0
102
RTVSPost2010PropOp34
 70
     1
102
RTVSPost2010Prop35
280
     0
102
RTVSPost2010PropOp35
 70
     1
102
RTVSPost2010Prop36
280
     0
102
RTVSPost2010PropOp36
 70
     1
102
RTVSPost2010Prop37
 90
       50
102
RTVSPost2010PropOp37
 70
     1
102
RTVSPost2010Prop38
140
0.0
102
RTVSPost2010PropOp38
 70
     1
102
RTVSPost2010Prop39
140
1.0
102
RTVSPost2010PropOp39
 70
     1
102
RTVSPost2010Prop40
 90
        0
102
RTVSPost2010PropOp40
 70
     1
102
RTVSPost2010Prop41ColorIndex
 90
       18
102
RTVSPost2010Prop41ColorRGB
 90
        0
102
RTVSPost2010PropOp41
 70
     1
102
RTVSPost2010Prop42
 90
       50
102
RTVSPost2010PropOp42
 70
     1
102
RTVSPost2010Prop43
 90
        3
102
RTVSPost2010PropOp43
 70
     1
102
RTVSPost2010Prop44ColorIndex
 90
        5
102
RTVSPost2010Prop44ColorRGB
 90
      255
102
RTVSPost2010PropOp44
 70
     1
102
RTVSPost2010Prop45
280
     0
102
RTVSPost2010PropOp45
 70
     1
102
RTVSPost2010Prop46
 90
       50
102
RTVSPost2010PropOp46
 70
     1
102
RTVSPost2010Prop47
 90
       50
102
RTVSPost2010PropOp47
 70
     1
102
RTVSPost2010Prop48
 90
       50
102
RTVSPost2010PropOp48
 70
     1
102
RTVSPost2010Prop49
280
     0
102
RTVSPost2010PropOp49
 70
     1
102
RTVSPost2010Prop50
 90
       50
102
RTVSPost2010PropOp50
 70
     1
102
RTVSPost2010Prop51ColorIndex
 90
      256
102
RTVSPost2010Prop51ColorRGB
 90
-16777216
102
RTVSPost2010PropOp51
 70
     0
102
RTVSPost2010Prop52
140
1.0
102
RTVSPost2010PropOp52
 70
     0
102
RTVSPost2010Prop53
 90
        2
102
RTVSPost2010PropOp53
 70
     1
102
RTVSPost2010Prop54
  1
strokes_ogs.tif
102
RTVSPost2010PropOp54
 70
     1
102
RTVSPost2010Prop55
280
     0
102
RTVSPost2010PropOp55
 70
     1
102
RTVSPost2010Prop56
140
1.0
102
RTVSPost2010PropOp56
 70
     1
102
RTVSPost2010Prop57
140
1.0
102
RTVSPost2010PropOp57
 70
     1
102
RTVSPropertyOp0
 70
     1
102
RTVSPropertyOp1
 70
     1
102
RTVSPropertyOp2
 70
     1
102
RTVSPropertyOp3
 70
     1
102
RTVSPropertyOp4
 70
     1
102
RTVSPropertyOp5
 70
     1
102
RTVSPropertyOp6
 70
     1
102
RTVSPropertyOp7
 70
     1
102
RTVSPropertyOp8
 70
     1
102
RTVSPropertyOp9
 70
     1
102
RTVSPropertyOp10
 70
     1
102
RTVSPropertyOp11
 70
     1
102
RTVSPropertyOp12
 70
     1
102
RTVSPropertyOp13
 70
     1
102
RTVSPropertyOp14
 70
     1
102
RTVSPropertyOp15
 70
     1
102
RTVSPropertyOp16
 70
     1
102
RTVSPropertyOp17
 70
     1
102
RTVSPropertyOp18
 70
     1
102
RTVSPropertyOp19
 70
     1
102
RTVSPropertyOp20
 70
     1
102
RTVSPropertyOp21
 70
     1
102
RTVSPropertyOp22
 70
     1
102
RTVSPropertyOp23
 70
     1
102
RTVSPropertyOp24
 70
     1
102
RTVSPropertyOp25
 70
     1
102
RTVSPropertyOp26
 70
     1
102
RTVSPropertyOp27
 70
     1
102
RTVSPropertyOp28
 70
     1
102
RTVSPropertyOp29
 70
     1
102
RTVSPropertyOp30
 70
     1
102
RTVSPropertyOp31
 70
     1
102
RTVSPropertyOp32
 70
     1
102
RTVSPropertyOp33
 70
     1
102
RTVSPropertyOp34
 70
     1
102
RTVSPropertyOp35
 70
     1
102
RTVSPropertyOp36
 70
     1
102
RTVSPropertyOp37
 70
     1
102
RTVSPropertyOp38
 70
     1
102
RTVSPropertyOp39
 70
     1
102
RTVSPropertyOp40
 70
     1
102
RTVSPropertyOp41
 70
     1
102
RTVSPropertyOp42
 70
     1
102
RTVSPropertyOp43
 70
     1
102
RTVSPropertyOp44
 70
     1
102
RTVSPropertyOp45
 70
     1
102
RTVSPropertyOp46
 70
     1
102
RTVSPropertyOp47
 70
     1
102
RTVSPropertyOp48
 70
     1
102
RTVSPropertyOp49
 70
     1
102
RTVSPropertyOp50
 70
     1
102
RTVSPropertyOp51
 70
     0
102
RTVSPropertyOp52
 70
     0
102
RTVSPropertyOp53
 70
     1
102
RTVSPropertyOp54
 70
     1
102
RTVSPropertyOp55
 70
     1
102
RTVSPropertyOp56
 70
     1
102
RTVSPropertyOp57
 70
     1
102
RTVSPropertyOp58
 70
     1
102
RTVSPropertyOp59
 70
     1
102
RTVSPropertyOp60
 70
     1
102
RTVSPropertyOp61
 70
     1
102
RTVSPropertyOp62
 70
     1
  0
XRECORD
  5
4D2
102
{ACAD_REACTORS
330
4D1
102
}
330
4D1
100
AcDbXrecord
280
     1
102
RTVSPost2010Prop28
280
     0
102
RTVSPost2010PropOp28
 70
     1
102
RTVSPost2010Prop29
280
     1
102
RTVSPost2010PropOp29
 70
     1
102
RTVSPost2010Prop30
280
     1
102
RTVSPost2010PropOp30
 70
     1
102
RTVSPost2010Prop31
280
     0
102
RTVSPost2010PropOp31
 70
     1
102
RTVSPost2010Prop32
280
     0
102
RTVSPost2010PropOp32
 70
     1
102
RTVSPost2010Prop33
280
     0
102
RTVSPost2010PropOp33
 70
     1
102
RTVSPost2010Prop34
280
     0
102
RTVSPost2010PropOp34
 70
     1
102
RTVSPost2010Prop35
280
     0
102
RTVSPost2010PropOp35
 70
     1
102
RTVSPost2010Prop36
280
     0
102
RTVSPost2010PropOp36
 70
     1
102
RTVSPost2010Prop37
 90
       50
102
RTVSPost2010PropOp37
 70
     1
102
RTVSPost2010Prop38
140
0.0
102
RTVSPost2010PropOp38
 70
     1
102
RTVSPost2010Prop39
140
1.0
102
RTVSPost2010PropOp39
 70
     1
102
RTVSPost2010Prop40
 90
        0
102
RTVSPost2010PropOp40
 70
     1
102
RTVSPost2010Prop41ColorIndex
 90
       18
102
RTVSPost2010Prop41ColorRGB
 90
        0
102
RTVSPost2010PropOp41
 70
     1
102
RTVSPost2010Prop42
 90
       50
102
RTVSPost2010PropOp42
 70
     1
102
RTVSPost2010Prop43
 90
        3
102
RTVSPost2010PropOp43
 70
     1
102
RTVSPost2010Prop44ColorIndex
 90
        5
102
RTVSPost2010Prop44ColorRGB
 90
      255
102
RTVSPost2010PropOp44
 70
     1
102
RTVSPost2010Prop45
280
     0
102
RTVSPost2010PropOp45
 70
     1
102
RTVSPost2010Prop46
 90
       50
102
RTVSPost2010PropOp46
 70
     1
102
RTVSPost2010Prop47
 90
       50
102
RTVSPost2010PropOp47
 70
     1
102
RTVSPost2010Prop48
 90
       50
102
RTVSPost2010PropOp48
 70
     1
102
RTVSPost2010Prop49
280
     0
102
RTVSPost2010PropOp49
 70
     1
102
RTVSPost2010Prop50
 90
       50
102
RTVSPost2010PropOp50
 70
     1
102
RTVSPost2010Prop51ColorIndex
 90
      256
102
RTVSPost2010Prop51ColorRGB
 90
-16777216
102
RTVSPost2010PropOp51
 70
     0
102
RTVSPost2010Prop52
140
1.0
102
RTVSPost2010PropOp52
 70
     0
102
RTVSPost2010Prop53
 90
        2
102
RTVSPost2010PropOp53
 70
     1
102
RTVSPost2010Prop54
  1
strokes_ogs.tif
102
RTVSPost2010PropOp54
 70
     1
102
RTVSPost2010Prop55
280
     0
102
RTVSPost2010PropOp55
 70
     1
102
RTVSPost2010Prop56
140
1.0
102
RTVSPost2010PropOp56
 70
     1
102
RTVSPost2010Prop57
140
1.0
102
RTVSPost2010PropOp57
 70
     1
102
RTVSPropertyOp0
 70
     1
102
RTVSPropertyOp1
 70
     1
102
RTVSPropertyOp2
 70
     1
102
RTVSPropertyOp3
 70
     1
102
RTVSPropertyOp4
 70
     1
102
RTVSPropertyOp5
 70
     1
102
RTVSPropertyOp6
 70
     1
102
RTVSPropertyOp7
 70
     1
102
RTVSPropertyOp8
 70
     1
102
RTVSPropertyOp9
 70
     1
102
RTVSPropertyOp10
 70
     1
102
RTVSPropertyOp11
 70
     1
102
RTVSPropertyOp12
 70
     1
102
RTVSPropertyOp13
 70
     1
102
RTVSPropertyOp14
 70
     1
102
RTVSPropertyOp15
 70
     1
102
RTVSPropertyOp16
 70
     1
102
RTVSPropertyOp17
 70
     1
102
RTVSPropertyOp18
 70
     1
102
RTVSPropertyOp19
 70
     1
102
RTVSPropertyOp20
 70
     1
102
RTVSPropertyOp21
 70
     1
102
RTVSPropertyOp22
 70
     1
102
RTVSPropertyOp23
 70
     1
102
RTVSPropertyOp24
 70
     1
102
RTVSPropertyOp25
 70
     1
102
RTVSPropertyOp26
 70
     1
102
RTVSPropertyOp27
 70
     1
102
RTVSPropertyOp28
 70
     1
102
RTVSPropertyOp29
 70
     1
102
RTVSPropertyOp30
 70
     1
102
RTVSPropertyOp31
 70
     1
102
RTVSPropertyOp32
 70
     1
102
RTVSPropertyOp33
 70
     1
102
RTVSPropertyOp34
 70
     1
102
RTVSPropertyOp35
 70
     1
102
RTVSPropertyOp36
 70
     1
102
RTVSPropertyOp37
 70
     1
102
RTVSPropertyOp38
 70
     1
102
RTVSPropertyOp39
 70
     1
102
RTVSPropertyOp40
 70
     1
102
RTVSPropertyOp41
 70
     1
102
RTVSPropertyOp42
 70
     1
102
RTVSPropertyOp43
 70
     1
102
RTVSPropertyOp44
 70
     1
102
RTVSPropertyOp45
 70
     1
102
RTVSPropertyOp46
 70
     1
102
RTVSPropertyOp47
 70
     1
102
RTVSPropertyOp48
 70
     1
102
RTVSPropertyOp49
 70
     1
102
RTVSPropertyOp50
 70
     1
102
RTVSPropertyOp51
 70
     0
102
RTVSPropertyOp52
 70
     0
102
RTVSPropertyOp53
 70
     1
102
RTVSPropertyOp54
 70
     1
102
RTVSPropertyOp55
 70
     1
102
RTVSPropertyOp56
 70
     1
102
RTVSPropertyOp57
 70
     1
102
RTVSPropertyOp58
 70
     1
102
RTVSPropertyOp59
 70
     1
102
RTVSPropertyOp60
 70
     1
102
RTVSPropertyOp61
 70
     1
102
RTVSPropertyOp62
 70
     1
  0
XRECORD
  5
4D4
102
{ACAD_REACTORS
330
4D3
102
}
330
4D3
100
AcDbXrecord
280
     1
102
RTVSPost2010Prop28
280
     0
102
RTVSPost2010PropOp28
 70
     1
102
RTVSPost2010Prop29
280
     1
102
RTVSPost2010PropOp29
 70
     1
102
RTVSPost2010Prop30
280
     1
102
RTVSPost2010PropOp30
 70
     1
102
RTVSPost2010Prop31
280
     0
102
RTVSPost2010PropOp31
 70
     1
102
RTVSPost2010Prop32
280
     0
102
RTVSPost2010PropOp32
 70
     1
102
RTVSPost2010Prop33
280
     0
102
RTVSPost2010PropOp33
 70
     1
102
RTVSPost2010Prop34
280
     0
102
RTVSPost2010PropOp34
 70
     1
102
RTVSPost2010Prop35
280
     0
102
RTVSPost2010PropOp35
 70
     1
102
RTVSPost2010Prop36
280
     0
102
RTVSPost2010PropOp36
 70
     1
102
RTVSPost2010Prop37
 90
       50
102
RTVSPost2010PropOp37
 70
     1
102
RTVSPost2010Prop38
140
0.0
102
RTVSPost2010PropOp38
 70
     1
102
RTVSPost2010Prop39
140
1.0
102
RTVSPost2010PropOp39
 70
     1
102
RTVSPost2010Prop40
 90
        0
102
RTVSPost2010PropOp40
 70
     1
102
RTVSPost2010Prop41ColorIndex
 90
       18
102
RTVSPost2010Prop41ColorRGB
 90
        0
102
RTVSPost2010PropOp41
 70
     1
102
RTVSPost2010Prop42
 90
       50
102
RTVSPost2010PropOp42
 70
     1
102
RTVSPost2010Prop43
 90
        3
102
RTVSPost2010PropOp43
 70
     1
102
RTVSPost2010Prop44ColorIndex
 90
        5
102
RTVSPost2010Prop44ColorRGB
 90
      255
102
RTVSPost2010PropOp44
 70
     1
102
RTVSPost2010Prop45
280
     0
102
RTVSPost2010PropOp45
 70
     1
102
RTVSPost2010Prop46
 90
       50
102
RTVSPost2010PropOp46
 70
     1
102
RTVSPost2010Prop47
 90
       50
102
RTVSPost2010PropOp47
 70
     1
102
RTVSPost2010Prop48
 90
       50
102
RTVSPost2010PropOp48
 70
     1
102
RTVSPost2010Prop49
280
     0
102
RTVSPost2010PropOp49
 70
     1
102
RTVSPost2010Prop50
 90
       50
102
RTVSPost2010PropOp50
 70
     1
102
RTVSPost2010Prop51ColorIndex
 90
      256
102
RTVSPost2010Prop51ColorRGB
 90
-16777216
102
RTVSPost2010PropOp51
 70
     0
102
RTVSPost2010Prop52
140
1.0
102
RTVSPost2010PropOp52
 70
     0
102
RTVSPost2010Prop53
 90
        2
102
RTVSPost2010PropOp53
 70
     1
102
RTVSPost2010Prop54
  1
strokes_ogs.tif
102
RTVSPost2010PropOp54
 70
     1
102
RTVSPost2010Prop55
280
     0
102
RTVSPost2010PropOp55
 70
     1
102
RTVSPost2010Prop56
140
1.0
102
RTVSPost2010PropOp56
 70
     1
102
RTVSPost2010Prop57
140
1.0
102
RTVSPost2010PropOp57
 70
     1
102
RTVSPropertyOp0
 70
     1
102
RTVSPropertyOp1
 70
     1
102
RTVSPropertyOp2
 70
     1
102
RTVSPropertyOp3
 70
     1
102
RTVSPropertyOp4
 70
     1
102
RTVSPropertyOp5
 70
     1
102
RTVSPropertyOp6
 70
     1
102
RTVSPropertyOp7
 70
     1
102
RTVSPropertyOp8
 70
     1
102
RTVSPropertyOp9
 70
     1
102
RTVSPropertyOp10
 70
     1
102
RTVSPropertyOp11
 70
     1
102
RTVSPropertyOp12
 70
     1
102
RTVSPropertyOp13
 70
     1
102
RTVSPropertyOp14
 70
     1
102
RTVSPropertyOp15
 70
     1
102
RTVSPropertyOp16
 70
     1
102
RTVSPropertyOp17
 70
     1
102
RTVSPropertyOp18
 70
     1
102
RTVSPropertyOp19
 70
     1
102
RTVSPropertyOp20
 70
     1
102
RTVSPropertyOp21
 70
     1
102
RTVSPropertyOp22
 70
     1
102
RTVSPropertyOp23
 70
     1
102
RTVSPropertyOp24
 70
     1
102
RTVSPropertyOp25
 70
     1
102
RTVSPropertyOp26
 70
     1
102
RTVSPropertyOp27
 70
     1
102
RTVSPropertyOp28
 70
     1
102
RTVSPropertyOp29
 70
     1
102
RTVSPropertyOp30
 70
     1
102
RTVSPropertyOp31
 70
     1
102
RTVSPropertyOp32
 70
     1
102
RTVSPropertyOp33
 70
     1
102
RTVSPropertyOp34
 70
     1
102
RTVSPropertyOp35
 70
     1
102
RTVSPropertyOp36
 70
     1
102
RTVSPropertyOp37
 70
     1
102
RTVSPropertyOp38
 70
     1
102
RTVSPropertyOp39
 70
     1
102
RTVSPropertyOp40
 70
     1
102
RTVSPropertyOp41
 70
     1
102
RTVSPropertyOp42
 70
     1
102
RTVSPropertyOp43
 70
     1
102
RTVSPropertyOp44
 70
     1
102
RTVSPropertyOp45
 70
     1
102
RTVSPropertyOp46
 70
     1
102
RTVSPropertyOp47
 70
     1
102
RTVSPropertyOp48
 70
     1
102
RTVSPropertyOp49
 70
     1
102
RTVSPropertyOp50
 70
     1
102
RTVSPropertyOp51
 70
     0
102
RTVSPropertyOp52
 70
     0
102
RTVSPropertyOp53
 70
     1
102
RTVSPropertyOp54
 70
     1
102
RTVSPropertyOp55
 70
     1
102
RTVSPropertyOp56
 70
     1
102
RTVSPropertyOp57
 70
     1
102
RTVSPropertyOp58
 70
     1
102
RTVSPropertyOp59
 70
     1
102
RTVSPropertyOp60
 70
     1
102
RTVSPropertyOp61
 70
     1
102
RTVSPropertyOp62
 70
     1
  0
XRECORD
  5
4D6
102
{ACAD_REACTORS
330
4D5
102
}
330
4D5
100
AcDbXrecord
280
     1
102
RTVSPost2010Prop28
280
     0
102
RTVSPost2010PropOp28
 70
     1
102
RTVSPost2010Prop29
280
     1
102
RTVSPost2010PropOp29
 70
     1
102
RTVSPost2010Prop30
280
     1
102
RTVSPost2010PropOp30
 70
     1
102
RTVSPost2010Prop31
280
     0
102
RTVSPost2010PropOp31
 70
     1
102
RTVSPost2010Prop32
280
     0
102
RTVSPost2010PropOp32
 70
     1
102
RTVSPost2010Prop33
280
     0
102
RTVSPost2010PropOp33
 70
     1
102
RTVSPost2010Prop34
280
     0
102
RTVSPost2010PropOp34
 70
     1
102
RTVSPost2010Prop35
280
     0
102
RTVSPost2010PropOp35
 70
     1
102
RTVSPost2010Prop36
280
     0
102
RTVSPost2010PropOp36
 70
     1
102
RTVSPost2010Prop37
 90
       50
102
RTVSPost2010PropOp37
 70
     1
102
RTVSPost2010Prop38
140
0.0
102
RTVSPost2010PropOp38
 70
     1
102
RTVSPost2010Prop39
140
1.0
102
RTVSPost2010PropOp39
 70
     1
102
RTVSPost2010Prop40
 90
        0
102
RTVSPost2010PropOp40
 70
     1
102
RTVSPost2010Prop41ColorIndex
 90
       18
102
RTVSPost2010Prop41ColorRGB
 90
        0
102
RTVSPost2010PropOp41
 70
     1
102
RTVSPost2010Prop42
 90
       50
102
RTVSPost2010PropOp42
 70
     1
102
RTVSPost2010Prop43
 90
        3
102
RTVSPost2010PropOp43
 70
     1
102
RTVSPost2010Prop44ColorIndex
 90
        5
102
RTVSPost2010Prop44ColorRGB
 90
      255
102
RTVSPost2010PropOp44
 70
     1
102
RTVSPost2010Prop45
280
     0
102
RTVSPost2010PropOp45
 70
     1
102
RTVSPost2010Prop46
 90
       50
102
RTVSPost2010PropOp46
 70
     1
102
RTVSPost2010Prop47
 90
       50
102
RTVSPost2010PropOp47
 70
     1
102
RTVSPost2010Prop48
 90
       50
102
RTVSPost2010PropOp48
 70
     1
102
RTVSPost2010Prop49
280
     0
102
RTVSPost2010PropOp49
 70
     1
102
RTVSPost2010Prop50
 90
       50
102
RTVSPost2010PropOp50
 70
     1
102
RTVSPost2010Prop51ColorIndex
 90
      256
102
RTVSPost2010Prop51ColorRGB
 90
-16777216
102
RTVSPost2010PropOp51
 70
     0
102
RTVSPost2010Prop52
140
1.0
102
RTVSPost2010PropOp52
 70
     0
102
RTVSPost2010Prop53
 90
        2
102
RTVSPost2010PropOp53
 70
     1
102
RTVSPost2010Prop54
  1
strokes_ogs.tif
102
RTVSPost2010PropOp54
 70
     1
102
RTVSPost2010Prop55
280
     0
102
RTVSPost2010PropOp55
 70
     1
102
RTVSPost2010Prop56
140
1.0
102
RTVSPost2010PropOp56
 70
     1
102
RTVSPost2010Prop57
140
1.0
102
RTVSPost2010PropOp57
 70
     1
102
RTVSPropertyOp0
 70
     1
102
RTVSPropertyOp1
 70
     1
102
RTVSPropertyOp2
 70
     1
102
RTVSPropertyOp3
 70
     1
102
RTVSPropertyOp4
 70
     1
102
RTVSPropertyOp5
 70
     1
102
RTVSPropertyOp6
 70
     1
102
RTVSPropertyOp7
 70
     1
102
RTVSPropertyOp8
 70
     1
102
RTVSPropertyOp9
 70
     1
102
RTVSPropertyOp10
 70
     1
102
RTVSPropertyOp11
 70
     1
102
RTVSPropertyOp12
 70
     1
102
RTVSPropertyOp13
 70
     1
102
RTVSPropertyOp14
 70
     1
102
RTVSPropertyOp15
 70
     1
102
RTVSPropertyOp16
 70
     1
102
RTVSPropertyOp17
 70
     1
102
RTVSPropertyOp18
 70
     1
102
RTVSPropertyOp19
 70
     1
102
RTVSPropertyOp20
 70
     1
102
RTVSPropertyOp21
 70
     1
102
RTVSPropertyOp22
 70
     1
102
RTVSPropertyOp23
 70
     1
102
RTVSPropertyOp24
 70
     1
102
RTVSPropertyOp25
 70
     1
102
RTVSPropertyOp26
 70
     1
102
RTVSPropertyOp27
 70
     1
102
RTVSPropertyOp28
 70
     1
102
RTVSPropertyOp29
 70
     1
102
RTVSPropertyOp30
 70
     1
102
RTVSPropertyOp31
 70
     1
102
RTVSPropertyOp32
 70
     1
102
RTVSPropertyOp33
 70
     1
102
RTVSPropertyOp34
 70
     1
102
RTVSPropertyOp35
 70
     1
102
RTVSPropertyOp36
 70
     1
102
RTVSPropertyOp37
 70
     1
102
RTVSPropertyOp38
 70
     1
102
RTVSPropertyOp39
 70
     1
102
RTVSPropertyOp40
 70
     1
102
RTVSPropertyOp41
 70
     1
102
RTVSPropertyOp42
 70
     1
102
RTVSPropertyOp43
 70
     1
102
RTVSPropertyOp44
 70
     1
102
RTVSPropertyOp45
 70
     1
102
RTVSPropertyOp46
 70
     1
102
RTVSPropertyOp47
 70
     1
102
RTVSPropertyOp48
 70
     1
102
RTVSPropertyOp49
 70
     1
102
RTVSPropertyOp50
 70
     1
102
RTVSPropertyOp51
 70
     0
102
RTVSPropertyOp52
 70
     0
102
RTVSPropertyOp53
 70
     1
102
RTVSPropertyOp54
 70
     1
102
RTVSPropertyOp55
 70
     1
102
RTVSPropertyOp56
 70
     1
102
RTVSPropertyOp57
 70
     1
102
RTVSPropertyOp58
 70
     1
102
RTVSPropertyOp59
 70
     1
102
RTVSPropertyOp60
 70
     1
102
RTVSPropertyOp61
 70
     1
102
RTVSPropertyOp62
 70
     1
  0
XRECORD
  5
4DE
102
{ACAD_REACTORS
330
4DD
102
}
330
4DD
100
AcDbXrecord
280
     1
102
RTVSPost2010Prop28
280
     0
102
RTVSPost2010PropOp28
 70
     1
102
RTVSPost2010Prop29
280
     1
102
RTVSPost2010PropOp29
 70
     1
102
RTVSPost2010Prop30
280
     1
102
RTVSPost2010PropOp30
 70
     1
102
RTVSPost2010Prop31
280
     0
102
RTVSPost2010PropOp31
 70
     1
102
RTVSPost2010Prop32
280
     0
102
RTVSPost2010PropOp32
 70
     1
102
RTVSPost2010Prop33
280
     0
102
RTVSPost2010PropOp33
 70
     1
102
RTVSPost2010Prop34
280
     0
102
RTVSPost2010PropOp34
 70
     1
102
RTVSPost2010Prop35
280
     0
102
RTVSPost2010PropOp35
 70
     1
102
RTVSPost2010Prop36
280
     0
102
RTVSPost2010PropOp36
 70
     1
102
RTVSPost2010Prop37
 90
       50
102
RTVSPost2010PropOp37
 70
     1
102
RTVSPost2010Prop38
140
0.0
102
RTVSPost2010PropOp38
 70
     1
102
RTVSPost2010Prop39
140
1.0
102
RTVSPost2010PropOp39
 70
     1
102
RTVSPost2010Prop40
 90
        0
102
RTVSPost2010PropOp40
 70
     1
102
RTVSPost2010Prop41ColorIndex
 90
       18
102
RTVSPost2010Prop41ColorRGB
 90
        0
102
RTVSPost2010PropOp41
 70
     1
102
RTVSPost2010Prop42
 90
       50
102
RTVSPost2010PropOp42
 70
     1
102
RTVSPost2010Prop43
 90
        3
102
RTVSPost2010PropOp43
 70
     1
102
RTVSPost2010Prop44ColorIndex
 90
        5
102
RTVSPost2010Prop44ColorRGB
 90
      255
102
RTVSPost2010PropOp44
 70
     1
102
RTVSPost2010Prop45
280
     0
102
RTVSPost2010PropOp45
 70
     1
102
RTVSPost2010Prop46
 90
       50
102
RTVSPost2010PropOp46
 70
     1
102
RTVSPost2010Prop47
 90
       50
102
RTVSPost2010PropOp47
 70
     1
102
RTVSPost2010Prop48
 90
       50
102
RTVSPost2010PropOp48
 70
     1
102
RTVSPost2010Prop49
280
     0
102
RTVSPost2010PropOp49
 70
     1
102
RTVSPost2010Prop50
 90
       50
102
RTVSPost2010PropOp50
 70
     1
102
RTVSPost2010Prop51ColorIndex
 90
      256
102
RTVSPost2010Prop51ColorRGB
 90
-16777216
102
RTVSPost2010PropOp51
 70
     0
102
RTVSPost2010Prop52
140
1.0
102
RTVSPost2010PropOp52
 70
     0
102
RTVSPost2010Prop53
 90
        2
102
RTVSPost2010PropOp53
 70
     1
102
RTVSPost2010Prop54
  1
strokes_ogs.tif
102
RTVSPost2010PropOp54
 70
     1
102
RTVSPost2010Prop55
280
     0
102
RTVSPost2010PropOp55
 70
     1
102
RTVSPost2010Prop56
140
1.0
102
RTVSPost2010PropOp56
 70
     1
102
RTVSPost2010Prop57
140
1.0
102
RTVSPost2010PropOp57
 70
     1
102
RTVSPropertyOp0
 70
     1
102
RTVSPropertyOp1
 70
     1
102
RTVSPropertyOp2
 70
     1
102
RTVSPropertyOp3
 70
     1
102
RTVSPropertyOp4
 70
     1
102
RTVSPropertyOp5
 70
     1
102
RTVSPropertyOp6
 70
     1
102
RTVSPropertyOp7
 70
     1
102
RTVSPropertyOp8
 70
     1
102
RTVSPropertyOp9
 70
     1
102
RTVSPropertyOp10
 70
     1
102
RTVSPropertyOp11
 70
     1
102
RTVSPropertyOp12
 70
     1
102
RTVSPropertyOp13
 70
     1
102
RTVSPropertyOp14
 70
     1
102
RTVSPropertyOp15
 70
     1
102
RTVSPropertyOp16
 70
     1
102
RTVSPropertyOp17
 70
     1
102
RTVSPropertyOp18
 70
     1
102
RTVSPropertyOp19
 70
     1
102
RTVSPropertyOp20
 70
     1
102
RTVSPropertyOp21
 70
     1
102
RTVSPropertyOp22
 70
     1
102
RTVSPropertyOp23
 70
     1
102
RTVSPropertyOp24
 70
     1
102
RTVSPropertyOp25
 70
     1
102
RTVSPropertyOp26
 70
     1
102
RTVSPropertyOp27
 70
     1
102
RTVSPropertyOp28
 70
     1
102
RTVSPropertyOp29
 70
     1
102
RTVSPropertyOp30
 70
     1
102
RTVSPropertyOp31
 70
     1
102
RTVSPropertyOp32
 70
     1
102
RTVSPropertyOp33
 70
     1
102
RTVSPropertyOp34
 70
     1
102
RTVSPropertyOp35
 70
     1
102
RTVSPropertyOp36
 70
     1
102
RTVSPropertyOp37
 70
     1
102
RTVSPropertyOp38
 70
     1
102
RTVSPropertyOp39
 70
     1
102
RTVSPropertyOp40
 70
     1
102
RTVSPropertyOp41
 70
     1
102
RTVSPropertyOp42
 70
     1
102
RTVSPropertyOp43
 70
     1
102
RTVSPropertyOp44
 70
     1
102
RTVSPropertyOp45
 70
     1
102
RTVSPropertyOp46
 70
     1
102
RTVSPropertyOp47
 70
     1
102
RTVSPropertyOp48
 70
     1
102
RTVSPropertyOp49
 70
     1
102
RTVSPropertyOp50
 70
     1
102
RTVSPropertyOp51
 70
     0
102
RTVSPropertyOp52
 70
     0
102
RTVSPropertyOp53
 70
     1
102
RTVSPropertyOp54
 70
     1
102
RTVSPropertyOp55
 70
     1
102
RTVSPropertyOp56
 70
     1
102
RTVSPropertyOp57
 70
     1
102
RTVSPropertyOp58
 70
     1
102
RTVSPropertyOp59
 70
     1
102
RTVSPropertyOp60
 70
     1
102
RTVSPropertyOp61
 70
     1
102
RTVSPropertyOp62
 70
     1
  0
XRECORD
  5
4FA
102
{ACAD_REACTORS
330
4F9
102
}
330
4F9
100
AcDbXrecord
280
     1
102
RTVSPost2010Prop28
280
     0
102
RTVSPost2010PropOp28
 70
     0
102
RTVSPost2010Prop29
280
     1
102
RTVSPost2010PropOp29
 70
     0
102
RTVSPost2010Prop30
280
     1
102
RTVSPost2010PropOp30
 70
     0
102
RTVSPost2010Prop31
280
     0
102
RTVSPost2010PropOp31
 70
     0
102
RTVSPost2010Prop32
280
     0
102
RTVSPost2010PropOp32
 70
     0
102
RTVSPost2010Prop33
280
     0
102
RTVSPost2010PropOp33
 70
     0
102
RTVSPost2010Prop34
280
     0
102
RTVSPost2010PropOp34
 70
     0
102
RTVSPost2010Prop35
280
     0
102
RTVSPost2010PropOp35
 70
     0
102
RTVSPost2010Prop36
280
     0
102
RTVSPost2010PropOp36
 70
     0
102
RTVSPost2010Prop37
 90
       50
102
RTVSPost2010PropOp37
 70
     0
102
RTVSPost2010Prop38
140
0.0
102
RTVSPost2010PropOp38
 70
     0
102
RTVSPost2010Prop39
140
1.0
102
RTVSPost2010PropOp39
 70
     0
102
RTVSPost2010Prop40
 90
        0
102
RTVSPost2010PropOp40
 70
     0
102
RTVSPost2010Prop41ColorIndex
 90
       18
102
RTVSPost2010Prop41ColorRGB
 90
        0
102
RTVSPost2010PropOp41
 70
     0
102
RTVSPost2010Prop42
 90
       50
102
RTVSPost2010PropOp42
 70
     0
102
RTVSPost2010Prop43
 90
        3
102
RTVSPost2010PropOp43
 70
     0
102
RTVSPost2010Prop44ColorIndex
 90
        5
102
RTVSPost2010Prop44ColorRGB
 90
      255
102
RTVSPost2010PropOp44
 70
     0
102
RTVSPost2010Prop45
280
     0
102
RTVSPost2010PropOp45
 70
     0
102
RTVSPost2010Prop46
 90
       50
102
RTVSPost2010PropOp46
 70
     0
102
RTVSPost2010Prop47
 90
       50
102
RTVSPost2010PropOp47
 70
     0
102
RTVSPost2010Prop48
 90
       50
102
RTVSPost2010PropOp48
 70
     0
102
RTVSPost2010Prop49
280
     0
102
RTVSPost2010PropOp49
 70
     0
102
RTVSPost2010Prop50
 90
       50
102
RTVSPost2010PropOp50
 70
     0
102
RTVSPost2010Prop51ColorIndex
 90
      256
102
RTVSPost2010Prop51ColorRGB
 90
-16777216
102
RTVSPost2010PropOp51
 70
     0
102
RTVSPost2010Prop52
140
1.0
102
RTVSPost2010PropOp52
 70
     0
102
RTVSPost2010Prop53
 90
        2
102
RTVSPost2010PropOp53
 70
     0
102
RTVSPost2010Prop54
  1
strokes_ogs.tif
102
RTVSPost2010PropOp54
 70
     0
102
RTVSPost2010Prop55
280
     0
102
RTVSPost2010PropOp55
 70
     0
102
RTVSPost2010Prop56
140
1.0
102
RTVSPost2010PropOp56
 70
     0
102
RTVSPost2010Prop57
140
1.0
102
RTVSPost2010PropOp57
 70
     0
102
RTVSPropertyOp0
 70
     0
102
RTVSPropertyOp1
 70
     0
102
RTVSPropertyOp2
 70
     0
102
RTVSPropertyOp3
 70
     0
102
RTVSPropertyOp4
 70
     0
102
RTVSPropertyOp5
 70
     0
102
RTVSPropertyOp6
 70
     0
102
RTVSPropertyOp7
 70
     0
102
RTVSPropertyOp8
 70
     0
102
RTVSPropertyOp9
 70
     0
102
RTVSPropertyOp10
 70
     0
102
RTVSPropertyOp11
 70
     0
102
RTVSPropertyOp12
 70
     0
102
RTVSPropertyOp13
 70
     0
102
RTVSPropertyOp14
 70
     2
102
RTVSPropertyOp15
 70
     0
102
RTVSPropertyOp16
 70
     0
102
RTVSPropertyOp17
 70
     0
102
RTVSPropertyOp18
 70
     0
102
RTVSPropertyOp19
 70
     0
102
RTVSPropertyOp20
 70
     0
102
RTVSPropertyOp21
 70
     0
102
RTVSPropertyOp22
 70
     0
102
RTVSPropertyOp23
 70
     0
102
RTVSPropertyOp24
 70
     0
102
RTVSPropertyOp25
 70
     0
102
RTVSPropertyOp26
 70
     0
102
RTVSPropertyOp27
 70
     0
102
RTVSPropertyOp28
 70
     0
102
RTVSPropertyOp29
 70
     0
102
RTVSPropertyOp30
 70
     0
102
RTVSPropertyOp31
 70
     0
102
RTVSPropertyOp32
 70
     0
102
RTVSPropertyOp33
 70
     0
102
RTVSPropertyOp34
 70
     0
102
RTVSPropertyOp35
 70
     0
102
RTVSPropertyOp36
 70
     0
102
RTVSPropertyOp37
 70
     0
102
RTVSPropertyOp38
 70
     0
102
RTVSPropertyOp39
 70
     0
102
RTVSPropertyOp40
 70
     0
102
RTVSPropertyOp41
 70
     0
102
RTVSPropertyOp42
 70
     0
102
RTVSPropertyOp43
 70
     0
102
RTVSPropertyOp44
 70
     0
102
RTVSPropertyOp45
 70
     0
102
RTVSPropertyOp46
 70
     0
102
RTVSPropertyOp47
 70
     0
102
RTVSPropertyOp48
 70
     0
102
RTVSPropertyOp49
 70
     0
102
RTVSPropertyOp50
 70
     0
102
RTVSPropertyOp51
 70
     0
102
RTVSPropertyOp52
 70
     0
102
RTVSPropertyOp53
 70
     0
102
RTVSPropertyOp54
 70
     0
102
RTVSPropertyOp55
 70
     0
102
RTVSPropertyOp56
 70
     0
102
RTVSPropertyOp57
 70
     0
102
RTVSPropertyOp58
 70
     0
102
RTVSPropertyOp59
 70
     0
102
RTVSPropertyOp60
 70
     0
102
RTVSPropertyOp61
 70
     0
102
RTVSPropertyOp62
 70
     0
  0
XRECORD
  5
4EA
102
{ACAD_REACTORS
330
4E9
102
}
330
4E9
100
AcDbXrecord
280
     1
102
RTVSPost2010Prop28
280
     0
102
RTVSPost2010PropOp28
 70
     1
102
RTVSPost2010Prop29
280
     1
102
RTVSPost2010PropOp29
 70
     1
102
RTVSPost2010Prop30
280
     1
102
RTVSPost2010PropOp30
 70
     1
102
RTVSPost2010Prop31
280
     0
102
RTVSPost2010PropOp31
 70
     1
102
RTVSPost2010Prop32
280
     0
102
RTVSPost2010PropOp32
 70
     1
102
RTVSPost2010Prop33
280
     0
102
RTVSPost2010PropOp33
 70
     1
102
RTVSPost2010Prop34
280
     0
102
RTVSPost2010PropOp34
 70
     1
102
RTVSPost2010Prop35
280
     0
102
RTVSPost2010PropOp35
 70
     1
102
RTVSPost2010Prop36
280
     0
102
RTVSPost2010PropOp36
 70
     1
102
RTVSPost2010Prop37
 90
       50
102
RTVSPost2010PropOp37
 70
     1
102
RTVSPost2010Prop38
140
0.0
102
RTVSPost2010PropOp38
 70
     1
102
RTVSPost2010Prop39
140
1.0
102
RTVSPost2010PropOp39
 70
     1
102
RTVSPost2010Prop40
 90
        0
102
RTVSPost2010PropOp40
 70
     1
102
RTVSPost2010Prop41ColorIndex
 90
       18
102
RTVSPost2010Prop41ColorRGB
 90
        0
102
RTVSPost2010PropOp41
 70
     1
102
RTVSPost2010Prop42
 90
       50
102
RTVSPost2010PropOp42
 70
     1
102
RTVSPost2010Prop43
 90
        3
102
RTVSPost2010PropOp43
 70
     1
102
RTVSPost2010Prop44ColorIndex
 90
        5
102
RTVSPost2010Prop44ColorRGB
 90
      255
102
RTVSPost2010PropOp44
 70
     1
102
RTVSPost2010Prop45
280
     0
102
RTVSPost2010PropOp45
 70
     1
102
RTVSPost2010Prop46
 90
       50
102
RTVSPost2010PropOp46
 70
     1
102
RTVSPost2010Prop47
 90
       50
102
RTVSPost2010PropOp47
 70
     1
102
RTVSPost2010Prop48
 90
       50
102
RTVSPost2010PropOp48
 70
     1
102
RTVSPost2010Prop49
280
     0
102
RTVSPost2010PropOp49
 70
     1
102
RTVSPost2010Prop50
 90
       50
102
RTVSPost2010PropOp50
 70
     1
102
RTVSPost2010Prop51ColorIndex
 90
      256
102
RTVSPost2010Prop51ColorRGB
 90
-16777216
102
RTVSPost2010PropOp51
 70
     0
102
RTVSPost2010Prop52
140
1.0
102
RTVSPost2010PropOp52
 70
     0
102
RTVSPost2010Prop53
 90
        2
102
RTVSPost2010PropOp53
 70
     1
102
RTVSPost2010Prop54
  1
strokes_ogs.tif
102
RTVSPost2010PropOp54
 70
     1
102
RTVSPost2010Prop55
280
     0
102
RTVSPost2010PropOp55
 70
     1
102
RTVSPost2010Prop56
140
1.0
102
RTVSPost2010PropOp56
 70
     1
102
RTVSPost2010Prop57
140
1.0
102
RTVSPost2010PropOp57
 70
     1
102
RTVSPropertyOp0
 70
     1
102
RTVSPropertyOp1
 70
     1
102
RTVSPropertyOp2
 70
     1
102
RTVSPropertyOp3
 70
     1
102
RTVSPropertyOp4
 70
     1
102
RTVSPropertyOp5
 70
     1
102
RTVSPropertyOp6
 70
     1
102
RTVSPropertyOp7
 70
     1
102
RTVSPropertyOp8
 70
     1
102
RTVSPropertyOp9
 70
     1
102
RTVSPropertyOp10
 70
     1
102
RTVSPropertyOp11
 70
     1
102
RTVSPropertyOp12
 70
     1
102
RTVSPropertyOp13
 70
     1
102
RTVSPropertyOp14
 70
     1
102
RTVSPropertyOp15
 70
     1
102
RTVSPropertyOp16
 70
     1
102
RTVSPropertyOp17
 70
     1
102
RTVSPropertyOp18
 70
     1
102
RTVSPropertyOp19
 70
     1
102
RTVSPropertyOp20
 70
     1
102
RTVSPropertyOp21
 70
     1
102
RTVSPropertyOp22
 70
     1
102
RTVSPropertyOp23
 70
     1
102
RTVSPropertyOp24
 70
     1
102
RTVSPropertyOp25
 70
     1
102
RTVSPropertyOp26
 70
     1
102
RTVSPropertyOp27
 70
     1
102
RTVSPropertyOp28
 70
     1
102
RTVSPropertyOp29
 70
     1
102
RTVSPropertyOp30
 70
     1
102
RTVSPropertyOp31
 70
     1
102
RTVSPropertyOp32
 70
     1
102
RTVSPropertyOp33
 70
     1
102
RTVSPropertyOp34
 70
     1
102
RTVSPropertyOp35
 70
     1
102
RTVSPropertyOp36
 70
     1
102
RTVSPropertyOp37
 70
     1
102
RTVSPropertyOp38
 70
     1
102
RTVSPropertyOp39
 70
     1
102
RTVSPropertyOp40
 70
     1
102
RTVSPropertyOp41
 70
     1
102
RTVSPropertyOp42
 70
     1
102
RTVSPropertyOp43
 70
     1
102
RTVSPropertyOp44
 70
     1
102
RTVSPropertyOp45
 70
     1
102
RTVSPropertyOp46
 70
     1
102
RTVSPropertyOp47
 70
     1
102
RTVSPropertyOp48
 70
     1
102
RTVSPropertyOp49
 70
     1
102
RTVSPropertyOp50
 70
     1
102
RTVSPropertyOp51
 70
     0
102
RTVSPropertyOp52
 70
     0
102
RTVSPropertyOp53
 70
     1
102
RTVSPropertyOp54
 70
     1
102
RTVSPropertyOp55
 70
     1
102
RTVSPropertyOp56
 70
     1
102
RTVSPropertyOp57
 70
     1
102
RTVSPropertyOp58
 70
     1
102
RTVSPropertyOp59
 70
     1
102
RTVSPropertyOp60
 70
     1
102
RTVSPropertyOp61
 70
     1
102
RTVSPropertyOp62
 70
     1
  0
XRECORD
  5
4FC
102
{ACAD_REACTORS
330
4FB
102
}
330
4FB
100
AcDbXrecord
280
     1
102
RTVSPost2010Prop28
280
     0
102
RTVSPost2010PropOp28
 70
     0
102
RTVSPost2010Prop29
280
     1
102
RTVSPost2010PropOp29
 70
     0
102
RTVSPost2010Prop30
280
     1
102
RTVSPost2010PropOp30
 70
     0
102
RTVSPost2010Prop31
280
     0
102
RTVSPost2010PropOp31
 70
     0
102
RTVSPost2010Prop32
280
     0
102
RTVSPost2010PropOp32
 70
     0
102
RTVSPost2010Prop33
280
     0
102
RTVSPost2010PropOp33
 70
     0
102
RTVSPost2010Prop34
280
     0
102
RTVSPost2010PropOp34
 70
     0
102
RTVSPost2010Prop35
280
     0
102
RTVSPost2010PropOp35
 70
     0
102
RTVSPost2010Prop36
280
     0
102
RTVSPost2010PropOp36
 70
     0
102
RTVSPost2010Prop37
 90
       50
102
RTVSPost2010PropOp37
 70
     0
102
RTVSPost2010Prop38
140
0.0
102
RTVSPost2010PropOp38
 70
     0
102
RTVSPost2010Prop39
140
1.0
102
RTVSPost2010PropOp39
 70
     0
102
RTVSPost2010Prop40
 90
        0
102
RTVSPost2010PropOp40
 70
     0
102
RTVSPost2010Prop41ColorIndex
 90
       18
102
RTVSPost2010Prop41ColorRGB
 90
        0
102
RTVSPost2010PropOp41
 70
     0
102
RTVSPost2010Prop42
 90
       50
102
RTVSPost2010PropOp42
 70
     0
102
RTVSPost2010Prop43
 90
        3
102
RTVSPost2010PropOp43
 70
     0
102
RTVSPost2010Prop44ColorIndex
 90
        5
102
RTVSPost2010Prop44ColorRGB
 90
      255
102
RTVSPost2010PropOp44
 70
     0
102
RTVSPost2010Prop45
280
     0
102
RTVSPost2010PropOp45
 70
     0
102
RTVSPost2010Prop46
 90
       50
102
RTVSPost2010PropOp46
 70
     0
102
RTVSPost2010Prop47
 90
       50
102
RTVSPost2010PropOp47
 70
     0
102
RTVSPost2010Prop48
 90
       50
102
RTVSPost2010PropOp48
 70
     0
102
RTVSPost2010Prop49
280
     0
102
RTVSPost2010PropOp49
 70
     0
102
RTVSPost2010Prop50
 90
       50
102
RTVSPost2010PropOp50
 70
     0
102
RTVSPost2010Prop51ColorIndex
 90
      256
102
RTVSPost2010Prop51ColorRGB
 90
-16777216
102
RTVSPost2010PropOp51
 70
     0
102
RTVSPost2010Prop52
140
1.0
102
RTVSPost2010PropOp52
 70
     0
102
RTVSPost2010Prop53
 90
        2
102
RTVSPost2010PropOp53
 70
     0
102
RTVSPost2010Prop54
  1
strokes_ogs.tif
102
RTVSPost2010PropOp54
 70
     0
102
RTVSPost2010Prop55
280
     0
102
RTVSPost2010PropOp55
 70
     0
102
RTVSPost2010Prop56
140
1.0
102
RTVSPost2010PropOp56
 70
     0
102
RTVSPost2010Prop57
140
1.0
102
RTVSPost2010PropOp57
 70
     0
102
RTVSPropertyOp0
 70
     0
102
RTVSPropertyOp1
 70
     0
102
RTVSPropertyOp2
 70
     0
102
RTVSPropertyOp3
 70
     0
102
RTVSPropertyOp4
 70
     0
102
RTVSPropertyOp5
 70
     0
102
RTVSPropertyOp6
 70
     0
102
RTVSPropertyOp7
 70
     0
102
RTVSPropertyOp8
 70
     0
102
RTVSPropertyOp9
 70
     0
102
RTVSPropertyOp10
 70
     0
102
RTVSPropertyOp11
 70
     0
102
RTVSPropertyOp12
 70
     0
102
RTVSPropertyOp13
 70
     0
102
RTVSPropertyOp14
 70
     2
102
RTVSPropertyOp15
 70
     0
102
RTVSPropertyOp16
 70
     0
102
RTVSPropertyOp17
 70
     0
102
RTVSPropertyOp18
 70
     0
102
RTVSPropertyOp19
 70
     0
102
RTVSPropertyOp20
 70
     0
102
RTVSPropertyOp21
 70
     0
102
RTVSPropertyOp22
 70
     0
102
RTVSPropertyOp23
 70
     0
102
RTVSPropertyOp24
 70
     0
102
RTVSPropertyOp25
 70
     0
102
RTVSPropertyOp26
 70
     0
102
RTVSPropertyOp27
 70
     0
102
RTVSPropertyOp28
 70
     0
102
RTVSPropertyOp29
 70
     0
102
RTVSPropertyOp30
 70
     0
102
RTVSPropertyOp31
 70
     0
102
RTVSPropertyOp32
 70
     0
102
RTVSPropertyOp33
 70
     0
102
RTVSPropertyOp34
 70
     0
102
RTVSPropertyOp35
 70
     0
102
RTVSPropertyOp36
 70
     0
102
RTVSPropertyOp37
 70
     0
102
RTVSPropertyOp38
 70
     0
102
RTVSPropertyOp39
 70
     0
102
RTVSPropertyOp40
 70
     0
102
RTVSPropertyOp41
 70
     0
102
RTVSPropertyOp42
 70
     0
102
RTVSPropertyOp43
 70
     0
102
RTVSPropertyOp44
 70
     0
102
RTVSPropertyOp45
 70
     0
102
RTVSPropertyOp46
 70
     0
102
RTVSPropertyOp47
 70
     0
102
RTVSPropertyOp48
 70
     0
102
RTVSPropertyOp49
 70
     0
102
RTVSPropertyOp50
 70
     0
102
RTVSPropertyOp51
 70
     0
102
RTVSPropertyOp52
 70
     0
102
RTVSPropertyOp53
 70
     0
102
RTVSPropertyOp54
 70
     0
102
RTVSPropertyOp55
 70
     0
102
RTVSPropertyOp56
 70
     0
102
RTVSPropertyOp57
 70
     0
102
RTVSPropertyOp58
 70
     0
102
RTVSPropertyOp59
 70
     0
102
RTVSPropertyOp60
 70
     0
102
RTVSPropertyOp61
 70
     0
102
RTVSPropertyOp62
 70
     0
  0
XRECORD
  5
4E2
102
{ACAD_REACTORS
330
4E1
102
}
330
4E1
100
AcDbXrecord
280
     1
102
RTVSPost2010Prop28
280
     0
102
RTVSPost2010PropOp28
 70
     1
102
RTVSPost2010Prop29
280
     1
102
RTVSPost2010PropOp29
 70
     1
102
RTVSPost2010Prop30
280
     1
102
RTVSPost2010PropOp30
 70
     1
102
RTVSPost2010Prop31
280
     0
102
RTVSPost2010PropOp31
 70
     1
102
RTVSPost2010Prop32
280
     0
102
RTVSPost2010PropOp32
 70
     1
102
RTVSPost2010Prop33
280
     0
102
RTVSPost2010PropOp33
 70
     1
102
RTVSPost2010Prop34
280
     0
102
RTVSPost2010PropOp34
 70
     1
102
RTVSPost2010Prop35
280
     0
102
RTVSPost2010PropOp35
 70
     1
102
RTVSPost2010Prop36
280
     0
102
RTVSPost2010PropOp36
 70
     1
102
RTVSPost2010Prop37
 90
       50
102
RTVSPost2010PropOp37
 70
     1
102
RTVSPost2010Prop38
140
0.0
102
RTVSPost2010PropOp38
 70
     1
102
RTVSPost2010Prop39
140
1.0
102
RTVSPost2010PropOp39
 70
     1
102
RTVSPost2010Prop40
 90
        0
102
RTVSPost2010PropOp40
 70
     1
102
RTVSPost2010Prop41ColorIndex
 90
       18
102
RTVSPost2010Prop41ColorRGB
 90
        0
102
RTVSPost2010PropOp41
 70
     1
102
RTVSPost2010Prop42
 90
       50
102
RTVSPost2010PropOp42
 70
     1
102
RTVSPost2010Prop43
 90
        3
102
RTVSPost2010PropOp43
 70
     1
102
RTVSPost2010Prop44ColorIndex
 90
        5
102
RTVSPost2010Prop44ColorRGB
 90
      255
102
RTVSPost2010PropOp44
 70
     1
102
RTVSPost2010Prop45
280
     0
102
RTVSPost2010PropOp45
 70
     1
102
RTVSPost2010Prop46
 90
       50
102
RTVSPost2010PropOp46
 70
     1
102
RTVSPost2010Prop47
 90
       50
102
RTVSPost2010PropOp47
 70
     1
102
RTVSPost2010Prop48
 90
       50
102
RTVSPost2010PropOp48
 70
     1
102
RTVSPost2010Prop49
280
     0
102
RTVSPost2010PropOp49
 70
     1
102
RTVSPost2010Prop50
 90
       50
102
RTVSPost2010PropOp50
 70
     1
102
RTVSPost2010Prop51ColorIndex
 90
      256
102
RTVSPost2010Prop51ColorRGB
 90
-16777216
102
RTVSPost2010PropOp51
 70
     0
102
RTVSPost2010Prop52
140
1.0
102
RTVSPost2010PropOp52
 70
     0
102
RTVSPost2010Prop53
 90
        2
102
RTVSPost2010PropOp53
 70
     1
102
RTVSPost2010Prop54
  1
strokes_ogs.tif
102
RTVSPost2010PropOp54
 70
     1
102
RTVSPost2010Prop55
280
     0
102
RTVSPost2010PropOp55
 70
     1
102
RTVSPost2010Prop56
140
1.0
102
RTVSPost2010PropOp56
 70
     1
102
RTVSPost2010Prop57
140
1.0
102
RTVSPost2010PropOp57
 70
     1
102
RTVSPropertyOp0
 70
     1
102
RTVSPropertyOp1
 70
     1
102
RTVSPropertyOp2
 70
     1
102
RTVSPropertyOp3
 70
     1
102
RTVSPropertyOp4
 70
     1
102
RTVSPropertyOp5
 70
     1
102
RTVSPropertyOp6
 70
     1
102
RTVSPropertyOp7
 70
     1
102
RTVSPropertyOp8
 70
     1
102
RTVSPropertyOp9
 70
     1
102
RTVSPropertyOp10
 70
     1
102
RTVSPropertyOp11
 70
     1
102
RTVSPropertyOp12
 70
     1
102
RTVSPropertyOp13
 70
     1
102
RTVSPropertyOp14
 70
     1
102
RTVSPropertyOp15
 70
     1
102
RTVSPropertyOp16
 70
     1
102
RTVSPropertyOp17
 70
     1
102
RTVSPropertyOp18
 70
     1
102
RTVSPropertyOp19
 70
     1
102
RTVSPropertyOp20
 70
     1
102
RTVSPropertyOp21
 70
     1
102
RTVSPropertyOp22
 70
     1
102
RTVSPropertyOp23
 70
     1
102
RTVSPropertyOp24
 70
     1
102
RTVSPropertyOp25
 70
     1
102
RTVSPropertyOp26
 70
     1
102
RTVSPropertyOp27
 70
     1
102
RTVSPropertyOp28
 70
     1
102
RTVSPropertyOp29
 70
     1
102
RTVSPropertyOp30
 70
     1
102
RTVSPropertyOp31
 70
     1
102
RTVSPropertyOp32
 70
     1
102
RTVSPropertyOp33
 70
     1
102
RTVSPropertyOp34
 70
     1
102
RTVSPropertyOp35
 70
     1
102
RTVSPropertyOp36
 70
     1
102
RTVSPropertyOp37
 70
     1
102
RTVSPropertyOp38
 70
     1
102
RTVSPropertyOp39
 70
     1
102
RTVSPropertyOp40
 70
     1
102
RTVSPropertyOp41
 70
     1
102
RTVSPropertyOp42
 70
     1
102
RTVSPropertyOp43
 70
     1
102
RTVSPropertyOp44
 70
     1
102
RTVSPropertyOp45
 70
     1
102
RTVSPropertyOp46
 70
     1
102
RTVSPropertyOp47
 70
     1
102
RTVSPropertyOp48
 70
     1
102
RTVSPropertyOp49
 70
     1
102
RTVSPropertyOp50
 70
     1
102
RTVSPropertyOp51
 70
     0
102
RTVSPropertyOp52
 70
     0
102
RTVSPropertyOp53
 70
     1
102
RTVSPropertyOp54
 70
     1
102
RTVSPropertyOp55
 70
     1
102
RTVSPropertyOp56
 70
     1
102
RTVSPropertyOp57
 70
     1
102
RTVSPropertyOp58
 70
     1
102
RTVSPropertyOp59
 70
     1
102
RTVSPropertyOp60
 70
     1
102
RTVSPropertyOp61
 70
     1
102
RTVSPropertyOp62
 70
     1
  0
XRECORD
  5
4F8
102
{ACAD_REACTORS
330
4F7
102
}
330
4F7
100
AcDbXrecord
280
     1
102
RTVSPost2010Prop28
280
     0
102
RTVSPost2010PropOp28
 70
     1
102
RTVSPost2010Prop29
280
     1
102
RTVSPost2010PropOp29
 70
     1
102
RTVSPost2010Prop30
280
     1
102
RTVSPost2010PropOp30
 70
     1
102
RTVSPost2010Prop31
280
     0
102
RTVSPost2010PropOp31
 70
     1
102
RTVSPost2010Prop32
280
     0
102
RTVSPost2010PropOp32
 70
     1
102
RTVSPost2010Prop33
280
     0
102
RTVSPost2010PropOp33
 70
     1
102
RTVSPost2010Prop34
280
     0
102
RTVSPost2010PropOp34
 70
     1
102
RTVSPost2010Prop35
280
     0
102
RTVSPost2010PropOp35
 70
     1
102
RTVSPost2010Prop36
280
     0
102
RTVSPost2010PropOp36
 70
     1
102
RTVSPost2010Prop37
 90
       50
102
RTVSPost2010PropOp37
 70
     1
102
RTVSPost2010Prop38
140
0.0
102
RTVSPost2010PropOp38
 70
     1
102
RTVSPost2010Prop39
140
1.0
102
RTVSPost2010PropOp39
 70
     1
102
RTVSPost2010Prop40
 90
        0
102
RTVSPost2010PropOp40
 70
     1
102
RTVSPost2010Prop41ColorIndex
 90
       18
102
RTVSPost2010Prop41ColorRGB
 90
        0
102
RTVSPost2010PropOp41
 70
     1
102
RTVSPost2010Prop42
 90
       50
102
RTVSPost2010PropOp42
 70
     1
102
RTVSPost2010Prop43
 90
        3
102
RTVSPost2010PropOp43
 70
     1
102
RTVSPost2010Prop44ColorIndex
 90
        5
102
RTVSPost2010Prop44ColorRGB
 90
      255
102
RTVSPost2010PropOp44
 70
     1
102
RTVSPost2010Prop45
280
     0
102
RTVSPost2010PropOp45
 70
     1
102
RTVSPost2010Prop46
 90
       50
102
RTVSPost2010PropOp46
 70
     1
102
RTVSPost2010Prop47
 90
       50
102
RTVSPost2010PropOp47
 70
     1
102
RTVSPost2010Prop48
 90
       50
102
RTVSPost2010PropOp48
 70
     1
102
RTVSPost2010Prop49
280
     0
102
RTVSPost2010PropOp49
 70
     1
102
RTVSPost2010Prop50
 90
       50
102
RTVSPost2010PropOp50
 70
     1
102
RTVSPost2010Prop51ColorIndex
 90
      256
102
RTVSPost2010Prop51ColorRGB
 90
-16777216
102
RTVSPost2010PropOp51
 70
     0
102
RTVSPost2010Prop52
140
1.0
102
RTVSPost2010PropOp52
 70
     0
102
RTVSPost2010Prop53
 90
        2
102
RTVSPost2010PropOp53
 70
     1
102
RTVSPost2010Prop54
  1
strokes_ogs.tif
102
RTVSPost2010PropOp54
 70
     1
102
RTVSPost2010Prop55
280
     0
102
RTVSPost2010PropOp55
 70
     1
102
RTVSPost2010Prop56
140
1.0
102
RTVSPost2010PropOp56
 70
     1
102
RTVSPost2010Prop57
140
1.0
102
RTVSPost2010PropOp57
 70
     1
102
RTVSPropertyOp0
 70
     1
102
RTVSPropertyOp1
 70
     1
102
RTVSPropertyOp2
 70
     1
102
RTVSPropertyOp3
 70
     1
102
RTVSPropertyOp4
 70
     1
102
RTVSPropertyOp5
 70
     1
102
RTVSPropertyOp6
 70
     1
102
RTVSPropertyOp7
 70
     1
102
RTVSPropertyOp8
 70
     1
102
RTVSPropertyOp9
 70
     1
102
RTVSPropertyOp10
 70
     1
102
RTVSPropertyOp11
 70
     1
102
RTVSPropertyOp12
 70
     1
102
RTVSPropertyOp13
 70
     1
102
RTVSPropertyOp14
 70
     1
102
RTVSPropertyOp15
 70
     1
102
RTVSPropertyOp16
 70
     1
102
RTVSPropertyOp17
 70
     1
102
RTVSPropertyOp18
 70
     1
102
RTVSPropertyOp19
 70
     1
102
RTVSPropertyOp20
 70
     1
102
RTVSPropertyOp21
 70
     1
102
RTVSPropertyOp22
 70
     1
102
RTVSPropertyOp23
 70
     1
102
RTVSPropertyOp24
 70
     1
102
RTVSPropertyOp25
 70
     1
102
RTVSPropertyOp26
 70
     1
102
RTVSPropertyOp27
 70
     1
102
RTVSPropertyOp28
 70
     1
102
RTVSPropertyOp29
 70
     1
102
RTVSPropertyOp30
 70
     1
102
RTVSPropertyOp31
 70
     1
102
RTVSPropertyOp32
 70
     1
102
RTVSPropertyOp33
 70
     1
102
RTVSPropertyOp34
 70
     1
102
RTVSPropertyOp35
 70
     1
102
RTVSPropertyOp36
 70
     1
102
RTVSPropertyOp37
 70
     1
102
RTVSPropertyOp38
 70
     1
102
RTVSPropertyOp39
 70
     1
102
RTVSPropertyOp40
 70
     1
102
RTVSPropertyOp41
 70
     1
102
RTVSPropertyOp42
 70
     1
102
RTVSPropertyOp43
 70
     1
102
RTVSPropertyOp44
 70
     1
102
RTVSPropertyOp45
 70
     1
102
RTVSPropertyOp46
 70
     1
102
RTVSPropertyOp47
 70
     1
102
RTVSPropertyOp48
 70
     1
102
RTVSPropertyOp49
 70
     1
102
RTVSPropertyOp50
 70
     1
102
RTVSPropertyOp51
 70
     0
102
RTVSPropertyOp52
 70
     0
102
RTVSPropertyOp53
 70
     1
102
RTVSPropertyOp54
 70
     1
102
RTVSPropertyOp55
 70
     1
102
RTVSPropertyOp56
 70
     1
102
RTVSPropertyOp57
 70
     1
102
RTVSPropertyOp58
 70
     1
102
RTVSPropertyOp59
 70
     1
102
RTVSPropertyOp60
 70
     1
102
RTVSPropertyOp61
 70
     1
102
RTVSPropertyOp62
 70
     1
  0
XRECORD
  5
4F6
102
{ACAD_REACTORS
330
4F5
102
}
330
4F5
100
AcDbXrecord
280
     1
102
RTVSPost2010Prop28
280
     0
102
RTVSPost2010PropOp28
 70
     1
102
RTVSPost2010Prop29
280
     1
102
RTVSPost2010PropOp29
 70
     1
102
RTVSPost2010Prop30
280
     1
102
RTVSPost2010PropOp30
 70
     1
102
RTVSPost2010Prop31
280
     0
102
RTVSPost2010PropOp31
 70
     1
102
RTVSPost2010Prop32
280
     0
102
RTVSPost2010PropOp32
 70
     1
102
RTVSPost2010Prop33
280
     0
102
RTVSPost2010PropOp33
 70
     1
102
RTVSPost2010Prop34
280
     0
102
RTVSPost2010PropOp34
 70
     1
102
RTVSPost2010Prop35
280
     0
102
RTVSPost2010PropOp35
 70
     1
102
RTVSPost2010Prop36
280
     0
102
RTVSPost2010PropOp36
 70
     1
102
RTVSPost2010Prop37
 90
       50
102
RTVSPost2010PropOp37
 70
     1
102
RTVSPost2010Prop38
140
0.0
102
RTVSPost2010PropOp38
 70
     1
102
RTVSPost2010Prop39
140
1.0
102
RTVSPost2010PropOp39
 70
     1
102
RTVSPost2010Prop40
 90
        0
102
RTVSPost2010PropOp40
 70
     1
102
RTVSPost2010Prop41ColorIndex
 90
       18
102
RTVSPost2010Prop41ColorRGB
 90
        0
102
RTVSPost2010PropOp41
 70
     1
102
RTVSPost2010Prop42
 90
       50
102
RTVSPost2010PropOp42
 70
     1
102
RTVSPost2010Prop43
 90
        3
102
RTVSPost2010PropOp43
 70
     1
102
RTVSPost2010Prop44ColorIndex
 90
        5
102
RTVSPost2010Prop44ColorRGB
 90
      255
102
RTVSPost2010PropOp44
 70
     1
102
RTVSPost2010Prop45
280
     0
102
RTVSPost2010PropOp45
 70
     1
102
RTVSPost2010Prop46
 90
       50
102
RTVSPost2010PropOp46
 70
     1
102
RTVSPost2010Prop47
 90
       50
102
RTVSPost2010PropOp47
 70
     1
102
RTVSPost2010Prop48
 90
       50
102
RTVSPost2010PropOp48
 70
     1
102
RTVSPost2010Prop49
280
     0
102
RTVSPost2010PropOp49
 70
     1
102
RTVSPost2010Prop50
 90
       50
102
RTVSPost2010PropOp50
 70
     1
102
RTVSPost2010Prop51ColorIndex
 90
      256
102
RTVSPost2010Prop51ColorRGB
 90
-16777216
102
RTVSPost2010PropOp51
 70
     0
102
RTVSPost2010Prop52
140
1.0
102
RTVSPost2010PropOp52
 70
     0
102
RTVSPost2010Prop53
 90
        2
102
RTVSPost2010PropOp53
 70
     1
102
RTVSPost2010Prop54
  1
strokes_ogs.tif
102
RTVSPost2010PropOp54
 70
     1
102
RTVSPost2010Prop55
280
     0
102
RTVSPost2010PropOp55
 70
     1
102
RTVSPost2010Prop56
140
1.0
102
RTVSPost2010PropOp56
 70
     1
102
RTVSPost2010Prop57
140
1.0
102
RTVSPost2010PropOp57
 70
     1
102
RTVSPropertyOp0
 70
     1
102
RTVSPropertyOp1
 70
     1
102
RTVSPropertyOp2
 70
     1
102
RTVSPropertyOp3
 70
     1
102
RTVSPropertyOp4
 70
     1
102
RTVSPropertyOp5
 70
     1
102
RTVSPropertyOp6
 70
     1
102
RTVSPropertyOp7
 70
     1
102
RTVSPropertyOp8
 70
     1
102
RTVSPropertyOp9
 70
     1
102
RTVSPropertyOp10
 70
     1
102
RTVSPropertyOp11
 70
     1
102
RTVSPropertyOp12
 70
     1
102
RTVSPropertyOp13
 70
     1
102
RTVSPropertyOp14
 70
     1
102
RTVSPropertyOp15
 70
     1
102
RTVSPropertyOp16
 70
     1
102
RTVSPropertyOp17
 70
     1
102
RTVSPropertyOp18
 70
     1
102
RTVSPropertyOp19
 70
     1
102
RTVSPropertyOp20
 70
     1
102
RTVSPropertyOp21
 70
     1
102
RTVSPropertyOp22
 70
     1
102
RTVSPropertyOp23
 70
     1
102
RTVSPropertyOp24
 70
     1
102
RTVSPropertyOp25
 70
     1
102
RTVSPropertyOp26
 70
     1
102
RTVSPropertyOp27
 70
     1
102
RTVSPropertyOp28
 70
     1
102
RTVSPropertyOp29
 70
     1
102
RTVSPropertyOp30
 70
     1
102
RTVSPropertyOp31
 70
     1
102
RTVSPropertyOp32
 70
     1
102
RTVSPropertyOp33
 70
     1
102
RTVSPropertyOp34
 70
     1
102
RTVSPropertyOp35
 70
     1
102
RTVSPropertyOp36
 70
     1
102
RTVSPropertyOp37
 70
     1
102
RTVSPropertyOp38
 70
     1
102
RTVSPropertyOp39
 70
     1
102
RTVSPropertyOp40
 70
     1
102
RTVSPropertyOp41
 70
     1
102
RTVSPropertyOp42
 70
     1
102
RTVSPropertyOp43
 70
     1
102
RTVSPropertyOp44
 70
     1
102
RTVSPropertyOp45
 70
     1
102
RTVSPropertyOp46
 70
     1
102
RTVSPropertyOp47
 70
     1
102
RTVSPropertyOp48
 70
     1
102
RTVSPropertyOp49
 70
     1
102
RTVSPropertyOp50
 70
     1
102
RTVSPropertyOp51
 70
     0
102
RTVSPropertyOp52
 70
     0
102
RTVSPropertyOp53
 70
     1
102
RTVSPropertyOp54
 70
     1
102
RTVSPropertyOp55
 70
     1
102
RTVSPropertyOp56
 70
     1
102
RTVSPropertyOp57
 70
     1
102
RTVSPropertyOp58
 70
     1
102
RTVSPropertyOp59
 70
     1
102
RTVSPropertyOp60
 70
     1
102
RTVSPropertyOp61
 70
     1
102
RTVSPropertyOp62
 70
     1
  0
XRECORD
  5
4F0
102
{ACAD_REACTORS
330
4EF
102
}
330
4EF
100
AcDbXrecord
280
     1
102
RTVSPost2010Prop28
280
     0
102
RTVSPost2010PropOp28
 70
     1
102
RTVSPost2010Prop29
280
     1
102
RTVSPost2010PropOp29
 70
     1
102
RTVSPost2010Prop30
280
     1
102
RTVSPost2010PropOp30
 70
     1
102
RTVSPost2010Prop31
280
     0
102
RTVSPost2010PropOp31
 70
     1
102
RTVSPost2010Prop32
280
     0
102
RTVSPost2010PropOp32
 70
     1
102
RTVSPost2010Prop33
280
     0
102
RTVSPost2010PropOp33
 70
     1
102
RTVSPost2010Prop34
280
     0
102
RTVSPost2010PropOp34
 70
     1
102
RTVSPost2010Prop35
280
     0
102
RTVSPost2010PropOp35
 70
     1
102
RTVSPost2010Prop36
280
     0
102
RTVSPost2010PropOp36
 70
     1
102
RTVSPost2010Prop37
 90
       50
102
RTVSPost2010PropOp37
 70
     1
102
RTVSPost2010Prop38
140
0.0
102
RTVSPost2010PropOp38
 70
     1
102
RTVSPost2010Prop39
140
1.0
102
RTVSPost2010PropOp39
 70
     1
102
RTVSPost2010Prop40
 90
        0
102
RTVSPost2010PropOp40
 70
     1
102
RTVSPost2010Prop41ColorIndex
 90
       18
102
RTVSPost2010Prop41ColorRGB
 90
        0
102
RTVSPost2010PropOp41
 70
     1
102
RTVSPost2010Prop42
 90
       50
102
RTVSPost2010PropOp42
 70
     1
102
RTVSPost2010Prop43
 90
        3
102
RTVSPost2010PropOp43
 70
     1
102
RTVSPost2010Prop44ColorIndex
 90
        5
102
RTVSPost2010Prop44ColorRGB
 90
      255
102
RTVSPost2010PropOp44
 70
     1
102
RTVSPost2010Prop45
280
     0
102
RTVSPost2010PropOp45
 70
     1
102
RTVSPost2010Prop46
 90
       50
102
RTVSPost2010PropOp46
 70
     1
102
RTVSPost2010Prop47
 90
       50
102
RTVSPost2010PropOp47
 70
     1
102
RTVSPost2010Prop48
 90
       50
102
RTVSPost2010PropOp48
 70
     1
102
RTVSPost2010Prop49
280
     0
102
RTVSPost2010PropOp49
 70
     1
102
RTVSPost2010Prop50
 90
       50
102
RTVSPost2010PropOp50
 70
     1
102
RTVSPost2010Prop51ColorIndex
 90
      256
102
RTVSPost2010Prop51ColorRGB
 90
-16777216
102
RTVSPost2010PropOp51
 70
     0
102
RTVSPost2010Prop52
140
1.0
102
RTVSPost2010PropOp52
 70
     0
102
RTVSPost2010Prop53
 90
        2
102
RTVSPost2010PropOp53
 70
     1
102
RTVSPost2010Prop54
  1
strokes_ogs.tif
102
RTVSPost2010PropOp54
 70
     1
102
RTVSPost2010Prop55
280
     0
102
RTVSPost2010PropOp55
 70
     1
102
RTVSPost2010Prop56
140
1.0
102
RTVSPost2010PropOp56
 70
     1
102
RTVSPost2010Prop57
140
1.0
102
RTVSPost2010PropOp57
 70
     1
102
RTVSPropertyOp0
 70
     1
102
RTVSPropertyOp1
 70
     1
102
RTVSPropertyOp2
 70
     1
102
RTVSPropertyOp3
 70
     1
102
RTVSPropertyOp4
 70
     1
102
RTVSPropertyOp5
 70
     1
102
RTVSPropertyOp6
 70
     1
102
RTVSPropertyOp7
 70
     1
102
RTVSPropertyOp8
 70
     1
102
RTVSPropertyOp9
 70
     1
102
RTVSPropertyOp10
 70
     1
102
RTVSPropertyOp11
 70
     1
102
RTVSPropertyOp12
 70
     1
102
RTVSPropertyOp13
 70
     1
102
RTVSPropertyOp14
 70
     1
102
RTVSPropertyOp15
 70
     1
102
RTVSPropertyOp16
 70
     1
102
RTVSPropertyOp17
 70
     1
102
RTVSPropertyOp18
 70
     1
102
RTVSPropertyOp19
 70
     1
102
RTVSPropertyOp20
 70
     1
102
RTVSPropertyOp21
 70
     1
102
RTVSPropertyOp22
 70
     1
102
RTVSPropertyOp23
 70
     1
102
RTVSPropertyOp24
 70
     1
102
RTVSPropertyOp25
 70
     1
102
RTVSPropertyOp26
 70
     1
102
RTVSPropertyOp27
 70
     1
102
RTVSPropertyOp28
 70
     1
102
RTVSPropertyOp29
 70
     1
102
RTVSPropertyOp30
 70
     1
102
RTVSPropertyOp31
 70
     1
102
RTVSPropertyOp32
 70
     1
102
RTVSPropertyOp33
 70
     1
102
RTVSPropertyOp34
 70
     1
102
RTVSPropertyOp35
 70
     1
102
RTVSPropertyOp36
 70
     1
102
RTVSPropertyOp37
 70
     1
102
RTVSPropertyOp38
 70
     1
102
RTVSPropertyOp39
 70
     1
102
RTVSPropertyOp40
 70
     1
102
RTVSPropertyOp41
 70
     1
102
RTVSPropertyOp42
 70
     1
102
RTVSPropertyOp43
 70
     1
102
RTVSPropertyOp44
 70
     1
102
RTVSPropertyOp45
 70
     1
102
RTVSPropertyOp46
 70
     1
102
RTVSPropertyOp47
 70
     1
102
RTVSPropertyOp48
 70
     1
102
RTVSPropertyOp49
 70
     1
102
RTVSPropertyOp50
 70
     1
102
RTVSPropertyOp51
 70
     0
102
RTVSPropertyOp52
 70
     0
102
RTVSPropertyOp53
 70
     1
102
RTVSPropertyOp54
 70
     1
102
RTVSPropertyOp55
 70
     1
102
RTVSPropertyOp56
 70
     1
102
RTVSPropertyOp57
 70
     1
102
RTVSPropertyOp58
 70
     1
102
RTVSPropertyOp59
 70
     1
102
RTVSPropertyOp60
 70
     1
102
RTVSPropertyOp61
 70
     1
102
RTVSPropertyOp62
 70
     1
  0
XRECORD
  5
4F2
102
{ACAD_REACTORS
330
4F1
102
}
330
4F1
100
AcDbXrecord
280
     1
102
RTVSPost2010Prop28
280
     0
102
RTVSPost2010PropOp28
 70
     1
102
RTVSPost2010Prop29
280
     1
102
RTVSPost2010PropOp29
 70
     1
102
RTVSPost2010Prop30
280
     1
102
RTVSPost2010PropOp30
 70
     1
102
RTVSPost2010Prop31
280
     0
102
RTVSPost2010PropOp31
 70
     1
102
RTVSPost2010Prop32
280
     0
102
RTVSPost2010PropOp32
 70
     1
102
RTVSPost2010Prop33
280
     0
102
RTVSPost2010PropOp33
 70
     1
102
RTVSPost2010Prop34
280
     0
102
RTVSPost2010PropOp34
 70
     1
102
RTVSPost2010Prop35
280
     0
102
RTVSPost2010PropOp35
 70
     1
102
RTVSPost2010Prop36
280
     0
102
RTVSPost2010PropOp36
 70
     1
102
RTVSPost2010Prop37
 90
       50
102
RTVSPost2010PropOp37
 70
     1
102
RTVSPost2010Prop38
140
0.0
102
RTVSPost2010PropOp38
 70
     1
102
RTVSPost2010Prop39
140
1.0
102
RTVSPost2010PropOp39
 70
     1
102
RTVSPost2010Prop40
 90
        0
102
RTVSPost2010PropOp40
 70
     1
102
RTVSPost2010Prop41ColorIndex
 90
       18
102
RTVSPost2010Prop41ColorRGB
 90
        0
102
RTVSPost2010PropOp41
 70
     1
102
RTVSPost2010Prop42
 90
       50
102
RTVSPost2010PropOp42
 70
     1
102
RTVSPost2010Prop43
 90
        3
102
RTVSPost2010PropOp43
 70
     1
102
RTVSPost2010Prop44ColorIndex
 90
        5
102
RTVSPost2010Prop44ColorRGB
 90
      255
102
RTVSPost2010PropOp44
 70
     1
102
RTVSPost2010Prop45
280
     0
102
RTVSPost2010PropOp45
 70
     1
102
RTVSPost2010Prop46
 90
       50
102
RTVSPost2010PropOp46
 70
     1
102
RTVSPost2010Prop47
 90
       50
102
RTVSPost2010PropOp47
 70
     1
102
RTVSPost2010Prop48
 90
       50
102
RTVSPost2010PropOp48
 70
     1
102
RTVSPost2010Prop49
280
     0
102
RTVSPost2010PropOp49
 70
     1
102
RTVSPost2010Prop50
 90
       50
102
RTVSPost2010PropOp50
 70
     1
102
RTVSPost2010Prop51ColorIndex
 90
      256
102
RTVSPost2010Prop51ColorRGB
 90
-16777216
102
RTVSPost2010PropOp51
 70
     0
102
RTVSPost2010Prop52
140
1.0
102
RTVSPost2010PropOp52
 70
     0
102
RTVSPost2010Prop53
 90
        2
102
RTVSPost2010PropOp53
 70
     1
102
RTVSPost2010Prop54
  1
strokes_ogs.tif
102
RTVSPost2010PropOp54
 70
     1
102
RTVSPost2010Prop55
280
     0
102
RTVSPost2010PropOp55
 70
     1
102
RTVSPost2010Prop56
140
1.0
102
RTVSPost2010PropOp56
 70
     1
102
RTVSPost2010Prop57
140
1.0
102
RTVSPost2010PropOp57
 70
     1
102
RTVSPropertyOp0
 70
     1
102
RTVSPropertyOp1
 70
     1
102
RTVSPropertyOp2
 70
     1
102
RTVSPropertyOp3
 70
     1
102
RTVSPropertyOp4
 70
     1
102
RTVSPropertyOp5
 70
     1
102
RTVSPropertyOp6
 70
     1
102
RTVSPropertyOp7
 70
     1
102
RTVSPropertyOp8
 70
     1
102
RTVSPropertyOp9
 70
     1
102
RTVSPropertyOp10
 70
     1
102
RTVSPropertyOp11
 70
     1
102
RTVSPropertyOp12
 70
     1
102
RTVSPropertyOp13
 70
     1
102
RTVSPropertyOp14
 70
     1
102
RTVSPropertyOp15
 70
     1
102
RTVSPropertyOp16
 70
     1
102
RTVSPropertyOp17
 70
     1
102
RTVSPropertyOp18
 70
     1
102
RTVSPropertyOp19
 70
     1
102
RTVSPropertyOp20
 70
     1
102
RTVSPropertyOp21
 70
     1
102
RTVSPropertyOp22
 70
     1
102
RTVSPropertyOp23
 70
     1
102
RTVSPropertyOp24
 70
     1
102
RTVSPropertyOp25
 70
     1
102
RTVSPropertyOp26
 70
     1
102
RTVSPropertyOp27
 70
     1
102
RTVSPropertyOp28
 70
     1
102
RTVSPropertyOp29
 70
     1
102
RTVSPropertyOp30
 70
     1
102
RTVSPropertyOp31
 70
     1
102
RTVSPropertyOp32
 70
     1
102
RTVSPropertyOp33
 70
     1
102
RTVSPropertyOp34
 70
     1
102
RTVSPropertyOp35
 70
     1
102
RTVSPropertyOp36
 70
     1
102
RTVSPropertyOp37
 70
     1
102
RTVSPropertyOp38
 70
     1
102
RTVSPropertyOp39
 70
     1
102
RTVSPropertyOp40
 70
     1
102
RTVSPropertyOp41
 70
     1
102
RTVSPropertyOp42
 70
     1
102
RTVSPropertyOp43
 70
     1
102
RTVSPropertyOp44
 70
     1
102
RTVSPropertyOp45
 70
     1
102
RTVSPropertyOp46
 70
     1
102
RTVSPropertyOp47
 70
     1
102
RTVSPropertyOp48
 70
     1
102
RTVSPropertyOp49
 70
     1
102
RTVSPropertyOp50
 70
     1
102
RTVSPropertyOp51
 70
     0
102
RTVSPropertyOp52
 70
     0
102
RTVSPropertyOp53
 70
     1
102
RTVSPropertyOp54
 70
     1
102
RTVSPropertyOp55
 70
     1
102
RTVSPropertyOp56
 70
     1
102
RTVSPropertyOp57
 70
     1
102
RTVSPropertyOp58
 70
     1
102
RTVSPropertyOp59
 70
     1
102
RTVSPropertyOp60
 70
     1
102
RTVSPropertyOp61
 70
     1
102
RTVSPropertyOp62
 70
     1
  0
XRECORD
  5
4E8
102
{ACAD_REACTORS
330
4E7
102
}
330
4E7
100
AcDbXrecord
280
     1
102
RTVSPost2010Prop28
280
     0
102
RTVSPost2010PropOp28
 70
     1
102
RTVSPost2010Prop29
280
     1
102
RTVSPost2010PropOp29
 70
     1
102
RTVSPost2010Prop30
280
     1
102
RTVSPost2010PropOp30
 70
     1
102
RTVSPost2010Prop31
280
     0
102
RTVSPost2010PropOp31
 70
     1
102
RTVSPost2010Prop32
280
     0
102
RTVSPost2010PropOp32
 70
     1
102
RTVSPost2010Prop33
280
     0
102
RTVSPost2010PropOp33
 70
     1
102
RTVSPost2010Prop34
280
     0
102
RTVSPost2010PropOp34
 70
     1
102
RTVSPost2010Prop35
280
     0
102
RTVSPost2010PropOp35
 70
     1
102
RTVSPost2010Prop36
280
     0
102
RTVSPost2010PropOp36
 70
     1
102
RTVSPost2010Prop37
 90
       50
102
RTVSPost2010PropOp37
 70
     1
102
RTVSPost2010Prop38
140
0.0
102
RTVSPost2010PropOp38
 70
     1
102
RTVSPost2010Prop39
140
1.0
102
RTVSPost2010PropOp39
 70
     1
102
RTVSPost2010Prop40
 90
        0
102
RTVSPost2010PropOp40
 70
     1
102
RTVSPost2010Prop41ColorIndex
 90
       18
102
RTVSPost2010Prop41ColorRGB
 90
        0
102
RTVSPost2010PropOp41
 70
     1
102
RTVSPost2010Prop42
 90
       50
102
RTVSPost2010PropOp42
 70
     1
102
RTVSPost2010Prop43
 90
        3
102
RTVSPost2010PropOp43
 70
     1
102
RTVSPost2010Prop44ColorIndex
 90
        5
102
RTVSPost2010Prop44ColorRGB
 90
      255
102
RTVSPost2010PropOp44
 70
     1
102
RTVSPost2010Prop45
280
     0
102
RTVSPost2010PropOp45
 70
     1
102
RTVSPost2010Prop46
 90
       50
102
RTVSPost2010PropOp46
 70
     1
102
RTVSPost2010Prop47
 90
       50
102
RTVSPost2010PropOp47
 70
     1
102
RTVSPost2010Prop48
 90
       50
102
RTVSPost2010PropOp48
 70
     1
102
RTVSPost2010Prop49
280
     0
102
RTVSPost2010PropOp49
 70
     1
102
RTVSPost2010Prop50
 90
       50
102
RTVSPost2010PropOp50
 70
     1
102
RTVSPost2010Prop51ColorIndex
 90
      256
102
RTVSPost2010Prop51ColorRGB
 90
-16777216
102
RTVSPost2010PropOp51
 70
     0
102
RTVSPost2010Prop52
140
1.0
102
RTVSPost2010PropOp52
 70
     0
102
RTVSPost2010Prop53
 90
        2
102
RTVSPost2010PropOp53
 70
     1
102
RTVSPost2010Prop54
  1
strokes_ogs.tif
102
RTVSPost2010PropOp54
 70
     1
102
RTVSPost2010Prop55
280
     0
102
RTVSPost2010PropOp55
 70
     1
102
RTVSPost2010Prop56
140
1.0
102
RTVSPost2010PropOp56
 70
     1
102
RTVSPost2010Prop57
140
1.0
102
RTVSPost2010PropOp57
 70
     1
102
RTVSPropertyOp0
 70
     1
102
RTVSPropertyOp1
 70
     1
102
RTVSPropertyOp2
 70
     1
102
RTVSPropertyOp3
 70
     1
102
RTVSPropertyOp4
 70
     1
102
RTVSPropertyOp5
 70
     1
102
RTVSPropertyOp6
 70
     1
102
RTVSPropertyOp7
 70
     1
102
RTVSPropertyOp8
 70
     1
102
RTVSPropertyOp9
 70
     1
102
RTVSPropertyOp10
 70
     1
102
RTVSPropertyOp11
 70
     1
102
RTVSPropertyOp12
 70
     1
102
RTVSPropertyOp13
 70
     1
102
RTVSPropertyOp14
 70
     1
102
RTVSPropertyOp15
 70
     1
102
RTVSPropertyOp16
 70
     1
102
RTVSPropertyOp17
 70
     1
102
RTVSPropertyOp18
 70
     1
102
RTVSPropertyOp19
 70
     1
102
RTVSPropertyOp20
 70
     1
102
RTVSPropertyOp21
 70
     1
102
RTVSPropertyOp22
 70
     1
102
RTVSPropertyOp23
 70
     1
102
RTVSPropertyOp24
 70
     1
102
RTVSPropertyOp25
 70
     1
102
RTVSPropertyOp26
 70
     1
102
RTVSPropertyOp27
 70
     1
102
RTVSPropertyOp28
 70
     1
102
RTVSPropertyOp29
 70
     1
102
RTVSPropertyOp30
 70
     1
102
RTVSPropertyOp31
 70
     1
102
RTVSPropertyOp32
 70
     1
102
RTVSPropertyOp33
 70
     1
102
RTVSPropertyOp34
 70
     1
102
RTVSPropertyOp35
 70
     1
102
RTVSPropertyOp36
 70
     1
102
RTVSPropertyOp37
 70
     1
102
RTVSPropertyOp38
 70
     1
102
RTVSPropertyOp39
 70
     1
102
RTVSPropertyOp40
 70
     1
102
RTVSPropertyOp41
 70
     1
102
RTVSPropertyOp42
 70
     1
102
RTVSPropertyOp43
 70
     1
102
RTVSPropertyOp44
 70
     1
102
RTVSPropertyOp45
 70
     1
102
RTVSPropertyOp46
 70
     1
102
RTVSPropertyOp47
 70
     1
102
RTVSPropertyOp48
 70
     1
102
RTVSPropertyOp49
 70
     1
102
RTVSPropertyOp50
 70
     1
102
RTVSPropertyOp51
 70
     0
102
RTVSPropertyOp52
 70
     0
102
RTVSPropertyOp53
 70
     1
102
RTVSPropertyOp54
 70
     1
102
RTVSPropertyOp55
 70
     1
102
RTVSPropertyOp56
 70
     1
102
RTVSPropertyOp57
 70
     1
102
RTVSPropertyOp58
 70
     1
102
RTVSPropertyOp59
 70
     1
102
RTVSPropertyOp60
 70
     1
102
RTVSPropertyOp61
 70
     1
102
RTVSPropertyOp62
 70
     1
  0
XRECORD
  5
4DC
102
{ACAD_REACTORS
330
4DB
102
}
330
4DB
100
AcDbXrecord
280
     1
102
RTVSPost2010Prop28
280
     0
102
RTVSPost2010PropOp28
 70
     1
102
RTVSPost2010Prop29
280
     1
102
RTVSPost2010PropOp29
 70
     1
102
RTVSPost2010Prop30
280
     1
102
RTVSPost2010PropOp30
 70
     1
102
RTVSPost2010Prop31
280
     0
102
RTVSPost2010PropOp31
 70
     1
102
RTVSPost2010Prop32
280
     0
102
RTVSPost2010PropOp32
 70
     1
102
RTVSPost2010Prop33
280
     0
102
RTVSPost2010PropOp33
 70
     1
102
RTVSPost2010Prop34
280
     0
102
RTVSPost2010PropOp34
 70
     1
102
RTVSPost2010Prop35
280
     0
102
RTVSPost2010PropOp35
 70
     1
102
RTVSPost2010Prop36
280
     0
102
RTVSPost2010PropOp36
 70
     1
102
RTVSPost2010Prop37
 90
       50
102
RTVSPost2010PropOp37
 70
     1
102
RTVSPost2010Prop38
140
0.0
102
RTVSPost2010PropOp38
 70
     1
102
RTVSPost2010Prop39
140
1.0
102
RTVSPost2010PropOp39
 70
     1
102
RTVSPost2010Prop40
 90
        0
102
RTVSPost2010PropOp40
 70
     1
102
RTVSPost2010Prop41ColorIndex
 90
       18
102
RTVSPost2010Prop41ColorRGB
 90
        0
102
RTVSPost2010PropOp41
 70
     1
102
RTVSPost2010Prop42
 90
       50
102
RTVSPost2010PropOp42
 70
     1
102
RTVSPost2010Prop43
 90
        3
102
RTVSPost2010PropOp43
 70
     1
102
RTVSPost2010Prop44ColorIndex
 90
        5
102
RTVSPost2010Prop44ColorRGB
 90
      255
102
RTVSPost2010PropOp44
 70
     1
102
RTVSPost2010Prop45
280
     0
102
RTVSPost2010PropOp45
 70
     1
102
RTVSPost2010Prop46
 90
       50
102
RTVSPost2010PropOp46
 70
     1
102
RTVSPost2010Prop47
 90
       50
102
RTVSPost2010PropOp47
 70
     1
102
RTVSPost2010Prop48
 90
       50
102
RTVSPost2010PropOp48
 70
     1
102
RTVSPost2010Prop49
280
     0
102
RTVSPost2010PropOp49
 70
     1
102
RTVSPost2010Prop50
 90
       50
102
RTVSPost2010PropOp50
 70
     1
102
RTVSPost2010Prop51ColorIndex
 90
      256
102
RTVSPost2010Prop51ColorRGB
 90
-16777216
102
RTVSPost2010PropOp51
 70
     0
102
RTVSPost2010Prop52
140
1.0
102
RTVSPost2010PropOp52
 70
     0
102
RTVSPost2010Prop53
 90
        2
102
RTVSPost2010PropOp53
 70
     1
102
RTVSPost2010Prop54
  1
strokes_ogs.tif
102
RTVSPost2010PropOp54
 70
     1
102
RTVSPost2010Prop55
280
     0
102
RTVSPost2010PropOp55
 70
     1
102
RTVSPost2010Prop56
140
1.0
102
RTVSPost2010PropOp56
 70
     1
102
RTVSPost2010Prop57
140
1.0
102
RTVSPost2010PropOp57
 70
     1
102
RTVSPropertyOp0
 70
     1
102
RTVSPropertyOp1
 70
     1
102
RTVSPropertyOp2
 70
     1
102
RTVSPropertyOp3
 70
     1
102
RTVSPropertyOp4
 70
     1
102
RTVSPropertyOp5
 70
     1
102
RTVSPropertyOp6
 70
     1
102
RTVSPropertyOp7
 70
     1
102
RTVSPropertyOp8
 70
     1
102
RTVSPropertyOp9
 70
     1
102
RTVSPropertyOp10
 70
     1
102
RTVSPropertyOp11
 70
     1
102
RTVSPropertyOp12
 70
     1
102
RTVSPropertyOp13
 70
     1
102
RTVSPropertyOp14
 70
     1
102
RTVSPropertyOp15
 70
     1
102
RTVSPropertyOp16
 70
     1
102
RTVSPropertyOp17
 70
     1
102
RTVSPropertyOp18
 70
     1
102
RTVSPropertyOp19
 70
     1
102
RTVSPropertyOp20
 70
     1
102
RTVSPropertyOp21
 70
     1
102
RTVSPropertyOp22
 70
     1
102
RTVSPropertyOp23
 70
     1
102
RTVSPropertyOp24
 70
     1
102
RTVSPropertyOp25
 70
     1
102
RTVSPropertyOp26
 70
     1
102
RTVSPropertyOp27
 70
     1
102
RTVSPropertyOp28
 70
     1
102
RTVSPropertyOp29
 70
     1
102
RTVSPropertyOp30
 70
     1
102
RTVSPropertyOp31
 70
     1
102
RTVSPropertyOp32
 70
     1
102
RTVSPropertyOp33
 70
     1
102
RTVSPropertyOp34
 70
     1
102
RTVSPropertyOp35
 70
     1
102
RTVSPropertyOp36
 70
     1
102
RTVSPropertyOp37
 70
     1
102
RTVSPropertyOp38
 70
     1
102
RTVSPropertyOp39
 70
     1
102
RTVSPropertyOp40
 70
     1
102
RTVSPropertyOp41
 70
     1
102
RTVSPropertyOp42
 70
     1
102
RTVSPropertyOp43
 70
     1
102
RTVSPropertyOp44
 70
     1
102
RTVSPropertyOp45
 70
     1
102
RTVSPropertyOp46
 70
     1
102
RTVSPropertyOp47
 70
     1
102
RTVSPropertyOp48
 70
     1
102
RTVSPropertyOp49
 70
     1
102
RTVSPropertyOp50
 70
     1
102
RTVSPropertyOp51
 70
     0
102
RTVSPropertyOp52
 70
     0
102
RTVSPropertyOp53
 70
     1
102
RTVSPropertyOp54
 70
     1
102
RTVSPropertyOp55
 70
     1
102
RTVSPropertyOp56
 70
     1
102
RTVSPropertyOp57
 70
     1
102
RTVSPropertyOp58
 70
     1
102
RTVSPropertyOp59
 70
     1
102
RTVSPropertyOp60
 70
     1
102
RTVSPropertyOp61
 70
     1
102
RTVSPropertyOp62
 70
     1
  0
XRECORD
  5
4F4
102
{ACAD_REACTORS
330
4F3
102
}
330
4F3
100
AcDbXrecord
280
     1
102
RTVSPost2010Prop28
280
     0
102
RTVSPost2010PropOp28
 70
     1
102
RTVSPost2010Prop29
280
     1
102
RTVSPost2010PropOp29
 70
     1
102
RTVSPost2010Prop30
280
     1
102
RTVSPost2010PropOp30
 70
     1
102
RTVSPost2010Prop31
280
     0
102
RTVSPost2010PropOp31
 70
     1
102
RTVSPost2010Prop32
280
     0
102
RTVSPost2010PropOp32
 70
     1
102
RTVSPost2010Prop33
280
     0
102
RTVSPost2010PropOp33
 70
     1
102
RTVSPost2010Prop34
280
     0
102
RTVSPost2010PropOp34
 70
     1
102
RTVSPost2010Prop35
280
     0
102
RTVSPost2010PropOp35
 70
     1
102
RTVSPost2010Prop36
280
     0
102
RTVSPost2010PropOp36
 70
     1
102
RTVSPost2010Prop37
 90
       50
102
RTVSPost2010PropOp37
 70
     1
102
RTVSPost2010Prop38
140
0.0
102
RTVSPost2010PropOp38
 70
     1
102
RTVSPost2010Prop39
140
1.0
102
RTVSPost2010PropOp39
 70
     1
102
RTVSPost2010Prop40
 90
        0
102
RTVSPost2010PropOp40
 70
     1
102
RTVSPost2010Prop41ColorIndex
 90
       18
102
RTVSPost2010Prop41ColorRGB
 90
        0
102
RTVSPost2010PropOp41
 70
     1
102
RTVSPost2010Prop42
 90
       50
102
RTVSPost2010PropOp42
 70
     1
102
RTVSPost2010Prop43
 90
        3
102
RTVSPost2010PropOp43
 70
     1
102
RTVSPost2010Prop44ColorIndex
 90
        5
102
RTVSPost2010Prop44ColorRGB
 90
      255
102
RTVSPost2010PropOp44
 70
     1
102
RTVSPost2010Prop45
280
     0
102
RTVSPost2010PropOp45
 70
     1
102
RTVSPost2010Prop46
 90
       50
102
RTVSPost2010PropOp46
 70
     1
102
RTVSPost2010Prop47
 90
       50
102
RTVSPost2010PropOp47
 70
     1
102
RTVSPost2010Prop48
 90
       50
102
RTVSPost2010PropOp48
 70
     1
102
RTVSPost2010Prop49
280
     0
102
RTVSPost2010PropOp49
 70
     1
102
RTVSPost2010Prop50
 90
       50
102
RTVSPost2010PropOp50
 70
     1
102
RTVSPost2010Prop51ColorIndex
 90
      256
102
RTVSPost2010Prop51ColorRGB
 90
-16777216
102
RTVSPost2010PropOp51
 70
     0
102
RTVSPost2010Prop52
140
1.0
102
RTVSPost2010PropOp52
 70
     0
102
RTVSPost2010Prop53
 90
        2
102
RTVSPost2010PropOp53
 70
     1
102
RTVSPost2010Prop54
  1
strokes_ogs.tif
102
RTVSPost2010PropOp54
 70
     1
102
RTVSPost2010Prop55
280
     0
102
RTVSPost2010PropOp55
 70
     1
102
RTVSPost2010Prop56
140
1.0
102
RTVSPost2010PropOp56
 70
     1
102
RTVSPost2010Prop57
140
1.0
102
RTVSPost2010PropOp57
 70
     1
102
RTVSPropertyOp0
 70
     1
102
RTVSPropertyOp1
 70
     1
102
RTVSPropertyOp2
 70
     1
102
RTVSPropertyOp3
 70
     1
102
RTVSPropertyOp4
 70
     1
102
RTVSPropertyOp5
 70
     1
102
RTVSPropertyOp6
 70
     1
102
RTVSPropertyOp7
 70
     1
102
RTVSPropertyOp8
 70
     1
102
RTVSPropertyOp9
 70
     1
102
RTVSPropertyOp10
 70
     1
102
RTVSPropertyOp11
 70
     1
102
RTVSPropertyOp12
 70
     1
102
RTVSPropertyOp13
 70
     1
102
RTVSPropertyOp14
 70
     1
102
RTVSPropertyOp15
 70
     1
102
RTVSPropertyOp16
 70
     1
102
RTVSPropertyOp17
 70
     1
102
RTVSPropertyOp18
 70
     1
102
RTVSPropertyOp19
 70
     1
102
RTVSPropertyOp20
 70
     1
102
RTVSPropertyOp21
 70
     1
102
RTVSPropertyOp22
 70
     1
102
RTVSPropertyOp23
 70
     1
102
RTVSPropertyOp24
 70
     1
102
RTVSPropertyOp25
 70
     1
102
RTVSPropertyOp26
 70
     1
102
RTVSPropertyOp27
 70
     1
102
RTVSPropertyOp28
 70
     1
102
RTVSPropertyOp29
 70
     1
102
RTVSPropertyOp30
 70
     1
102
RTVSPropertyOp31
 70
     1
102
RTVSPropertyOp32
 70
     1
102
RTVSPropertyOp33
 70
     1
102
RTVSPropertyOp34
 70
     1
102
RTVSPropertyOp35
 70
     1
102
RTVSPropertyOp36
 70
     1
102
RTVSPropertyOp37
 70
     1
102
RTVSPropertyOp38
 70
     1
102
RTVSPropertyOp39
 70
     1
102
RTVSPropertyOp40
 70
     1
102
RTVSPropertyOp41
 70
     1
102
RTVSPropertyOp42
 70
     1
102
RTVSPropertyOp43
 70
     1
102
RTVSPropertyOp44
 70
     1
102
RTVSPropertyOp45
 70
     1
102
RTVSPropertyOp46
 70
     1
102
RTVSPropertyOp47
 70
     1
102
RTVSPropertyOp48
 70
     1
102
RTVSPropertyOp49
 70
     1
102
RTVSPropertyOp50
 70
     1
102
RTVSPropertyOp51
 70
     0
102
RTVSPropertyOp52
 70
     0
102
RTVSPropertyOp53
 70
     1
102
RTVSPropertyOp54
 70
     1
102
RTVSPropertyOp55
 70
     1
102
RTVSPropertyOp56
 70
     1
102
RTVSPropertyOp57
 70
     1
102
RTVSPropertyOp58
 70
     1
102
RTVSPropertyOp59
 70
     1
102
RTVSPropertyOp60
 70
     1
102
RTVSPropertyOp61
 70
     1
102
RTVSPropertyOp62
 70
     1
  0
ENDSEC
  0
EOF
