  0
SECTION
  2
HEADER
  9
$ACADVER
  1
AC1015
  9
$ACADMAINTVER
 70
    20
  9
$DWGCODEPAGE
  3
ANSI_932
  9
$INSBASE
 10
0.0
 20
0.0
 30
0.0
  9
$EXTMIN
 10
-0.1972045621336491
 20
-0.0667418507626535
 30
-0.0015258207003583
  9
$EXTMAX
 10
0.7537973691316962
 20
0.6218878885209934
 30
0.0000000349246037
  9
$LIMMIN
 10
0.0
 20
0.0
  9
$LIMMAX
 10
12.0
 20
9.0
  9
$ORTHOMODE
 70
     0
  9
$REGENMODE
 70
     1
  9
$FILLMODE
 70
     1
  9
$QTEXTMODE
 70
     0
  9
$MIRRTEXT
 70
     1
  9
$LTSCALE
 40
1.0
  9
$ATTMODE
 70
     1
  9
$TEXTSIZE
 40
0.2
  9
$TRACEWID
 40
0.05
  9
$TEXTSTYLE
  7
Standard
  9
$CLAYER
  8
0
  9
$CELTYPE
  6
ByBlock
  9
$CECOLOR
 62
   256
  9
$CELTSCALE
 40
1.0
  9
$DISPSILH
 70
     0
  9
$DIMSCALE
 40
1.0
  9
$DIMASZ
 40
0.18
  9
$DIMEXO
 40
0.0625
  9
$DIMDLI
 40
0.38
  9
$DIMRND
 40
0.0
  9
$DIMDLE
 40
0.0
  9
$DIMEXE
 40
0.18
  9
$DIMTP
 40
0.0
  9
$DIMTM
 40
0.0
  9
$DIMTXT
 40
0.18
  9
$DIMCEN
 40
0.09
  9
$DIMTSZ
 40
0.0
  9
$DIMTOL
 70
     0
  9
$DIMLIM
 70
     0
  9
$DIMTIH
 70
     1
  9
$DIMTOH
 70
     1
  9
$DIMSE1
 70
     0
  9
$DIMSE2
 70
     0
  9
$DIMTAD
 70
     0
  9
$DIMZIN
 70
     0
  9
$DIMBLK
  1

  9
$DIMASO
 70
     1
  9
$DIMSHO
 70
     1
  9
$DIMPOST
  1

  9
$DIMAPOST
  1

  9
$DIMALT
 70
     0
  9
$DIMALTD
 70
     2
  9
$DIMALTF
 40
25.4
  9
$DIMLFAC
 40
1.0
  9
$DIMTOFL
 70
     0
  9
$DIMTVP
 40
0.0
  9
$DIMTIX
 70
     0
  9
$DIMSOXD
 70
     0
  9
$DIMSAH
 70
     0
  9
$DIMBLK1
  1

  9
$DIMBLK2
  1

  9
$DIMSTYLE
  2
Standard
  9
$DIMCLRD
 70
     0
  9
$DIMCLRE
 70
     0
  9
$DIMCLRT
 70
     0
  9
$DIMTFAC
 40
1.0
  9
$DIMGAP
 40
0.09
  9
$DIMJUST
 70
     0
  9
$DIMSD1
 70
     0
  9
$DIMSD2
 70
     0
  9
$DIMTOLJ
 70
     1
  9
$DIMTZIN
 70
     0
  9
$DIMALTZ
 70
     0
  9
$DIMALTTZ
 70
     0
  9
$DIMUPT
 70
     0
  9
$DIMDEC
 70
     4
  9
$DIMTDEC
 70
     4
  9
$DIMALTU
 70
     2
  9
$DIMALTTD
 70
     2
  9
$DIMTXSTY
  7
Standard
  9
$DIMAUNIT
 70
     0
  9
$DIMADEC
 70
     0
  9
$DIMALTRND
 40
0.0
  9
$DIMAZIN
 70
     0
  9
$DIMDSEP
 70
    46
  9
$DIMATFIT
 70
     3
  9
$DIMFRAC
 70
     0
  9
$DIMLDRBLK
  1

  9
$DIMLUNIT
 70
     2
  9
$DIMLWD
 70
    -2
  9
$DIMLWE
 70
    -2
  9
$DIMTMOVE
 70
     0
  9
$LUNITS
 70
     2
  9
$LUPREC
 70
     4
  9
$SKETCHINC
 40
0.1
  9
$FILLETRAD
 40
0.5
  9
$AUNITS
 70
     0
  9
$AUPREC
 70
     0
  9
$MENU
  1
.
  9
$ELEVATION
 40
0.0
  9
$PELEVATION
 40
0.0
  9
$THICKNESS
 40
0.0
  9
$LIMCHECK
 70
     0
  9
$CHAMFERA
 40
0.5
  9
$CHAMFERB
 40
0.5
  9
$CHAMFERC
 40
1.0
  9
$CHAMFERD
 40
0.0
  9
$SKPOLY
 70
     0
  9
$TDCREATE
 40
2457106.723600868
  9
$TDUCREATE
 40
2457106.348600868
  9
$TDUPDATE
 40
2457354.720890579
  9
$TDUUPDATE
 40
2457354.345890579
  9
$TDINDWG
 40
0.0012472106
  9
$TDUSRTIMER
 40
0.0012472106
  9
$USRTIMER
 70
     1
  9
$ANGBASE
 50
0.0
  9
$ANGDIR
 70
     0
  9
$PDMODE
 70
     0
  9
$PDSIZE
 40
0.0
  9
$PLINEWID
 40
0.0
  9
$SPLFRAME
 70
     0
  9
$SPLINETYPE
 70
     6
  9
$SPLINESEGS
 70
     8
  9
$HANDSEED
  5
736
  9
$SURFTAB1
 70
     6
  9
$SURFTAB2
 70
     6
  9
$SURFTYPE
 70
     6
  9
$SURFU
 70
     6
  9
$SURFV
 70
     6
  9
$UCSBASE
  2

  9
$UCSNAME
  2

  9
$UCSORG
 10
0.0
 20
0.0
 30
0.0
  9
$UCSXDIR
 10
1.0
 20
0.0
 30
0.0
  9
$UCSYDIR
 10
0.0
 20
1.0
 30
0.0
  9
$UCSORTHOREF
  2

  9
$UCSORTHOVIEW
 70
     0
  9
$UCSORGTOP
 10
0.0
 20
0.0
 30
0.0
  9
$UCSORGBOTTOM
 10
0.0
 20
0.0
 30
0.0
  9
$UCSORGLEFT
 10
0.0
 20
0.0
 30
0.0
  9
$UCSORGRIGHT
 10
0.0
 20
0.0
 30
0.0
  9
$UCSORGFRONT
 10
0.0
 20
0.0
 30
0.0
  9
$UCSORGBACK
 10
0.0
 20
0.0
 30
0.0
  9
$PUCSBASE
  2

  9
$PUCSNAME
  2

  9
$PUCSORG
 10
0.0
 20
0.0
 30
0.0
  9
$PUCSXDIR
 10
1.0
 20
0.0
 30
0.0
  9
$PUCSYDIR
 10
0.0
 20
1.0
 30
0.0
  9
$PUCSORTHOREF
  2

  9
$PUCSORTHOVIEW
 70
     0
  9
$PUCSORGTOP
 10
0.0
 20
0.0
 30
0.0
  9
$PUCSORGBOTTOM
 10
0.0
 20
0.0
 30
0.0
  9
$PUCSORGLEFT
 10
0.0
 20
0.0
 30
0.0
  9
$PUCSORGRIGHT
 10
0.0
 20
0.0
 30
0.0
  9
$PUCSORGFRONT
 10
0.0
 20
0.0
 30
0.0
  9
$PUCSORGBACK
 10
0.0
 20
0.0
 30
0.0
  9
$USERI1
 70
     0
  9
$USERI2
 70
     0
  9
$USERI3
 70
     0
  9
$USERI4
 70
     0
  9
$USERI5
 70
     0
  9
$USERR1
 40
0.0
  9
$USERR2
 40
0.0
  9
$USERR3
 40
0.0
  9
$USERR4
 40
0.0
  9
$USERR5
 40
0.0
  9
$WORLDVIEW
 70
     1
  9
$SHADEDGE
 70
     3
  9
$SHADEDIF
 70
    70
  9
$TILEMODE
 70
     1
  9
$MAXACTVP
 70
    64
  9
$PINSBASE
 10
0.0
 20
0.0
 30
0.0
  9
$PLIMCHECK
 70
     0
  9
$PEXTMIN
 10
1.000000000000000E+20
 20
1.000000000000000E+20
 30
1.000000000000000E+20
  9
$PEXTMAX
 10
-1.000000000000000E+20
 20
-1.000000000000000E+20
 30
-1.000000000000000E+20
  9
$PLIMMIN
 10
0.0
 20
0.0
  9
$PLIMMAX
 10
12.0
 20
9.0
  9
$UNITMODE
 70
     0
  9
$VISRETAIN
 70
     1
  9
$PLINEGEN
 70
     0
  9
$PSLTSCALE
 70
     1
  9
$TREEDEPTH
 70
  3020
  9
$CMLSTYLE
  2
Standard
  9
$CMLJUST
 70
     0
  9
$CMLSCALE
 40
1.0
  9
$PROXYGRAPHICS
 70
     1
  9
$MEASUREMENT
 70
     0
  9
$CELWEIGHT
370
    -1
  9
$ENDCAPS
280
     0
  9
$JOINSTYLE
280
     0
  9
$LWDISPLAY
290
     0
  9
$INSUNITS
 70
     0
  9
$HYPERLINKBASE
  1

  9
$STYLESHEET
  1

  9
$XEDIT
290
     1
  9
$CEPSNTYPE
380
     0
  9
$PSTYLEMODE
290
     1
  9
$FINGERPRINTGUID
  2
{D6F3F032-5E88-4589-A617-B4A98028B848}
  9
$VERSIONGUID
  2
{FCC648FE-F16E-4FEE-B009-24778E673AF8}
  9
$EXTNAMES
290
     1
  9
$PSVPSCALE
 40
0.0
  9
$OLESTARTUP
290
     0
  0
ENDSEC
  0
SECTION
  2
CLASSES
  0
CLASS
  1
ACDBDICTIONARYWDFLT
  2
AcDbDictionaryWithDefault
  3
ObjectDBX Classes
 90
        0
280
     0
281
     0
  0
CLASS
  1
MATERIAL
  2
AcDbMaterial
  3
ObjectDBX Classes
 90
     1153
280
     0
281
     0
  0
CLASS
  1
VISUALSTYLE
  2
AcDbVisualStyle
  3
ObjectDBX Classes
 90
     4095
280
     0
281
     0
  0
CLASS
  1
TABLESTYLE
  2
AcDbTableStyle
  3
ObjectDBX Classes
 90
     4095
280
     0
281
     0
  0
CLASS
  1
SCALE
  2
AcDbScale
  3
ObjectDBX Classes
 90
     1153
280
     0
281
     0
  0
CLASS
  1
MLEADERSTYLE
  2
AcDbMLeaderStyle
  3
ACDB_MLEADERSTYLE_CLASS
 90
     4095
280
     0
281
     0
  0
CLASS
  1
ACDBSECTIONVIEWSTYLE
  2
AcDbSectionViewStyle
  3
ObjectDBX Classes
 90
     1025
280
     0
281
     0
  0
CLASS
  1
ACDBDETAILVIEWSTYLE
  2
AcDbDetailViewStyle
  3
ObjectDBX Classes
 90
     1025
280
     0
281
     0
  0
CLASS
  1
ACME_DOCUMENT
  2
AcMeDbDoc
  3
AcMeServices
 90
     1024
280
     0
281
     0
  0
CLASS
  1
AMGSETTINGSOBJ
  2
AmgSettingsObj
  3
"AcadM|Product Description: AutoCAD Mechanical|Company: Autodesk, Inc."
 90
     1024
280
     0
281
     0
  0
CLASS
  1
ACMESCOPE
  2
AcMeScope
  3
AcMeServices
 90
     1024
280
     0
281
     0
  0
CLASS
  1
ACMECOMMANDHISTORY
  2
AcMeCommandHistory
  3
AcMeServices
 90
     1024
280
     0
281
     0
  0
CLASS
  1
ACIMSYSVARMAN
  2
AcImSysVarManager
  3
AcMeServices
 90
     1024
280
     0
281
     0
  0
CLASS
  1
ACIMINTSYSVAR
  2
AcImIntSysVar
  3
AcMeServices
 90
     1024
280
     0
281
     0
  0
CLASS
  1
ACMESTATEMGR
  2
AcMeStateMgr
  3
AcMeServices
 90
     1024
280
     0
281
     0
  0
CLASS
  1
ACDBENTITYCACHE
  2
AcMeEntityCache
  3
AcMeServices
 90
     1024
280
     0
281
     0
  0
CLASS
  1
ACGREFMASTER
  2
AcGrefMaster
  3
AcAttribServices
 90
     1024
280
     0
281
     0
  0
CLASS
  1
ACME_DATABASE
  2
AcMeDbDatabase
  3
AcMeServices
 90
     1024
280
     0
281
     0
  0
CLASS
  1
ACRFINSADJUSTERMGR
  2
AcRfInsAdjusterMgr
  3
AcMeServices
 90
     1024
280
     0
281
     0
  0
CLASS
  1
ACGREFACADMASTER
  2
AcGrefacadMaster
  3
AcGrefServices
 90
     1024
280
     0
281
     0
  0
CLASS
  1
AMDTMENUSTATEMGR
  2
AmdtMenuStateMgr
  3
McadcomServices
 90
     1024
280
     0
281
     0
  0
CLASS
  1
AMDTMCOMMENUSTATE
  2
AmdtMcomMenuState
  3
McadcomServices
 90
     1024
280
     0
281
     0
  0
CLASS
  1
AMIMASTER
  2
AmiMaster
  3
AmiServices
 90
     1024
280
     0
281
     0
  0
CLASS
  1
MAPIAMMOUDLE
  2
MApiAmModule
  3
MApiAmServices
 90
     1024
280
     0
281
     0
  0
CLASS
  1
ACIMSTRSYSVAR
  2
AcImStrSysVar
  3
AcMeServices
 90
     1024
280
     0
281
     0
  0
CLASS
  1
AMDTAMMENUSTATE
  2
AmdtAmMenuState
  3
DesignerAssemblies
 90
     1024
280
     0
281
     0
  0
CLASS
  1
ACAMPROJECT
  2
AcAmProject
  3
DesignerAssemblies
 90
     1024
280
     0
281
     0
  0
CLASS
  1
ACAMGRCOMPDEF
  2
AcAmGrCompDef
  3
DesignerAssemblies
 90
     1024
280
     0
281
     0
  0
CLASS
  1
ACAMCOMPDEF
  2
AcAmCompDef
  3
DesignerAssemblies
 90
     1024
280
     0
281
     0
  0
CLASS
  1
ACAMCOMPDEFMGR
  2
AcAmCompDefMgr
  3
DesignerAssemblies
 90
     1024
280
     0
281
     0
  0
CLASS
  1
AMCONTEXTMGR
  2
AcAmContextMgr
  3
DesignerAssemblies
 90
     1024
280
     0
281
     0
  0
CLASS
  1
ACAMCONTEXTMODELER
  2
AcAmContextModeler
  3
DesignerAssemblies
 90
     1024
280
     0
281
     0
  0
CLASS
  1
ACMDATADICTIONARY
  2
AcmDataDictionary
  3
"AcmSymBB|Product Description: AutoCAD Mechanical|Company: Autodesk, Inc."
 90
     1024
280
     0
281
     0
  0
CLASS
  1
ACAMGRCOMPDEFSET
  2
AcAmGrCompDefSet
  3
DesignerAssemblies
 90
     1024
280
     0
281
     0
  0
CLASS
  1
AMDTBROWSERDBTAB
  2
AmdtBrowserDbTab
  3
McadcomServices
 90
     1024
280
     0
281
     0
  0
CLASS
  1
CBROWSERAPPOBJECT
  2
CBrowserAppObject
  3
McadcomServices
 90
     1024
280
     0
281
     0
  0
CLASS
  1
DM_PLACEHOLDER
  2
AcDmSelsetPlaceholder
  3
McadcomServices
 90
     1024
280
     0
281
     0
  0
CLASS
  1
ACMSTANDARDANSI
  2
AcmStandardANSI
  3
"Amdt_StdImp|Product Description: AutoCAD Mechanical|Company: Autodesk, Inc."
 90
     1024
280
     0
281
     0
  0
CLASS
  1
ACMSURFSTANDARDANSI
  2
AcmSurfTextStdANSI
  3
"Amdt_StdImp|Product Description: AutoCAD Mechanical|Company: Autodesk, Inc."
 90
     1024
280
     0
281
     0
  0
CLASS
  1
ACMFCFSTANDARDANSI
  2
AcmFCFStdANSI
  3
"Amdt_StdImp|Product Description: AutoCAD Mechanical|Company: Autodesk, Inc."
 90
     1024
280
     0
281
     0
  0
CLASS
  1
ACMWELDSTANDARDANSI
  2
AcmWeldingStdANSI
  3
"Amdt_StdImp|Product Description: AutoCAD Mechanical|Company: Autodesk, Inc."
 90
     1024
280
     0
281
     0
  0
CLASS
  1
ACMIDSTANDARDANSI
  2
AcmIdStdANSI
  3
"Amdt_StdImp|Product Description: AutoCAD Mechanical|Company: Autodesk, Inc."
 90
     1024
280
     0
281
     0
  0
CLASS
  1
ACMDATUMSTANDARDANSI
  2
AcmDatumStdANSI
  3
"Amdt_StdImp|Product Description: AutoCAD Mechanical|Company: Autodesk, Inc."
 90
     1024
280
     0
281
     0
  0
CLASS
  1
ACMBOMSTANDARDANSI
  2
AcmBOMStdANSI
  3
"Amdt_StdImp|Product Description: AutoCAD Mechanical|Company: Autodesk, Inc."
 90
     1024
280
     0
281
     0
  0
CLASS
  1
ACMDETAILSTANDARDANSI
  2
AmdtDetailSymStdANSI
  3
"Amdt_StdImp|Product Description: AutoCAD Mechanical|Company: Autodesk, Inc."
 90
     1024
280
     0
281
     0
  0
CLASS
  1
ACMSECTIONSTANDARDANSI
  2
AmdtSectionSymStdANSI
  3
"Amdt_StdImp|Product Description: AutoCAD Mechanical|Company: Autodesk, Inc."
 90
     1024
280
     0
281
     0
  0
CLASS
  1
ACMCENTERLINESTANDARDANSI
  2
AmdtCenterLineStdANSI
  3
"Amdt_StdImp|Product Description: AutoCAD Mechanical|Company: Autodesk, Inc."
 90
     1024
280
     0
281
     0
  0
CLASS
  1
ACMTHREADLINESTANDARDANSI
  2
AmdtThreadLineStdANSI
  3
"Amdt_StdImp|Product Description: AutoCAD Mechanical|Company: Autodesk, Inc."
 90
     1024
280
     0
281
     0
  0
CLASS
  1
ACMNOTESTANDARDANSI
  2
AmdtNoteStdANSI
  3
"Amdt_StdImp|Product Description: AutoCAD Mechanical|Company: Autodesk, Inc."
 90
     1024
280
     0
281
     0
  0
CLASS
  1
ACMTAPERSTANDARDANSI
  2
AcmTaperStdANSI
  3
"Amdt_StdImp|Product Description: AutoCAD Mechanical|Company: Autodesk, Inc."
 90
     1024
280
     0
281
     0
  0
CLASS
  1
ACMANOOTATIONVIEWSTANDARDANSI
  2
AmdtAnViewStdANSI
  3
"Amdt_StdImp|Product Description: AutoCAD Mechanical|Company: Autodesk, Inc."
 90
     1024
280
     0
281
     0
  0
CLASS
  1
ACAMGLAYSTD
  2
AcAmgLayStd
  3
"AmgLay|Product Description: AutoCAD Mechanical|Company: Autodesk, Inc."
 90
     1024
280
     0
281
     0
  0
CLASS
  1
ACAMGDIMSTD
  2
AcAmgDimStd
  3
"AmgDim|Product Description: AutoCAD Mechanical|Company: Autodesk, Inc."
 90
     1024
280
     0
281
     0
  0
CLASS
  1
AMGOBJPROPCFG
  2
AmgObjPropCfg
  3
"AmgLay|Product Description: AutoCAD Mechanical|Company: Autodesk, Inc."
 90
     1024
280
     0
281
     0
  0
CLASS
  1
ACAMGHOLECHARTSTDANSI
  2
AcAmgHoleChartStdANSI
  3
AmgDim|Product Description: AutoCAD Mechanical|Company: Autodesk, Inc.
 90
     1024
280
     0
281
     0
  0
CLASS
  1
ACAMGTITLESTD
  2
AcAmgTitleStd
  3
"AmgTitle|Product Description: AutoCAD Mechanical|Company: Autodesk, Inc."
 90
     1024
280
     0
281
     0
  0
CLASS
  1
AMDTNOTETEMPLATEDB
  2
AmdtNoteTemplateDB
  3
AcmSymBB|Product Description: AutoCAD Mechanical|Company: Autodesk, Inc.
 90
     1024
280
     0
281
     0
  0
CLASS
  1
ACAMGFILTERDAT
  2
AcAmgFilterDat
  3
"AcadM|Product Description: AutoCAD Mechanical|Company: Autodesk, Inc."
 90
     1024
280
     0
281
     0
  0
CLASS
  1
SORTENTSTABLE
  2
AcDbSortentsTable
  3
ObjectDBX Classes
 90
        0
280
     0
281
     0
  0
CLASS
  1
CELLSTYLEMAP
  2
AcDbCellStyleMap
  3
ObjectDBX Classes
 90
     1152
280
     0
281
     0
  0
CLASS
  1
DICTIONARYVAR
  2
AcDbDictionaryVar
  3
ObjectDBX Classes
 90
        0
280
     0
281
     0
  0
CLASS
  1
ACDBPLACEHOLDER
  2
AcDbPlaceHolder
  3
ObjectDBX Classes
 90
        0
280
     0
281
     0
  0
CLASS
  1
LAYOUT
  2
AcDbLayout
  3
ObjectDBX Classes
 90
        0
280
     0
281
     0
  0
ENDSEC
  0
SECTION
  2
TABLES
  0
TABLE
  2
VPORT
  5
8
330
0
100
AcDbSymbolTable
 70
     1
  0
VPORT
  5
21D
330
8
100
AcDbSymbolTableRecord
100
AcDbViewportTableRecord
  2
*Active
 70
     0
 10
0.0
 20
0.0
 11
1.0
 21
1.0
 12
0.2613455652229746
 22
0.0906441147508203
 13
0.0
 23
0.0
 14
0.5
 24
0.5
 15
0.5
 25
0.5
 16
0.0
 26
0.0
 36
1.0
 17
0.0
 27
0.0
 37
0.0
 40
1.596154960666369
 41
1.681623931623931
 42
50.0
 43
0.0
 44
0.0
 50
0.0
 51
0.0
 71
     0
 72
   100
 73
     1
 74
     3
 75
     0
 76
     0
 77
     0
 78
     0
281
     0
 65
     1
110
0.0
120
0.0
130
0.0
111
1.0
121
0.0
131
0.0
112
0.0
122
1.0
132
0.0
 79
     0
146
0.0
1001
ACAD_NAV_VCDISPLAY
1070
     3
  0
ENDTAB
  0
TABLE
  2
LTYPE
  5
5
330
0
100
AcDbSymbolTable
 70
     8
  0
LTYPE
  5
14
330
5
100
AcDbSymbolTableRecord
100
AcDbLinetypeTableRecord
  2
ByBlock
 70
     0
  3

 72
    65
 73
     0
 40
0.0
  0
LTYPE
  5
15
330
5
100
AcDbSymbolTableRecord
100
AcDbLinetypeTableRecord
  2
ByLayer
 70
     0
  3

 72
    65
 73
     0
 40
0.0
  0
LTYPE
  5
16
330
5
100
AcDbSymbolTableRecord
100
AcDbLinetypeTableRecord
  2
Continuous
 70
     0
  3
Solid line
 72
    65
 73
     0
 40
0.0
  0
LTYPE
  5
26D
330
5
100
AcDbSymbolTableRecord
100
AcDbLinetypeTableRecord
  2
PHANTOM2
 70
     0
  3
Phantom (.5x) ___ _ _ ___ _ _ ___ _ _ ___ _ _
 72
    65
 73
     6
 40
1.25
 49
0.625
 74
     0
 49
-0.125
 74
     0
 49
0.125
 74
     0
 49
-0.125
 74
     0
 49
0.125
 74
     0
 49
-0.125
 74
     0
  0
LTYPE
  5
282
330
5
100
AcDbSymbolTableRecord
100
AcDbLinetypeTableRecord
  2
HIDDEN
 70
     0
  3
Hidden __ __ __ __ __ __ __ __ __ __ __ __ __ _
 72
    65
 73
     2
 40
0.375
 49
0.25
 74
     0
 49
-0.125
 74
     0
  0
LTYPE
  5
283
330
5
100
AcDbSymbolTableRecord
100
AcDbLinetypeTableRecord
  2
CENTER
 70
     0
  3
Center ____ _ ____ _ ____ _ ____ _ ____ _ ____
 72
    65
 73
     4
 40
2.0
 49
1.25
 74
     0
 49
-0.25
 74
     0
 49
0.25
 74
     0
 49
-0.25
 74
     0
  0
LTYPE
  5
2BD
330
5
100
AcDbSymbolTableRecord
100
AcDbLinetypeTableRecord
  2
CENTER2
 70
     0
  3
Center (.5x) ___ _ ___ _ ___ _ ___ _ ___ _ ___
 72
    65
 73
     4
 40
1.125
 49
0.75
 74
     0
 49
-0.125
 74
     0
 49
0.125
 74
     0
 49
-0.125
 74
     0
  0
LTYPE
  5
2BE
330
5
100
AcDbSymbolTableRecord
100
AcDbLinetypeTableRecord
  2
HIDDEN2
 70
     0
  3
Hidden (.5x) _ _ _ _ _ _ _ _ _ _ _ _ _ _ _ _ _
 72
    65
 73
     2
 40
0.1875
 49
0.125
 74
     0
 49
-0.0625
 74
     0
  0
LTYPE
  5
2CC
330
5
100
AcDbSymbolTableRecord
100
AcDbLinetypeTableRecord
  2
ACANSTGB
 70
     0
  3
__ . . __ . .
 72
    65
 73
     6
 40
0.35433070866
 49
0.15748031496
 74
     0
 49
-0.03937007874
 74
     0
 49
0.03937007874
 74
     0
 49
-0.03937007874
 74
     0
 49
0.03937007874
 74
     0
 49
-0.03937007874
 74
     0
  0
LTYPE
  5
2CD
330
5
100
AcDbSymbolTableRecord
100
AcDbLinetypeTableRecord
  2
ACANSTGL
 70
     0
  3
_ _ _ _ _
 72
    65
 73
     2
 40
0.11811023622
 49
0.07874015748
 74
     0
 49
-0.03937007874
 74
     0
  0
ENDTAB
  0
TABLE
  2
LAYER
  5
2
330
0
100
AcDbSymbolTable
 70
     2
  0
LAYER
  5
10
102
{ACAD_XDICTIONARY
360
6E0
102
}
330
2
100
AcDbSymbolTableRecord
100
AcDbLayerTableRecord
  2
0
 70
     0
 62
     7
  6
Continuous
370
    -3
390
F
  0
LAYER
  5
67C
102
{ACAD_XDICTIONARY
360
6E2
102
}
330
2
100
AcDbSymbolTableRecord
100
AcDbLayerTableRecord
  2
AM_CL
 70
     0
 62
     1
  6
Continuous
370
    15
390
F
1001
AcAecLayerStandard
1000

1000

  0
ENDTAB
  0
TABLE
  2
STYLE
  5
3
330
0
100
AcDbSymbolTable
 70
     3
  0
STYLE
  5
11
330
3
100
AcDbSymbolTableRecord
100
AcDbTextStyleTableRecord
  2
Standard
 70
     0
 40
0.0
 41
1.0
 50
0.0
 71
     0
 42
0.2
  3
txt
  4

  0
STYLE
  5
2CA
330
3
100
AcDbSymbolTableRecord
100
AcDbTextStyleTableRecord
  2
ACANSTS
 70
     0
 40
1.0
 41
1.0
 50
0.0
 71
     0
 42
0.2
  3
romans.shx
  4
extfont.shx
  0
STYLE
  5
2CB
330
3
100
AcDbSymbolTableRecord
100
AcDbTextStyleTableRecord
  2
ACANSGDT
 70
     0
 40
0.0
 41
1.0
 50
0.0
 71
     0
 42
0.2
  3
amgdt.shx
  4

  0
ENDTAB
  0
TABLE
  2
VIEW
  5
6
330
0
100
AcDbSymbolTable
 70
     0
  0
ENDTAB
  0
TABLE
  2
UCS
  5
7
330
0
100
AcDbSymbolTable
 70
     0
  0
ENDTAB
  0
TABLE
  2
APPID
  5
9
330
0
100
AcDbSymbolTable
 70
    14
  0
APPID
  5
12
330
9
100
AcDbSymbolTableRecord
100
AcDbRegAppTableRecord
  2
ACAD
 70
     0
  0
APPID
  5
27B
330
9
100
AcDbSymbolTableRecord
100
AcDbRegAppTableRecord
  2
MCAD_NO_VIS
 70
     0
  0
APPID
  5
27C
330
9
100
AcDbSymbolTableRecord
100
AcDbRegAppTableRecord
  2
ACAD_TEMP_GRAPHIC
 70
     0
  0
APPID
  5
288
330
9
100
AcDbSymbolTableRecord
100
AcDbRegAppTableRecord
  2
ACATTRIBSERVICES
 70
     0
  0
APPID
  5
2A0
330
9
100
AcDbSymbolTableRecord
100
AcDbRegAppTableRecord
  2
DESIGNERASSEMBLIES
 70
     0
  0
APPID
  5
2BA
330
9
100
AcDbSymbolTableRecord
100
AcDbRegAppTableRecord
  2
ACAD_DSTYLE_DIMJAG
 70
     0
  0
APPID
  5
2BB
330
9
100
AcDbSymbolTableRecord
100
AcDbRegAppTableRecord
  2
ACAD_DSTYLE_DIMBREAK
 70
     0
  0
APPID
  5
2D5
330
9
100
AcDbSymbolTableRecord
100
AcDbRegAppTableRecord
  2
ACAD_NAV_VCDISPLAY
 70
     0
  0
APPID
  5
67D
330
9
100
AcDbSymbolTableRecord
100
AcDbRegAppTableRecord
  2
AcAecLayerStandard
 70
     0
  0
APPID
  5
72F
330
9
100
AcDbSymbolTableRecord
100
AcDbRegAppTableRecord
  2
ACAD_MLEADERVER
 70
     0
  0
APPID
  5
732
330
9
100
AcDbSymbolTableRecord
100
AcDbRegAppTableRecord
  2
ACAD_DSTYLE_DIMARC_LENGTH_SYMBOL
 70
     0
  0
APPID
  5
733
330
9
100
AcDbSymbolTableRecord
100
AcDbRegAppTableRecord
  2
ACAD_DSTYLE_DIM_LINETYPE
 70
     0
  0
APPID
  5
734
330
9
100
AcDbSymbolTableRecord
100
AcDbRegAppTableRecord
  2
ACAD_DSTYLE_DIM_EXT1_LINETYPE
 70
     0
  0
APPID
  5
735
330
9
100
AcDbSymbolTableRecord
100
AcDbRegAppTableRecord
  2
ACAD_DSTYLE_DIM_EXT2_LINETYPE
 70
     0
  0
ENDTAB
  0
TABLE
  2
DIMSTYLE
  5
A
330
0
100
AcDbSymbolTable
 70
     7
100
AcDbDimStyleTable
 71
     0
  0
DIMSTYLE
105
21
330
A
100
AcDbSymbolTableRecord
100
AcDbDimStyleTableRecord
  2
Standard
 70
     0
340
11
  0
DIMSTYLE
105
2B9
102
{ACAD_REACTORS
330
2A9
102
}
330
A
100
AcDbSymbolTableRecord
100
AcDbDimStyleTableRecord
  2
AM_ANSI
 70
     0
  4
mm
 41
0.12
 42
0.05
 43
0.5
 44
0.1
 47
0.1
 48
0.1
 78
     7
 79
     2
140
0.12
141
0.0
146
0.71
147
0.06
176
   256
177
   256
178
     2
274
     4
284
     7
340
11
371
    -1
372
    -1
1001
ACAD_DSTYLE_DIMJAG
1070
   388
1040
1.5
1001
ACAD_DSTYLE_DIMBREAK
1070
   391
1040
0.125
1001
ACAD_DSTYLE_DIMARC_LENGTH_SYMBOL
1070
   379
1070
     1
1001
ACAD_DSTYLE_DIM_LINETYPE
1070
   380
1005
14
1001
ACAD_DSTYLE_DIM_EXT1_LINETYPE
1070
   381
1005
14
1001
ACAD_DSTYLE_DIM_EXT2_LINETYPE
1070
   382
1005
14
  0
DIMSTYLE
105
2BF
330
A
100
AcDbSymbolTableRecord
100
AcDbDimStyleTableRecord
  2
AM_ANSI$3
 70
     0
  4
mm
 41
0.12
 42
0.05
 43
0.5
 44
0.1
 47
0.1
 48
0.1
 78
     7
 79
     2
140
0.12
141
0.0
146
0.71
147
0.06
176
   256
177
   256
178
     2
274
     4
284
     7
288
     1
289
     0
340
11
371
    -1
372
    -1
1001
ACAD_DSTYLE_DIMBREAK
1070
   391
1040
0.125
1001
ACAD_DSTYLE_DIMJAG
1070
   388
1040
1.5
1001
ACAD_DSTYLE_DIMARC_LENGTH_SYMBOL
1070
   379
1070
     1
1001
ACAD_DSTYLE_DIM_LINETYPE
1070
   380
1005
14
1001
ACAD_DSTYLE_DIM_EXT1_LINETYPE
1070
   381
1005
14
1001
ACAD_DSTYLE_DIM_EXT2_LINETYPE
1070
   382
1005
14
  0
DIMSTYLE
105
2C0
330
A
100
AcDbSymbolTableRecord
100
AcDbDimStyleTableRecord
  2
AM_ANSI$4
 70
     0
  4
mm
 41
0.12
 42
0.05
 43
0.5
 44
0.1
 47
0.1
 48
0.1
 78
     7
 79
     2
140
0.12
141
0.0
146
0.71
147
0.06
176
   256
177
   256
178
     2
274
     4
284
     7
288
     1
289
     0
340
11
371
    -1
372
    -1
1001
ACAD_DSTYLE_DIMBREAK
1070
   391
1040
0.125
1001
ACAD_DSTYLE_DIMJAG
1070
   388
1040
1.5
1001
ACAD_DSTYLE_DIMARC_LENGTH_SYMBOL
1070
   379
1070
     1
1001
ACAD_DSTYLE_DIM_LINETYPE
1070
   380
1005
14
1001
ACAD_DSTYLE_DIM_EXT1_LINETYPE
1070
   381
1005
14
1001
ACAD_DSTYLE_DIM_EXT2_LINETYPE
1070
   382
1005
14
  0
DIMSTYLE
105
2C1
330
A
100
AcDbSymbolTableRecord
100
AcDbDimStyleTableRecord
  2
AM_ANSI$7
 70
     0
  4
mm
 41
0.12
 42
0.05
 43
0.5
 44
0.1
 47
0.1
 48
0.1
 78
     7
 79
     2
140
0.12
141
0.0
146
0.71
147
0.06
176
   256
177
   256
178
     2
274
     4
284
     7
340
11
371
    -1
372
    -1
1001
ACAD_DSTYLE_DIMBREAK
1070
   391
1040
0.125
1001
ACAD_DSTYLE_DIMJAG
1070
   388
1040
1.5
1001
ACAD_DSTYLE_DIMARC_LENGTH_SYMBOL
1070
   379
1070
     1
1001
ACAD_DSTYLE_DIM_LINETYPE
1070
   380
1005
14
1001
ACAD_DSTYLE_DIM_EXT1_LINETYPE
1070
   381
1005
14
1001
ACAD_DSTYLE_DIM_EXT2_LINETYPE
1070
   382
1005
14
  0
DIMSTYLE
105
2C2
330
A
100
AcDbSymbolTableRecord
100
AcDbDimStyleTableRecord
  2
AM_ANSI$SF
 70
     0
  4
mm
 41
0.12
 42
0.05
 43
0.5
 44
0.1
 47
0.1
 48
0.1
 75
     1
 76
     1
 78
     7
 79
     2
140
0.12
141
0.0
146
0.71
147
0.06
176
   256
177
   256
178
     2
274
     4
284
     7
340
11
371
    -1
372
    -1
1001
ACAD_DSTYLE_DIMBREAK
1070
   391
1040
0.125
1001
ACAD_DSTYLE_DIMJAG
1070
   388
1040
1.5
1001
ACAD_DSTYLE_DIMARC_LENGTH_SYMBOL
1070
   379
1070
     1
1001
ACAD_DSTYLE_DIM_LINETYPE
1070
   380
1005
14
1001
ACAD_DSTYLE_DIM_EXT1_LINETYPE
1070
   381
1005
14
1001
ACAD_DSTYLE_DIM_EXT2_LINETYPE
1070
   382
1005
14
  0
DIMSTYLE
105
2C7
330
A
100
AcDbSymbolTableRecord
100
AcDbDimStyleTableRecord
  2
AM_ANSI$SH
 70
     0
  4
mm
 41
0.12
 42
0.05
 43
0.5
 44
0.1
 47
0.1
 48
0.1
 75
     1
 76
     1
 78
     7
 79
     2
140
0.12
141
0.0
146
0.71
147
0.06
173
     1
176
   256
177
   256
178
     2
274
     4
284
     7
340
11
343
2C3
371
    -1
372
    -1
1001
ACAD_DSTYLE_DIMBREAK
1070
   391
1040
0.125
1001
ACAD_DSTYLE_DIMJAG
1070
   388
1040
1.5
1001
ACAD_DSTYLE_DIMARC_LENGTH_SYMBOL
1070
   379
1070
     1
1001
ACAD_DSTYLE_DIM_LINETYPE
1070
   380
1005
14
1001
ACAD_DSTYLE_DIM_EXT1_LINETYPE
1070
   381
1005
14
1001
ACAD_DSTYLE_DIM_EXT2_LINETYPE
1070
   382
1005
14
  0
ENDTAB
  0
TABLE
  2
BLOCK_RECORD
  5
1
330
0
100
AcDbSymbolTable
 70
     4
  0
BLOCK_RECORD
  5
1D
102
{ACAD_XDICTIONARY
360
67F
102
}
330
1
100
AcDbSymbolTableRecord
100
AcDbBlockTableRecord
  2
*Model_Space
340
1E
  0
BLOCK_RECORD
  5
1B
330
1
100
AcDbSymbolTableRecord
100
AcDbBlockTableRecord
  2
*Paper_Space
340
1C
  0
BLOCK_RECORD
  5
2C3
330
1
100
AcDbSymbolTableRecord
100
AcDbBlockTableRecord
  2
GENAXEH
340
0
  0
ENDTAB
  0
ENDSEC
  0
SECTION
  2
BLOCKS
  0
BLOCK
  5
21E
330
1D
100
AcDbEntity
  8
0
100
AcDbBlockBegin
  2
*Model_Space
 70
     0
 10
0.0
 20
0.0
 30
0.0
  3
*Model_Space
  1

  0
ENDBLK
  5
21F
330
1D
100
AcDbEntity
  8
0
100
AcDbBlockEnd
  0
BLOCK
  5
220
330
1B
100
AcDbEntity
 67
     1
  8
0
100
AcDbBlockBegin
  2
*Paper_Space
 70
     0
 10
0.0
 20
0.0
 30
0.0
  3
*Paper_Space
  1

  0
ENDBLK
  5
221
330
1B
100
AcDbEntity
 67
     1
  8
0
100
AcDbBlockEnd
  0
BLOCK
  5
2C5
330
2C3
100
AcDbEntity
  8
0
100
AcDbBlockBegin
  2
GENAXEH
 70
     0
 10
0.0
 20
0.0
 30
0.0
  3
GENAXEH
  1

  0
LINE
  5
2C4
330
2C3
100
AcDbEntity
  8
0
100
AcDbLine
 10
-1.0
 20
0.0
 30
0.0
 11
1.0
 21
0.0
 31
0.0
  0
ENDBLK
  5
2C6
330
2C3
100
AcDbEntity
  8
0
100
AcDbBlockEnd
  0
ENDSEC
  0
SECTION
  2
ENTITIES
  0
LINE
  5
22
330
1D
100
AcDbEntity
  8
0
  6
Continuous
100
AcDbLine
 10
0.023551
 20
0.012188
 30
0.0
 11
0.023551
 21
0.015586
 31
0.0
  0
LINE
  5
23
330
1D
100
AcDbEntity
  8
0
  6
Continuous
100
AcDbLine
 10
-0.02355
 20
0.028094
 30
0.0
 11
-0.023551
 21
0.015586
 31
0.0
  0
LINE
  5
24
330
1D
100
AcDbEntity
  8
0
  6
Continuous
100
AcDbLine
 10
0.017924
 20
0.0655
 30
0.0
 11
0.015514
 21
0.0655
 31
0.0
  0
LINE
  5
25
330
1D
100
AcDbEntity
  8
0
  6
Continuous
100
AcDbLine
 10
-0.019538
 20
0.056266
 30
0.0
 11
-0.018293
 21
0.052387
 31
0.0
  0
LINE
  5
26
330
1D
100
AcDbEntity
  8
0
  6
Continuous
100
AcDbLine
 10
0.021763
 20
0.0655
 30
0.0
 11
0.021717
 21
0.0655
 31
0.0
  0
LINE
  5
27
330
1D
100
AcDbEntity
  8
0
  6
Continuous
100
AcDbLine
 10
0.015514
 20
0.0655
 30
0.0
 11
0.0
 21
0.0655
 31
0.0
  0
LINE
  5
28
330
1D
100
AcDbEntity
  8
0
  6
Continuous
100
AcDbLine
 10
0.021717
 20
0.0655
 30
0.0
 11
0.020897
 21
0.0655
 31
0.0
  0
LINE
  5
29
330
1D
100
AcDbEntity
  8
0
  6
Continuous
100
AcDbLine
 10
0.020897
 20
0.0655
 30
0.0
 11
0.017924
 21
0.0655
 31
0.0
  0
LINE
  5
2A
330
1D
100
AcDbEntity
  8
0
  6
Continuous
100
AcDbLine
 10
0.020782
 20
0.064513
 30
0.0
 11
0.020897
 21
0.0655
 31
0.0
  0
LINE
  5
2B
330
1D
100
AcDbEntity
  8
0
  6
Continuous
100
AcDbLine
 10
0.021115
 20
0.060205
 30
0.0
 11
0.020364
 21
0.056166
 31
0.0
  0
LINE
  5
2C
330
1D
100
AcDbEntity
  8
0
  6
Continuous
100
AcDbLine
 10
0.023546
 20
0.064841
 30
0.0
 11
0.02354
 21
0.064722
 31
0.0
  0
LINE
  5
2D
330
1D
100
AcDbEntity
  8
0
  6
Continuous
100
AcDbLine
 10
0.023551
 20
0.038365
 30
0.0
 11
0.023623
 21
0.049684
 31
0.0
  0
LINE
  5
2E
330
1D
100
AcDbEntity
  8
0
  6
Continuous
100
AcDbLine
 10
0.023551
 20
0.058908
 30
0.0
 11
0.023551
 21
0.06485
 31
0.0
  0
LINE
  5
2F
330
1D
100
AcDbEntity
  8
0
  6
Continuous
100
AcDbLine
 10
0.020284
 20
0.060263
 30
0.0
 11
0.020782
 21
0.064513
 31
0.0
  0
LINE
  5
30
330
1D
100
AcDbEntity
  8
0
  6
Continuous
100
AcDbLine
 10
0.023623
 20
0.049684
 30
0.0
 11
0.023551
 21
0.058908
 31
0.0
  0
LINE
  5
31
330
1D
100
AcDbEntity
  8
0
  6
Continuous
100
AcDbLine
 10
-0.020308
 20
0.033952
 30
0.0
 11
-0.019131
 21
0.027896
 31
0.0
  0
LINE
  5
32
330
1D
100
AcDbEntity
  8
0
  6
Continuous
100
AcDbLine
 10
-0.023551
 20
0.038365
 30
0.0
 11
-0.02355
 21
0.028094
 31
0.0
  0
LINE
  5
33
330
1D
100
AcDbEntity
  8
0
  6
Continuous
100
AcDbLine
 10
0.020308
 20
0.033952
 30
0.0
 11
0.021242
 21
0.04023
 31
0.0
  0
LINE
  5
34
330
1D
100
AcDbEntity
  8
0
  6
Continuous
100
AcDbLine
 10
0.0
 20
0.031511
 30
0.0
 11
-0.006103
 21
0.032534
 31
0.0
  0
LINE
  5
35
330
1D
100
AcDbEntity
  8
0
  6
Continuous
100
AcDbLine
 10
-0.023551
 20
0.015586
 30
0.0
 11
-0.023551
 21
0.012188
 31
0.0
  0
LINE
  5
36
330
1D
100
AcDbEntity
  8
0
  6
Continuous
100
AcDbLine
 10
-0.02354
 20
0.064722
 30
0.0
 11
-0.023545
 21
0.064841
 31
0.0
  0
LINE
  5
37
330
1D
100
AcDbEntity
  8
0
  6
Continuous
100
AcDbLine
 10
-0.015514
 20
0.0655
 30
0.0
 11
-0.017923
 21
0.0655
 31
0.0
  0
LINE
  5
38
330
1D
100
AcDbEntity
  8
0
  6
Continuous
100
AcDbLine
 10
0.0
 20
0.034155
 30
0.0
 11
0.0
 21
0.033477
 31
0.0
  0
LINE
  5
39
330
1D
100
AcDbEntity
  8
0
  6
Continuous
100
AcDbLine
 10
-0.02356
 20
0.0655
 30
0.0
 11
-0.02354
 21
0.064722
 31
0.0
  0
LINE
  5
3A
330
1D
100
AcDbEntity
  8
0
  6
Continuous
100
AcDbLine
 10
-0.021762
 20
0.0655
 30
0.0
 11
-0.02356
 21
0.0655
 31
0.0
  0
LINE
  5
3B
330
1D
100
AcDbEntity
  8
0
  6
Continuous
100
AcDbLine
 10
-0.021717
 20
0.0655
 30
0.0
 11
-0.021762
 21
0.0655
 31
0.0
  0
LINE
  5
3C
330
1D
100
AcDbEntity
  8
0
  6
Continuous
100
AcDbLine
 10
0.0
 20
0.0655
 30
0.0
 11
-0.015514
 21
0.0655
 31
0.0
  0
LINE
  5
3D
330
1D
100
AcDbEntity
  8
0
  6
Continuous
100
AcDbLine
 10
-0.020897
 20
0.0655
 30
0.0
 11
-0.021717
 21
0.0655
 31
0.0
  0
LINE
  5
3E
330
1D
100
AcDbEntity
  8
0
  6
Continuous
100
AcDbLine
 10
-0.020897
 20
0.0655
 30
0.0
 11
-0.020781
 21
0.064513
 31
0.0
  0
LINE
  5
3F
330
1D
100
AcDbEntity
  8
0
  6
Continuous
100
AcDbLine
 10
-0.017923
 20
0.0655
 30
0.0
 11
-0.020897
 21
0.0655
 31
0.0
  0
LINE
  5
40
330
1D
100
AcDbEntity
  8
0
  6
Continuous
100
AcDbLine
 10
0.023551
 20
0.028094
 30
0.0
 11
0.023551
 21
0.038365
 31
0.0
  0
LINE
  5
41
330
1D
100
AcDbEntity
  8
0
  6
Continuous
100
AcDbLine
 10
-0.019538
 20
0.056266
 30
0.0
 11
-0.020283
 21
0.060263
 31
0.0
  0
LINE
  5
42
330
1D
100
AcDbEntity
  8
0
  6
Continuous
100
AcDbLine
 10
-0.021241
 20
0.04023
 30
0.0
 11
-0.021533
 21
0.045939
 31
0.0
  0
LINE
  5
43
330
1D
100
AcDbEntity
  8
0
  6
Continuous
100
AcDbLine
 10
-0.015387
 20
0.04891
 30
0.0
 11
-0.018293
 21
0.052387
 31
0.0
  0
LINE
  5
44
330
1D
100
AcDbEntity
  8
0
  6
Continuous
100
AcDbLine
 10
-0.011274
 20
0.046412
 30
0.0
 11
-0.015387
 21
0.04891
 31
0.0
  0
LINE
  5
45
330
1D
100
AcDbEntity
  8
0
  6
Continuous
100
AcDbLine
 10
0.023551
 20
0.015586
 30
0.0
 11
0.023551
 21
0.028094
 31
0.0
  0
LINE
  5
46
330
1D
100
AcDbEntity
  8
0
  6
Continuous
100
AcDbLine
 10
0.021533
 20
0.045939
 30
0.0
 11
0.021242
 21
0.04023
 31
0.0
  0
LINE
  5
47
330
1D
100
AcDbEntity
  8
0
  6
Continuous
100
AcDbLine
 10
-0.020364
 20
0.056166
 30
0.0
 11
-0.021115
 21
0.060205
 31
0.0
  0
LINE
  5
48
330
1D
100
AcDbEntity
  8
0
  6
Continuous
100
AcDbLine
 10
-0.020283
 20
0.060263
 30
0.0
 11
-0.020781
 21
0.064513
 31
0.0
  0
LINE
  5
49
330
1D
100
AcDbEntity
  8
0
  6
Continuous
100
AcDbLine
 10
0.019069
 20
0.052202
 30
0.0
 11
0.020364
 21
0.056166
 31
0.0
  0
LINE
  5
4A
330
1D
100
AcDbEntity
  8
0
  6
Continuous
100
AcDbLine
 10
0.019539
 20
0.056266
 30
0.0
 11
0.018294
 21
0.052387
 31
0.0
  0
LINE
  5
4B
330
1D
100
AcDbEntity
  8
0
  6
Continuous
100
AcDbLine
 10
-0.023551
 20
0.06485
 30
0.0
 11
-0.023551
 21
0.058908
 31
0.0
  0
LINE
  5
4C
330
1D
100
AcDbEntity
  8
0
  6
Continuous
100
AcDbLine
 10
0.020308
 20
0.033952
 30
0.0
 11
0.019132
 21
0.027896
 31
0.0
  0
LINE
  5
4D
330
1D
100
AcDbEntity
  8
0
  6
Continuous
100
AcDbLine
 10
0.011274
 20
0.046412
 30
0.0
 11
0.015388
 21
0.04891
 31
0.0
  0
LINE
  5
4E
330
1D
100
AcDbEntity
  8
0
  6
Continuous
100
AcDbLine
 10
0.02356
 20
0.0655
 30
0.0
 11
0.021763
 21
0.0655
 31
0.0
  0
LINE
  5
4F
330
1D
100
AcDbEntity
  8
0
  6
Continuous
100
AcDbLine
 10
0.02354
 20
0.064722
 30
0.0
 11
0.02356
 21
0.0655
 31
0.0
  0
LINE
  5
50
330
1D
100
AcDbEntity
  8
0
  6
Continuous
100
AcDbLine
 10
0.0
 20
0.028627
 30
0.0
 11
0.0
 21
0.024585
 31
0.0
  0
LINE
  5
51
330
1D
100
AcDbEntity
  8
0
  6
Continuous
100
AcDbLine
 10
0.019539
 20
0.056266
 30
0.0
 11
0.020284
 21
0.060263
 31
0.0
  0
LINE
  5
52
330
1D
100
AcDbEntity
  8
0
  6
Continuous
100
AcDbLine
 10
0.0
 20
0.031511
 30
0.0
 11
0.006104
 21
0.032534
 31
0.0
  0
LINE
  5
53
330
1D
100
AcDbEntity
  8
0
  6
Continuous
100
AcDbLine
 10
0.0
 20
0.033477
 30
0.0
 11
0.0
 21
0.031511
 31
0.0
  0
LINE
  5
54
330
1D
100
AcDbEntity
  8
0
  6
Continuous
100
AcDbLine
 10
-0.021241
 20
0.04023
 30
0.0
 11
-0.020308
 21
0.033952
 31
0.0
  0
LINE
  5
55
330
1D
100
AcDbEntity
  8
0
  6
Continuous
100
AcDbLine
 10
-0.023623
 20
0.049684
 30
0.0
 11
-0.023551
 21
0.038365
 31
0.0
  0
LINE
  5
56
330
1D
100
AcDbEntity
  8
0
  6
Continuous
100
AcDbLine
 10
-0.019068
 20
0.052202
 30
0.0
 11
-0.020364
 21
0.056166
 31
0.0
  0
LINE
  5
57
330
1D
100
AcDbEntity
  8
0
  6
Continuous
100
AcDbLine
 10
0.018294
 20
0.052387
 30
0.0
 11
0.015388
 21
0.04891
 31
0.0
  0
LINE
  5
58
330
1D
100
AcDbEntity
  8
0
  6
Continuous
100
AcDbLine
 10
-0.023551
 20
0.058908
 30
0.0
 11
-0.023623
 21
0.049684
 31
0.0
  0
LINE
  5
59
330
1D
100
AcDbEntity
  8
0
  6
Continuous
100
AcDbLine
 10
-0.023551
 20
0.012188
 30
0.0
 11
-0.023551
 21
-0.0595
 31
0.0
  0
LINE
  5
5A
330
1D
100
AcDbEntity
  8
0
  6
Continuous
100
AcDbLine
 10
0.023551
 20
-0.0595
 30
0.0
 11
0.023551
 21
0.012188
 31
0.0
  0
LINE
  5
5B
330
1D
100
AcDbEntity
  8
0
  6
Continuous
100
AcDbLine
 10
-0.008366
 20
0.045445
 30
0.0
 11
-0.007957
 21
0.046714
 31
0.0
  0
LINE
  5
5C
330
1D
100
AcDbEntity
  8
0
  6
Continuous
100
AcDbLine
 10
-0.007957
 20
0.046714
 30
0.0
 11
-0.006769
 21
0.047858
 31
0.0
  0
LINE
  5
5D
330
1D
100
AcDbEntity
  8
0
  6
Continuous
100
AcDbLine
 10
-0.006769
 20
0.047858
 30
0.0
 11
-0.004918
 21
0.048766
 31
0.0
  0
LINE
  5
5E
330
1D
100
AcDbEntity
  8
0
  6
Continuous
100
AcDbLine
 10
-0.004918
 20
0.048766
 30
0.0
 11
-0.002585
 21
0.049349
 31
0.0
  0
LINE
  5
5F
330
1D
100
AcDbEntity
  8
0
  6
Continuous
100
AcDbLine
 10
-0.002585
 20
0.049349
 30
0.0
 11
0.0
 21
0.04955
 31
0.0
  0
LINE
  5
60
330
1D
100
AcDbEntity
  8
0
  6
Continuous
100
AcDbLine
 10
0.0
 20
0.04955
 30
0.0
 11
0.002586
 21
0.049349
 31
0.0
  0
LINE
  5
61
330
1D
100
AcDbEntity
  8
0
  6
Continuous
100
AcDbLine
 10
0.002586
 20
0.049349
 30
0.0
 11
0.004918
 21
0.048766
 31
0.0
  0
LINE
  5
62
330
1D
100
AcDbEntity
  8
0
  6
Continuous
100
AcDbLine
 10
0.004918
 20
0.048766
 30
0.0
 11
0.006769
 21
0.047858
 31
0.0
  0
LINE
  5
63
330
1D
100
AcDbEntity
  8
0
  6
Continuous
100
AcDbLine
 10
0.006769
 20
0.047858
 30
0.0
 11
0.007957
 21
0.046714
 31
0.0
  0
LINE
  5
64
330
1D
100
AcDbEntity
  8
0
  6
Continuous
100
AcDbLine
 10
0.007957
 20
0.046714
 30
0.0
 11
0.008367
 21
0.045445
 31
0.0
  0
LINE
  5
65
330
1D
100
AcDbEntity
  8
0
  6
Continuous
100
AcDbLine
 10
-0.004918
 20
0.042124
 30
0.0
 11
-0.002585
 21
0.041541
 31
0.0
  0
LINE
  5
66
330
1D
100
AcDbEntity
  8
0
  6
Continuous
100
AcDbLine
 10
0.004918
 20
0.042124
 30
0.0
 11
0.006769
 21
0.043032
 31
0.0
  0
LINE
  5
67
330
1D
100
AcDbEntity
  8
0
  6
Continuous
100
AcDbLine
 10
-0.002585
 20
0.041541
 30
0.0
 11
0.0
 21
0.04134
 31
0.0
  0
LINE
  5
68
330
1D
100
AcDbEntity
  8
0
  6
Continuous
100
AcDbLine
 10
-0.008366
 20
0.045445
 30
0.0
 11
-0.007957
 21
0.044177
 31
0.0
  0
LINE
  5
69
330
1D
100
AcDbEntity
  8
0
  6
Continuous
100
AcDbLine
 10
0.006769
 20
0.043032
 30
0.0
 11
0.007957
 21
0.044177
 31
0.0
  0
LINE
  5
6A
330
1D
100
AcDbEntity
  8
0
  6
Continuous
100
AcDbLine
 10
0.007957
 20
0.044177
 30
0.0
 11
0.008367
 21
0.045445
 31
0.0
  0
LINE
  5
6B
330
1D
100
AcDbEntity
  8
0
  6
Continuous
100
AcDbLine
 10
-0.007957
 20
0.044177
 30
0.0
 11
-0.006769
 21
0.043032
 31
0.0
  0
LINE
  5
6C
330
1D
100
AcDbEntity
  8
0
  6
Continuous
100
AcDbLine
 10
0.0
 20
0.04134
 30
0.0
 11
0.002586
 21
0.041541
 31
0.0
  0
LINE
  5
6D
330
1D
100
AcDbEntity
  8
0
  6
Continuous
100
AcDbLine
 10
-0.006769
 20
0.043032
 30
0.0
 11
-0.004918
 21
0.042124
 31
0.0
  0
LINE
  5
6E
330
1D
100
AcDbEntity
  8
0
  6
Continuous
100
AcDbLine
 10
0.0
 20
0.039914
 30
0.0
 11
0.003484
 21
0.040185
 31
0.0
  0
LINE
  5
6F
330
1D
100
AcDbEntity
  8
0
  6
Continuous
100
AcDbLine
 10
0.003484
 20
0.040185
 30
0.0
 11
0.006627
 21
0.040971
 31
0.0
  0
LINE
  5
70
330
1D
100
AcDbEntity
  8
0
  6
Continuous
100
AcDbLine
 10
0.006627
 20
0.040971
 30
0.0
 11
0.009121
 21
0.042194
 31
0.0
  0
LINE
  5
71
330
1D
100
AcDbEntity
  8
0
  6
Continuous
100
AcDbLine
 10
0.009121
 20
0.042194
 30
0.0
 11
0.010722
 21
0.043736
 31
0.0
  0
LINE
  5
72
330
1D
100
AcDbEntity
  8
0
  6
Continuous
100
AcDbLine
 10
0.010722
 20
0.043736
 30
0.0
 11
0.011274
 21
0.045445
 31
0.0
  0
LINE
  5
73
330
1D
100
AcDbEntity
  8
0
  6
Continuous
100
AcDbLine
 10
0.011274
 20
0.045445
 30
0.0
 11
0.011274
 21
0.045881
 31
0.0
  0
LINE
  5
74
330
1D
100
AcDbEntity
  8
0
  6
Continuous
100
AcDbLine
 10
0.010722
 20
0.047154
 30
0.0
 11
0.011274
 21
0.045445
 31
0.0
  0
LINE
  5
75
330
1D
100
AcDbEntity
  8
0
  6
Continuous
100
AcDbLine
 10
0.009121
 20
0.048696
 30
0.0
 11
0.010722
 21
0.047154
 31
0.0
  0
LINE
  5
76
330
1D
100
AcDbEntity
  8
0
  6
Continuous
100
AcDbLine
 10
0.006627
 20
0.04992
 30
0.0
 11
0.009121
 21
0.048696
 31
0.0
  0
LINE
  5
77
330
1D
100
AcDbEntity
  8
0
  6
Continuous
100
AcDbLine
 10
0.003484
 20
0.050705
 30
0.0
 11
0.006627
 21
0.04992
 31
0.0
  0
LINE
  5
78
330
1D
100
AcDbEntity
  8
0
  6
Continuous
100
AcDbLine
 10
0.0
 20
0.050976
 30
0.0
 11
0.003484
 21
0.050705
 31
0.0
  0
LINE
  5
79
330
1D
100
AcDbEntity
  8
0
  6
Continuous
100
AcDbLine
 10
-0.003484
 20
0.050705
 30
0.0
 11
0.0
 21
0.050976
 31
0.0
  0
LINE
  5
7A
330
1D
100
AcDbEntity
  8
0
  6
Continuous
100
AcDbLine
 10
-0.006626
 20
0.04992
 30
0.0
 11
-0.003484
 21
0.050705
 31
0.0
  0
LINE
  5
7B
330
1D
100
AcDbEntity
  8
0
  6
Continuous
100
AcDbLine
 10
-0.00912
 20
0.048696
 30
0.0
 11
-0.006626
 21
0.04992
 31
0.0
  0
LINE
  5
7C
330
1D
100
AcDbEntity
  8
0
  6
Continuous
100
AcDbLine
 10
-0.010722
 20
0.047154
 30
0.0
 11
-0.00912
 21
0.048696
 31
0.0
  0
LINE
  5
7D
330
1D
100
AcDbEntity
  8
0
  6
Continuous
100
AcDbLine
 10
-0.011274
 20
0.045445
 30
0.0
 11
-0.010722
 21
0.047154
 31
0.0
  0
LINE
  5
7E
330
1D
100
AcDbEntity
  8
0
  6
Continuous
100
AcDbLine
 10
-0.011274
 20
0.045881
 30
0.0
 11
-0.011274
 21
0.045445
 31
0.0
  0
LINE
  5
7F
330
1D
100
AcDbEntity
  8
0
  6
Continuous
100
AcDbLine
 10
-0.011274
 20
0.045445
 30
0.0
 11
-0.010722
 21
0.043736
 31
0.0
  0
LINE
  5
80
330
1D
100
AcDbEntity
  8
0
  6
Continuous
100
AcDbLine
 10
-0.010722
 20
0.043736
 30
0.0
 11
-0.00912
 21
0.042194
 31
0.0
  0
LINE
  5
81
330
1D
100
AcDbEntity
  8
0
  6
Continuous
100
AcDbLine
 10
-0.00912
 20
0.042194
 30
0.0
 11
-0.006626
 21
0.040971
 31
0.0
  0
LINE
  5
82
330
1D
100
AcDbEntity
  8
0
  6
Continuous
100
AcDbLine
 10
-0.006626
 20
0.040971
 30
0.0
 11
-0.003484
 21
0.040185
 31
0.0
  0
LINE
  5
83
330
1D
100
AcDbEntity
  8
0
  6
Continuous
100
AcDbLine
 10
-0.003484
 20
0.040185
 30
0.0
 11
0.0
 21
0.039914
 31
0.0
  0
LINE
  5
84
330
1D
100
AcDbEntity
  8
0
  6
Continuous
100
AcDbLine
 10
0.011274
 20
0.045881
 30
0.0
 11
0.011274
 21
0.048419
 31
0.0
  0
LINE
  5
85
330
1D
100
AcDbEntity
  8
0
  6
Continuous
100
AcDbLine
 10
0.002586
 20
0.041541
 30
0.0
 11
0.004918
 21
0.042124
 31
0.0
  0
LINE
  5
86
330
1D
100
AcDbEntity
  8
0
  6
Continuous
100
AcDbLine
 10
-0.011274
 20
0.048419
 30
0.0
 11
-0.011274
 21
0.045881
 31
0.0
  0
LINE
  5
87
330
1D
100
AcDbEntity
  8
0
  6
Continuous
100
AcDbLine
 10
-0.007957
 20
0.044425
 30
0.0
 11
-0.006769
 21
0.043281
 31
0.0
  0
LINE
  5
88
330
1D
100
AcDbEntity
  8
0
  6
Continuous
100
AcDbLine
 10
-0.008366
 20
0.045694
 30
0.0
 11
-0.007957
 21
0.044425
 31
0.0
  0
LINE
  5
89
330
1D
100
AcDbEntity
  8
0
  6
Continuous
100
AcDbLine
 10
0.007957
 20
0.044425
 30
0.0
 11
0.008367
 21
0.045694
 31
0.0
  0
LINE
  5
8A
330
1D
100
AcDbEntity
  8
0
  6
Continuous
100
AcDbLine
 10
0.006769
 20
0.043281
 30
0.0
 11
0.007957
 21
0.044425
 31
0.0
  0
LINE
  5
8B
330
1D
100
AcDbEntity
  8
0
  6
Continuous
100
AcDbLine
 10
0.004918
 20
0.042373
 30
0.0
 11
0.006769
 21
0.043281
 31
0.0
  0
LINE
  5
8C
330
1D
100
AcDbEntity
  8
0
  6
Continuous
100
AcDbLine
 10
0.002586
 20
0.04179
 30
0.0
 11
0.004918
 21
0.042373
 31
0.0
  0
LINE
  5
8D
330
1D
100
AcDbEntity
  8
0
  6
Continuous
100
AcDbLine
 10
0.0
 20
0.041589
 30
0.0
 11
0.002586
 21
0.04179
 31
0.0
  0
LINE
  5
8E
330
1D
100
AcDbEntity
  8
0
  6
Continuous
100
AcDbLine
 10
-0.002585
 20
0.04179
 30
0.0
 11
0.0
 21
0.041589
 31
0.0
  0
LINE
  5
8F
330
1D
100
AcDbEntity
  8
0
  6
Continuous
100
AcDbLine
 10
-0.004918
 20
0.042373
 30
0.0
 11
-0.002585
 21
0.04179
 31
0.0
  0
LINE
  5
90
330
1D
100
AcDbEntity
  8
0
  6
Continuous
100
AcDbLine
 10
-0.006769
 20
0.043281
 30
0.0
 11
-0.004918
 21
0.042373
 31
0.0
  0
LINE
  5
91
330
1D
100
AcDbEntity
  8
0
  6
Continuous
100
AcDbLine
 10
-0.035
 20
-0.065234
 30
0.0
 11
-0.035
 21
-0.0655
 31
0.0
  0
LINE
  5
92
330
1D
100
AcDbEntity
  8
0
  6
Continuous
100
AcDbLine
 10
-0.035
 20
-0.0655
 30
0.0
 11
-0.034122
 21
-0.0655
 31
0.0
  0
LINE
  5
93
330
1D
100
AcDbEntity
  8
0
  6
Continuous
100
AcDbLine
 10
-0.034122
 20
-0.0655
 30
0.0
 11
-0.031534
 21
-0.0655
 31
0.0
  0
LINE
  5
94
330
1D
100
AcDbEntity
  8
0
  6
Continuous
100
AcDbLine
 10
-0.031534
 20
-0.0655
 30
0.0
 11
-0.027364
 21
-0.0655
 31
0.0
  0
LINE
  5
95
330
1D
100
AcDbEntity
  8
0
  6
Continuous
100
AcDbLine
 10
-0.027364
 20
-0.0655
 30
0.0
 11
-0.021822
 21
-0.0655
 31
0.0
  0
LINE
  5
96
330
1D
100
AcDbEntity
  8
0
  6
Continuous
100
AcDbLine
 10
-0.021822
 20
-0.0655
 30
0.0
 11
-0.015186
 21
-0.0655
 31
0.0
  0
LINE
  5
97
330
1D
100
AcDbEntity
  8
0
  6
Continuous
100
AcDbLine
 10
-0.015186
 20
-0.0655
 30
0.0
 11
-0.007788
 21
-0.0655
 31
0.0
  0
LINE
  5
98
330
1D
100
AcDbEntity
  8
0
  6
Continuous
100
AcDbLine
 10
-0.007788
 20
-0.0655
 30
0.0
 11
0.0
 21
-0.0655
 31
0.0
  0
LINE
  5
99
330
1D
100
AcDbEntity
  8
0
  6
Continuous
100
AcDbLine
 10
0.0
 20
-0.0655
 30
0.0
 11
0.007788
 21
-0.0655
 31
0.0
  0
LINE
  5
9A
330
1D
100
AcDbEntity
  8
0
  6
Continuous
100
AcDbLine
 10
0.007788
 20
-0.0655
 30
0.0
 11
0.015186
 21
-0.0655
 31
0.0
  0
LINE
  5
9B
330
1D
100
AcDbEntity
  8
0
  6
Continuous
100
AcDbLine
 10
0.015186
 20
-0.0655
 30
0.0
 11
0.021822
 21
-0.0655
 31
0.0
  0
LINE
  5
9C
330
1D
100
AcDbEntity
  8
0
  6
Continuous
100
AcDbLine
 10
0.021822
 20
-0.0655
 30
0.0
 11
0.027364
 21
-0.0655
 31
0.0
  0
LINE
  5
9D
330
1D
100
AcDbEntity
  8
0
  6
Continuous
100
AcDbLine
 10
0.027364
 20
-0.0655
 30
0.0
 11
0.031534
 21
-0.0655
 31
0.0
  0
LINE
  5
9E
330
1D
100
AcDbEntity
  8
0
  6
Continuous
100
AcDbLine
 10
0.031534
 20
-0.0655
 30
0.0
 11
0.034123
 21
-0.0655
 31
0.0
  0
LINE
  5
9F
330
1D
100
AcDbEntity
  8
0
  6
Continuous
100
AcDbLine
 10
0.035
 20
-0.0655
 30
0.0
 11
0.035
 21
-0.065234
 31
0.0
  0
LINE
  5
A0
330
1D
100
AcDbEntity
  8
0
  6
Continuous
100
AcDbLine
 10
0.034123
 20
-0.0655
 30
0.0
 11
0.035
 21
-0.0655
 31
0.0
  0
LINE
  5
A1
330
1D
100
AcDbEntity
  8
0
  6
Continuous
100
AcDbLine
 10
-0.034122
 20
-0.0595
 30
0.0
 11
-0.035
 21
-0.0595
 31
0.0
  0
LINE
  5
A2
330
1D
100
AcDbEntity
  8
0
  6
Continuous
100
AcDbLine
 10
-0.035
 20
-0.0595
 30
0.0
 11
-0.035
 21
-0.059766
 31
0.0
  0
LINE
  5
A3
330
1D
100
AcDbEntity
  8
0
  6
Continuous
100
AcDbLine
 10
-0.031534
 20
-0.0595
 30
0.0
 11
-0.034122
 21
-0.0595
 31
0.0
  0
LINE
  5
A4
330
1D
100
AcDbEntity
  8
0
  6
Continuous
100
AcDbLine
 10
-0.027364
 20
-0.0595
 30
0.0
 11
-0.031534
 21
-0.0595
 31
0.0
  0
LINE
  5
A5
330
1D
100
AcDbEntity
  8
0
  6
Continuous
100
AcDbLine
 10
-0.021822
 20
-0.0595
 30
0.0
 11
-0.027364
 21
-0.0595
 31
0.0
  0
LINE
  5
A6
330
1D
100
AcDbEntity
  8
0
  6
Continuous
100
AcDbLine
 10
-0.015186
 20
-0.0595
 30
0.0
 11
-0.021822
 21
-0.0595
 31
0.0
  0
LINE
  5
A7
330
1D
100
AcDbEntity
  8
0
  6
Continuous
100
AcDbLine
 10
-0.007788
 20
-0.0595
 30
0.0
 11
-0.015186
 21
-0.0595
 31
0.0
  0
LINE
  5
A8
330
1D
100
AcDbEntity
  8
0
  6
Continuous
100
AcDbLine
 10
0.0
 20
-0.0595
 30
0.0
 11
-0.007788
 21
-0.0595
 31
0.0
  0
LINE
  5
A9
330
1D
100
AcDbEntity
  8
0
  6
Continuous
100
AcDbLine
 10
0.007788
 20
-0.0595
 30
0.0
 11
0.0
 21
-0.0595
 31
0.0
  0
LINE
  5
AA
330
1D
100
AcDbEntity
  8
0
  6
Continuous
100
AcDbLine
 10
0.015186
 20
-0.0595
 30
0.0
 11
0.007788
 21
-0.0595
 31
0.0
  0
LINE
  5
AB
330
1D
100
AcDbEntity
  8
0
  6
Continuous
100
AcDbLine
 10
0.021822
 20
-0.0595
 30
0.0
 11
0.015186
 21
-0.0595
 31
0.0
  0
LINE
  5
AC
330
1D
100
AcDbEntity
  8
0
  6
Continuous
100
AcDbLine
 10
0.027364
 20
-0.0595
 30
0.0
 11
0.021822
 21
-0.0595
 31
0.0
  0
LINE
  5
AD
330
1D
100
AcDbEntity
  8
0
  6
Continuous
100
AcDbLine
 10
0.031534
 20
-0.0595
 30
0.0
 11
0.027364
 21
-0.0595
 31
0.0
  0
LINE
  5
AE
330
1D
100
AcDbEntity
  8
0
  6
Continuous
100
AcDbLine
 10
0.034123
 20
-0.0595
 30
0.0
 11
0.031534
 21
-0.0595
 31
0.0
  0
LINE
  5
AF
330
1D
100
AcDbEntity
  8
0
  6
Continuous
100
AcDbLine
 10
0.035
 20
-0.0595
 30
0.0
 11
0.034123
 21
-0.0595
 31
0.0
  0
LINE
  5
B0
330
1D
100
AcDbEntity
  8
0
  6
Continuous
100
AcDbLine
 10
0.035
 20
-0.059766
 30
0.0
 11
0.035
 21
-0.0595
 31
0.0
  0
LINE
  5
B1
330
1D
100
AcDbEntity
  8
0
  6
Continuous
100
AcDbLine
 10
0.035
 20
-0.065234
 30
0.0
 11
0.035
 21
-0.059766
 31
0.0
  0
LINE
  5
B2
330
1D
100
AcDbEntity
  8
0
  6
Continuous
100
AcDbLine
 10
-0.035
 20
-0.059766
 30
0.0
 11
-0.035
 21
-0.065234
 31
0.0
  0
LINE
  5
B3
330
1D
100
AcDbEntity
  8
0
  6
Continuous
100
AcDbLine
 10
0.139968
 20
-0.056542
 30
0.0
 11
0.139969
 21
-0.019162
 31
0.0
  0
LINE
  5
B4
330
1D
100
AcDbEntity
  8
0
  6
Continuous
100
AcDbLine
 10
0.110064
 20
-0.057057
 30
0.0
 11
0.110064
 21
-0.0595
 31
0.0
  0
LINE
  5
B5
330
1D
100
AcDbEntity
  8
0
  6
Continuous
100
AcDbLine
 10
0.110064
 20
-0.013337
 30
0.0
 11
0.110064
 21
-0.019162
 31
0.0
  0
LINE
  5
B6
330
1D
100
AcDbEntity
  8
0
  6
Continuous
100
AcDbLine
 10
0.1957
 20
-0.000168
 30
0.0
 11
0.197
 21
0.000827
 31
0.0
  0
LINE
  5
B7
330
1D
100
AcDbEntity
  8
0
  6
Continuous
100
AcDbLine
 10
0.168611
 20
-0.004682
 30
0.0
 11
0.178893
 21
-0.00358
 31
0.0
  0
LINE
  5
B8
330
1D
100
AcDbEntity
  8
0
  6
Continuous
100
AcDbLine
 10
0.161691
 20
-0.005127
 30
0.0
 11
0.168611
 21
-0.004682
 31
0.0
  0
LINE
  5
B9
330
1D
100
AcDbEntity
  8
0
  6
Continuous
100
AcDbLine
 10
0.174789
 20
-0.002447
 30
0.0
 11
0.16347
 21
-0.003209
 31
0.0
  0
LINE
  5
BA
330
1D
100
AcDbEntity
  8
0
  6
Continuous
100
AcDbLine
 10
0.15681
 20
0.002499
 30
0.0
 11
0.150781
 21
0.002499
 31
0.0
  0
LINE
  5
BB
330
1D
100
AcDbEntity
  8
0
  6
Continuous
100
AcDbLine
 10
0.140925
 20
-0.014446
 30
0.0
 11
0.142281
 21
-0.011787
 31
0.0
  0
LINE
  5
BC
330
1D
100
AcDbEntity
  8
0
  6
Continuous
100
AcDbLine
 10
0.142281
 20
-0.011787
 30
0.0
 11
0.144234
 21
-0.009454
 31
0.0
  0
LINE
  5
BD
330
1D
100
AcDbEntity
  8
0
  6
Continuous
100
AcDbLine
 10
0.146591
 20
-0.007844
 30
0.0
 11
0.149007
 21
-0.006675
 31
0.0
  0
LINE
  5
BE
330
1D
100
AcDbEntity
  8
0
  6
Continuous
100
AcDbLine
 10
0.150193
 20
-0.003776
 30
0.0
 11
0.139152
 21
-0.006675
 31
0.0
  0
LINE
  5
BF
330
1D
100
AcDbEntity
  8
0
  6
Continuous
100
AcDbLine
 10
0.139152
 20
-0.006675
 30
0.0
 11
0.143731
 21
-0.006675
 31
0.0
  0
LINE
  5
C0
330
1D
100
AcDbEntity
  8
0
  6
Continuous
100
AcDbLine
 10
0.15287
 20
-0.005805
 30
0.0
 11
0.143731
 21
-0.006675
 31
0.0
  0
LINE
  5
C1
330
1D
100
AcDbEntity
  8
0
  6
Continuous
100
AcDbLine
 10
0.143731
 20
-0.006675
 30
0.0
 11
0.146608
 21
-0.006675
 31
0.0
  0
LINE
  5
C2
330
1D
100
AcDbEntity
  8
0
  6
Continuous
100
AcDbLine
 10
0.146608
 20
-0.006675
 30
0.0
 11
0.148375
 21
-0.006675
 31
0.0
  0
LINE
  5
C3
330
1D
100
AcDbEntity
  8
0
  6
Continuous
100
AcDbLine
 10
0.190337
 20
0.002499
 30
0.0
 11
0.179984
 21
0.002499
 31
0.0
  0
LINE
  5
C4
330
1D
100
AcDbEntity
  8
0
  6
Continuous
100
AcDbLine
 10
0.169631
 20
0.002499
 30
0.0
 11
0.16284
 21
0.002499
 31
0.0
  0
LINE
  5
C5
330
1D
100
AcDbEntity
  8
0
  6
Continuous
100
AcDbLine
 10
0.16759
 20
-0.001443
 30
0.0
 11
0.177336
 21
-0.00066
 31
0.0
  0
LINE
  5
C6
330
1D
100
AcDbEntity
  8
0
  6
Continuous
100
AcDbLine
 10
0.189255
 20
-0.002332
 30
0.0
 11
0.193394
 21
-0.001318
 31
0.0
  0
LINE
  5
C7
330
1D
100
AcDbEntity
  8
0
  6
Continuous
100
AcDbLine
 10
0.193394
 20
-0.001318
 30
0.0
 11
0.195806
 21
-0.000143
 31
0.0
  0
LINE
  5
C8
330
1D
100
AcDbEntity
  8
0
  6
Continuous
100
AcDbLine
 10
0.195806
 20
-0.000143
 30
0.0
 11
0.197
 21
0.000827
 31
0.0
  0
LINE
  5
C9
330
1D
100
AcDbEntity
  8
0
  6
Continuous
100
AcDbLine
 10
0.186171
 20
-0.001983
 30
0.0
 11
0.192746
 21
-0.001076
 31
0.0
  0
LINE
  5
CA
330
1D
100
AcDbEntity
  8
0
  6
Continuous
100
AcDbLine
 10
0.110064
 20
0.002065
 30
0.0
 11
0.110064
 21
-0.001901
 31
0.0
  0
LINE
  5
CB
330
1D
100
AcDbEntity
  8
0
  6
Continuous
100
AcDbLine
 10
0.150781
 20
0.002499
 30
0.0
 11
0.141652
 21
0.002499
 31
0.0
  0
LINE
  5
CC
330
1D
100
AcDbEntity
  8
0
  6
Continuous
100
AcDbLine
 10
0.141652
 20
0.002499
 30
0.0
 11
0.150781
 21
0.002499
 31
0.0
  0
LINE
  5
CD
330
1D
100
AcDbEntity
  8
0
  6
Continuous
100
AcDbLine
 10
0.110064
 20
-0.0089
 30
0.0
 11
0.110064
 21
-0.011119
 31
0.0
  0
LINE
  5
CE
330
1D
100
AcDbEntity
  8
0
  6
Continuous
100
AcDbLine
 10
0.110064
 20
-0.011119
 30
0.0
 11
0.110064
 21
-0.013337
 31
0.0
  0
LINE
  5
CF
330
1D
100
AcDbEntity
  8
0
  6
Continuous
100
AcDbLine
 10
0.110064
 20
-0.004464
 30
0.0
 11
0.110064
 21
-0.006675
 31
0.0
  0
LINE
  5
D0
330
1D
100
AcDbEntity
  8
0
  6
Continuous
100
AcDbLine
 10
0.195067
 20
-0.000294
 30
0.0
 11
0.195533
 21
0.000483
 31
0.0
  0
LINE
  5
D1
330
1D
100
AcDbEntity
  8
0
  6
Continuous
100
AcDbLine
 10
0.195067
 20
-0.000294
 30
0.0
 11
0.192746
 21
-0.001076
 31
0.0
  0
LINE
  5
D2
330
1D
100
AcDbEntity
  8
0
  6
Continuous
100
AcDbLine
 10
0.110064
 20
-0.006675
 30
0.0
 11
0.110064
 21
-0.0089
 31
0.0
  0
LINE
  5
D3
330
1D
100
AcDbEntity
  8
0
  6
Continuous
100
AcDbLine
 10
0.144234
 20
-0.009454
 30
0.0
 11
0.146591
 21
-0.007844
 31
0.0
  0
LINE
  5
D4
330
1D
100
AcDbEntity
  8
0
  6
Continuous
100
AcDbLine
 10
0.16963
 20
0.002499
 30
0.0
 11
0.162841
 21
0.002499
 31
0.0
  0
LINE
  5
D5
330
1D
100
AcDbEntity
  8
0
  6
Continuous
100
AcDbLine
 10
0.179987
 20
0.002499
 30
0.0
 11
0.169631
 21
0.002499
 31
0.0
  0
LINE
  5
D6
330
1D
100
AcDbEntity
  8
0
  6
Continuous
100
AcDbLine
 10
0.125016
 20
0.002499
 30
0.0
 11
0.11754
 21
0.002499
 31
0.0
  0
LINE
  5
D7
330
1D
100
AcDbEntity
  8
0
  6
Continuous
100
AcDbLine
 10
0.195533
 20
0.000483
 30
0.0
 11
0.197
 21
0.000827
 31
0.0
  0
LINE
  5
D8
330
1D
100
AcDbEntity
  8
0
  6
Continuous
100
AcDbLine
 10
0.195533
 20
0.000483
 30
0.0
 11
0.196005
 21
0.002049
 31
0.0
  0
LINE
  5
D9
330
1D
100
AcDbEntity
  8
0
  6
Continuous
100
AcDbLine
 10
0.192809
 20
-0.00004
 30
0.0
 11
0.195533
 21
0.000483
 31
0.0
  0
LINE
  5
DA
330
1D
100
AcDbEntity
  8
0
  6
Continuous
100
AcDbLine
 10
0.195386
 20
0.002499
 30
0.0
 11
0.190337
 21
0.002499
 31
0.0
  0
LINE
  5
DB
330
1D
100
AcDbEntity
  8
0
  6
Continuous
100
AcDbLine
 10
0.196263
 20
0.002499
 30
0.0
 11
0.190337
 21
0.002499
 31
0.0
  0
LINE
  5
DC
330
1D
100
AcDbEntity
  8
0
  6
Continuous
100
AcDbLine
 10
0.11973
 20
0.002499
 30
0.0
 11
0.114889
 21
0.002499
 31
0.0
  0
LINE
  5
DD
330
1D
100
AcDbEntity
  8
0
  6
Continuous
100
AcDbLine
 10
0.11754
 20
0.002499
 30
0.0
 11
0.110516
 21
0.002499
 31
0.0
  0
LINE
  5
DE
330
1D
100
AcDbEntity
  8
0
  6
Continuous
100
AcDbLine
 10
0.125016
 20
0.002499
 30
0.0
 11
0.11973
 21
0.002499
 31
0.0
  0
LINE
  5
DF
330
1D
100
AcDbEntity
  8
0
  6
Continuous
100
AcDbLine
 10
0.192809
 20
-0.00004
 30
0.0
 11
0.193618
 21
0.002052
 31
0.0
  0
LINE
  5
E0
330
1D
100
AcDbEntity
  8
0
  6
Continuous
100
AcDbLine
 10
0.186941
 20
-0.000559
 30
0.0
 11
0.192809
 21
-0.00004
 31
0.0
  0
LINE
  5
E1
330
1D
100
AcDbEntity
  8
0
  6
Continuous
100
AcDbLine
 10
0.179984
 20
0.002499
 30
0.0
 11
0.16963
 21
0.002499
 31
0.0
  0
LINE
  5
E2
330
1D
100
AcDbEntity
  8
0
  6
Continuous
100
AcDbLine
 10
0.178893
 20
-0.00358
 30
0.0
 11
0.189317
 21
-0.002332
 31
0.0
  0
LINE
  5
E3
330
1D
100
AcDbEntity
  8
0
  6
Continuous
100
AcDbLine
 10
0.174789
 20
-0.002447
 30
0.0
 11
0.186171
 21
-0.001983
 31
0.0
  0
LINE
  5
E4
330
1D
100
AcDbEntity
  8
0
  6
Continuous
100
AcDbLine
 10
0.186941
 20
-0.000559
 30
0.0
 11
0.177336
 21
-0.00066
 31
0.0
  0
LINE
  5
E5
330
1D
100
AcDbEntity
  8
0
  6
Continuous
100
AcDbLine
 10
0.197
 20
0.002034
 30
0.0
 11
0.197
 21
0.000827
 31
0.0
  0
LINE
  5
E6
330
1D
100
AcDbEntity
  8
0
  6
Continuous
100
AcDbLine
 10
0.156811
 20
0.002499
 30
0.0
 11
0.150781
 21
0.002499
 31
0.0
  0
LINE
  5
E7
330
1D
100
AcDbEntity
  8
0
  6
Continuous
100
AcDbLine
 10
0.150781
 20
0.002499
 30
0.0
 11
0.15681
 21
0.002499
 31
0.0
  0
LINE
  5
E8
330
1D
100
AcDbEntity
  8
0
  6
Continuous
100
AcDbLine
 10
0.110064
 20
0.002499
 30
0.0
 11
0.110064
 21
0.002065
 31
0.0
  0
LINE
  5
E9
330
1D
100
AcDbEntity
  8
0
  6
Continuous
100
AcDbLine
 10
0.110064
 20
0.002499
 30
0.0
 11
0.110574
 21
0.002499
 31
0.0
  0
LINE
  5
EA
330
1D
100
AcDbEntity
  8
0
  6
Continuous
100
AcDbLine
 10
0.112067
 20
0.002499
 30
0.0
 11
0.110574
 21
0.002499
 31
0.0
  0
LINE
  5
EB
330
1D
100
AcDbEntity
  8
0
  6
Continuous
100
AcDbLine
 10
0.114444
 20
0.002499
 30
0.0
 11
0.112067
 21
0.002499
 31
0.0
  0
LINE
  5
EC
330
1D
100
AcDbEntity
  8
0
  6
Continuous
100
AcDbLine
 10
0.11754
 20
0.002499
 30
0.0
 11
0.114444
 21
0.002499
 31
0.0
  0
LINE
  5
ED
330
1D
100
AcDbEntity
  8
0
  6
Continuous
100
AcDbLine
 10
0.121147
 20
0.002499
 30
0.0
 11
0.11754
 21
0.002499
 31
0.0
  0
LINE
  5
EE
330
1D
100
AcDbEntity
  8
0
  6
Continuous
100
AcDbLine
 10
0.125016
 20
0.002499
 30
0.0
 11
0.121147
 21
0.002499
 31
0.0
  0
LINE
  5
EF
330
1D
100
AcDbEntity
  8
0
  6
Continuous
100
AcDbLine
 10
0.197
 20
0.002499
 30
0.0
 11
0.196125
 21
0.002499
 31
0.0
  0
LINE
  5
F0
330
1D
100
AcDbEntity
  8
0
  6
Continuous
100
AcDbLine
 10
0.196005
 20
0.002049
 30
0.0
 11
0.196125
 21
0.002499
 31
0.0
  0
LINE
  5
F1
330
1D
100
AcDbEntity
  8
0
  6
Continuous
100
AcDbLine
 10
0.196125
 20
0.002499
 30
0.0
 11
0.193709
 21
0.002499
 31
0.0
  0
LINE
  5
F2
330
1D
100
AcDbEntity
  8
0
  6
Continuous
100
AcDbLine
 10
0.1289
 20
0.002499
 30
0.0
 11
0.125016
 21
0.002499
 31
0.0
  0
LINE
  5
F3
330
1D
100
AcDbEntity
  8
0
  6
Continuous
100
AcDbLine
 10
0.150781
 20
0.002499
 30
0.0
 11
0.141652
 21
0.002499
 31
0.0
  0
LINE
  5
F4
330
1D
100
AcDbEntity
  8
0
  6
Continuous
100
AcDbLine
 10
0.179989
 20
0.002499
 30
0.0
 11
0.169641
 21
0.002499
 31
0.0
  0
LINE
  5
F5
330
1D
100
AcDbEntity
  8
0
  6
Continuous
100
AcDbLine
 10
0.156827
 20
0.002499
 30
0.0
 11
0.1508
 21
0.002499
 31
0.0
  0
LINE
  5
F6
330
1D
100
AcDbEntity
  8
0
  6
Continuous
100
AcDbLine
 10
0.193709
 20
0.002499
 30
0.0
 11
0.190337
 21
0.002499
 31
0.0
  0
LINE
  5
F7
330
1D
100
AcDbEntity
  8
0
  6
Continuous
100
AcDbLine
 10
0.193618
 20
0.002052
 30
0.0
 11
0.193709
 21
0.002499
 31
0.0
  0
LINE
  5
F8
330
1D
100
AcDbEntity
  8
0
  6
Continuous
100
AcDbLine
 10
0.190337
 20
0.002499
 30
0.0
 11
0.179989
 21
0.002499
 31
0.0
  0
LINE
  5
F9
330
1D
100
AcDbEntity
  8
0
  6
Continuous
100
AcDbLine
 10
0.162853
 20
0.002499
 30
0.0
 11
0.156827
 21
0.002499
 31
0.0
  0
LINE
  5
FA
330
1D
100
AcDbEntity
  8
0
  6
Continuous
100
AcDbLine
 10
0.169641
 20
0.002499
 30
0.0
 11
0.162853
 21
0.002499
 31
0.0
  0
LINE
  5
FB
330
1D
100
AcDbEntity
  8
0
  6
Continuous
100
AcDbLine
 10
0.156841
 20
-0.003474
 30
0.0
 11
0.16347
 21
-0.003209
 31
0.0
  0
LINE
  5
FC
330
1D
100
AcDbEntity
  8
0
  6
Continuous
100
AcDbLine
 10
0.162841
 20
0.002499
 30
0.0
 11
0.156811
 21
0.002499
 31
0.0
  0
LINE
  5
FD
330
1D
100
AcDbEntity
  8
0
  6
Continuous
100
AcDbLine
 10
0.15681
 20
0.002499
 30
0.0
 11
0.16284
 21
0.002499
 31
0.0
  0
LINE
  5
FE
330
1D
100
AcDbEntity
  8
0
  6
Continuous
100
AcDbLine
 10
0.16284
 20
0.002499
 30
0.0
 11
0.15681
 21
0.002499
 31
0.0
  0
LINE
  5
FF
330
1D
100
AcDbEntity
  8
0
  6
Continuous
100
AcDbLine
 10
0.160383
 20
-0.001524
 30
0.0
 11
0.16759
 21
-0.001443
 31
0.0
  0
LINE
  5
100
330
1D
100
AcDbEntity
  8
0
  6
Continuous
100
AcDbLine
 10
0.156841
 20
-0.003474
 30
0.0
 11
0.150193
 21
-0.003776
 31
0.0
  0
LINE
  5
101
330
1D
100
AcDbEntity
  8
0
  6
Continuous
100
AcDbLine
 10
0.155455
 20
-0.005958
 30
0.0
 11
0.161691
 21
-0.005127
 31
0.0
  0
LINE
  5
102
330
1D
100
AcDbEntity
  8
0
  6
Continuous
100
AcDbLine
 10
0.110064
 20
-0.001901
 30
0.0
 11
0.110064
 21
-0.004464
 31
0.0
  0
LINE
  5
103
330
1D
100
AcDbEntity
  8
0
  6
Continuous
100
AcDbLine
 10
0.141662
 20
0.002499
 30
0.0
 11
0.1289
 21
0.002499
 31
0.0
  0
LINE
  5
104
330
1D
100
AcDbEntity
  8
0
  6
Continuous
100
AcDbLine
 10
0.1289
 20
0.002499
 30
0.0
 11
0.125016
 21
0.002499
 31
0.0
  0
LINE
  5
105
330
1D
100
AcDbEntity
  8
0
  6
Continuous
100
AcDbLine
 10
0.1508
 20
0.002499
 30
0.0
 11
0.141662
 21
0.002499
 31
0.0
  0
LINE
  5
106
330
1D
100
AcDbEntity
  8
0
  6
Continuous
100
AcDbLine
 10
0.141652
 20
0.002499
 30
0.0
 11
0.1289
 21
0.002499
 31
0.0
  0
LINE
  5
107
330
1D
100
AcDbEntity
  8
0
  6
Continuous
100
AcDbLine
 10
0.139969
 20
-0.019162
 30
0.0
 11
0.140925
 21
-0.014446
 31
0.0
  0
LINE
  5
108
330
1D
100
AcDbEntity
  8
0
  6
Continuous
100
AcDbLine
 10
0.149007
 20
-0.006675
 30
0.0
 11
0.155455
 21
-0.005958
 31
0.0
  0
LINE
  5
109
330
1D
100
AcDbEntity
  8
0
  6
Continuous
100
AcDbLine
 10
0.195386
 20
0.002499
 30
0.0
 11
0.190337
 21
0.002499
 31
0.0
  0
LINE
  5
10A
330
1D
100
AcDbEntity
  8
0
  6
Continuous
100
AcDbLine
 10
0.195806
 20
-0.000143
 30
0.0
 11
0.197
 21
0.000827
 31
0.0
  0
LINE
  5
10B
330
1D
100
AcDbEntity
  8
0
  6
Continuous
100
AcDbLine
 10
0.169631
 20
0.002499
 30
0.0
 11
0.16284
 21
0.002499
 31
0.0
  0
LINE
  5
10C
330
1D
100
AcDbEntity
  8
0
  6
Continuous
100
AcDbLine
 10
0.125016
 20
0.002499
 30
0.0
 11
0.11973
 21
0.002499
 31
0.0
  0
LINE
  5
10D
330
1D
100
AcDbEntity
  8
0
  6
Continuous
100
AcDbLine
 10
0.11973
 20
0.002499
 30
0.0
 11
0.114889
 21
0.002499
 31
0.0
  0
LINE
  5
10E
330
1D
100
AcDbEntity
  8
0
  6
Continuous
100
AcDbLine
 10
0.179987
 20
0.002499
 30
0.0
 11
0.169631
 21
0.002499
 31
0.0
  0
LINE
  5
10F
330
1D
100
AcDbEntity
  8
0
  6
Continuous
100
AcDbLine
 10
0.16284
 20
0.002499
 30
0.0
 11
0.15681
 21
0.002499
 31
0.0
  0
LINE
  5
110
330
1D
100
AcDbEntity
  8
0
  6
Continuous
100
AcDbLine
 10
0.15681
 20
0.002499
 30
0.0
 11
0.16284
 21
0.002499
 31
0.0
  0
LINE
  5
111
330
1D
100
AcDbEntity
  8
0
  6
Continuous
100
AcDbLine
 10
0.1289
 20
0.002499
 30
0.0
 11
0.125016
 21
0.002499
 31
0.0
  0
LINE
  5
112
330
1D
100
AcDbEntity
  8
0
  6
Continuous
100
AcDbLine
 10
0.125016
 20
0.002499
 30
0.0
 11
0.1289
 21
0.002499
 31
0.0
  0
LINE
  5
113
330
1D
100
AcDbEntity
  8
0
  6
Continuous
100
AcDbLine
 10
0.141652
 20
0.002499
 30
0.0
 11
0.1289
 21
0.002499
 31
0.0
  0
LINE
  5
114
330
1D
100
AcDbEntity
  8
0
  6
Continuous
100
AcDbLine
 10
0.1289
 20
0.002499
 30
0.0
 11
0.141652
 21
0.002499
 31
0.0
  0
LINE
  5
115
330
1D
100
AcDbEntity
  8
0
  6
Continuous
100
AcDbLine
 10
0.110064
 20
-0.019162
 30
0.0
 11
0.110064
 21
-0.056542
 31
0.0
  0
LINE
  5
116
330
1D
100
AcDbEntity
  8
0
  6
Continuous
100
AcDbLine
 10
0.139968
 20
-0.05667
 30
0.0
 11
0.139968
 21
-0.056542
 31
0.0
  0
LINE
  5
117
330
1D
100
AcDbEntity
  8
0
  6
Continuous
100
AcDbLine
 10
0.139468
 20
-0.056799
 30
0.0
 11
0.139968
 21
-0.05667
 31
0.0
  0
LINE
  5
118
330
1D
100
AcDbEntity
  8
0
  6
Continuous
100
AcDbLine
 10
0.139968
 20
-0.05667
 30
0.0
 11
0.139459
 21
-0.05667
 31
0.0
  0
LINE
  5
119
330
1D
100
AcDbEntity
  8
0
  6
Continuous
100
AcDbLine
 10
0.139968
 20
-0.056928
 30
0.0
 11
0.139468
 21
-0.056799
 31
0.0
  0
LINE
  5
11A
330
1D
100
AcDbEntity
  8
0
  6
Continuous
100
AcDbLine
 10
0.139468
 20
-0.056799
 30
0.0
 11
0.138976
 21
-0.056799
 31
0.0
  0
LINE
  5
11B
330
1D
100
AcDbEntity
  8
0
  6
Continuous
100
AcDbLine
 10
0.139968
 20
-0.057057
 30
0.0
 11
0.139968
 21
-0.056928
 31
0.0
  0
LINE
  5
11C
330
1D
100
AcDbEntity
  8
0
  6
Continuous
100
AcDbLine
 10
0.139968
 20
-0.056928
 30
0.0
 11
0.139459
 21
-0.056928
 31
0.0
  0
LINE
  5
11D
330
1D
100
AcDbEntity
  8
0
  6
Continuous
100
AcDbLine
 10
0.114443
 20
-0.05667
 30
0.0
 11
0.112066
 21
-0.05667
 31
0.0
  0
LINE
  5
11E
330
1D
100
AcDbEntity
  8
0
  6
Continuous
100
AcDbLine
 10
0.114797
 20
-0.056799
 30
0.0
 11
0.112499
 21
-0.056799
 31
0.0
  0
LINE
  5
11F
330
1D
100
AcDbEntity
  8
0
  6
Continuous
100
AcDbLine
 10
0.114443
 20
-0.056928
 30
0.0
 11
0.112066
 21
-0.056928
 31
0.0
  0
LINE
  5
120
330
1D
100
AcDbEntity
  8
0
  6
Continuous
100
AcDbLine
 10
0.12501
 20
-0.05667
 30
0.0
 11
0.121152
 21
-0.05667
 31
0.0
  0
LINE
  5
121
330
1D
100
AcDbEntity
  8
0
  6
Continuous
100
AcDbLine
 10
0.12501
 20
-0.056799
 30
0.0
 11
0.121281
 21
-0.056799
 31
0.0
  0
LINE
  5
122
330
1D
100
AcDbEntity
  8
0
  6
Continuous
100
AcDbLine
 10
0.12501
 20
-0.056928
 30
0.0
 11
0.121152
 21
-0.056928
 31
0.0
  0
LINE
  5
123
330
1D
100
AcDbEntity
  8
0
  6
Continuous
100
AcDbLine
 10
0.132492
 20
-0.05667
 30
0.0
 11
0.128899
 21
-0.05667
 31
0.0
  0
LINE
  5
124
330
1D
100
AcDbEntity
  8
0
  6
Continuous
100
AcDbLine
 10
0.132242
 20
-0.056799
 30
0.0
 11
0.12877
 21
-0.056799
 31
0.0
  0
LINE
  5
125
330
1D
100
AcDbEntity
  8
0
  6
Continuous
100
AcDbLine
 10
0.132492
 20
-0.056928
 30
0.0
 11
0.128899
 21
-0.056928
 31
0.0
  0
LINE
  5
126
330
1D
100
AcDbEntity
  8
0
  6
Continuous
100
AcDbLine
 10
0.137965
 20
-0.05667
 30
0.0
 11
0.135589
 21
-0.05667
 31
0.0
  0
LINE
  5
127
330
1D
100
AcDbEntity
  8
0
  6
Continuous
100
AcDbLine
 10
0.137532
 20
-0.056799
 30
0.0
 11
0.135235
 21
-0.056799
 31
0.0
  0
LINE
  5
128
330
1D
100
AcDbEntity
  8
0
  6
Continuous
100
AcDbLine
 10
0.137965
 20
-0.056928
 30
0.0
 11
0.135589
 21
-0.056928
 31
0.0
  0
LINE
  5
129
330
1D
100
AcDbEntity
  8
0
  6
Continuous
100
AcDbLine
 10
0.117542
 20
-0.05667
 30
0.0
 11
0.114443
 21
-0.05667
 31
0.0
  0
LINE
  5
12A
330
1D
100
AcDbEntity
  8
0
  6
Continuous
100
AcDbLine
 10
0.117792
 20
-0.056799
 30
0.0
 11
0.114797
 21
-0.056799
 31
0.0
  0
LINE
  5
12B
330
1D
100
AcDbEntity
  8
0
  6
Continuous
100
AcDbLine
 10
0.117542
 20
-0.056928
 30
0.0
 11
0.114443
 21
-0.056928
 31
0.0
  0
LINE
  5
12C
330
1D
100
AcDbEntity
  8
0
  6
Continuous
100
AcDbLine
 10
0.139459
 20
-0.05667
 30
0.0
 11
0.137965
 21
-0.05667
 31
0.0
  0
LINE
  5
12D
330
1D
100
AcDbEntity
  8
0
  6
Continuous
100
AcDbLine
 10
0.138976
 20
-0.056799
 30
0.0
 11
0.137532
 21
-0.056799
 31
0.0
  0
LINE
  5
12E
330
1D
100
AcDbEntity
  8
0
  6
Continuous
100
AcDbLine
 10
0.139459
 20
-0.056928
 30
0.0
 11
0.137965
 21
-0.056928
 31
0.0
  0
LINE
  5
12F
330
1D
100
AcDbEntity
  8
0
  6
Continuous
100
AcDbLine
 10
0.128899
 20
-0.05667
 30
0.0
 11
0.12501
 21
-0.05667
 31
0.0
  0
LINE
  5
130
330
1D
100
AcDbEntity
  8
0
  6
Continuous
100
AcDbLine
 10
0.12877
 20
-0.056799
 30
0.0
 11
0.12501
 21
-0.056799
 31
0.0
  0
LINE
  5
131
330
1D
100
AcDbEntity
  8
0
  6
Continuous
100
AcDbLine
 10
0.128899
 20
-0.056928
 30
0.0
 11
0.12501
 21
-0.056928
 31
0.0
  0
LINE
  5
132
330
1D
100
AcDbEntity
  8
0
  6
Continuous
100
AcDbLine
 10
0.112066
 20
-0.05667
 30
0.0
 11
0.110572
 21
-0.05667
 31
0.0
  0
LINE
  5
133
330
1D
100
AcDbEntity
  8
0
  6
Continuous
100
AcDbLine
 10
0.112499
 20
-0.056799
 30
0.0
 11
0.111055
 21
-0.056799
 31
0.0
  0
LINE
  5
134
330
1D
100
AcDbEntity
  8
0
  6
Continuous
100
AcDbLine
 10
0.112066
 20
-0.056928
 30
0.0
 11
0.110572
 21
-0.056928
 31
0.0
  0
LINE
  5
135
330
1D
100
AcDbEntity
  8
0
  6
Continuous
100
AcDbLine
 10
0.110064
 20
-0.056542
 30
0.0
 11
0.110064
 21
-0.05667
 31
0.0
  0
LINE
  5
136
330
1D
100
AcDbEntity
  8
0
  6
Continuous
100
AcDbLine
 10
0.110064
 20
-0.05667
 30
0.0
 11
0.110564
 21
-0.056799
 31
0.0
  0
LINE
  5
137
330
1D
100
AcDbEntity
  8
0
  6
Continuous
100
AcDbLine
 10
0.110572
 20
-0.05667
 30
0.0
 11
0.110064
 21
-0.05667
 31
0.0
  0
LINE
  5
138
330
1D
100
AcDbEntity
  8
0
  6
Continuous
100
AcDbLine
 10
0.110564
 20
-0.056799
 30
0.0
 11
0.110064
 21
-0.056928
 31
0.0
  0
LINE
  5
139
330
1D
100
AcDbEntity
  8
0
  6
Continuous
100
AcDbLine
 10
0.111055
 20
-0.056799
 30
0.0
 11
0.110564
 21
-0.056799
 31
0.0
  0
LINE
  5
13A
330
1D
100
AcDbEntity
  8
0
  6
Continuous
100
AcDbLine
 10
0.110064
 20
-0.056928
 30
0.0
 11
0.110064
 21
-0.057057
 31
0.0
  0
LINE
  5
13B
330
1D
100
AcDbEntity
  8
0
  6
Continuous
100
AcDbLine
 10
0.110572
 20
-0.056928
 30
0.0
 11
0.110064
 21
-0.056928
 31
0.0
  0
LINE
  5
13C
330
1D
100
AcDbEntity
  8
0
  6
Continuous
100
AcDbLine
 10
0.135589
 20
-0.05667
 30
0.0
 11
0.132492
 21
-0.05667
 31
0.0
  0
LINE
  5
13D
330
1D
100
AcDbEntity
  8
0
  6
Continuous
100
AcDbLine
 10
0.135235
 20
-0.056799
 30
0.0
 11
0.132242
 21
-0.056799
 31
0.0
  0
LINE
  5
13E
330
1D
100
AcDbEntity
  8
0
  6
Continuous
100
AcDbLine
 10
0.135589
 20
-0.056928
 30
0.0
 11
0.132492
 21
-0.056928
 31
0.0
  0
LINE
  5
13F
330
1D
100
AcDbEntity
  8
0
  6
Continuous
100
AcDbLine
 10
0.121152
 20
-0.05667
 30
0.0
 11
0.117542
 21
-0.05667
 31
0.0
  0
LINE
  5
140
330
1D
100
AcDbEntity
  8
0
  6
Continuous
100
AcDbLine
 10
0.121281
 20
-0.056799
 30
0.0
 11
0.117792
 21
-0.056799
 31
0.0
  0
LINE
  5
141
330
1D
100
AcDbEntity
  8
0
  6
Continuous
100
AcDbLine
 10
0.121152
 20
-0.056928
 30
0.0
 11
0.117542
 21
-0.056928
 31
0.0
  0
LINE
  5
142
330
1D
100
AcDbEntity
  8
0
  6
Continuous
100
AcDbLine
 10
0.139968
 20
-0.0595
 30
0.0
 11
0.139968
 21
-0.057057
 31
0.0
  0
LINE
  5
143
330
1D
100
AcDbEntity
  8
0
  6
Continuous
100
AcDbLine
 10
-0.190337
 20
0.002499
 30
0.0
 11
-0.195386
 21
0.002499
 31
0.0
  0
LINE
  5
144
330
1D
100
AcDbEntity
  8
0
  6
Continuous
100
AcDbLine
 10
-0.16284
 20
0.002499
 30
0.0
 11
-0.169631
 21
0.002499
 31
0.0
  0
LINE
  5
145
330
1D
100
AcDbEntity
  8
0
  6
Continuous
100
AcDbLine
 10
-0.11973
 20
0.002499
 30
0.0
 11
-0.125016
 21
0.002499
 31
0.0
  0
LINE
  5
146
330
1D
100
AcDbEntity
  8
0
  6
Continuous
100
AcDbLine
 10
-0.114889
 20
0.002499
 30
0.0
 11
-0.11973
 21
0.002499
 31
0.0
  0
LINE
  5
147
330
1D
100
AcDbEntity
  8
0
  6
Continuous
100
AcDbLine
 10
-0.169631
 20
0.002499
 30
0.0
 11
-0.179987
 21
0.002499
 31
0.0
  0
LINE
  5
148
330
1D
100
AcDbEntity
  8
0
  6
Continuous
100
AcDbLine
 10
-0.16284
 20
0.002499
 30
0.0
 11
-0.15681
 21
0.002499
 31
0.0
  0
LINE
  5
149
330
1D
100
AcDbEntity
  8
0
  6
Continuous
100
AcDbLine
 10
-0.15681
 20
0.002499
 30
0.0
 11
-0.16284
 21
0.002499
 31
0.0
  0
LINE
  5
14A
330
1D
100
AcDbEntity
  8
0
  6
Continuous
100
AcDbLine
 10
-0.1289
 20
0.002499
 30
0.0
 11
-0.125016
 21
0.002499
 31
0.0
  0
LINE
  5
14B
330
1D
100
AcDbEntity
  8
0
  6
Continuous
100
AcDbLine
 10
-0.125016
 20
0.002499
 30
0.0
 11
-0.1289
 21
0.002499
 31
0.0
  0
LINE
  5
14C
330
1D
100
AcDbEntity
  8
0
  6
Continuous
100
AcDbLine
 10
-0.141652
 20
0.002499
 30
0.0
 11
-0.1289
 21
0.002499
 31
0.0
  0
LINE
  5
14D
330
1D
100
AcDbEntity
  8
0
  6
Continuous
100
AcDbLine
 10
-0.1289
 20
0.002499
 30
0.0
 11
-0.141652
 21
0.002499
 31
0.0
  0
LINE
  5
14E
330
1D
100
AcDbEntity
  8
0
  6
Continuous
100
AcDbLine
 10
-0.110064
 20
-0.0595
 30
0.0
 11
-0.110064
 21
-0.057057
 31
0.0
  0
LINE
  5
14F
330
1D
100
AcDbEntity
  8
0
  6
Continuous
100
AcDbLine
 10
-0.110064
 20
-0.019162
 30
0.0
 11
-0.110064
 21
-0.013337
 31
0.0
  0
LINE
  5
150
330
1D
100
AcDbEntity
  8
0
  6
Continuous
100
AcDbLine
 10
-0.178893
 20
-0.00358
 30
0.0
 11
-0.168611
 21
-0.004682
 31
0.0
  0
LINE
  5
151
330
1D
100
AcDbEntity
  8
0
  6
Continuous
100
AcDbLine
 10
-0.168611
 20
-0.004682
 30
0.0
 11
-0.161691
 21
-0.005127
 31
0.0
  0
LINE
  5
152
330
1D
100
AcDbEntity
  8
0
  6
Continuous
100
AcDbLine
 10
-0.16347
 20
-0.003209
 30
0.0
 11
-0.174789
 21
-0.002447
 31
0.0
  0
LINE
  5
153
330
1D
100
AcDbEntity
  8
0
  6
Continuous
100
AcDbLine
 10
-0.150781
 20
0.002499
 30
0.0
 11
-0.15681
 21
0.002499
 31
0.0
  0
LINE
  5
154
330
1D
100
AcDbEntity
  8
0
  6
Continuous
100
AcDbLine
 10
-0.142281
 20
-0.011787
 30
0.0
 11
-0.140925
 21
-0.014446
 31
0.0
  0
LINE
  5
155
330
1D
100
AcDbEntity
  8
0
  6
Continuous
100
AcDbLine
 10
-0.144234
 20
-0.009454
 30
0.0
 11
-0.142281
 21
-0.011787
 31
0.0
  0
LINE
  5
156
330
1D
100
AcDbEntity
  8
0
  6
Continuous
100
AcDbLine
 10
-0.149007
 20
-0.006675
 30
0.0
 11
-0.146591
 21
-0.007844
 31
0.0
  0
LINE
  5
157
330
1D
100
AcDbEntity
  8
0
  6
Continuous
100
AcDbLine
 10
-0.143685
 20
-0.006675
 30
0.0
 11
-0.13908
 21
-0.006675
 31
0.0
  0
LINE
  5
158
330
1D
100
AcDbEntity
  8
0
  6
Continuous
100
AcDbLine
 10
-0.150164
 20
-0.003776
 30
0.0
 11
-0.13908
 21
-0.006675
 31
0.0
  0
LINE
  5
159
330
1D
100
AcDbEntity
  8
0
  6
Continuous
100
AcDbLine
 10
-0.146582
 20
-0.006675
 30
0.0
 11
-0.143685
 21
-0.006675
 31
0.0
  0
LINE
  5
15A
330
1D
100
AcDbEntity
  8
0
  6
Continuous
100
AcDbLine
 10
-0.15285
 20
-0.005805
 30
0.0
 11
-0.143685
 21
-0.006675
 31
0.0
  0
LINE
  5
15B
330
1D
100
AcDbEntity
  8
0
  6
Continuous
100
AcDbLine
 10
-0.148364
 20
-0.006675
 30
0.0
 11
-0.146582
 21
-0.006675
 31
0.0
  0
LINE
  5
15C
330
1D
100
AcDbEntity
  8
0
  6
Continuous
100
AcDbLine
 10
-0.179984
 20
0.002499
 30
0.0
 11
-0.190337
 21
0.002499
 31
0.0
  0
LINE
  5
15D
330
1D
100
AcDbEntity
  8
0
  6
Continuous
100
AcDbLine
 10
-0.16284
 20
0.002499
 30
0.0
 11
-0.169631
 21
0.002499
 31
0.0
  0
LINE
  5
15E
330
1D
100
AcDbEntity
  8
0
  6
Continuous
100
AcDbLine
 10
-0.177336
 20
-0.00066
 30
0.0
 11
-0.16759
 21
-0.001443
 31
0.0
  0
LINE
  5
15F
330
1D
100
AcDbEntity
  8
0
  6
Continuous
100
AcDbLine
 10
-0.193394
 20
-0.001318
 30
0.0
 11
-0.189255
 21
-0.002332
 31
0.0
  0
LINE
  5
160
330
1D
100
AcDbEntity
  8
0
  6
Continuous
100
AcDbLine
 10
-0.195806
 20
-0.000143
 30
0.0
 11
-0.193394
 21
-0.001318
 31
0.0
  0
LINE
  5
161
330
1D
100
AcDbEntity
  8
0
  6
Continuous
100
AcDbLine
 10
-0.192746
 20
-0.001076
 30
0.0
 11
-0.186171
 21
-0.001983
 31
0.0
  0
LINE
  5
162
330
1D
100
AcDbEntity
  8
0
  6
Continuous
100
AcDbLine
 10
-0.110064
 20
-0.001901
 30
0.0
 11
-0.110064
 21
0.002065
 31
0.0
  0
LINE
  5
163
330
1D
100
AcDbEntity
  8
0
  6
Continuous
100
AcDbLine
 10
-0.150781
 20
0.002499
 30
0.0
 11
-0.141652
 21
0.002499
 31
0.0
  0
LINE
  5
164
330
1D
100
AcDbEntity
  8
0
  6
Continuous
100
AcDbLine
 10
-0.141652
 20
0.002499
 30
0.0
 11
-0.150781
 21
0.002499
 31
0.0
  0
LINE
  5
165
330
1D
100
AcDbEntity
  8
0
  6
Continuous
100
AcDbLine
 10
-0.110064
 20
-0.011119
 30
0.0
 11
-0.110064
 21
-0.0089
 31
0.0
  0
LINE
  5
166
330
1D
100
AcDbEntity
  8
0
  6
Continuous
100
AcDbLine
 10
-0.110064
 20
-0.013337
 30
0.0
 11
-0.110064
 21
-0.011119
 31
0.0
  0
LINE
  5
167
330
1D
100
AcDbEntity
  8
0
  6
Continuous
100
AcDbLine
 10
-0.110064
 20
-0.006675
 30
0.0
 11
-0.110064
 21
-0.004464
 31
0.0
  0
LINE
  5
168
330
1D
100
AcDbEntity
  8
0
  6
Continuous
100
AcDbLine
 10
-0.195533
 20
0.000483
 30
0.0
 11
-0.195067
 21
-0.000294
 31
0.0
  0
LINE
  5
169
330
1D
100
AcDbEntity
  8
0
  6
Continuous
100
AcDbLine
 10
-0.192746
 20
-0.001076
 30
0.0
 11
-0.195067
 21
-0.000294
 31
0.0
  0
LINE
  5
16A
330
1D
100
AcDbEntity
  8
0
  6
Continuous
100
AcDbLine
 10
-0.110064
 20
-0.0089
 30
0.0
 11
-0.110064
 21
-0.006675
 31
0.0
  0
LINE
  5
16B
330
1D
100
AcDbEntity
  8
0
  6
Continuous
100
AcDbLine
 10
-0.146591
 20
-0.007844
 30
0.0
 11
-0.144234
 21
-0.009454
 31
0.0
  0
LINE
  5
16C
330
1D
100
AcDbEntity
  8
0
  6
Continuous
100
AcDbLine
 10
-0.162841
 20
0.002499
 30
0.0
 11
-0.16963
 21
0.002499
 31
0.0
  0
LINE
  5
16D
330
1D
100
AcDbEntity
  8
0
  6
Continuous
100
AcDbLine
 10
-0.169631
 20
0.002499
 30
0.0
 11
-0.179987
 21
0.002499
 31
0.0
  0
LINE
  5
16E
330
1D
100
AcDbEntity
  8
0
  6
Continuous
100
AcDbLine
 10
-0.11754
 20
0.002499
 30
0.0
 11
-0.125016
 21
0.002499
 31
0.0
  0
LINE
  5
16F
330
1D
100
AcDbEntity
  8
0
  6
Continuous
100
AcDbLine
 10
-0.197
 20
0.000827
 30
0.0
 11
-0.195533
 21
0.000483
 31
0.0
  0
LINE
  5
170
330
1D
100
AcDbEntity
  8
0
  6
Continuous
100
AcDbLine
 10
-0.195533
 20
0.000483
 30
0.0
 11
-0.192809
 21
-0.00004
 31
0.0
  0
LINE
  5
171
330
1D
100
AcDbEntity
  8
0
  6
Continuous
100
AcDbLine
 10
-0.196005
 20
0.002049
 30
0.0
 11
-0.195533
 21
0.000483
 31
0.0
  0
LINE
  5
172
330
1D
100
AcDbEntity
  8
0
  6
Continuous
100
AcDbLine
 10
-0.190337
 20
0.002499
 30
0.0
 11
-0.195386
 21
0.002499
 31
0.0
  0
LINE
  5
173
330
1D
100
AcDbEntity
  8
0
  6
Continuous
100
AcDbLine
 10
-0.190337
 20
0.002499
 30
0.0
 11
-0.196263
 21
0.002499
 31
0.0
  0
LINE
  5
174
330
1D
100
AcDbEntity
  8
0
  6
Continuous
100
AcDbLine
 10
-0.114889
 20
0.002499
 30
0.0
 11
-0.11973
 21
0.002499
 31
0.0
  0
LINE
  5
175
330
1D
100
AcDbEntity
  8
0
  6
Continuous
100
AcDbLine
 10
-0.110516
 20
0.002499
 30
0.0
 11
-0.11754
 21
0.002499
 31
0.0
  0
LINE
  5
176
330
1D
100
AcDbEntity
  8
0
  6
Continuous
100
AcDbLine
 10
-0.11973
 20
0.002499
 30
0.0
 11
-0.125016
 21
0.002499
 31
0.0
  0
LINE
  5
177
330
1D
100
AcDbEntity
  8
0
  6
Continuous
100
AcDbLine
 10
-0.192809
 20
-0.00004
 30
0.0
 11
-0.186941
 21
-0.000559
 31
0.0
  0
LINE
  5
178
330
1D
100
AcDbEntity
  8
0
  6
Continuous
100
AcDbLine
 10
-0.193618
 20
0.002052
 30
0.0
 11
-0.192809
 21
-0.00004
 31
0.0
  0
LINE
  5
179
330
1D
100
AcDbEntity
  8
0
  6
Continuous
100
AcDbLine
 10
-0.16963
 20
0.002499
 30
0.0
 11
-0.179984
 21
0.002499
 31
0.0
  0
LINE
  5
17A
330
1D
100
AcDbEntity
  8
0
  6
Continuous
100
AcDbLine
 10
-0.189317
 20
-0.002332
 30
0.0
 11
-0.178893
 21
-0.00358
 31
0.0
  0
LINE
  5
17B
330
1D
100
AcDbEntity
  8
0
  6
Continuous
100
AcDbLine
 10
-0.177336
 20
-0.00066
 30
0.0
 11
-0.186941
 21
-0.000559
 31
0.0
  0
LINE
  5
17C
330
1D
100
AcDbEntity
  8
0
  6
Continuous
100
AcDbLine
 10
-0.186171
 20
-0.001983
 30
0.0
 11
-0.174789
 21
-0.002447
 31
0.0
  0
LINE
  5
17D
330
1D
100
AcDbEntity
  8
0
  6
Continuous
100
AcDbLine
 10
-0.197
 20
0.000827
 30
0.0
 11
-0.197
 21
0.002034
 31
0.0
  0
LINE
  5
17E
330
1D
100
AcDbEntity
  8
0
  6
Continuous
100
AcDbLine
 10
-0.15681
 20
0.002499
 30
0.0
 11
-0.150781
 21
0.002499
 31
0.0
  0
LINE
  5
17F
330
1D
100
AcDbEntity
  8
0
  6
Continuous
100
AcDbLine
 10
-0.150781
 20
0.002499
 30
0.0
 11
-0.156811
 21
0.002499
 31
0.0
  0
LINE
  5
180
330
1D
100
AcDbEntity
  8
0
  6
Continuous
100
AcDbLine
 10
-0.110064
 20
0.002065
 30
0.0
 11
-0.110064
 21
0.002499
 31
0.0
  0
LINE
  5
181
330
1D
100
AcDbEntity
  8
0
  6
Continuous
100
AcDbLine
 10
-0.110574
 20
0.002499
 30
0.0
 11
-0.110064
 21
0.002499
 31
0.0
  0
LINE
  5
182
330
1D
100
AcDbEntity
  8
0
  6
Continuous
100
AcDbLine
 10
-0.110574
 20
0.002499
 30
0.0
 11
-0.112067
 21
0.002499
 31
0.0
  0
LINE
  5
183
330
1D
100
AcDbEntity
  8
0
  6
Continuous
100
AcDbLine
 10
-0.112067
 20
0.002499
 30
0.0
 11
-0.114444
 21
0.002499
 31
0.0
  0
LINE
  5
184
330
1D
100
AcDbEntity
  8
0
  6
Continuous
100
AcDbLine
 10
-0.114444
 20
0.002499
 30
0.0
 11
-0.11754
 21
0.002499
 31
0.0
  0
LINE
  5
185
330
1D
100
AcDbEntity
  8
0
  6
Continuous
100
AcDbLine
 10
-0.11754
 20
0.002499
 30
0.0
 11
-0.121147
 21
0.002499
 31
0.0
  0
LINE
  5
186
330
1D
100
AcDbEntity
  8
0
  6
Continuous
100
AcDbLine
 10
-0.121147
 20
0.002499
 30
0.0
 11
-0.125016
 21
0.002499
 31
0.0
  0
LINE
  5
187
330
1D
100
AcDbEntity
  8
0
  6
Continuous
100
AcDbLine
 10
-0.196125
 20
0.002499
 30
0.0
 11
-0.197
 21
0.002499
 31
0.0
  0
LINE
  5
188
330
1D
100
AcDbEntity
  8
0
  6
Continuous
100
AcDbLine
 10
-0.193709
 20
0.002499
 30
0.0
 11
-0.196125
 21
0.002499
 31
0.0
  0
LINE
  5
189
330
1D
100
AcDbEntity
  8
0
  6
Continuous
100
AcDbLine
 10
-0.196125
 20
0.002499
 30
0.0
 11
-0.196005
 21
0.002049
 31
0.0
  0
LINE
  5
18A
330
1D
100
AcDbEntity
  8
0
  6
Continuous
100
AcDbLine
 10
-0.125016
 20
0.002499
 30
0.0
 11
-0.1289
 21
0.002499
 31
0.0
  0
LINE
  5
18B
330
1D
100
AcDbEntity
  8
0
  6
Continuous
100
AcDbLine
 10
-0.141652
 20
0.002499
 30
0.0
 11
-0.150781
 21
0.002499
 31
0.0
  0
LINE
  5
18C
330
1D
100
AcDbEntity
  8
0
  6
Continuous
100
AcDbLine
 10
-0.169641
 20
0.002499
 30
0.0
 11
-0.179989
 21
0.002499
 31
0.0
  0
LINE
  5
18D
330
1D
100
AcDbEntity
  8
0
  6
Continuous
100
AcDbLine
 10
-0.150801
 20
0.002499
 30
0.0
 11
-0.156827
 21
0.002499
 31
0.0
  0
LINE
  5
18E
330
1D
100
AcDbEntity
  8
0
  6
Continuous
100
AcDbLine
 10
-0.193709
 20
0.002499
 30
0.0
 11
-0.193618
 21
0.002052
 31
0.0
  0
LINE
  5
18F
330
1D
100
AcDbEntity
  8
0
  6
Continuous
100
AcDbLine
 10
-0.190337
 20
0.002499
 30
0.0
 11
-0.193709
 21
0.002499
 31
0.0
  0
LINE
  5
190
330
1D
100
AcDbEntity
  8
0
  6
Continuous
100
AcDbLine
 10
-0.179989
 20
0.002499
 30
0.0
 11
-0.190337
 21
0.002499
 31
0.0
  0
LINE
  5
191
330
1D
100
AcDbEntity
  8
0
  6
Continuous
100
AcDbLine
 10
-0.156827
 20
0.002499
 30
0.0
 11
-0.162853
 21
0.002499
 31
0.0
  0
LINE
  5
192
330
1D
100
AcDbEntity
  8
0
  6
Continuous
100
AcDbLine
 10
-0.162853
 20
0.002499
 30
0.0
 11
-0.169641
 21
0.002499
 31
0.0
  0
LINE
  5
193
330
1D
100
AcDbEntity
  8
0
  6
Continuous
100
AcDbLine
 10
-0.16347
 20
-0.003209
 30
0.0
 11
-0.156828
 21
-0.003474
 31
0.0
  0
LINE
  5
194
330
1D
100
AcDbEntity
  8
0
  6
Continuous
100
AcDbLine
 10
-0.16284
 20
0.002499
 30
0.0
 11
-0.15681
 21
0.002499
 31
0.0
  0
LINE
  5
195
330
1D
100
AcDbEntity
  8
0
  6
Continuous
100
AcDbLine
 10
-0.156811
 20
0.002499
 30
0.0
 11
-0.162841
 21
0.002499
 31
0.0
  0
LINE
  5
196
330
1D
100
AcDbEntity
  8
0
  6
Continuous
100
AcDbLine
 10
-0.15681
 20
0.002499
 30
0.0
 11
-0.16284
 21
0.002499
 31
0.0
  0
LINE
  5
197
330
1D
100
AcDbEntity
  8
0
  6
Continuous
100
AcDbLine
 10
-0.16759
 20
-0.001443
 30
0.0
 11
-0.16038
 21
-0.001524
 31
0.0
  0
LINE
  5
198
330
1D
100
AcDbEntity
  8
0
  6
Continuous
100
AcDbLine
 10
-0.150164
 20
-0.003776
 30
0.0
 11
-0.156828
 21
-0.003474
 31
0.0
  0
LINE
  5
199
330
1D
100
AcDbEntity
  8
0
  6
Continuous
100
AcDbLine
 10
-0.161691
 20
-0.005127
 30
0.0
 11
-0.155455
 21
-0.005958
 31
0.0
  0
LINE
  5
19A
330
1D
100
AcDbEntity
  8
0
  6
Continuous
100
AcDbLine
 10
-0.110064
 20
-0.004464
 30
0.0
 11
-0.110064
 21
-0.001901
 31
0.0
  0
LINE
  5
19B
330
1D
100
AcDbEntity
  8
0
  6
Continuous
100
AcDbLine
 10
-0.1289
 20
0.002499
 30
0.0
 11
-0.141662
 21
0.002499
 31
0.0
  0
LINE
  5
19C
330
1D
100
AcDbEntity
  8
0
  6
Continuous
100
AcDbLine
 10
-0.125016
 20
0.002499
 30
0.0
 11
-0.1289
 21
0.002499
 31
0.0
  0
LINE
  5
19D
330
1D
100
AcDbEntity
  8
0
  6
Continuous
100
AcDbLine
 10
-0.141662
 20
0.002499
 30
0.0
 11
-0.150801
 21
0.002499
 31
0.0
  0
LINE
  5
19E
330
1D
100
AcDbEntity
  8
0
  6
Continuous
100
AcDbLine
 10
-0.1289
 20
0.002499
 30
0.0
 11
-0.141652
 21
0.002499
 31
0.0
  0
LINE
  5
19F
330
1D
100
AcDbEntity
  8
0
  6
Continuous
100
AcDbLine
 10
-0.140925
 20
-0.014446
 30
0.0
 11
-0.139969
 21
-0.019162
 31
0.0
  0
LINE
  5
1A0
330
1D
100
AcDbEntity
  8
0
  6
Continuous
100
AcDbLine
 10
-0.155455
 20
-0.005958
 30
0.0
 11
-0.149007
 21
-0.006675
 31
0.0
  0
LINE
  5
1A1
330
1D
100
AcDbEntity
  8
0
  6
Continuous
100
AcDbLine
 10
-0.139969
 20
-0.019162
 30
0.0
 11
-0.139968
 21
-0.056542
 31
0.0
  0
LINE
  5
1A2
330
1D
100
AcDbEntity
  8
0
  6
Continuous
100
AcDbLine
 10
-0.139968
 20
-0.057057
 30
0.0
 11
-0.139968
 21
-0.0595
 31
0.0
  0
LINE
  5
1A3
330
1D
100
AcDbEntity
  8
0
  6
Continuous
100
AcDbLine
 10
-0.110064
 20
-0.056542
 30
0.0
 11
-0.110064
 21
-0.019162
 31
0.0
  0
LINE
  5
1A4
330
1D
100
AcDbEntity
  8
0
  6
Continuous
100
AcDbLine
 10
-0.139968
 20
-0.056542
 30
0.0
 11
-0.139968
 21
-0.05667
 31
0.0
  0
LINE
  5
1A5
330
1D
100
AcDbEntity
  8
0
  6
Continuous
100
AcDbLine
 10
-0.139968
 20
-0.05667
 30
0.0
 11
-0.139468
 21
-0.056799
 31
0.0
  0
LINE
  5
1A6
330
1D
100
AcDbEntity
  8
0
  6
Continuous
100
AcDbLine
 10
-0.139459
 20
-0.05667
 30
0.0
 11
-0.139968
 21
-0.05667
 31
0.0
  0
LINE
  5
1A7
330
1D
100
AcDbEntity
  8
0
  6
Continuous
100
AcDbLine
 10
-0.139468
 20
-0.056799
 30
0.0
 11
-0.139968
 21
-0.056928
 31
0.0
  0
LINE
  5
1A8
330
1D
100
AcDbEntity
  8
0
  6
Continuous
100
AcDbLine
 10
-0.138976
 20
-0.056799
 30
0.0
 11
-0.139468
 21
-0.056799
 31
0.0
  0
LINE
  5
1A9
330
1D
100
AcDbEntity
  8
0
  6
Continuous
100
AcDbLine
 10
-0.139968
 20
-0.056928
 30
0.0
 11
-0.139968
 21
-0.057057
 31
0.0
  0
LINE
  5
1AA
330
1D
100
AcDbEntity
  8
0
  6
Continuous
100
AcDbLine
 10
-0.139459
 20
-0.056928
 30
0.0
 11
-0.139968
 21
-0.056928
 31
0.0
  0
LINE
  5
1AB
330
1D
100
AcDbEntity
  8
0
  6
Continuous
100
AcDbLine
 10
-0.112066
 20
-0.05667
 30
0.0
 11
-0.114443
 21
-0.05667
 31
0.0
  0
LINE
  5
1AC
330
1D
100
AcDbEntity
  8
0
  6
Continuous
100
AcDbLine
 10
-0.112499
 20
-0.056799
 30
0.0
 11
-0.114797
 21
-0.056799
 31
0.0
  0
LINE
  5
1AD
330
1D
100
AcDbEntity
  8
0
  6
Continuous
100
AcDbLine
 10
-0.112066
 20
-0.056928
 30
0.0
 11
-0.114443
 21
-0.056928
 31
0.0
  0
LINE
  5
1AE
330
1D
100
AcDbEntity
  8
0
  6
Continuous
100
AcDbLine
 10
-0.121152
 20
-0.05667
 30
0.0
 11
-0.12501
 21
-0.05667
 31
0.0
  0
LINE
  5
1AF
330
1D
100
AcDbEntity
  8
0
  6
Continuous
100
AcDbLine
 10
-0.121281
 20
-0.056799
 30
0.0
 11
-0.12501
 21
-0.056799
 31
0.0
  0
LINE
  5
1B0
330
1D
100
AcDbEntity
  8
0
  6
Continuous
100
AcDbLine
 10
-0.121152
 20
-0.056928
 30
0.0
 11
-0.12501
 21
-0.056928
 31
0.0
  0
LINE
  5
1B1
330
1D
100
AcDbEntity
  8
0
  6
Continuous
100
AcDbLine
 10
-0.128899
 20
-0.05667
 30
0.0
 11
-0.132492
 21
-0.05667
 31
0.0
  0
LINE
  5
1B2
330
1D
100
AcDbEntity
  8
0
  6
Continuous
100
AcDbLine
 10
-0.12877
 20
-0.056799
 30
0.0
 11
-0.132242
 21
-0.056799
 31
0.0
  0
LINE
  5
1B3
330
1D
100
AcDbEntity
  8
0
  6
Continuous
100
AcDbLine
 10
-0.128899
 20
-0.056928
 30
0.0
 11
-0.132492
 21
-0.056928
 31
0.0
  0
LINE
  5
1B4
330
1D
100
AcDbEntity
  8
0
  6
Continuous
100
AcDbLine
 10
-0.135589
 20
-0.05667
 30
0.0
 11
-0.137965
 21
-0.05667
 31
0.0
  0
LINE
  5
1B5
330
1D
100
AcDbEntity
  8
0
  6
Continuous
100
AcDbLine
 10
-0.135235
 20
-0.056799
 30
0.0
 11
-0.137532
 21
-0.056799
 31
0.0
  0
LINE
  5
1B6
330
1D
100
AcDbEntity
  8
0
  6
Continuous
100
AcDbLine
 10
-0.135589
 20
-0.056928
 30
0.0
 11
-0.137965
 21
-0.056928
 31
0.0
  0
LINE
  5
1B7
330
1D
100
AcDbEntity
  8
0
  6
Continuous
100
AcDbLine
 10
-0.114443
 20
-0.05667
 30
0.0
 11
-0.117542
 21
-0.05667
 31
0.0
  0
LINE
  5
1B8
330
1D
100
AcDbEntity
  8
0
  6
Continuous
100
AcDbLine
 10
-0.114797
 20
-0.056799
 30
0.0
 11
-0.117792
 21
-0.056799
 31
0.0
  0
LINE
  5
1B9
330
1D
100
AcDbEntity
  8
0
  6
Continuous
100
AcDbLine
 10
-0.114443
 20
-0.056928
 30
0.0
 11
-0.117542
 21
-0.056928
 31
0.0
  0
LINE
  5
1BA
330
1D
100
AcDbEntity
  8
0
  6
Continuous
100
AcDbLine
 10
-0.137965
 20
-0.05667
 30
0.0
 11
-0.139459
 21
-0.05667
 31
0.0
  0
LINE
  5
1BB
330
1D
100
AcDbEntity
  8
0
  6
Continuous
100
AcDbLine
 10
-0.137532
 20
-0.056799
 30
0.0
 11
-0.138976
 21
-0.056799
 31
0.0
  0
LINE
  5
1BC
330
1D
100
AcDbEntity
  8
0
  6
Continuous
100
AcDbLine
 10
-0.137965
 20
-0.056928
 30
0.0
 11
-0.139459
 21
-0.056928
 31
0.0
  0
LINE
  5
1BD
330
1D
100
AcDbEntity
  8
0
  6
Continuous
100
AcDbLine
 10
-0.12501
 20
-0.05667
 30
0.0
 11
-0.128899
 21
-0.05667
 31
0.0
  0
LINE
  5
1BE
330
1D
100
AcDbEntity
  8
0
  6
Continuous
100
AcDbLine
 10
-0.12501
 20
-0.056799
 30
0.0
 11
-0.12877
 21
-0.056799
 31
0.0
  0
LINE
  5
1BF
330
1D
100
AcDbEntity
  8
0
  6
Continuous
100
AcDbLine
 10
-0.12501
 20
-0.056928
 30
0.0
 11
-0.128899
 21
-0.056928
 31
0.0
  0
LINE
  5
1C0
330
1D
100
AcDbEntity
  8
0
  6
Continuous
100
AcDbLine
 10
-0.110572
 20
-0.05667
 30
0.0
 11
-0.112066
 21
-0.05667
 31
0.0
  0
LINE
  5
1C1
330
1D
100
AcDbEntity
  8
0
  6
Continuous
100
AcDbLine
 10
-0.111055
 20
-0.056799
 30
0.0
 11
-0.112499
 21
-0.056799
 31
0.0
  0
LINE
  5
1C2
330
1D
100
AcDbEntity
  8
0
  6
Continuous
100
AcDbLine
 10
-0.110572
 20
-0.056928
 30
0.0
 11
-0.112066
 21
-0.056928
 31
0.0
  0
LINE
  5
1C3
330
1D
100
AcDbEntity
  8
0
  6
Continuous
100
AcDbLine
 10
-0.110064
 20
-0.05667
 30
0.0
 11
-0.110064
 21
-0.056542
 31
0.0
  0
LINE
  5
1C4
330
1D
100
AcDbEntity
  8
0
  6
Continuous
100
AcDbLine
 10
-0.110564
 20
-0.056799
 30
0.0
 11
-0.110064
 21
-0.05667
 31
0.0
  0
LINE
  5
1C5
330
1D
100
AcDbEntity
  8
0
  6
Continuous
100
AcDbLine
 10
-0.110064
 20
-0.05667
 30
0.0
 11
-0.110572
 21
-0.05667
 31
0.0
  0
LINE
  5
1C6
330
1D
100
AcDbEntity
  8
0
  6
Continuous
100
AcDbLine
 10
-0.110064
 20
-0.056928
 30
0.0
 11
-0.110564
 21
-0.056799
 31
0.0
  0
LINE
  5
1C7
330
1D
100
AcDbEntity
  8
0
  6
Continuous
100
AcDbLine
 10
-0.110564
 20
-0.056799
 30
0.0
 11
-0.111055
 21
-0.056799
 31
0.0
  0
LINE
  5
1C8
330
1D
100
AcDbEntity
  8
0
  6
Continuous
100
AcDbLine
 10
-0.110064
 20
-0.057057
 30
0.0
 11
-0.110064
 21
-0.056928
 31
0.0
  0
LINE
  5
1C9
330
1D
100
AcDbEntity
  8
0
  6
Continuous
100
AcDbLine
 10
-0.110064
 20
-0.056928
 30
0.0
 11
-0.110572
 21
-0.056928
 31
0.0
  0
LINE
  5
1CA
330
1D
100
AcDbEntity
  8
0
  6
Continuous
100
AcDbLine
 10
-0.132492
 20
-0.05667
 30
0.0
 11
-0.135589
 21
-0.05667
 31
0.0
  0
LINE
  5
1CB
330
1D
100
AcDbEntity
  8
0
  6
Continuous
100
AcDbLine
 10
-0.132242
 20
-0.056799
 30
0.0
 11
-0.135235
 21
-0.056799
 31
0.0
  0
LINE
  5
1CC
330
1D
100
AcDbEntity
  8
0
  6
Continuous
100
AcDbLine
 10
-0.132492
 20
-0.056928
 30
0.0
 11
-0.135589
 21
-0.056928
 31
0.0
  0
LINE
  5
1CD
330
1D
100
AcDbEntity
  8
0
  6
Continuous
100
AcDbLine
 10
-0.117542
 20
-0.05667
 30
0.0
 11
-0.121152
 21
-0.05667
 31
0.0
  0
LINE
  5
1CE
330
1D
100
AcDbEntity
  8
0
  6
Continuous
100
AcDbLine
 10
-0.117792
 20
-0.056799
 30
0.0
 11
-0.121281
 21
-0.056799
 31
0.0
  0
LINE
  5
1CF
330
1D
100
AcDbEntity
  8
0
  6
Continuous
100
AcDbLine
 10
-0.117542
 20
-0.056928
 30
0.0
 11
-0.121152
 21
-0.056928
 31
0.0
  0
LINE
  5
1D0
330
1D
100
AcDbEntity
  8
0
  6
Continuous
100
AcDbLine
 10
0.095
 20
-0.065234
 30
0.0
 11
0.095
 21
-0.0655
 31
0.0
  0
LINE
  5
1D1
330
1D
100
AcDbEntity
  8
0
  6
Continuous
100
AcDbLine
 10
0.095
 20
-0.0655
 30
0.0
 11
0.095752
 21
-0.0655
 31
0.0
  0
LINE
  5
1D2
330
1D
100
AcDbEntity
  8
0
  6
Continuous
100
AcDbLine
 10
0.095752
 20
-0.0655
 30
0.0
 11
0.097971
 21
-0.0655
 31
0.0
  0
LINE
  5
1D3
330
1D
100
AcDbEntity
  8
0
  6
Continuous
100
AcDbLine
 10
0.097971
 20
-0.0655
 30
0.0
 11
0.101545
 21
-0.0655
 31
0.0
  0
LINE
  5
1D4
330
1D
100
AcDbEntity
  8
0
  6
Continuous
100
AcDbLine
 10
0.101545
 20
-0.0655
 30
0.0
 11
0.106295
 21
-0.0655
 31
0.0
  0
LINE
  5
1D5
330
1D
100
AcDbEntity
  8
0
  6
Continuous
100
AcDbLine
 10
0.106295
 20
-0.0655
 30
0.0
 11
0.111984
 21
-0.0655
 31
0.0
  0
LINE
  5
1D6
330
1D
100
AcDbEntity
  8
0
  6
Continuous
100
AcDbLine
 10
0.111984
 20
-0.0655
 30
0.0
 11
0.118325
 21
-0.0655
 31
0.0
  0
LINE
  5
1D7
330
1D
100
AcDbEntity
  8
0
  6
Continuous
100
AcDbLine
 10
0.118325
 20
-0.0655
 30
0.0
 11
0.125
 21
-0.0655
 31
0.0
  0
LINE
  5
1D8
330
1D
100
AcDbEntity
  8
0
  6
Continuous
100
AcDbLine
 10
0.125
 20
-0.0655
 30
0.0
 11
0.131676
 21
-0.0655
 31
0.0
  0
LINE
  5
1D9
330
1D
100
AcDbEntity
  8
0
  6
Continuous
100
AcDbLine
 10
0.131676
 20
-0.0655
 30
0.0
 11
0.138017
 21
-0.0655
 31
0.0
  0
LINE
  5
1DA
330
1D
100
AcDbEntity
  8
0
  6
Continuous
100
AcDbLine
 10
0.138017
 20
-0.0655
 30
0.0
 11
0.143705
 21
-0.0655
 31
0.0
  0
LINE
  5
1DB
330
1D
100
AcDbEntity
  8
0
  6
Continuous
100
AcDbLine
 10
0.143705
 20
-0.0655
 30
0.0
 11
0.148455
 21
-0.0655
 31
0.0
  0
LINE
  5
1DC
330
1D
100
AcDbEntity
  8
0
  6
Continuous
100
AcDbLine
 10
0.148455
 20
-0.0655
 30
0.0
 11
0.152029
 21
-0.0655
 31
0.0
  0
LINE
  5
1DD
330
1D
100
AcDbEntity
  8
0
  6
Continuous
100
AcDbLine
 10
0.152029
 20
-0.0655
 30
0.0
 11
0.154248
 21
-0.0655
 31
0.0
  0
LINE
  5
1DE
330
1D
100
AcDbEntity
  8
0
  6
Continuous
100
AcDbLine
 10
0.155
 20
-0.0655
 30
0.0
 11
0.155
 21
-0.065234
 31
0.0
  0
LINE
  5
1DF
330
1D
100
AcDbEntity
  8
0
  6
Continuous
100
AcDbLine
 10
0.154248
 20
-0.0655
 30
0.0
 11
0.155
 21
-0.0655
 31
0.0
  0
LINE
  5
1E0
330
1D
100
AcDbEntity
  8
0
  6
Continuous
100
AcDbLine
 10
0.095752
 20
-0.0595
 30
0.0
 11
0.095
 21
-0.0595
 31
0.0
  0
LINE
  5
1E1
330
1D
100
AcDbEntity
  8
0
  6
Continuous
100
AcDbLine
 10
0.095
 20
-0.0595
 30
0.0
 11
0.095
 21
-0.059766
 31
0.0
  0
LINE
  5
1E2
330
1D
100
AcDbEntity
  8
0
  6
Continuous
100
AcDbLine
 10
0.097971
 20
-0.0595
 30
0.0
 11
0.095752
 21
-0.0595
 31
0.0
  0
LINE
  5
1E3
330
1D
100
AcDbEntity
  8
0
  6
Continuous
100
AcDbLine
 10
0.101545
 20
-0.0595
 30
0.0
 11
0.097971
 21
-0.0595
 31
0.0
  0
LINE
  5
1E4
330
1D
100
AcDbEntity
  8
0
  6
Continuous
100
AcDbLine
 10
0.106295
 20
-0.0595
 30
0.0
 11
0.101545
 21
-0.0595
 31
0.0
  0
LINE
  5
1E5
330
1D
100
AcDbEntity
  8
0
  6
Continuous
100
AcDbLine
 10
0.111984
 20
-0.0595
 30
0.0
 11
0.106295
 21
-0.0595
 31
0.0
  0
LINE
  5
1E6
330
1D
100
AcDbEntity
  8
0
  6
Continuous
100
AcDbLine
 10
0.118325
 20
-0.0595
 30
0.0
 11
0.111984
 21
-0.0595
 31
0.0
  0
LINE
  5
1E7
330
1D
100
AcDbEntity
  8
0
  6
Continuous
100
AcDbLine
 10
0.125
 20
-0.0595
 30
0.0
 11
0.118325
 21
-0.0595
 31
0.0
  0
LINE
  5
1E8
330
1D
100
AcDbEntity
  8
0
  6
Continuous
100
AcDbLine
 10
0.131676
 20
-0.0595
 30
0.0
 11
0.125
 21
-0.0595
 31
0.0
  0
LINE
  5
1E9
330
1D
100
AcDbEntity
  8
0
  6
Continuous
100
AcDbLine
 10
0.138017
 20
-0.0595
 30
0.0
 11
0.131676
 21
-0.0595
 31
0.0
  0
LINE
  5
1EA
330
1D
100
AcDbEntity
  8
0
  6
Continuous
100
AcDbLine
 10
0.143705
 20
-0.0595
 30
0.0
 11
0.138017
 21
-0.0595
 31
0.0
  0
LINE
  5
1EB
330
1D
100
AcDbEntity
  8
0
  6
Continuous
100
AcDbLine
 10
0.148455
 20
-0.0595
 30
0.0
 11
0.143705
 21
-0.0595
 31
0.0
  0
LINE
  5
1EC
330
1D
100
AcDbEntity
  8
0
  6
Continuous
100
AcDbLine
 10
0.152029
 20
-0.0595
 30
0.0
 11
0.148455
 21
-0.0595
 31
0.0
  0
LINE
  5
1ED
330
1D
100
AcDbEntity
  8
0
  6
Continuous
100
AcDbLine
 10
0.154248
 20
-0.0595
 30
0.0
 11
0.152029
 21
-0.0595
 31
0.0
  0
LINE
  5
1EE
330
1D
100
AcDbEntity
  8
0
  6
Continuous
100
AcDbLine
 10
0.155
 20
-0.0595
 30
0.0
 11
0.154248
 21
-0.0595
 31
0.0
  0
LINE
  5
1EF
330
1D
100
AcDbEntity
  8
0
  6
Continuous
100
AcDbLine
 10
0.155
 20
-0.059766
 30
0.0
 11
0.155
 21
-0.0595
 31
0.0
  0
LINE
  5
1F0
330
1D
100
AcDbEntity
  8
0
  6
Continuous
100
AcDbLine
 10
0.155
 20
-0.065234
 30
0.0
 11
0.155
 21
-0.059766
 31
0.0
  0
LINE
  5
1F1
330
1D
100
AcDbEntity
  8
0
  6
Continuous
100
AcDbLine
 10
0.095
 20
-0.059766
 30
0.0
 11
0.095
 21
-0.065234
 31
0.0
  0
LINE
  5
1F2
330
1D
100
AcDbEntity
  8
0
  6
Continuous
100
AcDbLine
 10
-0.155
 20
-0.065234
 30
0.0
 11
-0.155
 21
-0.0655
 31
0.0
  0
LINE
  5
1F3
330
1D
100
AcDbEntity
  8
0
  6
Continuous
100
AcDbLine
 10
-0.155
 20
-0.0655
 30
0.0
 11
-0.154248
 21
-0.0655
 31
0.0
  0
LINE
  5
1F4
330
1D
100
AcDbEntity
  8
0
  6
Continuous
100
AcDbLine
 10
-0.154248
 20
-0.0655
 30
0.0
 11
-0.152029
 21
-0.0655
 31
0.0
  0
LINE
  5
1F5
330
1D
100
AcDbEntity
  8
0
  6
Continuous
100
AcDbLine
 10
-0.152029
 20
-0.0655
 30
0.0
 11
-0.148455
 21
-0.0655
 31
0.0
  0
LINE
  5
1F6
330
1D
100
AcDbEntity
  8
0
  6
Continuous
100
AcDbLine
 10
-0.148455
 20
-0.0655
 30
0.0
 11
-0.143705
 21
-0.0655
 31
0.0
  0
LINE
  5
1F7
330
1D
100
AcDbEntity
  8
0
  6
Continuous
100
AcDbLine
 10
-0.143705
 20
-0.0655
 30
0.0
 11
-0.138016
 21
-0.0655
 31
0.0
  0
LINE
  5
1F8
330
1D
100
AcDbEntity
  8
0
  6
Continuous
100
AcDbLine
 10
-0.138016
 20
-0.0655
 30
0.0
 11
-0.131675
 21
-0.0655
 31
0.0
  0
LINE
  5
1F9
330
1D
100
AcDbEntity
  8
0
  6
Continuous
100
AcDbLine
 10
-0.131675
 20
-0.0655
 30
0.0
 11
-0.125
 21
-0.0655
 31
0.0
  0
LINE
  5
1FA
330
1D
100
AcDbEntity
  8
0
  6
Continuous
100
AcDbLine
 10
-0.125
 20
-0.0655
 30
0.0
 11
-0.118324
 21
-0.0655
 31
0.0
  0
LINE
  5
1FB
330
1D
100
AcDbEntity
  8
0
  6
Continuous
100
AcDbLine
 10
-0.118324
 20
-0.0655
 30
0.0
 11
-0.111983
 21
-0.0655
 31
0.0
  0
LINE
  5
1FC
330
1D
100
AcDbEntity
  8
0
  6
Continuous
100
AcDbLine
 10
-0.111983
 20
-0.0655
 30
0.0
 11
-0.106295
 21
-0.0655
 31
0.0
  0
LINE
  5
1FD
330
1D
100
AcDbEntity
  8
0
  6
Continuous
100
AcDbLine
 10
-0.106295
 20
-0.0655
 30
0.0
 11
-0.101545
 21
-0.0655
 31
0.0
  0
LINE
  5
1FE
330
1D
100
AcDbEntity
  8
0
  6
Continuous
100
AcDbLine
 10
-0.101545
 20
-0.0655
 30
0.0
 11
-0.097971
 21
-0.0655
 31
0.0
  0
LINE
  5
1FF
330
1D
100
AcDbEntity
  8
0
  6
Continuous
100
AcDbLine
 10
-0.097971
 20
-0.0655
 30
0.0
 11
-0.095752
 21
-0.0655
 31
0.0
  0
LINE
  5
200
330
1D
100
AcDbEntity
  8
0
  6
Continuous
100
AcDbLine
 10
-0.095
 20
-0.0655
 30
0.0
 11
-0.095
 21
-0.065234
 31
0.0
  0
LINE
  5
201
330
1D
100
AcDbEntity
  8
0
  6
Continuous
100
AcDbLine
 10
-0.095752
 20
-0.0655
 30
0.0
 11
-0.095
 21
-0.0655
 31
0.0
  0
LINE
  5
202
330
1D
100
AcDbEntity
  8
0
  6
Continuous
100
AcDbLine
 10
-0.154248
 20
-0.0595
 30
0.0
 11
-0.155
 21
-0.0595
 31
0.0
  0
LINE
  5
203
330
1D
100
AcDbEntity
  8
0
  6
Continuous
100
AcDbLine
 10
-0.155
 20
-0.0595
 30
0.0
 11
-0.155
 21
-0.059766
 31
0.0
  0
LINE
  5
204
330
1D
100
AcDbEntity
  8
0
  6
Continuous
100
AcDbLine
 10
-0.152029
 20
-0.0595
 30
0.0
 11
-0.154248
 21
-0.0595
 31
0.0
  0
LINE
  5
205
330
1D
100
AcDbEntity
  8
0
  6
Continuous
100
AcDbLine
 10
-0.148455
 20
-0.0595
 30
0.0
 11
-0.152029
 21
-0.0595
 31
0.0
  0
LINE
  5
206
330
1D
100
AcDbEntity
  8
0
  6
Continuous
100
AcDbLine
 10
-0.143705
 20
-0.0595
 30
0.0
 11
-0.148455
 21
-0.0595
 31
0.0
  0
LINE
  5
207
330
1D
100
AcDbEntity
  8
0
  6
Continuous
100
AcDbLine
 10
-0.138016
 20
-0.0595
 30
0.0
 11
-0.143705
 21
-0.0595
 31
0.0
  0
LINE
  5
208
330
1D
100
AcDbEntity
  8
0
  6
Continuous
100
AcDbLine
 10
-0.131675
 20
-0.0595
 30
0.0
 11
-0.138016
 21
-0.0595
 31
0.0
  0
LINE
  5
209
330
1D
100
AcDbEntity
  8
0
  6
Continuous
100
AcDbLine
 10
-0.125
 20
-0.0595
 30
0.0
 11
-0.131675
 21
-0.0595
 31
0.0
  0
LINE
  5
20A
330
1D
100
AcDbEntity
  8
0
  6
Continuous
100
AcDbLine
 10
-0.118324
 20
-0.0595
 30
0.0
 11
-0.125
 21
-0.0595
 31
0.0
  0
LINE
  5
20B
330
1D
100
AcDbEntity
  8
0
  6
Continuous
100
AcDbLine
 10
-0.111983
 20
-0.0595
 30
0.0
 11
-0.118324
 21
-0.0595
 31
0.0
  0
LINE
  5
20C
330
1D
100
AcDbEntity
  8
0
  6
Continuous
100
AcDbLine
 10
-0.106295
 20
-0.0595
 30
0.0
 11
-0.111983
 21
-0.0595
 31
0.0
  0
LINE
  5
20D
330
1D
100
AcDbEntity
  8
0
  6
Continuous
100
AcDbLine
 10
-0.101545
 20
-0.0595
 30
0.0
 11
-0.106295
 21
-0.0595
 31
0.0
  0
LINE
  5
20E
330
1D
100
AcDbEntity
  8
0
  6
Continuous
100
AcDbLine
 10
-0.097971
 20
-0.0595
 30
0.0
 11
-0.101545
 21
-0.0595
 31
0.0
  0
LINE
  5
20F
330
1D
100
AcDbEntity
  8
0
  6
Continuous
100
AcDbLine
 10
-0.095752
 20
-0.0595
 30
0.0
 11
-0.097971
 21
-0.0595
 31
0.0
  0
LINE
  5
210
330
1D
100
AcDbEntity
  8
0
  6
Continuous
100
AcDbLine
 10
-0.095
 20
-0.0595
 30
0.0
 11
-0.095752
 21
-0.0595
 31
0.0
  0
LINE
  5
211
330
1D
100
AcDbEntity
  8
0
  6
Continuous
100
AcDbLine
 10
-0.095
 20
-0.059766
 30
0.0
 11
-0.095
 21
-0.0595
 31
0.0
  0
LINE
  5
212
330
1D
100
AcDbEntity
  8
0
  6
Continuous
100
AcDbLine
 10
-0.095
 20
-0.065234
 30
0.0
 11
-0.095
 21
-0.059766
 31
0.0
  0
LINE
  5
213
330
1D
100
AcDbEntity
  8
0
  6
Continuous
100
AcDbLine
 10
-0.155
 20
-0.059766
 30
0.0
 11
-0.155
 21
-0.065234
 31
0.0
  0
LINE
  5
214
330
1D
100
AcDbEntity
  8
0
  6
Continuous
100
AcDbLine
 10
0.01076
 20
0.050017
 30
0.0
 11
0.010794
 21
0.04991
 31
0.0
  0
LINE
  5
215
330
1D
100
AcDbEntity
  8
0
  6
Continuous
100
AcDbLine
 10
0.010722
 20
0.050152
 30
0.0
 11
0.01076
 21
0.050017
 31
0.0
  0
LINE
  5
216
330
1D
100
AcDbEntity
  8
0
  6
Continuous
100
AcDbLine
 10
-0.00912
 20
0.051919
 30
0.0
 11
-0.010722
 21
0.050152
 31
0.0
  0
LINE
  5
217
330
1D
100
AcDbEntity
  8
0
  6
Continuous
100
AcDbLine
 10
-0.01076
 20
0.050017
 30
0.0
 11
-0.010793
 21
0.04991
 31
0.0
  0
LINE
  5
218
330
1D
100
AcDbEntity
  8
0
  6
Continuous
100
AcDbLine
 10
0.006627
 20
0.05337
 30
0.0
 11
0.007191
 21
0.053004
 31
0.0
  0
LINE
  5
219
330
1D
100
AcDbEntity
  8
0
  6
Continuous
100
AcDbLine
 10
0.007191
 20
0.053004
 30
0.0
 11
0.009121
 21
0.051919
 31
0.0
  0
LINE
  5
21A
330
1D
100
AcDbEntity
  8
0
  6
Continuous
100
AcDbLine
 10
-0.00719
 20
0.053004
 30
0.0
 11
-0.006626
 21
0.05337
 31
0.0
  0
LINE
  5
21B
330
1D
100
AcDbEntity
  8
0
  6
Continuous
100
AcDbLine
 10
-0.00912
 20
0.051919
 30
0.0
 11
-0.00719
 21
0.053004
 31
0.0
  0
LINE
  5
21C
330
1D
100
AcDbEntity
  8
0
  6
Continuous
100
AcDbLine
 10
-0.010722
 20
0.050152
 30
0.0
 11
-0.01076
 21
0.050017
 31
0.0
  0
LINE
  5
397
330
1D
100
AcDbEntity
  8
0
  6
Continuous
100
AcDbLine
 10
0.023556
 20
0.5751198885209935
 30
0.0
 11
0.023551
 21
0.5878678885209934
 31
0.0
  0
LINE
  5
398
330
1D
100
AcDbEntity
  8
0
  6
Continuous
100
AcDbLine
 10
0.015514
 20
0.3768898885209934
 30
0.0
 11
0.017924
 21
0.3768898885209934
 31
0.0
  0
LINE
  5
399
330
1D
100
AcDbEntity
  8
0
  6
Continuous
100
AcDbLine
 10
0.021717
 20
0.3796288885209934
 30
0.0
 11
0.021763
 21
0.3816238885209934
 31
0.0
  0
LINE
  5
39A
330
1D
100
AcDbEntity
  8
0
  6
Continuous
100
AcDbLine
 10
0.021763
 20
0.3816238885209934
 30
0.0
 11
0.02356
 21
0.5623728885209934
 31
0.0
  0
LINE
  5
39B
330
1D
100
AcDbEntity
  8
0
  6
Continuous
100
AcDbLine
 10
0.0
 20
0.3768898885209934
 30
0.0
 11
0.015514
 21
0.3768898885209934
 31
0.0
  0
LINE
  5
39C
330
1D
100
AcDbEntity
  8
0
  6
Continuous
100
AcDbLine
 10
0.020897
 20
0.3774548885209934
 30
0.0
 11
0.021717
 21
0.3796288885209934
 31
0.0
  0
LINE
  5
39D
330
1D
100
AcDbEntity
  8
0
  6
Continuous
100
AcDbLine
 10
0.017924
 20
0.3768898885209934
 30
0.0
 11
0.020897
 21
0.3774548885209934
 31
0.0
  0
LINE
  5
39E
330
1D
100
AcDbEntity
  8
0
  6
Continuous
100
AcDbLine
 10
0.006098
 20
0.6105448885209935
 30
0.0
 11
0.0
 21
0.6112788885209934
 31
0.0
  0
LINE
  5
39F
330
1D
100
AcDbEntity
  8
0
  6
Continuous
100
AcDbLine
 10
0.023551
 20
0.5878678885209934
 30
0.0
 11
0.022758
 21
0.5938748885209935
 31
0.0
  0
LINE
  5
3A0
330
1D
100
AcDbEntity
  8
0
  6
Continuous
100
AcDbLine
 10
0.01666
 20
0.6044458885209934
 30
0.0
 11
0.01178
 21
0.6081918885209934
 31
0.0
  0
LINE
  5
3A1
330
1D
100
AcDbEntity
  8
0
  6
Continuous
100
AcDbLine
 10
0.020404
 20
0.5995618885209935
 30
0.0
 11
0.01666
 21
0.6044458885209934
 31
0.0
  0
LINE
  5
3A2
330
1D
100
AcDbEntity
  8
0
  6
Continuous
100
AcDbLine
 10
0.022758
 20
0.5938748885209935
 30
0.0
 11
0.020404
 21
0.5995618885209935
 31
0.0
  0
LINE
  5
3A3
330
1D
100
AcDbEntity
  8
0
  6
Continuous
100
AcDbLine
 10
0.01178
 20
0.6081918885209934
 30
0.0
 11
0.006098
 21
0.6105448885209935
 31
0.0
  0
LINE
  5
3A4
330
1D
100
AcDbEntity
  8
0
  6
Continuous
100
AcDbLine
 10
0.02356
 20
0.5623728885209934
 30
0.0
 11
0.023556
 21
0.5751198885209935
 31
0.0
  0
LINE
  5
3A5
330
1D
100
AcDbEntity
  8
0
  6
Continuous
100
AcDbLine
 10
0.023623
 20
0.5812378885209935
 30
0.0
 11
0.023551
 21
0.5878678885209934
 31
0.0
  0
LINE
  5
3A6
330
1D
100
AcDbEntity
  8
0
  6
Continuous
100
AcDbLine
 10
0.023517
 20
0.5742308885209935
 30
0.0
 11
0.023623
 21
0.5812378885209935
 31
0.0
  0
LINE
  5
3A7
330
1D
100
AcDbEntity
  8
0
  6
Continuous
100
AcDbLine
 10
-0.023551
 20
0.5878678885209934
 30
0.0
 11
-0.023555
 21
0.5751198885209935
 31
0.0
  0
LINE
  5
3A8
330
1D
100
AcDbEntity
  8
0
  6
Continuous
100
AcDbLine
 10
-0.017923
 20
0.3768898885209934
 30
0.0
 11
-0.015514
 21
0.3768898885209934
 31
0.0
  0
LINE
  5
3A9
330
1D
100
AcDbEntity
  8
0
  6
Continuous
100
AcDbLine
 10
-0.021762
 20
0.3816238885209934
 30
0.0
 11
-0.021717
 21
0.3796288885209934
 31
0.0
  0
LINE
  5
3AA
330
1D
100
AcDbEntity
  8
0
  6
Continuous
100
AcDbLine
 10
-0.02356
 20
0.5623728885209934
 30
0.0
 11
-0.021762
 21
0.3816238885209934
 31
0.0
  0
LINE
  5
3AB
330
1D
100
AcDbEntity
  8
0
  6
Continuous
100
AcDbLine
 10
-0.015514
 20
0.3768898885209934
 30
0.0
 11
0.0
 21
0.3768898885209934
 31
0.0
  0
LINE
  5
3AC
330
1D
100
AcDbEntity
  8
0
  6
Continuous
100
AcDbLine
 10
-0.021717
 20
0.3796288885209934
 30
0.0
 11
-0.020897
 21
0.3774548885209934
 31
0.0
  0
LINE
  5
3AD
330
1D
100
AcDbEntity
  8
0
  6
Continuous
100
AcDbLine
 10
-0.020897
 20
0.3774548885209934
 30
0.0
 11
-0.017923
 21
0.3768898885209934
 31
0.0
  0
LINE
  5
3AE
330
1D
100
AcDbEntity
  8
0
  6
Continuous
100
AcDbLine
 10
0.0
 20
0.6112788885209934
 30
0.0
 11
-0.006098
 21
0.6105448885209935
 31
0.0
  0
LINE
  5
3AF
330
1D
100
AcDbEntity
  8
0
  6
Continuous
100
AcDbLine
 10
-0.022757
 20
0.5938748885209935
 30
0.0
 11
-0.023551
 21
0.5878678885209934
 31
0.0
  0
LINE
  5
3B0
330
1D
100
AcDbEntity
  8
0
  6
Continuous
100
AcDbLine
 10
-0.01178
 20
0.6081918885209934
 30
0.0
 11
-0.016659
 21
0.6044458885209934
 31
0.0
  0
LINE
  5
3B1
330
1D
100
AcDbEntity
  8
0
  6
Continuous
100
AcDbLine
 10
-0.016659
 20
0.6044458885209934
 30
0.0
 11
-0.020404
 21
0.5995618885209935
 31
0.0
  0
LINE
  5
3B2
330
1D
100
AcDbEntity
  8
0
  6
Continuous
100
AcDbLine
 10
-0.020404
 20
0.5995618885209935
 30
0.0
 11
-0.022757
 21
0.5938748885209935
 31
0.0
  0
LINE
  5
3B3
330
1D
100
AcDbEntity
  8
0
  6
Continuous
100
AcDbLine
 10
-0.006098
 20
0.6105448885209935
 30
0.0
 11
-0.01178
 21
0.6081918885209934
 31
0.0
  0
LINE
  5
3B4
330
1D
100
AcDbEntity
  8
0
  6
Continuous
100
AcDbLine
 10
-0.023555
 20
0.5751198885209935
 30
0.0
 11
-0.02356
 21
0.5623728885209934
 31
0.0
  0
LINE
  5
3B5
330
1D
100
AcDbEntity
  8
0
  6
Continuous
100
AcDbLine
 10
-0.023551
 20
0.5878678885209934
 30
0.0
 11
-0.023623
 21
0.5812378885209935
 31
0.0
  0
LINE
  5
3B6
330
1D
100
AcDbEntity
  8
0
  6
Continuous
100
AcDbLine
 10
-0.023623
 20
0.5812378885209935
 30
0.0
 11
-0.023517
 21
0.5742308885209935
 31
0.0
  0
LINE
  5
3B7
330
1D
100
AcDbEntity
  8
0
  6
Continuous
100
AcDbLine
 10
0.035
 20
0.5868878885209935
 30
0.0
 11
0.034123
 21
0.5946758885209934
 31
0.0
  0
LINE
  5
3B8
330
1D
100
AcDbEntity
  8
0
  6
Continuous
100
AcDbLine
 10
0.034123
 20
0.5946758885209934
 30
0.0
 11
0.031534
 21
0.6020738885209935
 31
0.0
  0
LINE
  5
3B9
330
1D
100
AcDbEntity
  8
0
  6
Continuous
100
AcDbLine
 10
0.031534
 20
0.6020738885209935
 30
0.0
 11
0.027364
 21
0.6087098885209934
 31
0.0
  0
LINE
  5
3BA
330
1D
100
AcDbEntity
  8
0
  6
Continuous
100
AcDbLine
 10
0.027364
 20
0.6087098885209934
 30
0.0
 11
0.021822
 21
0.6142518885209933
 31
0.0
  0
LINE
  5
3BB
330
1D
100
AcDbEntity
  8
0
  6
Continuous
100
AcDbLine
 10
0.021822
 20
0.6142518885209933
 30
0.0
 11
0.015186
 21
0.6184218885209934
 31
0.0
  0
LINE
  5
3BC
330
1D
100
AcDbEntity
  8
0
  6
Continuous
100
AcDbLine
 10
0.015186
 20
0.6184218885209934
 30
0.0
 11
0.007788
 21
0.6210098885209935
 31
0.0
  0
LINE
  5
3BD
330
1D
100
AcDbEntity
  8
0
  6
Continuous
100
AcDbLine
 10
0.007788
 20
0.6210098885209935
 30
0.0
 11
0.0
 21
0.6218878885209934
 31
0.0
  0
LINE
  5
3BE
330
1D
100
AcDbEntity
  8
0
  6
Continuous
100
AcDbLine
 10
0.0
 20
0.6218878885209934
 30
0.0
 11
-0.007788
 21
0.6210098885209935
 31
0.0
  0
LINE
  5
3BF
330
1D
100
AcDbEntity
  8
0
  6
Continuous
100
AcDbLine
 10
-0.007788
 20
0.6210098885209935
 30
0.0
 11
-0.015186
 21
0.6184218885209934
 31
0.0
  0
LINE
  5
3C0
330
1D
100
AcDbEntity
  8
0
  6
Continuous
100
AcDbLine
 10
-0.015186
 20
0.6184218885209934
 30
0.0
 11
-0.021822
 21
0.6142518885209933
 31
0.0
  0
LINE
  5
3C1
330
1D
100
AcDbEntity
  8
0
  6
Continuous
100
AcDbLine
 10
-0.021822
 20
0.6142518885209933
 30
0.0
 11
-0.027364
 21
0.6087098885209934
 31
0.0
  0
LINE
  5
3C2
330
1D
100
AcDbEntity
  8
0
  6
Continuous
100
AcDbLine
 10
-0.027364
 20
0.6087098885209934
 30
0.0
 11
-0.031534
 21
0.6020738885209935
 31
0.0
  0
LINE
  5
3C3
330
1D
100
AcDbEntity
  8
0
  6
Continuous
100
AcDbLine
 10
-0.031534
 20
0.6020738885209935
 30
0.0
 11
-0.034122
 21
0.5946758885209934
 31
0.0
  0
LINE
  5
3C4
330
1D
100
AcDbEntity
  8
0
  6
Continuous
100
AcDbLine
 10
-0.034122
 20
0.5946758885209934
 30
0.0
 11
-0.035
 21
0.5868878885209935
 31
0.0
  0
LINE
  5
3C5
330
1D
100
AcDbEntity
  8
0
  6
Continuous
100
AcDbLine
 10
-0.035
 20
0.5868878885209935
 30
0.0
 11
-0.034122
 21
0.5790998885209934
 31
0.0
  0
LINE
  5
3C6
330
1D
100
AcDbEntity
  8
0
  6
Continuous
100
AcDbLine
 10
-0.034122
 20
0.5790998885209934
 30
0.0
 11
-0.031534
 21
0.5717018885209935
 31
0.0
  0
LINE
  5
3C7
330
1D
100
AcDbEntity
  8
0
  6
Continuous
100
AcDbLine
 10
-0.031534
 20
0.5717018885209935
 30
0.0
 11
-0.027364
 21
0.5650658885209934
 31
0.0
  0
LINE
  5
3C8
330
1D
100
AcDbEntity
  8
0
  6
Continuous
100
AcDbLine
 10
-0.027364
 20
0.5650658885209934
 30
0.0
 11
-0.023549
 21
0.5612508885209934
 31
0.0
  0
LINE
  5
3C9
330
1D
100
AcDbEntity
  8
0
  6
Continuous
100
AcDbLine
 10
0.023549
 20
0.5612508885209934
 30
0.0
 11
0.027364
 21
0.5650658885209934
 31
0.0
  0
LINE
  5
3CA
330
1D
100
AcDbEntity
  8
0
  6
Continuous
100
AcDbLine
 10
0.027364
 20
0.5650658885209934
 30
0.0
 11
0.031534
 21
0.5717018885209935
 31
0.0
  0
LINE
  5
3CB
330
1D
100
AcDbEntity
  8
0
  6
Continuous
100
AcDbLine
 10
0.031534
 20
0.5717018885209935
 30
0.0
 11
0.034123
 21
0.5790998885209934
 31
0.0
  0
LINE
  5
3CC
330
1D
100
AcDbEntity
  8
0
  6
Continuous
100
AcDbLine
 10
0.034123
 20
0.5790998885209934
 30
0.0
 11
0.035
 21
0.5868878885209935
 31
0.0
  0
LINE
  5
3CD
330
1D
100
AcDbEntity
  8
0
  6
Continuous
100
AcDbLine
 10
0.125016
 20
0.5719358885209935
 30
0.0
 11
0.1289
 21
0.5722058885209935
 31
0.0
  0
LINE
  5
3CE
330
1D
100
AcDbEntity
  8
0
  6
Continuous
100
AcDbLine
 10
0.110064
 20
0.5868878885209935
 30
0.0
 11
0.110574
 21
0.5830178885209934
 31
0.0
  0
LINE
  5
3CF
330
1D
100
AcDbEntity
  8
0
  6
Continuous
100
AcDbLine
 10
0.110574
 20
0.5830178885209934
 30
0.0
 11
0.112067
 21
0.5794118885209933
 31
0.0
  0
LINE
  5
3D0
330
1D
100
AcDbEntity
  8
0
  6
Continuous
100
AcDbLine
 10
0.112067
 20
0.5794118885209933
 30
0.0
 11
0.114444
 21
0.5763148885209935
 31
0.0
  0
LINE
  5
3D1
330
1D
100
AcDbEntity
  8
0
  6
Continuous
100
AcDbLine
 10
0.114444
 20
0.5763148885209935
 30
0.0
 11
0.11754
 21
0.5739388885209934
 31
0.0
  0
LINE
  5
3D2
330
1D
100
AcDbEntity
  8
0
  6
Continuous
100
AcDbLine
 10
0.11754
 20
0.5739388885209934
 30
0.0
 11
0.121147
 21
0.5724448885209935
 31
0.0
  0
LINE
  5
3D3
330
1D
100
AcDbEntity
  8
0
  6
Continuous
100
AcDbLine
 10
0.121147
 20
0.5724448885209935
 30
0.0
 11
0.125016
 21
0.5719358885209935
 31
0.0
  0
LINE
  5
3D4
330
1D
100
AcDbEntity
  8
0
  6
Continuous
100
AcDbLine
 10
0.196125
 20
0.5789518885209935
 30
0.0
 11
0.197
 21
0.5818258885209934
 31
0.0
  0
LINE
  5
3D5
330
1D
100
AcDbEntity
  8
0
  6
Continuous
100
AcDbLine
 10
0.193709
 20
0.5767708885209935
 30
0.0
 11
0.196125
 21
0.5789518885209935
 31
0.0
  0
LINE
  5
3D6
330
1D
100
AcDbEntity
  8
0
  6
Continuous
100
AcDbLine
 10
0.197
 20
0.5818258885209934
 30
0.0
 11
0.197
 21
0.5843568885209934
 31
0.0
  0
LINE
  5
3D7
330
1D
100
AcDbEntity
  8
0
  6
Continuous
100
AcDbLine
 10
0.169641
 20
0.5746128885209934
 30
0.0
 11
0.179989
 21
0.5752108885209935
 31
0.0
  0
LINE
  5
3D8
330
1D
100
AcDbEntity
  8
0
  6
Continuous
100
AcDbLine
 10
0.197
 20
0.5843568885209934
 30
0.0
 11
0.197
 21
0.5868878885209935
 31
0.0
  0
LINE
  5
3D9
330
1D
100
AcDbEntity
  8
0
  6
Continuous
100
AcDbLine
 10
0.1508
 20
0.5734158885209935
 30
0.0
 11
0.156827
 21
0.5738148885209934
 31
0.0
  0
LINE
  5
3DA
330
1D
100
AcDbEntity
  8
0
  6
Continuous
100
AcDbLine
 10
0.190337
 20
0.5758098885209935
 30
0.0
 11
0.193709
 21
0.5767708885209935
 31
0.0
  0
LINE
  5
3DB
330
1D
100
AcDbEntity
  8
0
  6
Continuous
100
AcDbLine
 10
0.179989
 20
0.5752108885209935
 30
0.0
 11
0.190337
 21
0.5758098885209935
 31
0.0
  0
LINE
  5
3DC
330
1D
100
AcDbEntity
  8
0
  6
Continuous
100
AcDbLine
 10
0.156827
 20
0.5738148885209934
 30
0.0
 11
0.162853
 21
0.5742138885209935
 31
0.0
  0
LINE
  5
3DD
330
1D
100
AcDbEntity
  8
0
  6
Continuous
100
AcDbLine
 10
0.162853
 20
0.5742138885209935
 30
0.0
 11
0.169641
 21
0.5746128885209934
 31
0.0
  0
LINE
  5
3DE
330
1D
100
AcDbEntity
  8
0
  6
Continuous
100
AcDbLine
 10
0.1289
 20
0.5722058885209935
 30
0.0
 11
0.141662
 21
0.5728108885209934
 31
0.0
  0
LINE
  5
3DF
330
1D
100
AcDbEntity
  8
0
  6
Continuous
100
AcDbLine
 10
0.141662
 20
0.5728108885209934
 30
0.0
 11
0.1508
 21
0.5734158885209935
 31
0.0
  0
LINE
  5
3E0
330
1D
100
AcDbEntity
  8
0
  6
Continuous
100
AcDbLine
 10
0.1289
 20
0.6015698885209934
 30
0.0
 11
0.125016
 21
0.6018398885209935
 31
0.0
  0
LINE
  5
3E1
330
1D
100
AcDbEntity
  8
0
  6
Continuous
100
AcDbLine
 10
0.110574
 20
0.5907578885209935
 30
0.0
 11
0.110064
 21
0.5868878885209935
 31
0.0
  0
LINE
  5
3E2
330
1D
100
AcDbEntity
  8
0
  6
Continuous
100
AcDbLine
 10
0.112067
 20
0.5943638885209934
 30
0.0
 11
0.110574
 21
0.5907578885209935
 31
0.0
  0
LINE
  5
3E3
330
1D
100
AcDbEntity
  8
0
  6
Continuous
100
AcDbLine
 10
0.114444
 20
0.5974608885209934
 30
0.0
 11
0.112067
 21
0.5943638885209934
 31
0.0
  0
LINE
  5
3E4
330
1D
100
AcDbEntity
  8
0
  6
Continuous
100
AcDbLine
 10
0.11754
 20
0.5998368885209934
 30
0.0
 11
0.114444
 21
0.5974608885209934
 31
0.0
  0
LINE
  5
3E5
330
1D
100
AcDbEntity
  8
0
  6
Continuous
100
AcDbLine
 10
0.121147
 20
0.6013308885209935
 30
0.0
 11
0.11754
 21
0.5998368885209934
 31
0.0
  0
LINE
  5
3E6
330
1D
100
AcDbEntity
  8
0
  6
Continuous
100
AcDbLine
 10
0.125016
 20
0.6018398885209935
 30
0.0
 11
0.121147
 21
0.6013308885209935
 31
0.0
  0
LINE
  5
3E7
330
1D
100
AcDbEntity
  8
0
  6
Continuous
100
AcDbLine
 10
0.197
 20
0.5919488885209934
 30
0.0
 11
0.196125
 21
0.5948238885209934
 31
0.0
  0
LINE
  5
3E8
330
1D
100
AcDbEntity
  8
0
  6
Continuous
100
AcDbLine
 10
0.196125
 20
0.5948238885209934
 30
0.0
 11
0.193709
 21
0.5970048885209934
 31
0.0
  0
LINE
  5
3E9
330
1D
100
AcDbEntity
  8
0
  6
Continuous
100
AcDbLine
 10
0.197
 20
0.5894188885209935
 30
0.0
 11
0.197
 21
0.5919488885209934
 31
0.0
  0
LINE
  5
3EA
330
1D
100
AcDbEntity
  8
0
  6
Continuous
100
AcDbLine
 10
0.179989
 20
0.5985648885209934
 30
0.0
 11
0.169641
 21
0.5991628885209935
 31
0.0
  0
LINE
  5
3EB
330
1D
100
AcDbEntity
  8
0
  6
Continuous
100
AcDbLine
 10
0.197
 20
0.5868878885209935
 30
0.0
 11
0.197
 21
0.5894188885209935
 31
0.0
  0
LINE
  5
3EC
330
1D
100
AcDbEntity
  8
0
  6
Continuous
100
AcDbLine
 10
0.156827
 20
0.5999608885209934
 30
0.0
 11
0.150801
 21
0.6003598885209934
 31
0.0
  0
LINE
  5
3ED
330
1D
100
AcDbEntity
  8
0
  6
Continuous
100
AcDbLine
 10
0.193709
 20
0.5970048885209934
 30
0.0
 11
0.190337
 21
0.5979658885209935
 31
0.0
  0
LINE
  5
3EE
330
1D
100
AcDbEntity
  8
0
  6
Continuous
100
AcDbLine
 10
0.190337
 20
0.5979658885209935
 30
0.0
 11
0.179989
 21
0.5985648885209934
 31
0.0
  0
LINE
  5
3EF
330
1D
100
AcDbEntity
  8
0
  6
Continuous
100
AcDbLine
 10
0.162853
 20
0.5995618885209935
 30
0.0
 11
0.156827
 21
0.5999608885209934
 31
0.0
  0
LINE
  5
3F0
330
1D
100
AcDbEntity
  8
0
  6
Continuous
100
AcDbLine
 10
0.169641
 20
0.5991628885209935
 30
0.0
 11
0.162853
 21
0.5995618885209935
 31
0.0
  0
LINE
  5
3F1
330
1D
100
AcDbEntity
  8
0
  6
Continuous
100
AcDbLine
 10
0.141662
 20
0.6009648885209935
 30
0.0
 11
0.1289
 21
0.6015698885209934
 31
0.0
  0
LINE
  5
3F2
330
1D
100
AcDbEntity
  8
0
  6
Continuous
100
AcDbLine
 10
0.150801
 20
0.6003598885209934
 30
0.0
 11
0.141662
 21
0.6009648885209935
 31
0.0
  0
LINE
  5
3F3
330
1D
100
AcDbEntity
  8
0
  6
Continuous
100
AcDbLine
 10
-0.125016
 20
0.6018398885209935
 30
0.0
 11
-0.1289
 21
0.6015698885209934
 31
0.0
  0
LINE
  5
3F4
330
1D
100
AcDbEntity
  8
0
  6
Continuous
100
AcDbLine
 10
-0.110064
 20
0.5868878885209935
 30
0.0
 11
-0.110574
 21
0.5907578885209935
 31
0.0
  0
LINE
  5
3F5
330
1D
100
AcDbEntity
  8
0
  6
Continuous
100
AcDbLine
 10
-0.110574
 20
0.5907578885209935
 30
0.0
 11
-0.112067
 21
0.5943638885209934
 31
0.0
  0
LINE
  5
3F6
330
1D
100
AcDbEntity
  8
0
  6
Continuous
100
AcDbLine
 10
-0.112067
 20
0.5943638885209934
 30
0.0
 11
-0.114444
 21
0.5974608885209934
 31
0.0
  0
LINE
  5
3F7
330
1D
100
AcDbEntity
  8
0
  6
Continuous
100
AcDbLine
 10
-0.114444
 20
0.5974608885209934
 30
0.0
 11
-0.11754
 21
0.5998368885209934
 31
0.0
  0
LINE
  5
3F8
330
1D
100
AcDbEntity
  8
0
  6
Continuous
100
AcDbLine
 10
-0.11754
 20
0.5998368885209934
 30
0.0
 11
-0.121147
 21
0.6013308885209935
 31
0.0
  0
LINE
  5
3F9
330
1D
100
AcDbEntity
  8
0
  6
Continuous
100
AcDbLine
 10
-0.121147
 20
0.6013308885209935
 30
0.0
 11
-0.125016
 21
0.6018398885209935
 31
0.0
  0
LINE
  5
3FA
330
1D
100
AcDbEntity
  8
0
  6
Continuous
100
AcDbLine
 10
-0.196125
 20
0.5948238885209934
 30
0.0
 11
-0.197
 21
0.5919498885209934
 31
0.0
  0
LINE
  5
3FB
330
1D
100
AcDbEntity
  8
0
  6
Continuous
100
AcDbLine
 10
-0.193709
 20
0.5970048885209934
 30
0.0
 11
-0.196125
 21
0.5948238885209934
 31
0.0
  0
LINE
  5
3FC
330
1D
100
AcDbEntity
  8
0
  6
Continuous
100
AcDbLine
 10
-0.197
 20
0.5919498885209934
 30
0.0
 11
-0.197
 21
0.5894188885209935
 31
0.0
  0
LINE
  5
3FD
330
1D
100
AcDbEntity
  8
0
  6
Continuous
100
AcDbLine
 10
-0.169641
 20
0.5991628885209935
 30
0.0
 11
-0.179989
 21
0.5985648885209934
 31
0.0
  0
LINE
  5
3FE
330
1D
100
AcDbEntity
  8
0
  6
Continuous
100
AcDbLine
 10
-0.197
 20
0.5894188885209935
 30
0.0
 11
-0.197
 21
0.5868878885209935
 31
0.0
  0
LINE
  5
3FF
330
1D
100
AcDbEntity
  8
0
  6
Continuous
100
AcDbLine
 10
-0.1508
 20
0.6003598885209934
 30
0.0
 11
-0.156827
 21
0.5999608885209934
 31
0.0
  0
LINE
  5
400
330
1D
100
AcDbEntity
  8
0
  6
Continuous
100
AcDbLine
 10
-0.190337
 20
0.5979658885209935
 30
0.0
 11
-0.193709
 21
0.5970048885209934
 31
0.0
  0
LINE
  5
401
330
1D
100
AcDbEntity
  8
0
  6
Continuous
100
AcDbLine
 10
-0.179989
 20
0.5985648885209934
 30
0.0
 11
-0.190337
 21
0.5979658885209935
 31
0.0
  0
LINE
  5
402
330
1D
100
AcDbEntity
  8
0
  6
Continuous
100
AcDbLine
 10
-0.156827
 20
0.5999608885209934
 30
0.0
 11
-0.162853
 21
0.5995618885209935
 31
0.0
  0
LINE
  5
403
330
1D
100
AcDbEntity
  8
0
  6
Continuous
100
AcDbLine
 10
-0.162853
 20
0.5995618885209935
 30
0.0
 11
-0.169641
 21
0.5991628885209935
 31
0.0
  0
LINE
  5
404
330
1D
100
AcDbEntity
  8
0
  6
Continuous
100
AcDbLine
 10
-0.1289
 20
0.6015698885209934
 30
0.0
 11
-0.141662
 21
0.6009648885209935
 31
0.0
  0
LINE
  5
405
330
1D
100
AcDbEntity
  8
0
  6
Continuous
100
AcDbLine
 10
-0.141662
 20
0.6009648885209935
 30
0.0
 11
-0.1508
 21
0.6003598885209934
 31
0.0
  0
LINE
  5
406
330
1D
100
AcDbEntity
  8
0
  6
Continuous
100
AcDbLine
 10
-0.1289
 20
0.5722058885209935
 30
0.0
 11
-0.125016
 21
0.5719358885209935
 31
0.0
  0
LINE
  5
407
330
1D
100
AcDbEntity
  8
0
  6
Continuous
100
AcDbLine
 10
-0.110574
 20
0.5830178885209934
 30
0.0
 11
-0.110064
 21
0.5868878885209935
 31
0.0
  0
LINE
  5
408
330
1D
100
AcDbEntity
  8
0
  6
Continuous
100
AcDbLine
 10
-0.112067
 20
0.5794118885209933
 30
0.0
 11
-0.110574
 21
0.5830178885209934
 31
0.0
  0
LINE
  5
409
330
1D
100
AcDbEntity
  8
0
  6
Continuous
100
AcDbLine
 10
-0.114444
 20
0.5763148885209935
 30
0.0
 11
-0.112067
 21
0.5794118885209933
 31
0.0
  0
LINE
  5
40A
330
1D
100
AcDbEntity
  8
0
  6
Continuous
100
AcDbLine
 10
-0.11754
 20
0.5739388885209934
 30
0.0
 11
-0.114444
 21
0.5763148885209935
 31
0.0
  0
LINE
  5
40B
330
1D
100
AcDbEntity
  8
0
  6
Continuous
100
AcDbLine
 10
-0.121147
 20
0.5724448885209935
 30
0.0
 11
-0.11754
 21
0.5739388885209934
 31
0.0
  0
LINE
  5
40C
330
1D
100
AcDbEntity
  8
0
  6
Continuous
100
AcDbLine
 10
-0.125016
 20
0.5719358885209935
 30
0.0
 11
-0.121147
 21
0.5724448885209935
 31
0.0
  0
LINE
  5
40D
330
1D
100
AcDbEntity
  8
0
  6
Continuous
100
AcDbLine
 10
-0.197
 20
0.5818258885209934
 30
0.0
 11
-0.196125
 21
0.5789518885209935
 31
0.0
  0
LINE
  5
40E
330
1D
100
AcDbEntity
  8
0
  6
Continuous
100
AcDbLine
 10
-0.196125
 20
0.5789518885209935
 30
0.0
 11
-0.193709
 21
0.5767708885209935
 31
0.0
  0
LINE
  5
40F
330
1D
100
AcDbEntity
  8
0
  6
Continuous
100
AcDbLine
 10
-0.197
 20
0.5843568885209934
 30
0.0
 11
-0.197
 21
0.5818258885209934
 31
0.0
  0
LINE
  5
410
330
1D
100
AcDbEntity
  8
0
  6
Continuous
100
AcDbLine
 10
-0.179989
 20
0.5752108885209935
 30
0.0
 11
-0.169641
 21
0.5746128885209934
 31
0.0
  0
LINE
  5
411
330
1D
100
AcDbEntity
  8
0
  6
Continuous
100
AcDbLine
 10
-0.197
 20
0.5868878885209935
 30
0.0
 11
-0.197
 21
0.5843568885209934
 31
0.0
  0
LINE
  5
412
330
1D
100
AcDbEntity
  8
0
  6
Continuous
100
AcDbLine
 10
-0.156827
 20
0.5738148885209934
 30
0.0
 11
-0.150801
 21
0.5734158885209935
 31
0.0
  0
LINE
  5
413
330
1D
100
AcDbEntity
  8
0
  6
Continuous
100
AcDbLine
 10
-0.193709
 20
0.5767708885209935
 30
0.0
 11
-0.190337
 21
0.5758098885209935
 31
0.0
  0
LINE
  5
414
330
1D
100
AcDbEntity
  8
0
  6
Continuous
100
AcDbLine
 10
-0.190337
 20
0.5758098885209935
 30
0.0
 11
-0.179989
 21
0.5752108885209935
 31
0.0
  0
LINE
  5
415
330
1D
100
AcDbEntity
  8
0
  6
Continuous
100
AcDbLine
 10
-0.162853
 20
0.5742138885209935
 30
0.0
 11
-0.156827
 21
0.5738148885209934
 31
0.0
  0
LINE
  5
416
330
1D
100
AcDbEntity
  8
0
  6
Continuous
100
AcDbLine
 10
-0.169641
 20
0.5746128885209934
 30
0.0
 11
-0.162853
 21
0.5742138885209935
 31
0.0
  0
LINE
  5
417
330
1D
100
AcDbEntity
  8
0
  6
Continuous
100
AcDbLine
 10
-0.141662
 20
0.5728108885209934
 30
0.0
 11
-0.1289
 21
0.5722058885209935
 31
0.0
  0
LINE
  5
418
330
1D
100
AcDbEntity
  8
0
  6
Continuous
100
AcDbLine
 10
-0.150801
 20
0.5734158885209935
 30
0.0
 11
-0.141662
 21
0.5728108885209934
 31
0.0
  0
LINE
  5
419
330
1D
100
AcDbEntity
  8
0
  6
Continuous
100
AcDbLine
 10
0.151784
 20
0.6002948885209934
 30
0.0
 11
0.148455
 21
0.6055928885209934
 31
0.0
  0
LINE
  5
41A
330
1D
100
AcDbEntity
  8
0
  6
Continuous
100
AcDbLine
 10
0.148455
 20
0.6055928885209934
 30
0.0
 11
0.143705
 21
0.6103428885209934
 31
0.0
  0
LINE
  5
41B
330
1D
100
AcDbEntity
  8
0
  6
Continuous
100
AcDbLine
 10
0.143705
 20
0.6103428885209934
 30
0.0
 11
0.138017
 21
0.6139168885209934
 31
0.0
  0
LINE
  5
41C
330
1D
100
AcDbEntity
  8
0
  6
Continuous
100
AcDbLine
 10
0.138017
 20
0.6139168885209934
 30
0.0
 11
0.131676
 21
0.6161358885209934
 31
0.0
  0
LINE
  5
41D
330
1D
100
AcDbEntity
  8
0
  6
Continuous
100
AcDbLine
 10
0.131676
 20
0.6161358885209934
 30
0.0
 11
0.125
 21
0.6168878885209934
 31
0.0
  0
LINE
  5
41E
330
1D
100
AcDbEntity
  8
0
  6
Continuous
100
AcDbLine
 10
0.125
 20
0.6168878885209934
 30
0.0
 11
0.118325
 21
0.6161358885209934
 31
0.0
  0
LINE
  5
41F
330
1D
100
AcDbEntity
  8
0
  6
Continuous
100
AcDbLine
 10
0.118325
 20
0.6161358885209934
 30
0.0
 11
0.111984
 21
0.6139168885209934
 31
0.0
  0
LINE
  5
420
330
1D
100
AcDbEntity
  8
0
  6
Continuous
100
AcDbLine
 10
0.111984
 20
0.6139168885209934
 30
0.0
 11
0.106296
 21
0.6103428885209934
 31
0.0
  0
LINE
  5
421
330
1D
100
AcDbEntity
  8
0
  6
Continuous
100
AcDbLine
 10
0.106296
 20
0.6103428885209934
 30
0.0
 11
0.101545
 21
0.6055928885209934
 31
0.0
  0
LINE
  5
422
330
1D
100
AcDbEntity
  8
0
  6
Continuous
100
AcDbLine
 10
0.101545
 20
0.6055928885209934
 30
0.0
 11
0.0979710000000001
 21
0.5999038885209935
 31
0.0
  0
LINE
  5
423
330
1D
100
AcDbEntity
  8
0
  6
Continuous
100
AcDbLine
 10
0.0979710000000001
 20
0.5999038885209935
 30
0.0
 11
0.095752
 21
0.5935638885209934
 31
0.0
  0
LINE
  5
424
330
1D
100
AcDbEntity
  8
0
  6
Continuous
100
AcDbLine
 10
0.095752
 20
0.5935638885209934
 30
0.0
 11
0.095
 21
0.5868878885209935
 31
0.0
  0
LINE
  5
425
330
1D
100
AcDbEntity
  8
0
  6
Continuous
100
AcDbLine
 10
0.095
 20
0.5868878885209935
 30
0.0
 11
0.095752
 21
0.5802118885209934
 31
0.0
  0
LINE
  5
426
330
1D
100
AcDbEntity
  8
0
  6
Continuous
100
AcDbLine
 10
0.095752
 20
0.5802118885209934
 30
0.0
 11
0.0979710000000001
 21
0.5738708885209933
 31
0.0
  0
LINE
  5
427
330
1D
100
AcDbEntity
  8
0
  6
Continuous
100
AcDbLine
 10
0.0979710000000001
 20
0.5738708885209933
 30
0.0
 11
0.101545
 21
0.5681828885209935
 31
0.0
  0
LINE
  5
428
330
1D
100
AcDbEntity
  8
0
  6
Continuous
100
AcDbLine
 10
0.101545
 20
0.5681828885209935
 30
0.0
 11
0.106295
 21
0.5634328885209934
 31
0.0
  0
LINE
  5
429
330
1D
100
AcDbEntity
  8
0
  6
Continuous
100
AcDbLine
 10
0.106295
 20
0.5634328885209934
 30
0.0
 11
0.111984
 21
0.5598588885209935
 31
0.0
  0
LINE
  5
42A
330
1D
100
AcDbEntity
  8
0
  6
Continuous
100
AcDbLine
 10
0.111984
 20
0.5598588885209935
 30
0.0
 11
0.118325
 21
0.5576398885209935
 31
0.0
  0
LINE
  5
42B
330
1D
100
AcDbEntity
  8
0
  6
Continuous
100
AcDbLine
 10
0.118325
 20
0.5576398885209935
 30
0.0
 11
0.125
 21
0.5568878885209934
 31
0.0
  0
LINE
  5
42C
330
1D
100
AcDbEntity
  8
0
  6
Continuous
100
AcDbLine
 10
0.125
 20
0.5568878885209934
 30
0.0
 11
0.131676
 21
0.5576398885209935
 31
0.0
  0
LINE
  5
42D
330
1D
100
AcDbEntity
  8
0
  6
Continuous
100
AcDbLine
 10
0.131676
 20
0.5576398885209935
 30
0.0
 11
0.138017
 21
0.5598588885209935
 31
0.0
  0
LINE
  5
42E
330
1D
100
AcDbEntity
  8
0
  6
Continuous
100
AcDbLine
 10
0.138017
 20
0.5598588885209935
 30
0.0
 11
0.143705
 21
0.5634328885209934
 31
0.0
  0
LINE
  5
42F
330
1D
100
AcDbEntity
  8
0
  6
Continuous
100
AcDbLine
 10
0.143705
 20
0.5634328885209934
 30
0.0
 11
0.148455
 21
0.5681828885209935
 31
0.0
  0
LINE
  5
430
330
1D
100
AcDbEntity
  8
0
  6
Continuous
100
AcDbLine
 10
0.148455
 20
0.5681828885209935
 30
0.0
 11
0.151784
 21
0.5734808885209935
 31
0.0
  0
LINE
  5
431
330
1D
100
AcDbEntity
  8
0
  6
Continuous
100
AcDbLine
 10
-0.095
 20
0.5868878885209935
 30
0.0
 11
-0.095752
 21
0.5935638885209934
 31
0.0
  0
LINE
  5
432
330
1D
100
AcDbEntity
  8
0
  6
Continuous
100
AcDbLine
 10
-0.095752
 20
0.5935638885209934
 30
0.0
 11
-0.097971
 21
0.5999038885209935
 31
0.0
  0
LINE
  5
433
330
1D
100
AcDbEntity
  8
0
  6
Continuous
100
AcDbLine
 10
-0.097971
 20
0.5999038885209935
 30
0.0
 11
-0.101545
 21
0.6055928885209934
 31
0.0
  0
LINE
  5
434
330
1D
100
AcDbEntity
  8
0
  6
Continuous
100
AcDbLine
 10
-0.101545
 20
0.6055928885209934
 30
0.0
 11
-0.106295
 21
0.6103428885209934
 31
0.0
  0
LINE
  5
435
330
1D
100
AcDbEntity
  8
0
  6
Continuous
100
AcDbLine
 10
-0.106295
 20
0.6103428885209934
 30
0.0
 11
-0.111983
 21
0.6139168885209934
 31
0.0
  0
LINE
  5
436
330
1D
100
AcDbEntity
  8
0
  6
Continuous
100
AcDbLine
 10
-0.111983
 20
0.6139168885209934
 30
0.0
 11
-0.118324
 21
0.6161358885209934
 31
0.0
  0
LINE
  5
437
330
1D
100
AcDbEntity
  8
0
  6
Continuous
100
AcDbLine
 10
-0.118324
 20
0.6161358885209934
 30
0.0
 11
-0.125
 21
0.6168878885209934
 31
0.0
  0
LINE
  5
438
330
1D
100
AcDbEntity
  8
0
  6
Continuous
100
AcDbLine
 10
-0.125
 20
0.6168878885209934
 30
0.0
 11
-0.131675
 21
0.6161358885209934
 31
0.0
  0
LINE
  5
439
330
1D
100
AcDbEntity
  8
0
  6
Continuous
100
AcDbLine
 10
-0.131675
 20
0.6161358885209934
 30
0.0
 11
-0.138016
 21
0.6139168885209934
 31
0.0
  0
LINE
  5
43A
330
1D
100
AcDbEntity
  8
0
  6
Continuous
100
AcDbLine
 10
-0.138016
 20
0.6139168885209934
 30
0.0
 11
-0.143704
 21
0.6103428885209934
 31
0.0
  0
LINE
  5
43B
330
1D
100
AcDbEntity
  8
0
  6
Continuous
100
AcDbLine
 10
-0.143704
 20
0.6103428885209934
 30
0.0
 11
-0.148455
 21
0.6055928885209934
 31
0.0
  0
LINE
  5
43C
330
1D
100
AcDbEntity
  8
0
  6
Continuous
100
AcDbLine
 10
-0.148455
 20
0.6055928885209934
 30
0.0
 11
-0.151783
 21
0.6002948885209934
 31
0.0
  0
LINE
  5
43D
330
1D
100
AcDbEntity
  8
0
  6
Continuous
100
AcDbLine
 10
-0.151783
 20
0.5734808885209935
 30
0.0
 11
-0.148455
 21
0.5681828885209935
 31
0.0
  0
LINE
  5
43E
330
1D
100
AcDbEntity
  8
0
  6
Continuous
100
AcDbLine
 10
-0.148455
 20
0.5681828885209935
 30
0.0
 11
-0.143705
 21
0.5634328885209934
 31
0.0
  0
LINE
  5
43F
330
1D
100
AcDbEntity
  8
0
  6
Continuous
100
AcDbLine
 10
-0.143705
 20
0.5634328885209934
 30
0.0
 11
-0.138016
 21
0.5598588885209935
 31
0.0
  0
LINE
  5
440
330
1D
100
AcDbEntity
  8
0
  6
Continuous
100
AcDbLine
 10
-0.138016
 20
0.5598588885209935
 30
0.0
 11
-0.131675
 21
0.5576398885209935
 31
0.0
  0
LINE
  5
441
330
1D
100
AcDbEntity
  8
0
  6
Continuous
100
AcDbLine
 10
-0.131675
 20
0.5576398885209935
 30
0.0
 11
-0.125
 21
0.5568878885209934
 31
0.0
  0
LINE
  5
442
330
1D
100
AcDbEntity
  8
0
  6
Continuous
100
AcDbLine
 10
-0.125
 20
0.5568878885209934
 30
0.0
 11
-0.118324
 21
0.5576398885209935
 31
0.0
  0
LINE
  5
443
330
1D
100
AcDbEntity
  8
0
  6
Continuous
100
AcDbLine
 10
-0.118324
 20
0.5576398885209935
 30
0.0
 11
-0.111983
 21
0.5598588885209935
 31
0.0
  0
LINE
  5
444
330
1D
100
AcDbEntity
  8
0
  6
Continuous
100
AcDbLine
 10
-0.111983
 20
0.5598588885209935
 30
0.0
 11
-0.106295
 21
0.5634328885209934
 31
0.0
  0
LINE
  5
445
330
1D
100
AcDbEntity
  8
0
  6
Continuous
100
AcDbLine
 10
-0.106295
 20
0.5634328885209934
 30
0.0
 11
-0.101545
 21
0.5681828885209935
 31
0.0
  0
LINE
  5
446
330
1D
100
AcDbEntity
  8
0
  6
Continuous
100
AcDbLine
 10
-0.101545
 20
0.5681828885209935
 30
0.0
 11
-0.097971
 21
0.5738708885209933
 31
0.0
  0
LINE
  5
447
330
1D
100
AcDbEntity
  8
0
  6
Continuous
100
AcDbLine
 10
-0.097971
 20
0.5738708885209933
 30
0.0
 11
-0.095752
 21
0.5802118885209934
 31
0.0
  0
LINE
  5
448
330
1D
100
AcDbEntity
  8
0
  6
Continuous
100
AcDbLine
 10
-0.095752
 20
0.5802118885209934
 30
0.0
 11
-0.095
 21
0.5868878885209935
 31
0.0
  0
LINE
  5
565
330
1D
100
AcDbEntity
  8
0
  6
Continuous
100
AcDbLine
 10
0.7431883691316962
 20
0.015724
 30
0.0
 11
0.7431883691316962
 21
0.028247
 31
0.0
  0
LINE
  5
566
330
1D
100
AcDbEntity
  8
0
  6
Continuous
100
AcDbLine
 10
0.5390913691316961
 20
0.042091
 30
0.0
 11
0.5410823691316962
 21
0.041939
 31
0.0
  0
LINE
  5
567
330
1D
100
AcDbEntity
  8
0
  6
Continuous
100
AcDbLine
 10
0.6963663691316962
 20
0.015824
 30
0.0
 11
0.6963663691316962
 21
0.012415
 31
0.0
  0
LINE
  5
568
330
1D
100
AcDbEntity
  8
0
  6
Continuous
100
AcDbLine
 10
0.5135333691316962
 20
0.0655
 30
0.0
 11
0.5115383691316962
 21
0.0655
 31
0.0
  0
LINE
  5
569
330
1D
100
AcDbEntity
  8
0
  6
Continuous
100
AcDbLine
 10
0.5093843691316962
 20
0.064508
 30
0.0
 11
0.5087993691316961
 21
0.0655
 31
0.0
  0
LINE
  5
56A
330
1D
100
AcDbEntity
  8
0
  6
Continuous
100
AcDbLine
 10
0.5087993691316961
 20
0.0655
 30
0.0
 11
0.5093843691316962
 21
0.064508
 31
0.0
  0
LINE
  5
56B
330
1D
100
AcDbEntity
  8
0
  6
Continuous
100
AcDbLine
 10
0.5115383691316962
 20
0.0655
 30
0.0
 11
0.5093643691316962
 21
0.0655
 31
0.0
  0
LINE
  5
56C
330
1D
100
AcDbEntity
  8
0
  6
Continuous
100
AcDbLine
 10
0.5093643691316962
 20
0.0655
 30
0.0
 11
0.5087993691316961
 21
0.0655
 31
0.0
  0
LINE
  5
56D
330
1D
100
AcDbEntity
  8
0
  6
Continuous
100
AcDbLine
 10
0.5099543691316962
 20
0.064513
 30
0.0
 11
0.5093643691316962
 21
0.0655
 31
0.0
  0
LINE
  5
56E
330
1D
100
AcDbEntity
  8
0
  6
Continuous
100
AcDbLine
 10
0.5087993691316961
 20
0.0655
 30
0.0
 11
0.5093843691316962
 21
0.064508
 31
0.0
  0
LINE
  5
56F
330
1D
100
AcDbEntity
  8
0
  6
Continuous
100
AcDbLine
 10
0.7431883691316962
 20
0.0655
 30
0.0
 11
0.7424543691316962
 21
0.0655
 31
0.0
  0
LINE
  5
570
330
1D
100
AcDbEntity
  8
0
  6
Continuous
100
AcDbLine
 10
0.7431883691316962
 20
0.064849
 30
0.0
 11
0.7431883691316962
 21
0.0655
 31
0.0
  0
LINE
  5
571
330
1D
100
AcDbEntity
  8
0
  6
Continuous
100
AcDbLine
 10
0.7257843691316963
 20
0.0655
 30
0.0
 11
0.7197773691316961
 21
0.0655
 31
0.0
  0
LINE
  5
572
330
1D
100
AcDbEntity
  8
0
  6
Continuous
100
AcDbLine
 10
0.7401013691316961
 20
0.0655
 30
0.0
 11
0.7363553691316961
 21
0.0655
 31
0.0
  0
LINE
  5
573
330
1D
100
AcDbEntity
  8
0
  6
Continuous
100
AcDbLine
 10
0.7363553691316961
 20
0.0655
 30
0.0
 11
0.7314713691316963
 21
0.0655
 31
0.0
  0
LINE
  5
574
330
1D
100
AcDbEntity
  8
0
  6
Continuous
100
AcDbLine
 10
0.7314713691316963
 20
0.0655
 30
0.0
 11
0.7257843691316963
 21
0.0655
 31
0.0
  0
LINE
  5
575
330
1D
100
AcDbEntity
  8
0
  6
Continuous
100
AcDbLine
 10
0.7424543691316962
 20
0.0655
 30
0.0
 11
0.7401013691316961
 21
0.0655
 31
0.0
  0
LINE
  5
576
330
1D
100
AcDbEntity
  8
0
  6
Continuous
100
AcDbLine
 10
0.7197773691316961
 20
0.0655
 30
0.0
 11
0.7070293691316962
 21
0.0655
 31
0.0
  0
LINE
  5
577
330
1D
100
AcDbEntity
  8
0
  6
Continuous
100
AcDbLine
 10
0.5147123691316962
 20
0.060205
 30
0.0
 11
0.5185753691316961
 21
0.056166
 31
0.0
  0
LINE
  5
578
330
1D
100
AcDbEntity
  8
0
  6
Continuous
100
AcDbLine
 10
0.7431883691316962
 20
0.059071
 30
0.0
 11
0.7431883691316962
 21
0.064849
 31
0.0
  0
LINE
  5
579
330
1D
100
AcDbEntity
  8
0
  6
Continuous
100
AcDbLine
 10
0.7431883691316962
 20
0.048796
 30
0.0
 11
0.7431883691316962
 21
0.059071
 31
0.0
  0
LINE
  5
57A
330
1D
100
AcDbEntity
  8
0
  6
Continuous
100
AcDbLine
 10
0.7070293691316962
 20
0.0655
 30
0.0
 11
0.6942823691316961
 21
0.0655
 31
0.0
  0
LINE
  5
57B
330
1D
100
AcDbEntity
  8
0
  6
Continuous
100
AcDbLine
 10
0.7431883691316962
 20
0.028247
 30
0.0
 11
0.7431883691316962
 21
0.038522
 31
0.0
  0
LINE
  5
57C
330
1D
100
AcDbEntity
  8
0
  6
Continuous
100
AcDbLine
 10
0.7431883691316962
 20
0.038522
 30
0.0
 11
0.7431883691316962
 21
0.048796
 31
0.0
  0
LINE
  5
57D
330
1D
100
AcDbEntity
  8
0
  6
Continuous
100
AcDbLine
 10
0.7431883691316962
 20
0.01232
 30
0.0
 11
0.7431883691316962
 21
0.015724
 31
0.0
  0
LINE
  5
57E
330
1D
100
AcDbEntity
  8
0
  6
Continuous
100
AcDbLine
 10
0.5154103691316961
 20
0.056557
 30
0.0
 11
0.5196903691316961
 21
0.053004
 31
0.0
  0
LINE
  5
57F
330
1D
100
AcDbEntity
  8
0
  6
Continuous
100
AcDbLine
 10
0.5124893691316962
 20
0.060263
 30
0.0
 11
0.5099543691316962
 21
0.064513
 31
0.0
  0
LINE
  5
580
330
1D
100
AcDbEntity
  8
0
  6
Continuous
100
AcDbLine
 10
0.5093843691316962
 20
0.064508
 30
0.0
 11
0.5117823691316962
 21
0.060439
 31
0.0
  0
LINE
  5
581
330
1D
100
AcDbEntity
  8
0
  6
Continuous
100
AcDbLine
 10
0.6879913691316962
 20
0.031511
 30
0.0
 11
0.6918173691316962
 21
0.028627
 31
0.0
  0
LINE
  5
582
330
1D
100
AcDbEntity
  8
0
  6
Continuous
100
AcDbLine
 10
0.5410823691316962
 20
0.041939
 30
0.0
 11
0.6770663691316962
 21
0.034155
 31
0.0
  0
LINE
  5
583
330
1D
100
AcDbEntity
  8
0
  6
Continuous
100
AcDbLine
 10
0.5196903691316961
 20
0.053004
 30
0.0
 11
0.5241063691316962
 21
0.050017
 31
0.0
  0
LINE
  5
584
330
1D
100
AcDbEntity
  8
0
  6
Continuous
100
AcDbLine
 10
0.7030753691316961
 20
0.033952
 30
0.0
 11
0.7007073691316962
 21
0.04023
 31
0.0
  0
LINE
  5
585
330
1D
100
AcDbEntity
  8
0
  6
Continuous
100
AcDbLine
 10
0.6957463691316962
 20
0.020781
 30
0.0
 11
0.6963663691316962
 21
0.015824
 31
0.0
  0
LINE
  5
586
330
1D
100
AcDbEntity
  8
0
  6
Continuous
100
AcDbLine
 10
0.6770663691316962
 20
0.034155
 30
0.0
 11
0.6817683691316962
 21
0.033477
 31
0.0
  0
LINE
  5
587
330
1D
100
AcDbEntity
  8
0
  6
Continuous
100
AcDbLine
 10
0.5365653691316962
 20
0.042556
 30
0.0
 11
0.5390913691316961
 21
0.042091
 31
0.0
  0
LINE
  5
588
330
1D
100
AcDbEntity
  8
0
  6
Continuous
100
AcDbLine
 10
0.6924223691316961
 20
0.045939
 30
0.0
 11
0.7007073691316962
 21
0.04023
 31
0.0
  0
LINE
  5
589
330
1D
100
AcDbEntity
  8
0
  6
Continuous
100
AcDbLine
 10
0.5235413691316962
 20
0.052202
 30
0.0
 11
0.5185753691316961
 21
0.056166
 31
0.0
  0
LINE
  5
58A
330
1D
100
AcDbEntity
  8
0
  6
Continuous
100
AcDbLine
 10
0.5162893691316962
 20
0.056266
 30
0.0
 11
0.5211053691316962
 21
0.052387
 31
0.0
  0
LINE
  5
58B
330
1D
100
AcDbEntity
  8
0
  6
Continuous
100
AcDbLine
 10
0.7030753691316961
 20
0.033952
 30
0.0
 11
0.7040103691316962
 21
0.027896
 31
0.0
  0
LINE
  5
58C
330
1D
100
AcDbEntity
  8
0
  6
Continuous
100
AcDbLine
 10
0.5312283691316962
 20
0.046154
 30
0.0
 11
0.5265103691316961
 21
0.04891
 31
0.0
  0
LINE
  5
58D
330
1D
100
AcDbEntity
  8
0
  6
Continuous
100
AcDbLine
 10
0.6942823691316961
 20
0.0655
 30
0.0
 11
0.5135333691316962
 21
0.0655
 31
0.0
  0
LINE
  5
58E
330
1D
100
AcDbEntity
  8
0
  6
Continuous
100
AcDbLine
 10
0.6918173691316962
 20
0.028627
 30
0.0
 11
0.6946033691316961
 21
0.024585
 31
0.0
  0
LINE
  5
58F
330
1D
100
AcDbEntity
  8
0
  6
Continuous
100
AcDbLine
 10
0.5162893691316962
 20
0.056266
 30
0.0
 11
0.5124893691316962
 21
0.060263
 31
0.0
  0
LINE
  5
590
330
1D
100
AcDbEntity
  8
0
  6
Continuous
100
AcDbLine
 10
0.5117823691316962
 20
0.060439
 30
0.0
 11
0.5154103691316961
 21
0.056557
 31
0.0
  0
LINE
  5
591
330
1D
100
AcDbEntity
  8
0
  6
Continuous
100
AcDbLine
 10
0.6879913691316962
 20
0.031511
 30
0.0
 11
0.6900343691316962
 21
0.032534
 31
0.0
  0
LINE
  5
592
330
1D
100
AcDbEntity
  8
0
  6
Continuous
100
AcDbLine
 10
0.6817683691316962
 20
0.033477
 30
0.0
 11
0.6879913691316962
 21
0.031511
 31
0.0
  0
LINE
  5
593
330
1D
100
AcDbEntity
  8
0
  6
Continuous
100
AcDbLine
 10
0.6946033691316961
 20
0.024585
 30
0.0
 11
0.6957463691316962
 21
0.020781
 31
0.0
  0
LINE
  5
594
330
1D
100
AcDbEntity
  8
0
  6
Continuous
100
AcDbLine
 10
0.5211053691316962
 20
0.052387
 30
0.0
 11
0.5265103691316961
 21
0.04891
 31
0.0
  0
LINE
  5
595
330
1D
100
AcDbEntity
  8
0
  6
Continuous
100
AcDbLine
 10
0.7431883691316962
 20
-0.0595
 30
0.0
 11
0.7431883691316962
 21
0.01232
 31
0.0
  0
LINE
  5
596
330
1D
100
AcDbEntity
  8
0
  6
Continuous
100
AcDbLine
 10
0.6963663691316962
 20
0.012415
 30
0.0
 11
0.6963663691316962
 21
-0.0595
 31
0.0
  0
LINE
  5
597
330
1D
100
AcDbEntity
  8
0
  6
Continuous
100
AcDbLine
 10
0.5350783691316962
 20
0.039914
 30
0.0
 11
0.5353233691316961
 21
0.04035
 31
0.0
  0
LINE
  5
598
330
1D
100
AcDbEntity
  8
0
  6
Continuous
100
AcDbLine
 10
0.5345973691316961
 20
0.040185
 30
0.0
 11
0.5350783691316962
 21
0.039914
 31
0.0
  0
LINE
  5
599
330
1D
100
AcDbEntity
  8
0
  6
Continuous
100
AcDbLine
 10
0.5332013691316961
 20
0.040971
 30
0.0
 11
0.5345973691316961
 21
0.040185
 31
0.0
  0
LINE
  5
59A
330
1D
100
AcDbEntity
  8
0
  6
Continuous
100
AcDbLine
 10
0.5310283691316961
 20
0.042194
 30
0.0
 11
0.5332013691316961
 21
0.040971
 31
0.0
  0
LINE
  5
59B
330
1D
100
AcDbEntity
  8
0
  6
Continuous
100
AcDbLine
 10
0.5282903691316962
 20
0.043736
 30
0.0
 11
0.5310283691316961
 21
0.042194
 31
0.0
  0
LINE
  5
59C
330
1D
100
AcDbEntity
  8
0
  6
Continuous
100
AcDbLine
 10
0.5252543691316962
 20
0.045445
 30
0.0
 11
0.5282903691316962
 21
0.043736
 31
0.0
  0
LINE
  5
59D
330
1D
100
AcDbEntity
  8
0
  6
Continuous
100
AcDbLine
 10
0.5222183691316963
 20
0.047154
 30
0.0
 11
0.5252543691316962
 21
0.045445
 31
0.0
  0
LINE
  5
59E
330
1D
100
AcDbEntity
  8
0
  6
Continuous
100
AcDbLine
 10
0.5194803691316962
 20
0.048696
 30
0.0
 11
0.5222183691316963
 21
0.047154
 31
0.0
  0
LINE
  5
59F
330
1D
100
AcDbEntity
  8
0
  6
Continuous
100
AcDbLine
 10
0.5173063691316962
 20
0.04992
 30
0.0
 11
0.5194803691316962
 21
0.048696
 31
0.0
  0
LINE
  5
5A0
330
1D
100
AcDbEntity
  8
0
  6
Continuous
100
AcDbLine
 10
0.5159113691316961
 20
0.050705
 30
0.0
 11
0.5173063691316962
 21
0.04992
 31
0.0
  0
LINE
  5
5A1
330
1D
100
AcDbEntity
  8
0
  6
Continuous
100
AcDbLine
 10
0.5154303691316962
 20
0.050976
 30
0.0
 11
0.5159113691316961
 21
0.050705
 31
0.0
  0
LINE
  5
5A2
330
1D
100
AcDbEntity
  8
0
  6
Continuous
100
AcDbLine
 10
0.5156753691316962
 20
0.051412
 30
0.0
 11
0.5154303691316962
 21
0.050976
 31
0.0
  0
LINE
  5
5A3
330
1D
100
AcDbEntity
  8
0
  6
Continuous
100
AcDbLine
 10
0.5175653691316962
 20
0.054768
 30
0.0
 11
0.5156753691316962
 21
0.051412
 31
0.0
  0
LINE
  5
5A4
330
1D
100
AcDbEntity
  8
0
  6
Continuous
100
AcDbLine
 10
0.5353233691316961
 20
0.04035
 30
0.0
 11
0.5365653691316962
 21
0.042556
 31
0.0
  0
LINE
  5
5A5
330
1D
100
AcDbEntity
  8
0
  6
Continuous
100
AcDbLine
 10
0.7503313691316961
 20
-0.0655
 30
0.0
 11
0.7529193691316962
 21
-0.0655
 31
0.0
  0
LINE
  5
5A6
330
1D
100
AcDbEntity
  8
0
  6
Continuous
100
AcDbLine
 10
0.7537973691316962
 20
-0.0655
 30
0.0
 11
0.7537973691316962
 21
-0.065234
 31
0.0
  0
LINE
  5
5A7
330
1D
100
AcDbEntity
  8
0
  6
Continuous
100
AcDbLine
 10
0.7529193691316962
 20
-0.0655
 30
0.0
 11
0.7537973691316962
 21
-0.0655
 31
0.0
  0
LINE
  5
5A8
330
1D
100
AcDbEntity
  8
0
  6
Continuous
100
AcDbLine
 10
0.6837973691316961
 20
-0.065234
 30
0.0
 11
0.6837973691316961
 21
-0.0655
 31
0.0
  0
LINE
  5
5A9
330
1D
100
AcDbEntity
  8
0
  6
Continuous
100
AcDbLine
 10
0.6837973691316961
 20
-0.0655
 30
0.0
 11
0.6846743691316961
 21
-0.0655
 31
0.0
  0
LINE
  5
5AA
330
1D
100
AcDbEntity
  8
0
  6
Continuous
100
AcDbLine
 10
0.6846743691316961
 20
-0.0655
 30
0.0
 11
0.6872633691316962
 21
-0.0655
 31
0.0
  0
LINE
  5
5AB
330
1D
100
AcDbEntity
  8
0
  6
Continuous
100
AcDbLine
 10
0.7339833691316962
 20
-0.0595
 30
0.0
 11
0.7337493691316963
 21
-0.0595
 31
0.0
  0
LINE
  5
5AC
330
1D
100
AcDbEntity
  8
0
  6
Continuous
100
AcDbLine
 10
0.7406193691316961
 20
-0.0595
 30
0.0
 11
0.7339833691316962
 21
-0.0595
 31
0.0
  0
LINE
  5
5AD
330
1D
100
AcDbEntity
  8
0
  6
Continuous
100
AcDbLine
 10
0.7461613691316961
 20
-0.0595
 30
0.0
 11
0.7406193691316961
 21
-0.0595
 31
0.0
  0
LINE
  5
5AE
330
1D
100
AcDbEntity
  8
0
  6
Continuous
100
AcDbLine
 10
0.7503313691316961
 20
-0.0595
 30
0.0
 11
0.7461613691316961
 21
-0.0595
 31
0.0
  0
LINE
  5
5AF
330
1D
100
AcDbEntity
  8
0
  6
Continuous
100
AcDbLine
 10
0.7529193691316962
 20
-0.0595
 30
0.0
 11
0.7503313691316961
 21
-0.0595
 31
0.0
  0
LINE
  5
5B0
330
1D
100
AcDbEntity
  8
0
  6
Continuous
100
AcDbLine
 10
0.7537973691316962
 20
-0.0595
 30
0.0
 11
0.7529193691316962
 21
-0.0595
 31
0.0
  0
LINE
  5
5B1
330
1D
100
AcDbEntity
  8
0
  6
Continuous
100
AcDbLine
 10
0.7537973691316962
 20
-0.059766
 30
0.0
 11
0.7537973691316962
 21
-0.0595
 31
0.0
  0
LINE
  5
5B2
330
1D
100
AcDbEntity
  8
0
  6
Continuous
100
AcDbLine
 10
0.6846743691316961
 20
-0.0595
 30
0.0
 11
0.6837973691316961
 21
-0.0595
 31
0.0
  0
LINE
  5
5B3
330
1D
100
AcDbEntity
  8
0
  6
Continuous
100
AcDbLine
 10
0.6837973691316961
 20
-0.0595
 30
0.0
 11
0.6837973691316961
 21
-0.059766
 31
0.0
  0
LINE
  5
5B4
330
1D
100
AcDbEntity
  8
0
  6
Continuous
100
AcDbLine
 10
0.6872633691316962
 20
-0.0595
 30
0.0
 11
0.6846743691316961
 21
-0.0595
 31
0.0
  0
LINE
  5
5B5
330
1D
100
AcDbEntity
  8
0
  6
Continuous
100
AcDbLine
 10
0.6914333691316962
 20
-0.0595
 30
0.0
 11
0.6872633691316962
 21
-0.0595
 31
0.0
  0
LINE
  5
5B6
330
1D
100
AcDbEntity
  8
0
  6
Continuous
100
AcDbLine
 10
0.6969753691316961
 20
-0.0595
 30
0.0
 11
0.6914333691316962
 21
-0.0595
 31
0.0
  0
LINE
  5
5B7
330
1D
100
AcDbEntity
  8
0
  6
Continuous
100
AcDbLine
 10
0.7036113691316963
 20
-0.0595
 30
0.0
 11
0.6969753691316961
 21
-0.0595
 31
0.0
  0
LINE
  5
5B8
330
1D
100
AcDbEntity
  8
0
  6
Continuous
100
AcDbLine
 10
0.7038453691316962
 20
-0.0595
 30
0.0
 11
0.7036113691316963
 21
-0.0595
 31
0.0
  0
LINE
  5
5B9
330
1D
100
AcDbEntity
  8
0
  6
Continuous
100
AcDbLine
 10
0.6837973691316961
 20
-0.059766
 30
0.0
 11
0.6837973691316961
 21
-0.065234
 31
0.0
  0
LINE
  5
5BA
330
1D
100
AcDbEntity
  8
0
  6
Continuous
100
AcDbLine
 10
0.7537973691316962
 20
-0.065234
 30
0.0
 11
0.7537973691316962
 21
-0.059766
 31
0.0
  0
LINE
  5
5BB
330
1D
100
AcDbEntity
  8
0
  6
Continuous
100
AcDbLine
 10
0.7038453691316962
 20
-0.057057
 30
0.0
 11
0.7038453691316962
 21
-0.0595
 31
0.0
  0
LINE
  5
5BC
330
1D
100
AcDbEntity
  8
0
  6
Continuous
100
AcDbLine
 10
0.7090413691316961
 20
-0.002447
 30
0.0
 11
0.7079363691316961
 21
-0.003209
 31
0.0
  0
LINE
  5
5BD
330
1D
100
AcDbEntity
  8
0
  6
Continuous
100
AcDbLine
 10
0.7038453691316962
 20
-0.011119
 30
0.0
 11
0.7038453691316962
 21
-0.013337
 31
0.0
  0
LINE
  5
5BE
330
1D
100
AcDbEntity
  8
0
  6
Continuous
100
AcDbLine
 10
0.7064663691316962
 20
-0.003776
 30
0.0
 11
0.7058753691316962
 21
-0.006675
 31
0.0
  0
LINE
  5
5BF
330
1D
100
AcDbEntity
  8
0
  6
Continuous
100
AcDbLine
 10
0.7058753691316962
 20
-0.006675
 30
0.0
 11
0.7082443691316961
 21
-0.006675
 31
0.0
  0
LINE
  5
5C0
330
1D
100
AcDbEntity
  8
0
  6
Continuous
100
AcDbLine
 10
0.7112773691316962
 20
-0.005805
 30
0.0
 11
0.7082443691316961
 21
-0.006675
 31
0.0
  0
LINE
  5
5C1
330
1D
100
AcDbEntity
  8
0
  6
Continuous
100
AcDbLine
 10
0.7082443691316961
 20
-0.006675
 30
0.0
 11
0.7113523691316962
 21
-0.006675
 31
0.0
  0
LINE
  5
5C2
330
1D
100
AcDbEntity
  8
0
  6
Continuous
100
AcDbLine
 10
0.7113523691316962
 20
-0.006675
 30
0.0
 11
0.7149423691316962
 21
-0.006675
 31
0.0
  0
LINE
  5
5C3
330
1D
100
AcDbEntity
  8
0
  6
Continuous
100
AcDbLine
 10
0.7038453691316962
 20
-0.013337
 30
0.0
 11
0.7038453691316962
 21
-0.019162
 31
0.0
  0
LINE
  5
5C4
330
1D
100
AcDbEntity
  8
0
  6
Continuous
100
AcDbLine
 10
0.7070093691316961
 20
-0.001443
 30
0.0
 11
0.7077083691316961
 21
-0.00066
 31
0.0
  0
LINE
  5
5C5
330
1D
100
AcDbEntity
  8
0
  6
Continuous
100
AcDbLine
 10
0.7101443691316961
 20
-0.001983
 30
0.0
 11
0.7109953691316962
 21
-0.001076
 31
0.0
  0
LINE
  5
5C6
330
1D
100
AcDbEntity
  8
0
  6
Continuous
100
AcDbLine
 10
0.7162663691316961
 20
0.000827
 30
0.0
 11
0.7187973691316962
 21
0.000827
 31
0.0
  0
LINE
  5
5C7
330
1D
100
AcDbEntity
  8
0
  6
Continuous
100
AcDbLine
 10
0.7038453691316962
 20
-0.006675
 30
0.0
 11
0.7038453691316962
 21
-0.0089
 31
0.0
  0
LINE
  5
5C8
330
1D
100
AcDbEntity
  8
0
  6
Continuous
100
AcDbLine
 10
0.7117773691316961
 20
-0.000294
 30
0.0
 11
0.7112773691316962
 21
0.000483
 31
0.0
  0
LINE
  5
5C9
330
1D
100
AcDbEntity
  8
0
  6
Continuous
100
AcDbLine
 10
0.7117773691316961
 20
-0.000294
 30
0.0
 11
0.7109953691316962
 21
-0.001076
 31
0.0
  0
LINE
  5
5CA
330
1D
100
AcDbEntity
  8
0
  6
Continuous
100
AcDbLine
 10
0.7038453691316962
 20
-0.0089
 30
0.0
 11
0.7038453691316962
 21
-0.011119
 31
0.0
  0
LINE
  5
5CB
330
1D
100
AcDbEntity
  8
0
  6
Continuous
100
AcDbLine
 10
0.7112773691316962
 20
0.000483
 30
0.0
 11
0.7137353691316961
 21
0.000827
 31
0.0
  0
LINE
  5
5CC
330
1D
100
AcDbEntity
  8
0
  6
Continuous
100
AcDbLine
 10
0.7112773691316962
 20
0.000483
 30
0.0
 11
0.7109413691316961
 21
0.002049
 31
0.0
  0
LINE
  5
5CD
330
1D
100
AcDbEntity
  8
0
  6
Continuous
100
AcDbLine
 10
0.7094983691316962
 20
-0.00004
 30
0.0
 11
0.7112773691316962
 21
0.000483
 31
0.0
  0
LINE
  5
5CE
330
1D
100
AcDbEntity
  8
0
  6
Continuous
100
AcDbLine
 10
0.7187973691316962
 20
0.002499
 30
0.0
 11
0.7161563691316962
 21
0.002499
 31
0.0
  0
LINE
  5
5CF
330
1D
100
AcDbEntity
  8
0
  6
Continuous
100
AcDbLine
 10
0.7084473691316962
 20
0.002499
 30
0.0
 11
0.7049033691316962
 21
0.002499
 31
0.0
  0
LINE
  5
5D0
330
1D
100
AcDbEntity
  8
0
  6
Continuous
100
AcDbLine
 10
0.7086693691316962
 20
0.002499
 30
0.0
 11
0.7084473691316962
 21
0.002499
 31
0.0
  0
LINE
  5
5D1
330
1D
100
AcDbEntity
  8
0
  6
Continuous
100
AcDbLine
 10
0.7094983691316962
 20
-0.00004
 30
0.0
 11
0.7088043691316962
 21
0.002052
 31
0.0
  0
LINE
  5
5D2
330
1D
100
AcDbEntity
  8
0
  6
Continuous
100
AcDbLine
 10
0.7083713691316961
 20
-0.000559
 30
0.0
 11
0.7094983691316962
 21
-0.00004
 31
0.0
  0
LINE
  5
5D3
330
1D
100
AcDbEntity
  8
0
  6
Continuous
100
AcDbLine
 10
0.7090413691316961
 20
-0.002447
 30
0.0
 11
0.7101443691316961
 21
-0.001983
 31
0.0
  0
LINE
  5
5D4
330
1D
100
AcDbEntity
  8
0
  6
Continuous
100
AcDbLine
 10
0.7083713691316961
 20
-0.000559
 30
0.0
 11
0.7077083691316961
 21
-0.00066
 31
0.0
  0
LINE
  5
5D5
330
1D
100
AcDbEntity
  8
0
  6
Continuous
100
AcDbLine
 10
0.7137353691316961
 20
0.000827
 30
0.0
 11
0.7162663691316961
 21
0.000827
 31
0.0
  0
LINE
  5
5D6
330
1D
100
AcDbEntity
  8
0
  6
Continuous
100
AcDbLine
 10
0.7137353691316961
 20
0.002034
 30
0.0
 11
0.7137353691316961
 21
0.000827
 31
0.0
  0
LINE
  5
5D7
330
1D
100
AcDbEntity
  8
0
  6
Continuous
100
AcDbLine
 10
0.7137353691316961
 20
0.002499
 30
0.0
 11
0.7108613691316962
 21
0.002499
 31
0.0
  0
LINE
  5
5D8
330
1D
100
AcDbEntity
  8
0
  6
Continuous
100
AcDbLine
 10
0.7109413691316961
 20
0.002049
 30
0.0
 11
0.7108613691316962
 21
0.002499
 31
0.0
  0
LINE
  5
5D9
330
1D
100
AcDbEntity
  8
0
  6
Continuous
100
AcDbLine
 10
0.7108613691316962
 20
0.002499
 30
0.0
 11
0.7086803691316962
 21
0.002499
 31
0.0
  0
LINE
  5
5DA
330
1D
100
AcDbEntity
  8
0
  6
Continuous
100
AcDbLine
 10
0.7162663691316961
 20
0.002499
 30
0.0
 11
0.7137353691316961
 21
0.002499
 31
0.0
  0
LINE
  5
5DB
330
1D
100
AcDbEntity
  8
0
  6
Continuous
100
AcDbLine
 10
0.7038453691316962
 20
0.002499
 30
0.0
 11
0.7038453691316962
 21
0.002065
 31
0.0
  0
LINE
  5
5DC
330
1D
100
AcDbEntity
  8
0
  6
Continuous
100
AcDbLine
 10
0.7041153691316962
 20
0.002499
 30
0.0
 11
0.7038453691316962
 21
0.002499
 31
0.0
  0
LINE
  5
5DD
330
1D
100
AcDbEntity
  8
0
  6
Continuous
100
AcDbLine
 10
0.7071203691316962
 20
0.002499
 30
0.0
 11
0.7065223691316961
 21
0.002499
 31
0.0
  0
LINE
  5
5DE
330
1D
100
AcDbEntity
  8
0
  6
Continuous
100
AcDbLine
 10
0.7187973691316962
 20
0.002499
 30
0.0
 11
0.7162663691316961
 21
0.002499
 31
0.0
  0
LINE
  5
5DF
330
1D
100
AcDbEntity
  8
0
  6
Continuous
100
AcDbLine
 10
0.7057243691316961
 20
0.002499
 30
0.0
 11
0.7053253691316962
 21
0.002499
 31
0.0
  0
LINE
  5
5E0
330
1D
100
AcDbEntity
  8
0
  6
Continuous
100
AcDbLine
 10
0.7086803691316962
 20
0.002499
 30
0.0
 11
0.7077193691316963
 21
0.002499
 31
0.0
  0
LINE
  5
5E1
330
1D
100
AcDbEntity
  8
0
  6
Continuous
100
AcDbLine
 10
0.7088043691316962
 20
0.002052
 30
0.0
 11
0.7086803691316962
 21
0.002499
 31
0.0
  0
LINE
  5
5E2
330
1D
100
AcDbEntity
  8
0
  6
Continuous
100
AcDbLine
 10
0.7077193691316963
 20
0.002499
 30
0.0
 11
0.7071203691316962
 21
0.002499
 31
0.0
  0
LINE
  5
5E3
330
1D
100
AcDbEntity
  8
0
  6
Continuous
100
AcDbLine
 10
0.7061233691316962
 20
0.002499
 30
0.0
 11
0.7057243691316961
 21
0.002499
 31
0.0
  0
LINE
  5
5E4
330
1D
100
AcDbEntity
  8
0
  6
Continuous
100
AcDbLine
 10
0.7065223691316961
 20
0.002499
 30
0.0
 11
0.7061233691316962
 21
0.002499
 31
0.0
  0
LINE
  5
5E5
330
1D
100
AcDbEntity
  8
0
  6
Continuous
100
AcDbLine
 10
0.7071953691316962
 20
-0.003474
 30
0.0
 11
0.7079363691316961
 21
-0.003209
 31
0.0
  0
LINE
  5
5E6
330
1D
100
AcDbEntity
  8
0
  6
Continuous
100
AcDbLine
 10
0.7064593691316962
 20
-0.001524
 30
0.0
 11
0.7070093691316961
 21
-0.001443
 31
0.0
  0
LINE
  5
5E7
330
1D
100
AcDbEntity
  8
0
  6
Continuous
100
AcDbLine
 10
0.7071953691316962
 20
-0.003474
 30
0.0
 11
0.7064663691316962
 21
-0.003776
 31
0.0
  0
LINE
  5
5E8
330
1D
100
AcDbEntity
  8
0
  6
Continuous
100
AcDbLine
 10
0.7047203691316961
 20
0.002499
 30
0.0
 11
0.7041153691316962
 21
0.002499
 31
0.0
  0
LINE
  5
5E9
330
1D
100
AcDbEntity
  8
0
  6
Continuous
100
AcDbLine
 10
0.7038453691316962
 20
0.002065
 30
0.0
 11
0.7038453691316962
 21
-0.001901
 31
0.0
  0
LINE
  5
5EA
330
1D
100
AcDbEntity
  8
0
  6
Continuous
100
AcDbLine
 10
0.7038453691316962
 20
-0.001901
 30
0.0
 11
0.7038453691316962
 21
-0.004464
 31
0.0
  0
LINE
  5
5EB
330
1D
100
AcDbEntity
  8
0
  6
Continuous
100
AcDbLine
 10
0.7053253691316962
 20
0.002499
 30
0.0
 11
0.7047203691316961
 21
0.002499
 31
0.0
  0
LINE
  5
5EC
330
1D
100
AcDbEntity
  8
0
  6
Continuous
100
AcDbLine
 10
0.7038453691316962
 20
-0.004464
 30
0.0
 11
0.7038453691316962
 21
-0.006675
 31
0.0
  0
LINE
  5
5ED
330
1D
100
AcDbEntity
  8
0
  6
Continuous
100
AcDbLine
 10
0.7296583691316961
 20
-0.003209
 30
0.0
 11
0.7285533691316961
 21
-0.002447
 31
0.0
  0
LINE
  5
5EE
330
1D
100
AcDbEntity
  8
0
  6
Continuous
100
AcDbLine
 10
0.7337493691316963
 20
-0.013337
 30
0.0
 11
0.7337493691316963
 21
-0.011119
 31
0.0
  0
LINE
  5
5EF
330
1D
100
AcDbEntity
  8
0
  6
Continuous
100
AcDbLine
 10
0.7337493691316963
 20
-0.0595
 30
0.0
 11
0.7337493691316963
 21
-0.057057
 31
0.0
  0
LINE
  5
5F0
330
1D
100
AcDbEntity
  8
0
  6
Continuous
100
AcDbLine
 10
0.7293503691316962
 20
-0.006675
 30
0.0
 11
0.7317193691316961
 21
-0.006675
 31
0.0
  0
LINE
  5
5F1
330
1D
100
AcDbEntity
  8
0
  6
Continuous
100
AcDbLine
 10
0.7311283691316961
 20
-0.003776
 30
0.0
 11
0.7317193691316961
 21
-0.006675
 31
0.0
  0
LINE
  5
5F2
330
1D
100
AcDbEntity
  8
0
  6
Continuous
100
AcDbLine
 10
0.7262423691316961
 20
-0.006675
 30
0.0
 11
0.7293503691316962
 21
-0.006675
 31
0.0
  0
LINE
  5
5F3
330
1D
100
AcDbEntity
  8
0
  6
Continuous
100
AcDbLine
 10
0.7263173691316961
 20
-0.005805
 30
0.0
 11
0.7293503691316962
 21
-0.006675
 31
0.0
  0
LINE
  5
5F4
330
1D
100
AcDbEntity
  8
0
  6
Continuous
100
AcDbLine
 10
0.7226523691316961
 20
-0.006675
 30
0.0
 11
0.7262423691316961
 21
-0.006675
 31
0.0
  0
LINE
  5
5F5
330
1D
100
AcDbEntity
  8
0
  6
Continuous
100
AcDbLine
 10
0.7337493691316963
 20
-0.019162
 30
0.0
 11
0.7337493691316963
 21
-0.013337
 31
0.0
  0
LINE
  5
5F6
330
1D
100
AcDbEntity
  8
0
  6
Continuous
100
AcDbLine
 10
0.7298863691316962
 20
-0.00066
 30
0.0
 11
0.7305853691316962
 21
-0.001443
 31
0.0
  0
LINE
  5
5F7
330
1D
100
AcDbEntity
  8
0
  6
Continuous
100
AcDbLine
 10
0.7265983691316961
 20
-0.001076
 30
0.0
 11
0.7274503691316962
 21
-0.001983
 31
0.0
  0
LINE
  5
5F8
330
1D
100
AcDbEntity
  8
0
  6
Continuous
100
AcDbLine
 10
0.7187973691316962
 20
0.000827
 30
0.0
 11
0.7213283691316962
 21
0.000827
 31
0.0
  0
LINE
  5
5F9
330
1D
100
AcDbEntity
  8
0
  6
Continuous
100
AcDbLine
 10
0.7337493691316963
 20
-0.0089
 30
0.0
 11
0.7337493691316963
 21
-0.006675
 31
0.0
  0
LINE
  5
5FA
330
1D
100
AcDbEntity
  8
0
  6
Continuous
100
AcDbLine
 10
0.7263173691316961
 20
0.000483
 30
0.0
 11
0.7258173691316962
 21
-0.000294
 31
0.0
  0
LINE
  5
5FB
330
1D
100
AcDbEntity
  8
0
  6
Continuous
100
AcDbLine
 10
0.7265983691316961
 20
-0.001076
 30
0.0
 11
0.7258173691316962
 21
-0.000294
 31
0.0
  0
LINE
  5
5FC
330
1D
100
AcDbEntity
  8
0
  6
Continuous
100
AcDbLine
 10
0.7337493691316963
 20
-0.011119
 30
0.0
 11
0.7337493691316963
 21
-0.0089
 31
0.0
  0
LINE
  5
5FD
330
1D
100
AcDbEntity
  8
0
  6
Continuous
100
AcDbLine
 10
0.7238583691316962
 20
0.000827
 30
0.0
 11
0.7263173691316961
 21
0.000483
 31
0.0
  0
LINE
  5
5FE
330
1D
100
AcDbEntity
  8
0
  6
Continuous
100
AcDbLine
 10
0.7263173691316961
 20
0.000483
 30
0.0
 11
0.7280963691316961
 21
-0.00004
 31
0.0
  0
LINE
  5
5FF
330
1D
100
AcDbEntity
  8
0
  6
Continuous
100
AcDbLine
 10
0.7266533691316961
 20
0.002049
 30
0.0
 11
0.7263173691316961
 21
0.000483
 31
0.0
  0
LINE
  5
600
330
1D
100
AcDbEntity
  8
0
  6
Continuous
100
AcDbLine
 10
0.7214383691316961
 20
0.002499
 30
0.0
 11
0.7187973691316962
 21
0.002499
 31
0.0
  0
LINE
  5
601
330
1D
100
AcDbEntity
  8
0
  6
Continuous
100
AcDbLine
 10
0.7291473691316962
 20
0.002499
 30
0.0
 11
0.7289253691316962
 21
0.002499
 31
0.0
  0
LINE
  5
602
330
1D
100
AcDbEntity
  8
0
  6
Continuous
100
AcDbLine
 10
0.7326913691316963
 20
0.002499
 30
0.0
 11
0.7291473691316962
 21
0.002499
 31
0.0
  0
LINE
  5
603
330
1D
100
AcDbEntity
  8
0
  6
Continuous
100
AcDbLine
 10
0.7280963691316961
 20
-0.00004
 30
0.0
 11
0.7292233691316962
 21
-0.000559
 31
0.0
  0
LINE
  5
604
330
1D
100
AcDbEntity
  8
0
  6
Continuous
100
AcDbLine
 10
0.7287903691316961
 20
0.002052
 30
0.0
 11
0.7280963691316961
 21
-0.00004
 31
0.0
  0
LINE
  5
605
330
1D
100
AcDbEntity
  8
0
  6
Continuous
100
AcDbLine
 10
0.7298863691316962
 20
-0.00066
 30
0.0
 11
0.7292233691316962
 21
-0.000559
 31
0.0
  0
LINE
  5
606
330
1D
100
AcDbEntity
  8
0
  6
Continuous
100
AcDbLine
 10
0.7274503691316962
 20
-0.001983
 30
0.0
 11
0.7285533691316961
 21
-0.002447
 31
0.0
  0
LINE
  5
607
330
1D
100
AcDbEntity
  8
0
  6
Continuous
100
AcDbLine
 10
0.7238583691316962
 20
0.000827
 30
0.0
 11
0.7238583691316962
 21
0.002034
 31
0.0
  0
LINE
  5
608
330
1D
100
AcDbEntity
  8
0
  6
Continuous
100
AcDbLine
 10
0.7213283691316962
 20
0.000827
 30
0.0
 11
0.7238583691316962
 21
0.000827
 31
0.0
  0
LINE
  5
609
330
1D
100
AcDbEntity
  8
0
  6
Continuous
100
AcDbLine
 10
0.7267333691316961
 20
0.002499
 30
0.0
 11
0.7238583691316962
 21
0.002499
 31
0.0
  0
LINE
  5
60A
330
1D
100
AcDbEntity
  8
0
  6
Continuous
100
AcDbLine
 10
0.7289143691316961
 20
0.002499
 30
0.0
 11
0.7267333691316961
 21
0.002499
 31
0.0
  0
LINE
  5
60B
330
1D
100
AcDbEntity
  8
0
  6
Continuous
100
AcDbLine
 10
0.7267333691316961
 20
0.002499
 30
0.0
 11
0.7266533691316961
 21
0.002049
 31
0.0
  0
LINE
  5
60C
330
1D
100
AcDbEntity
  8
0
  6
Continuous
100
AcDbLine
 10
0.7238583691316962
 20
0.002499
 30
0.0
 11
0.7213283691316962
 21
0.002499
 31
0.0
  0
LINE
  5
60D
330
1D
100
AcDbEntity
  8
0
  6
Continuous
100
AcDbLine
 10
0.7337493691316963
 20
0.002499
 30
0.0
 11
0.7334793691316961
 21
0.002499
 31
0.0
  0
LINE
  5
60E
330
1D
100
AcDbEntity
  8
0
  6
Continuous
100
AcDbLine
 10
0.7337493691316963
 20
0.002065
 30
0.0
 11
0.7337493691316963
 21
0.002499
 31
0.0
  0
LINE
  5
60F
330
1D
100
AcDbEntity
  8
0
  6
Continuous
100
AcDbLine
 10
0.7310723691316962
 20
0.002499
 30
0.0
 11
0.7304743691316961
 21
0.002499
 31
0.0
  0
LINE
  5
610
330
1D
100
AcDbEntity
  8
0
  6
Continuous
100
AcDbLine
 10
0.7213283691316962
 20
0.002499
 30
0.0
 11
0.7187973691316962
 21
0.002499
 31
0.0
  0
LINE
  5
611
330
1D
100
AcDbEntity
  8
0
  6
Continuous
100
AcDbLine
 10
0.7322693691316962
 20
0.002499
 30
0.0
 11
0.7318703691316962
 21
0.002499
 31
0.0
  0
LINE
  5
612
330
1D
100
AcDbEntity
  8
0
  6
Continuous
100
AcDbLine
 10
0.7289143691316961
 20
0.002499
 30
0.0
 11
0.7287903691316961
 21
0.002052
 31
0.0
  0
LINE
  5
613
330
1D
100
AcDbEntity
  8
0
  6
Continuous
100
AcDbLine
 10
0.7298753691316962
 20
0.002499
 30
0.0
 11
0.7289143691316961
 21
0.002499
 31
0.0
  0
LINE
  5
614
330
1D
100
AcDbEntity
  8
0
  6
Continuous
100
AcDbLine
 10
0.7304743691316961
 20
0.002499
 30
0.0
 11
0.7298753691316962
 21
0.002499
 31
0.0
  0
LINE
  5
615
330
1D
100
AcDbEntity
  8
0
  6
Continuous
100
AcDbLine
 10
0.7318703691316962
 20
0.002499
 30
0.0
 11
0.7314713691316963
 21
0.002499
 31
0.0
  0
LINE
  5
616
330
1D
100
AcDbEntity
  8
0
  6
Continuous
100
AcDbLine
 10
0.7314713691316963
 20
0.002499
 30
0.0
 11
0.7310723691316962
 21
0.002499
 31
0.0
  0
LINE
  5
617
330
1D
100
AcDbEntity
  8
0
  6
Continuous
100
AcDbLine
 10
0.7296583691316961
 20
-0.003209
 30
0.0
 11
0.7303993691316962
 21
-0.003474
 31
0.0
  0
LINE
  5
618
330
1D
100
AcDbEntity
  8
0
  6
Continuous
100
AcDbLine
 10
0.7305853691316962
 20
-0.001443
 30
0.0
 11
0.7311353691316961
 21
-0.001524
 31
0.0
  0
LINE
  5
619
330
1D
100
AcDbEntity
  8
0
  6
Continuous
100
AcDbLine
 10
0.7311283691316961
 20
-0.003776
 30
0.0
 11
0.7303993691316962
 21
-0.003474
 31
0.0
  0
LINE
  5
61A
330
1D
100
AcDbEntity
  8
0
  6
Continuous
100
AcDbLine
 10
0.7334793691316961
 20
0.002499
 30
0.0
 11
0.7328743691316962
 21
0.002499
 31
0.0
  0
LINE
  5
61B
330
1D
100
AcDbEntity
  8
0
  6
Continuous
100
AcDbLine
 10
0.7337493691316963
 20
-0.001901
 30
0.0
 11
0.7337493691316963
 21
0.002065
 31
0.0
  0
LINE
  5
61C
330
1D
100
AcDbEntity
  8
0
  6
Continuous
100
AcDbLine
 10
0.7337493691316963
 20
-0.004464
 30
0.0
 11
0.7337493691316963
 21
-0.001901
 31
0.0
  0
LINE
  5
61D
330
1D
100
AcDbEntity
  8
0
  6
Continuous
100
AcDbLine
 10
0.7328743691316962
 20
0.002499
 30
0.0
 11
0.7322693691316962
 21
0.002499
 31
0.0
  0
LINE
  5
61E
330
1D
100
AcDbEntity
  8
0
  6
Continuous
100
AcDbLine
 10
0.7337493691316963
 20
-0.006675
 30
0.0
 11
0.7337493691316963
 21
-0.004464
 31
0.0
  0
LINE
  5
61F
330
1D
100
AcDbEntity
  8
0
  6
Continuous
100
AcDbLine
 10
0.7337493691316963
 20
-0.056542
 30
0.0
 11
0.7337493691316963
 21
-0.019162
 31
0.0
  0
LINE
  5
620
330
1D
100
AcDbEntity
  8
0
  6
Continuous
100
AcDbLine
 10
0.7038453691316962
 20
-0.019162
 30
0.0
 11
0.7038453691316962
 21
-0.056542
 31
0.0
  0
LINE
  5
621
330
1D
100
AcDbEntity
  8
0
  6
Continuous
100
AcDbLine
 10
0.7226673691316962
 20
-0.05667
 30
0.0
 11
0.7187973691316962
 21
-0.05667
 31
0.0
  0
LINE
  5
622
330
1D
100
AcDbEntity
  8
0
  6
Continuous
100
AcDbLine
 10
0.7225373691316963
 20
-0.056799
 30
0.0
 11
0.7187973691316962
 21
-0.056799
 31
0.0
  0
LINE
  5
623
330
1D
100
AcDbEntity
  8
0
  6
Continuous
100
AcDbLine
 10
0.7226673691316962
 20
-0.056928
 30
0.0
 11
0.7187973691316962
 21
-0.056928
 31
0.0
  0
LINE
  5
624
330
1D
100
AcDbEntity
  8
0
  6
Continuous
100
AcDbLine
 10
0.7332403691316962
 20
-0.05667
 30
0.0
 11
0.7317463691316961
 21
-0.05667
 31
0.0
  0
LINE
  5
625
330
1D
100
AcDbEntity
  8
0
  6
Continuous
100
AcDbLine
 10
0.7327573691316962
 20
-0.056799
 30
0.0
 11
0.7313133691316961
 21
-0.056799
 31
0.0
  0
LINE
  5
626
330
1D
100
AcDbEntity
  8
0
  6
Continuous
100
AcDbLine
 10
0.7332403691316962
 20
-0.056928
 30
0.0
 11
0.7317463691316961
 21
-0.056928
 31
0.0
  0
LINE
  5
627
330
1D
100
AcDbEntity
  8
0
  6
Continuous
100
AcDbLine
 10
0.7293703691316961
 20
-0.05667
 30
0.0
 11
0.7262733691316962
 21
-0.05667
 31
0.0
  0
LINE
  5
628
330
1D
100
AcDbEntity
  8
0
  6
Continuous
100
AcDbLine
 10
0.7290163691316961
 20
-0.056799
 30
0.0
 11
0.7260233691316961
 21
-0.056799
 31
0.0
  0
LINE
  5
629
330
1D
100
AcDbEntity
  8
0
  6
Continuous
100
AcDbLine
 10
0.7293703691316961
 20
-0.056928
 30
0.0
 11
0.7262733691316962
 21
-0.056928
 31
0.0
  0
LINE
  5
62A
330
1D
100
AcDbEntity
  8
0
  6
Continuous
100
AcDbLine
 10
0.7262733691316962
 20
-0.05667
 30
0.0
 11
0.7226673691316962
 21
-0.05667
 31
0.0
  0
LINE
  5
62B
330
1D
100
AcDbEntity
  8
0
  6
Continuous
100
AcDbLine
 10
0.7260233691316961
 20
-0.056799
 30
0.0
 11
0.7225373691316963
 21
-0.056799
 31
0.0
  0
LINE
  5
62C
330
1D
100
AcDbEntity
  8
0
  6
Continuous
100
AcDbLine
 10
0.7262733691316962
 20
-0.056928
 30
0.0
 11
0.7226673691316962
 21
-0.056928
 31
0.0
  0
LINE
  5
62D
330
1D
100
AcDbEntity
  8
0
  6
Continuous
100
AcDbLine
 10
0.7337493691316963
 20
-0.05667
 30
0.0
 11
0.7337493691316963
 21
-0.056542
 31
0.0
  0
LINE
  5
62E
330
1D
100
AcDbEntity
  8
0
  6
Continuous
100
AcDbLine
 10
0.7332493691316962
 20
-0.056799
 30
0.0
 11
0.7337493691316963
 21
-0.05667
 31
0.0
  0
LINE
  5
62F
330
1D
100
AcDbEntity
  8
0
  6
Continuous
100
AcDbLine
 10
0.7337493691316963
 20
-0.05667
 30
0.0
 11
0.7332403691316962
 21
-0.05667
 31
0.0
  0
LINE
  5
630
330
1D
100
AcDbEntity
  8
0
  6
Continuous
100
AcDbLine
 10
0.7337493691316963
 20
-0.056928
 30
0.0
 11
0.7332493691316962
 21
-0.056799
 31
0.0
  0
LINE
  5
631
330
1D
100
AcDbEntity
  8
0
  6
Continuous
100
AcDbLine
 10
0.7332493691316962
 20
-0.056799
 30
0.0
 11
0.7327573691316962
 21
-0.056799
 31
0.0
  0
LINE
  5
632
330
1D
100
AcDbEntity
  8
0
  6
Continuous
100
AcDbLine
 10
0.7337493691316963
 20
-0.057057
 30
0.0
 11
0.7337493691316963
 21
-0.056928
 31
0.0
  0
LINE
  5
633
330
1D
100
AcDbEntity
  8
0
  6
Continuous
100
AcDbLine
 10
0.7337493691316963
 20
-0.056928
 30
0.0
 11
0.7332403691316962
 21
-0.056928
 31
0.0
  0
LINE
  5
634
330
1D
100
AcDbEntity
  8
0
  6
Continuous
100
AcDbLine
 10
0.7317463691316961
 20
-0.05667
 30
0.0
 11
0.7293703691316961
 21
-0.05667
 31
0.0
  0
LINE
  5
635
330
1D
100
AcDbEntity
  8
0
  6
Continuous
100
AcDbLine
 10
0.7313133691316961
 20
-0.056799
 30
0.0
 11
0.7290163691316961
 21
-0.056799
 31
0.0
  0
LINE
  5
636
330
1D
100
AcDbEntity
  8
0
  6
Continuous
100
AcDbLine
 10
0.7317463691316961
 20
-0.056928
 30
0.0
 11
0.7293703691316961
 21
-0.056928
 31
0.0
  0
LINE
  5
637
330
1D
100
AcDbEntity
  8
0
  6
Continuous
100
AcDbLine
 10
0.7187973691316962
 20
-0.05667
 30
0.0
 11
0.7149273691316961
 21
-0.05667
 31
0.0
  0
LINE
  5
638
330
1D
100
AcDbEntity
  8
0
  6
Continuous
100
AcDbLine
 10
0.7187973691316962
 20
-0.056799
 30
0.0
 11
0.7150563691316961
 21
-0.056799
 31
0.0
  0
LINE
  5
639
330
1D
100
AcDbEntity
  8
0
  6
Continuous
100
AcDbLine
 10
0.7187973691316962
 20
-0.056928
 30
0.0
 11
0.7149273691316961
 21
-0.056928
 31
0.0
  0
LINE
  5
63A
330
1D
100
AcDbEntity
  8
0
  6
Continuous
100
AcDbLine
 10
0.7058483691316962
 20
-0.05667
 30
0.0
 11
0.7043543691316962
 21
-0.05667
 31
0.0
  0
LINE
  5
63B
330
1D
100
AcDbEntity
  8
0
  6
Continuous
100
AcDbLine
 10
0.7062813691316962
 20
-0.056799
 30
0.0
 11
0.7048373691316962
 21
-0.056799
 31
0.0
  0
LINE
  5
63C
330
1D
100
AcDbEntity
  8
0
  6
Continuous
100
AcDbLine
 10
0.7058483691316962
 20
-0.056928
 30
0.0
 11
0.7043543691316962
 21
-0.056928
 31
0.0
  0
LINE
  5
63D
330
1D
100
AcDbEntity
  8
0
  6
Continuous
100
AcDbLine
 10
0.7113213691316961
 20
-0.05667
 30
0.0
 11
0.7082243691316962
 21
-0.05667
 31
0.0
  0
LINE
  5
63E
330
1D
100
AcDbEntity
  8
0
  6
Continuous
100
AcDbLine
 10
0.7115713691316962
 20
-0.056799
 30
0.0
 11
0.7085783691316962
 21
-0.056799
 31
0.0
  0
LINE
  5
63F
330
1D
100
AcDbEntity
  8
0
  6
Continuous
100
AcDbLine
 10
0.7113213691316961
 20
-0.056928
 30
0.0
 11
0.7082243691316962
 21
-0.056928
 31
0.0
  0
LINE
  5
640
330
1D
100
AcDbEntity
  8
0
  6
Continuous
100
AcDbLine
 10
0.7149273691316961
 20
-0.05667
 30
0.0
 11
0.7113213691316961
 21
-0.05667
 31
0.0
  0
LINE
  5
641
330
1D
100
AcDbEntity
  8
0
  6
Continuous
100
AcDbLine
 10
0.7150563691316961
 20
-0.056799
 30
0.0
 11
0.7115713691316962
 21
-0.056799
 31
0.0
  0
LINE
  5
642
330
1D
100
AcDbEntity
  8
0
  6
Continuous
100
AcDbLine
 10
0.7149273691316961
 20
-0.056928
 30
0.0
 11
0.7113213691316961
 21
-0.056928
 31
0.0
  0
LINE
  5
643
330
1D
100
AcDbEntity
  8
0
  6
Continuous
100
AcDbLine
 10
0.7038453691316962
 20
-0.056542
 30
0.0
 11
0.7038453691316962
 21
-0.05667
 31
0.0
  0
LINE
  5
644
330
1D
100
AcDbEntity
  8
0
  6
Continuous
100
AcDbLine
 10
0.7038453691316962
 20
-0.05667
 30
0.0
 11
0.7043453691316961
 21
-0.056799
 31
0.0
  0
LINE
  5
645
330
1D
100
AcDbEntity
  8
0
  6
Continuous
100
AcDbLine
 10
0.7043543691316962
 20
-0.05667
 30
0.0
 11
0.7038453691316962
 21
-0.05667
 31
0.0
  0
LINE
  5
646
330
1D
100
AcDbEntity
  8
0
  6
Continuous
100
AcDbLine
 10
0.7043453691316961
 20
-0.056799
 30
0.0
 11
0.7038453691316962
 21
-0.056928
 31
0.0
  0
LINE
  5
647
330
1D
100
AcDbEntity
  8
0
  6
Continuous
100
AcDbLine
 10
0.7048373691316962
 20
-0.056799
 30
0.0
 11
0.7043453691316961
 21
-0.056799
 31
0.0
  0
LINE
  5
648
330
1D
100
AcDbEntity
  8
0
  6
Continuous
100
AcDbLine
 10
0.7038453691316962
 20
-0.056928
 30
0.0
 11
0.7038453691316962
 21
-0.057057
 31
0.0
  0
LINE
  5
649
330
1D
100
AcDbEntity
  8
0
  6
Continuous
100
AcDbLine
 10
0.7043543691316962
 20
-0.056928
 30
0.0
 11
0.7038453691316962
 21
-0.056928
 31
0.0
  0
LINE
  5
64A
330
1D
100
AcDbEntity
  8
0
  6
Continuous
100
AcDbLine
 10
0.7082243691316962
 20
-0.05667
 30
0.0
 11
0.7058483691316962
 21
-0.05667
 31
0.0
  0
LINE
  5
64B
330
1D
100
AcDbEntity
  8
0
  6
Continuous
100
AcDbLine
 10
0.7085783691316962
 20
-0.056799
 30
0.0
 11
0.7062813691316962
 21
-0.056799
 31
0.0
  0
LINE
  5
64C
330
1D
100
AcDbEntity
  8
0
  6
Continuous
100
AcDbLine
 10
0.7082243691316962
 20
-0.056928
 30
0.0
 11
0.7058483691316962
 21
-0.056928
 31
0.0
  0
LINE
  5
64D
330
1D
100
AcDbEntity
  8
0
  6
Continuous
100
AcDbLine
 10
0.7187973691316962
 20
-0.0655
 30
0.0
 11
0.7254733691316961
 21
-0.0655
 31
0.0
  0
LINE
  5
64E
330
1D
100
AcDbEntity
  8
0
  6
Continuous
100
AcDbLine
 10
0.7254733691316961
 20
-0.0655
 30
0.0
 11
0.7318133691316962
 21
-0.0655
 31
0.0
  0
LINE
  5
64F
330
1D
100
AcDbEntity
  8
0
  6
Continuous
100
AcDbLine
 10
0.7318133691316962
 20
-0.0655
 30
0.0
 11
0.7375023691316961
 21
-0.0655
 31
0.0
  0
LINE
  5
650
330
1D
100
AcDbEntity
  8
0
  6
Continuous
100
AcDbLine
 10
0.7375023691316961
 20
-0.0655
 30
0.0
 11
0.7422523691316961
 21
-0.0655
 31
0.0
  0
LINE
  5
651
330
1D
100
AcDbEntity
  8
0
  6
Continuous
100
AcDbLine
 10
0.7422523691316961
 20
-0.0655
 30
0.0
 11
0.7458263691316961
 21
-0.0655
 31
0.0
  0
LINE
  5
652
330
1D
100
AcDbEntity
  8
0
  6
Continuous
100
AcDbLine
 10
0.7458263691316961
 20
-0.0655
 30
0.0
 11
0.7480453691316961
 21
-0.0655
 31
0.0
  0
LINE
  5
653
330
1D
100
AcDbEntity
  8
0
  6
Continuous
100
AcDbLine
 10
0.7487973691316962
 20
-0.0655
 30
0.0
 11
0.7487973691316962
 21
-0.065234
 31
0.0
  0
LINE
  5
654
330
1D
100
AcDbEntity
  8
0
  6
Continuous
100
AcDbLine
 10
0.7480453691316961
 20
-0.0655
 30
0.0
 11
0.7487973691316962
 21
-0.0655
 31
0.0
  0
LINE
  5
655
330
1D
100
AcDbEntity
  8
0
  6
Continuous
100
AcDbLine
 10
0.6887973691316961
 20
-0.065234
 30
0.0
 11
0.6887973691316961
 21
-0.0655
 31
0.0
  0
LINE
  5
656
330
1D
100
AcDbEntity
  8
0
  6
Continuous
100
AcDbLine
 10
0.6887973691316961
 20
-0.0655
 30
0.0
 11
0.6895493691316962
 21
-0.0655
 31
0.0
  0
LINE
  5
657
330
1D
100
AcDbEntity
  8
0
  6
Continuous
100
AcDbLine
 10
0.6895493691316962
 20
-0.0655
 30
0.0
 11
0.6917683691316962
 21
-0.0655
 31
0.0
  0
LINE
  5
658
330
1D
100
AcDbEntity
  8
0
  6
Continuous
100
AcDbLine
 10
0.6917683691316962
 20
-0.0655
 30
0.0
 11
0.6953423691316961
 21
-0.0655
 31
0.0
  0
LINE
  5
659
330
1D
100
AcDbEntity
  8
0
  6
Continuous
100
AcDbLine
 10
0.6953423691316961
 20
-0.0655
 30
0.0
 11
0.7000923691316962
 21
-0.0655
 31
0.0
  0
LINE
  5
65A
330
1D
100
AcDbEntity
  8
0
  6
Continuous
100
AcDbLine
 10
0.7000923691316962
 20
-0.0655
 30
0.0
 11
0.7057803691316961
 21
-0.0655
 31
0.0
  0
LINE
  5
65B
330
1D
100
AcDbEntity
  8
0
  6
Continuous
100
AcDbLine
 10
0.7057803691316961
 20
-0.0655
 30
0.0
 11
0.7121213691316961
 21
-0.0655
 31
0.0
  0
LINE
  5
65C
330
1D
100
AcDbEntity
  8
0
  6
Continuous
100
AcDbLine
 10
0.7121213691316961
 20
-0.0655
 30
0.0
 11
0.7187973691316962
 21
-0.0655
 31
0.0
  0
LINE
  5
65D
330
1D
100
AcDbEntity
  8
0
  6
Continuous
100
AcDbLine
 10
0.7254733691316961
 20
-0.0595
 30
0.0
 11
0.7187973691316962
 21
-0.0595
 31
0.0
  0
LINE
  5
65E
330
1D
100
AcDbEntity
  8
0
  6
Continuous
100
AcDbLine
 10
0.7318133691316962
 20
-0.0595
 30
0.0
 11
0.7254733691316961
 21
-0.0595
 31
0.0
  0
LINE
  5
65F
330
1D
100
AcDbEntity
  8
0
  6
Continuous
100
AcDbLine
 10
0.7375023691316961
 20
-0.0595
 30
0.0
 11
0.7318133691316962
 21
-0.0595
 31
0.0
  0
LINE
  5
660
330
1D
100
AcDbEntity
  8
0
  6
Continuous
100
AcDbLine
 10
0.7422523691316961
 20
-0.0595
 30
0.0
 11
0.7375023691316961
 21
-0.0595
 31
0.0
  0
LINE
  5
661
330
1D
100
AcDbEntity
  8
0
  6
Continuous
100
AcDbLine
 10
0.7458263691316961
 20
-0.0595
 30
0.0
 11
0.7422523691316961
 21
-0.0595
 31
0.0
  0
LINE
  5
662
330
1D
100
AcDbEntity
  8
0
  6
Continuous
100
AcDbLine
 10
0.7480453691316961
 20
-0.0595
 30
0.0
 11
0.7458263691316961
 21
-0.0595
 31
0.0
  0
LINE
  5
663
330
1D
100
AcDbEntity
  8
0
  6
Continuous
100
AcDbLine
 10
0.7487973691316962
 20
-0.0595
 30
0.0
 11
0.7480453691316961
 21
-0.0595
 31
0.0
  0
LINE
  5
664
330
1D
100
AcDbEntity
  8
0
  6
Continuous
100
AcDbLine
 10
0.7487973691316962
 20
-0.059766
 30
0.0
 11
0.7487973691316962
 21
-0.0595
 31
0.0
  0
LINE
  5
665
330
1D
100
AcDbEntity
  8
0
  6
Continuous
100
AcDbLine
 10
0.6895493691316962
 20
-0.0595
 30
0.0
 11
0.6887973691316961
 21
-0.0595
 31
0.0
  0
LINE
  5
666
330
1D
100
AcDbEntity
  8
0
  6
Continuous
100
AcDbLine
 10
0.6887973691316961
 20
-0.0595
 30
0.0
 11
0.6887973691316961
 21
-0.059766
 31
0.0
  0
LINE
  5
667
330
1D
100
AcDbEntity
  8
0
  6
Continuous
100
AcDbLine
 10
0.6917683691316962
 20
-0.0595
 30
0.0
 11
0.6895493691316962
 21
-0.0595
 31
0.0
  0
LINE
  5
668
330
1D
100
AcDbEntity
  8
0
  6
Continuous
100
AcDbLine
 10
0.6953423691316961
 20
-0.0595
 30
0.0
 11
0.6917683691316962
 21
-0.0595
 31
0.0
  0
LINE
  5
669
330
1D
100
AcDbEntity
  8
0
  6
Continuous
100
AcDbLine
 10
0.7000923691316962
 20
-0.0595
 30
0.0
 11
0.6953423691316961
 21
-0.0595
 31
0.0
  0
LINE
  5
66A
330
1D
100
AcDbEntity
  8
0
  6
Continuous
100
AcDbLine
 10
0.7057803691316961
 20
-0.0595
 30
0.0
 11
0.7000923691316962
 21
-0.0595
 31
0.0
  0
LINE
  5
66B
330
1D
100
AcDbEntity
  8
0
  6
Continuous
100
AcDbLine
 10
0.7121213691316961
 20
-0.0595
 30
0.0
 11
0.7057803691316961
 21
-0.0595
 31
0.0
  0
LINE
  5
66C
330
1D
100
AcDbEntity
  8
0
  6
Continuous
100
AcDbLine
 10
0.7187973691316962
 20
-0.0595
 30
0.0
 11
0.7121213691316961
 21
-0.0595
 31
0.0
  0
LINE
  5
66D
330
1D
100
AcDbEntity
  8
0
  6
Continuous
100
AcDbLine
 10
0.6887973691316961
 20
-0.059766
 30
0.0
 11
0.6887973691316961
 21
-0.065234
 31
0.0
  0
LINE
  5
66E
330
1D
100
AcDbEntity
  8
0
  6
Continuous
100
AcDbLine
 10
0.7487973691316962
 20
-0.065234
 30
0.0
 11
0.7487973691316962
 21
-0.059766
 31
0.0
  0
LINE
  5
66F
330
1D
100
AcDbEntity
  8
0
  6
Continuous
100
AcDbLine
 10
0.7458263691316961
 20
-0.0595
 30
0.0
 11
0.7431883691316962
 21
-0.0595
 31
0.0
  0
LINE
  5
670
330
1D
100
AcDbEntity
  8
0
  6
Continuous
100
AcDbLine
 10
0.7480453691316961
 20
-0.0595
 30
0.0
 11
0.7458263691316961
 21
-0.0595
 31
0.0
  0
LINE
  5
671
330
1D
100
AcDbEntity
  8
0
  6
Continuous
100
AcDbLine
 10
0.7487973691316962
 20
-0.0595
 30
0.0
 11
0.7480453691316961
 21
-0.0595
 31
0.0
  0
LINE
  5
672
330
1D
100
AcDbEntity
  8
0
  6
Continuous
100
AcDbLine
 10
0.6895493691316962
 20
-0.0595
 30
0.0
 11
0.6887973691316961
 21
-0.0595
 31
0.0
  0
LINE
  5
673
330
1D
100
AcDbEntity
  8
0
  6
Continuous
100
AcDbLine
 10
0.6917683691316962
 20
-0.0595
 30
0.0
 11
0.6895493691316962
 21
-0.0595
 31
0.0
  0
LINE
  5
674
330
1D
100
AcDbEntity
  8
0
  6
Continuous
100
AcDbLine
 10
0.6953423691316961
 20
-0.0595
 30
0.0
 11
0.6917683691316962
 21
-0.0595
 31
0.0
  0
LINE
  5
675
330
1D
100
AcDbEntity
  8
0
  6
Continuous
100
AcDbLine
 10
0.6963663691316962
 20
-0.0595
 30
0.0
 11
0.6953423691316961
 21
-0.0595
 31
0.0
  0
LINE
  5
676
330
1D
100
AcDbEntity
  8
0
  6
Continuous
100
AcDbLine
 10
0.5362573691316961
 20
0.043133
 30
0.0
 11
0.5351583691316961
 21
0.043684
 31
0.0
  0
LINE
  5
677
330
1D
100
AcDbEntity
  8
0
  6
Continuous
100
AcDbLine
 10
0.5276903691316961
 20
0.048009
 30
0.0
 11
0.5300043691316962
 21
0.04678
 31
0.0
  0
LINE
  5
678
330
1D
100
AcDbEntity
  8
0
  6
Continuous
100
AcDbLine
 10
0.5300043691316962
 20
0.04678
 30
0.0
 11
0.5305593691316961
 21
0.046471
 31
0.0
  0
LINE
  5
679
330
1D
100
AcDbEntity
  8
0
  6
Continuous
100
AcDbLine
 10
0.5305593691316961
 20
0.046471
 30
0.0
 11
0.5313323691316962
 21
0.046041
 31
0.0
  0
LINE
  5
67A
330
1D
100
AcDbEntity
  8
0
  6
Continuous
100
AcDbLine
 10
0.5365653691316962
 20
0.042556
 30
0.0
 11
0.5365123691316961
 21
0.042658
 31
0.0
  0
LINE
  5
67B
330
1D
100
AcDbEntity
  8
0
  6
Continuous
100
AcDbLine
 10
0.5365123691316961
 20
0.042658
 30
0.0
 11
0.5362573691316961
 21
0.043133
 31
0.0
  0
ENDSEC
  0
SECTION
  2
OBJECTS
  0
DICTIONARY
  5
C
330
0
100
AcDbDictionary
281
     1
  3
ACAD_2007HEADERVARS_RT
350
6F5
  3
ACAD_CIP_PREVIOUS_PRODUCT_INFO
350
274
  3
ACAD_COLOR
350
255
  3
ACAD_DETAILVIEWSTYLE
350
26F
  3
ACAD_GROUP
350
D
  3
ACAD_LAYOUT
350
1A
  3
ACAD_MATERIAL
350
223
  3
ACAD_MLEADERSTYLE
350
26A
  3
ACAD_MLINESTYLE
350
17
  3
ACAD_PLOTSETTINGS
350
19
  3
ACAD_PLOTSTYLENAME
350
E
  3
ACAD_SCALELIST
350
258
  3
ACAD_SECTIONVIEWSTYLE
350
26C
  3
ACAD_TABLESTYLE
350
256
  3
ACAD_VISUALSTYLE
350
23C
  3
ACDB_RECOMPOSE_DATA
350
6F3
  3
AcDbVariableDictionary
350
6E4
  3
AcmDictionary
350
2A1
  3
AMG
350
276
  3
AMGSNAPSETTINGS
350
2D6
  3
DWGPROPS
350
6F4
  0
DICTIONARY
  5
6E0
330
10
100
AcDbDictionary
280
     1
281
     1
  3
ADSK_XREC_LAYER_RECONCILED
360
6E1
  0
DICTIONARY
  5
6E2
330
67C
100
AcDbDictionary
280
     1
281
     1
  3
ADSK_XREC_LAYER_RECONCILED
360
6E3
  0
DICTIONARY
  5
67F
330
1D
100
AcDbDictionary
280
     1
281
     1
  3
ACAD_SORTENTS
360
680
  0
DICTIONARY
  5
6F5
102
{ACAD_REACTORS
330
C
102
}
330
C
100
AcDbDictionary
281
     1
  3
INTERFERECOLOR
350
6F6
  0
XRECORD
  5
274
102
{ACAD_REACTORS
330
C
102
}
330
C
100
AcDbXrecord
280
     1
300
AMECH_PP
300
2013
300
PDSS_F_S
  0
DICTIONARY
  5
255
102
{ACAD_REACTORS
330
C
102
}
330
C
100
AcDbDictionary
281
     1
  0
DICTIONARY
  5
26F
102
{ACAD_REACTORS
330
C
102
}
330
C
100
AcDbDictionary
281
     1
  3
Imperial24
350
270
  0
DICTIONARY
  5
D
102
{ACAD_REACTORS
330
C
102
}
330
C
100
AcDbDictionary
281
     1
  0
DICTIONARY
  5
1A
102
{ACAD_REACTORS
330
C
102
}
330
C
100
AcDbDictionary
281
     1
  3
Layout1
350
1C
  3
Model
350
1E
  0
DICTIONARY
  5
223
102
{ACAD_REACTORS
330
C
102
}
330
C
100
AcDbDictionary
281
     1
  3
ByBlock
350
22C
  3
ByLayer
350
224
  3
Global
350
234
  0
DICTIONARY
  5
26A
102
{ACAD_REACTORS
330
C
102
}
330
C
100
AcDbDictionary
281
     1
  3
Standard
350
26B
  0
DICTIONARY
  5
17
102
{ACAD_REACTORS
330
C
102
}
330
C
100
AcDbDictionary
281
     1
  3
Standard
350
18
  0
DICTIONARY
  5
19
102
{ACAD_REACTORS
330
C
102
}
330
C
100
AcDbDictionary
281
     1
  0
ACDBDICTIONARYWDFLT
  5
E
102
{ACAD_REACTORS
330
C
102
}
330
C
100
AcDbDictionary
281
     1
  3
Normal
350
F
100
AcDbDictionaryWithDefault
340
F
  0
DICTIONARY
  5
258
102
{ACAD_REACTORS
330
C
102
}
330
C
100
AcDbDictionary
281
     1
  3
A0
350
259
  3
A1
350
25A
  3
A2
350
25B
  3
A3
350
25C
  3
A4
350
25D
  3
A5
350
25E
  3
A6
350
25F
  3
A7
350
260
  3
A8
350
261
  3
A9
350
262
  3
B0
350
263
  3
B1
350
264
  3
B2
350
265
  3
B3
350
266
  3
B4
350
267
  3
B5
350
268
  3
B6
350
269
  0
DICTIONARY
  5
26C
102
{ACAD_REACTORS
330
C
102
}
330
C
100
AcDbDictionary
281
     1
  3
Imperial24
350
26E
  0
DICTIONARY
  5
256
102
{ACAD_REACTORS
330
C
102
}
330
C
100
AcDbDictionary
281
     1
  3
Standard
350
257
  0
DICTIONARY
  5
23C
102
{ACAD_REACTORS
330
C
102
}
330
C
100
AcDbDictionary
281
     1
  3
2dWireframe
350
242
  3
Basic
350
241
  3
Brighten
350
248
  3
ColorChange
350
24C
  3
Conceptual
350
245
  3
Dim
350
247
  3
EdgeColorOff
350
254
  3
Facepattern
350
24B
  3
Flat
350
23D
  3
FlatWithEdges
350
23E
  3
Gouraud
350
23F
  3
GouraudWithEdges
350
240
  3
Hidden
350
244
  3
JitterOff
350
252
  3
Linepattern
350
24A
  3
OverhangOff
350
253
  3
Realistic
350
246
  3
Shaded
350
251
  3
Shaded with edges
350
250
  3
Shades of Gray
350
24D
  3
Sketchy
350
24E
  3
Thicken
350
249
  3
Wireframe
350
243
  3
X-Ray
350
24F
  0
XRECORD
  5
6F3
102
{ACAD_REACTORS
330
C
102
}
330
C
100
AcDbXrecord
280
     1
 90
        1
330
257
  0
DICTIONARY
  5
6E4
102
{ACAD_REACTORS
330
C
102
}
330
C
100
AcDbDictionary
281
     1
  3
CANNOSCALE
350
6E9
  3
CMLEADERSTYLE
350
6E6
  3
CTABLESTYLE
350
6E5
  3
CVIEWDETAILSTYLE
350
6E7
  3
CVIEWSECTIONSTYLE
350
6E8
  3
DGNFRAME
350
6F0
  3
DIMASSOC
350
6EE
  3
HIDETEXT
350
6EC
  3
INDEXCTL
350
6EB
  3
SOLIDHIST
350
6EF
  3
SORTENTS
350
6EA
  3
XCLIPFRAME
350
6ED
  0
DICTIONARY
  5
2A1
102
{ACAD_REACTORS
330
C
102
}
330
C
100
AcDbDictionary
281
     1
  3
AcmStdDictionary
350
2A8
  0
DICTIONARY
  5
276
102
{ACAD_REACTORS
330
C
102
}
330
C
100
AcDbDictionary
281
     1
  0
DICTIONARY
  5
2D6
102
{ACAD_REACTORS
330
C
102
}
330
C
100
AcDbDictionary
281
     1
  0
XRECORD
  5
6F4
102
{ACAD_REACTORS
330
C
102
}
330
C
100
AcDbXrecord
280
     1
  1
DWGPROPS COOKIE
  2

  3

  4

  6

  7

  8
tomitais
  9

300
=
301
=
302
=
303
=
304
=
305
=
306
=
307
=
308
=
309
=
 40
0.0012463078703704
 41
2457106.723600868
 42
2457354.720890579
  1

 90
        0
  0
XRECORD
  5
6E1
102
{ACAD_REACTORS
330
6E0
102
}
330
6E0
100
AcDbXrecord
280
     1
290
     1
  0
XRECORD
  5
6E3
102
{ACAD_REACTORS
330
6E2
102
}
330
6E2
100
AcDbXrecord
280
     1
290
     1
  0
SORTENTSTABLE
  5
680
102
{ACAD_REACTORS
330
67F
102
}
330
67F
100
AcDbSortentsTable
330
1D
331
1D8
  5
1E0
331
150
  5
158
331
5A0
  5
5A8
331
30
  5
38
331
161
  5
169
331
5B1
  5
5B9
331
41
  5
49
331
399
  5
3A1
331
1E2
  5
1EA
331
7A
  5
82
331
5C2
  5
5CA
331
52
  5
5A
331
3AA
  5
3B2
331
1F3
  5
1FB
331
8B
  5
93
331
5D3
  5
5DB
331
3BB
  5
3C3
331
204
  5
20C
331
5E4
  5
5EC
331
74
  5
7C
331
5F5
  5
5FD
331
215
  5
397
331
AD
  5
B5
331
606
  5
60E
331
BE
  5
C6
331
3D6
  5
3DE
331
61F
  5
627
331
617
  5
61F
331
3E7
  5
3EF
331
630
  5
638
331
440
  5
448
331
641
  5
649
331
3F8
  5
400
331
652
  5
65A
331
409
  5
411
331
41A
  5
422
331
663
  5
66B
331
FB
  5
103
331
42B
  5
433
331
674
  5
67E
331
10C
  5
114
331
574
  5
57C
331
194
  5
19C
331
585
  5
58D
331
1A5
  5
1AD
331
596
  5
59E
331
1B6
  5
1BE
331
12E
  5
136
331
1C7
  5
1CF
331
13F
  5
147
331
11D
  5
125
331
183
  5
18B
331
172
  5
17A
331
E0
  5
E8
331
CF
  5
D7
331
3C5
  5
3CD
331
9C
  5
A4
331
63
  5
6B
331
1C8
  5
1D0
331
140
  5
148
331
1D9
  5
1E1
331
151
  5
159
331
5A1
  5
5A9
331
31
  5
39
331
162
  5
16A
331
5B2
  5
5BA
331
42
  5
4A
331
39A
  5
3A2
331
1E3
  5
1EB
331
7B
  5
83
331
5C3
  5
5CB
331
53
  5
5B
331
3AB
  5
3B3
331
1F4
  5
1FC
331
8C
  5
94
331
5D4
  5
5DC
331
3BC
  5
3C4
331
205
  5
20D
331
5E5
  5
5ED
331
75
  5
7D
331
5F6
  5
5FE
331
216
  5
398
331
AE
  5
B6
331
607
  5
60F
331
BF
  5
C7
331
3D7
  5
3DF
331
620
  5
628
331
3E8
  5
3F0
331
631
  5
639
331
441
  5
565
331
E1
  5
E9
331
642
  5
64A
331
653
  5
65B
331
40A
  5
412
331
41B
  5
423
331
173
  5
17B
331
664
  5
66C
331
42C
  5
434
331
184
  5
18C
331
675
  5
681
331
575
  5
57D
331
195
  5
19D
331
586
  5
58E
331
1A6
  5
1AE
331
597
  5
59F
331
1B7
  5
1BF
331
12F
  5
137
331
11E
  5
126
331
10D
  5
115
331
FC
  5
104
331
3F9
  5
401
331
D0
  5
D8
331
3C6
  5
3CE
331
9D
  5
A5
331
64
  5
6C
331
598
  5
5A0
331
1B8
  5
1C0
331
130
  5
138
331
1C9
  5
1D1
331
141
  5
149
331
1DA
  5
1E2
331
152
  5
15A
331
5A2
  5
5AA
331
32
  5
3A
331
163
  5
16B
331
5B3
  5
5BB
331
43
  5
4B
331
39B
  5
3A3
331
1E4
  5
1EC
331
7C
  5
84
331
5C4
  5
5CC
331
54
  5
5C
331
1F5
  5
1FD
331
8D
  5
95
331
3AC
  5
3B4
331
5D5
  5
5DD
331
3BD
  5
3C5
331
206
  5
20E
331
5E6
  5
5EE
331
76
  5
7E
331
5F7
  5
5FF
331
217
  5
399
331
AF
  5
B7
331
608
  5
610
331
C0
  5
C8
331
3D8
  5
3E0
331
621
  5
629
331
3E9
  5
3F1
331
632
  5
63A
331
442
  5
566
331
E2
  5
EA
331
643
  5
64B
331
654
  5
65C
331
40B
  5
413
331
41C
  5
424
331
174
  5
17C
331
665
  5
66D
331
565
  5
56D
331
185
  5
18D
331
676
  5
682
331
10E
  5
116
331
576
  5
57E
331
11F
  5
127
331
587
  5
58F
331
1A7
  5
1AF
331
196
  5
19E
331
42D
  5
435
331
FD
  5
105
331
3FA
  5
402
331
D1
  5
D9
331
3C7
  5
3CF
331
9E
  5
A6
331
65
  5
6D
331
588
  5
590
331
1A8
  5
1B0
331
120
  5
128
331
599
  5
5A1
331
1B9
  5
1C1
331
131
  5
139
331
1CA
  5
1D2
331
142
  5
14A
331
1DB
  5
1E3
331
153
  5
15B
331
22
  5
2A
331
5A3
  5
5AB
331
33
  5
3B
331
164
  5
16C
331
5B4
  5
5BC
331
44
  5
4C
331
39C
  5
3A4
331
1E5
  5
1ED
331
7D
  5
85
331
5C5
  5
5CD
331
3AD
  5
3B5
331
55
  5
5D
331
1F6
  5
1FE
331
5D6
  5
5DE
331
66
  5
6E
331
3BE
  5
3C6
331
207
  5
20F
331
5E7
  5
5EF
331
77
  5
7F
331
5F8
  5
600
331
218
  5
39A
331
B0
  5
B8
331
609
  5
611
331
C1
  5
C9
331
3D9
  5
3E1
331
622
  5
62A
331
3EA
  5
3F2
331
633
  5
63B
331
443
  5
567
331
E3
  5
EB
331
644
  5
64C
331
655
  5
65D
331
40C
  5
414
331
41D
  5
425
331
175
  5
17D
331
666
  5
66E
331
566
  5
56E
331
186
  5
18E
331
677
  5
683
331
10F
  5
117
331
577
  5
57F
331
197
  5
19F
331
42E
  5
436
331
FE
  5
106
331
3FB
  5
403
331
D2
  5
DA
331
3C8
  5
3D0
331
9F
  5
A7
331
8E
  5
96
331
678
  5
684
331
110
  5
118
331
578
  5
580
331
198
  5
1A0
331
589
  5
591
331
1A9
  5
1B1
331
121
  5
129
331
59A
  5
5A2
331
1BA
  5
1C2
331
132
  5
13A
331
1CB
  5
1D3
331
143
  5
14B
331
1DC
  5
1E4
331
154
  5
15C
331
23
  5
2B
331
5A4
  5
5AC
331
34
  5
3C
331
165
  5
16D
331
5B5
  5
5BD
331
45
  5
4D
331
39D
  5
3A5
331
1E6
  5
1EE
331
5C6
  5
5CE
331
56
  5
5E
331
3AE
  5
3B6
331
7E
  5
86
331
1F7
  5
1FF
331
5D7
  5
5DF
331
67
  5
6F
331
3BF
  5
3C7
331
5E8
  5
5F0
331
208
  5
210
331
5F9
  5
601
331
219
  5
39B
331
B1
  5
B9
331
3C9
  5
3D1
331
60A
  5
612
331
3DA
  5
3E2
331
623
  5
62B
331
D3
  5
DB
331
634
  5
63C
331
444
  5
568
331
E4
  5
EC
331
645
  5
64D
331
656
  5
65E
331
40D
  5
415
331
41E
  5
426
331
176
  5
17E
331
667
  5
66F
331
567
  5
56F
331
187
  5
18F
331
42F
  5
437
331
FF
  5
107
331
3FC
  5
404
331
3EB
  5
3F3
331
C2
  5
CA
331
A0
  5
A8
331
8F
  5
97
331
668
  5
670
331
100
  5
108
331
568
  5
570
331
188
  5
190
331
430
  5
438
331
679
  5
685
331
111
  5
119
331
579
  5
581
331
199
  5
1A1
331
58A
  5
592
331
1AA
  5
1B2
331
122
  5
12A
331
59B
  5
5A3
331
1BB
  5
1C3
331
133
  5
13B
331
1CC
  5
1D4
331
144
  5
14C
331
1DD
  5
1E5
331
155
  5
15D
331
24
  5
2C
331
5A5
  5
5AD
331
166
  5
16E
331
35
  5
3D
331
5B6
  5
5BE
331
39E
  5
3A6
331
1E7
  5
1EF
331
5C7
  5
5CF
331
57
  5
5F
331
3AF
  5
3B7
331
7F
  5
87
331
46
  5
4E
331
1F8
  5
200
331
5D8
  5
5E0
331
68
  5
70
331
5E9
  5
5F1
331
209
  5
211
331
A1
  5
A9
331
5FA
  5
602
331
21A
  5
39C
331
3CA
  5
3D2
331
60B
  5
613
331
C3
  5
CB
331
624
  5
62C
331
D4
  5
DC
331
3EC
  5
3F4
331
635
  5
63D
331
445
  5
569
331
646
  5
64E
331
3FD
  5
405
331
657
  5
65F
331
41F
  5
427
331
177
  5
17F
331
40E
  5
416
331
E5
  5
ED
331
3DB
  5
3E3
331
B2
  5
BA
331
90
  5
98
331
658
  5
660
331
F0
  5
F8
331
420
  5
428
331
178
  5
180
331
669
  5
671
331
101
  5
109
331
569
  5
571
331
189
  5
191
331
431
  5
439
331
67A
  5
686
331
112
  5
11A
331
57A
  5
582
331
19A
  5
1A2
331
58B
  5
593
331
1AB
  5
1B3
331
123
  5
12B
331
59C
  5
5A4
331
1BC
  5
1C4
331
134
  5
13C
331
1CD
  5
1D5
331
145
  5
14D
331
1DE
  5
1E6
331
156
  5
15E
331
5A6
  5
5AE
331
36
  5
3E
331
167
  5
16F
331
5B7
  5
5BF
331
39F
  5
3A7
331
1E8
  5
1F0
331
5C8
  5
5D0
331
58
  5
60
331
3B0
  5
3B8
331
80
  5
88
331
47
  5
4F
331
25
  5
2D
331
1F9
  5
201
331
5D9
  5
5E1
331
69
  5
71
331
5EA
  5
5F2
331
20A
  5
212
331
A2
  5
AA
331
5FB
  5
603
331
21B
  5
39D
331
3CB
  5
3D3
331
60C
  5
614
331
C4
  5
CC
331
625
  5
62D
331
D5
  5
DD
331
3ED
  5
3F5
331
636
  5
63E
331
446
  5
56A
331
647
  5
64F
331
3FE
  5
406
331
40F
  5
417
331
E6
  5
EE
331
3DC
  5
3E4
331
B3
  5
BB
331
91
  5
99
331
648
  5
650
331
410
  5
418
331
168
  5
170
331
659
  5
661
331
F1
  5
F9
331
421
  5
429
331
179
  5
181
331
66A
  5
672
331
102
  5
10A
331
56A
  5
572
331
18A
  5
192
331
432
  5
43A
331
67B
  5
687
331
113
  5
11B
331
57B
  5
583
331
19B
  5
1A3
331
58C
  5
594
331
1AC
  5
1B4
331
124
  5
12C
331
59D
  5
5A5
331
1BD
  5
1C5
331
1CE
  5
1D6
331
146
  5
14E
331
1DF
  5
1E7
331
157
  5
15F
331
5A7
  5
5AF
331
37
  5
3F
331
5B8
  5
5C0
331
48
  5
50
331
1E9
  5
1F1
331
81
  5
89
331
5C9
  5
5D1
331
3B1
  5
3B9
331
1FA
  5
202
331
92
  5
9A
331
59
  5
61
331
3A0
  5
3A8
331
26
  5
2E
331
135
  5
13D
331
5DA
  5
5E2
331
5EB
  5
5F3
331
20B
  5
213
331
A3
  5
AB
331
5FC
  5
604
331
21C
  5
39E
331
B4
  5
BC
331
3CC
  5
3D4
331
60D
  5
615
331
C5
  5
CD
331
626
  5
62E
331
D6
  5
DE
331
3EE
  5
3F6
331
637
  5
63F
331
447
  5
56B
331
3FF
  5
407
331
E7
  5
EF
331
3DD
  5
3E5
331
6A
  5
72
331
638
  5
640
331
448
  5
56C
331
E8
  5
F0
331
649
  5
651
331
400
  5
408
331
411
  5
419
331
169
  5
171
331
65A
  5
662
331
F2
  5
FA
331
422
  5
42A
331
17A
  5
182
331
66B
  5
673
331
103
  5
10B
331
56B
  5
573
331
18B
  5
193
331
433
  5
43B
331
57C
  5
584
331
19C
  5
1A4
331
114
  5
11C
331
58D
  5
595
331
1AD
  5
1B5
331
125
  5
12D
331
59E
  5
5A6
331
1BE
  5
1C6
331
136
  5
13E
331
1CF
  5
1D7
331
158
  5
160
331
27
  5
2F
331
5A8
  5
5B0
331
5B9
  5
5C1
331
49
  5
51
331
3A1
  5
3A9
331
1EA
  5
1F2
331
5CA
  5
5D2
331
5A
  5
62
331
3B2
  5
3BA
331
1FB
  5
203
331
93
  5
9B
331
82
  5
8A
331
38
  5
40
331
147
  5
14F
331
5DB
  5
5E3
331
5EC
  5
5F4
331
20C
  5
214
331
A4
  5
AC
331
5FD
  5
605
331
3CD
  5
3D5
331
60E
  5
616
331
C6
  5
CE
331
627
  5
62F
331
D7
  5
DF
331
3EF
  5
3F7
331
3DE
  5
3E6
331
B5
  5
BD
331
6B
  5
73
331
628
  5
630
331
438
  5
440
331
D8
  5
E0
331
3F0
  5
3F8
331
639
  5
641
331
E9
  5
F1
331
64A
  5
652
331
401
  5
409
331
412
  5
41A
331
16A
  5
172
331
65B
  5
663
331
F3
  5
FB
331
423
  5
42B
331
17B
  5
183
331
66C
  5
674
331
104
  5
10C
331
56C
  5
574
331
18C
  5
194
331
434
  5
43C
331
57D
  5
585
331
19D
  5
1A5
331
58E
  5
596
331
1AE
  5
1B6
331
126
  5
12E
331
59F
  5
5A7
331
1BF
  5
1C7
331
137
  5
13F
331
1D0
  5
1D8
331
159
  5
161
331
28
  5
30
331
5A9
  5
5B1
331
5BA
  5
5C2
331
4A
  5
52
331
3A2
  5
3AA
331
1EB
  5
1F3
331
5CB
  5
5D3
331
5B
  5
63
331
3B3
  5
3BB
331
1FC
  5
204
331
94
  5
9C
331
83
  5
8B
331
39
  5
41
331
148
  5
150
331
115
  5
11D
331
5DC
  5
5E4
331
5ED
  5
5F5
331
20D
  5
215
331
A5
  5
AD
331
5FE
  5
606
331
3CE
  5
3D6
331
60F
  5
617
331
C7
  5
CF
331
3DF
  5
3E7
331
B6
  5
BE
331
6C
  5
74
331
618
  5
620
331
C8
  5
D0
331
610
  5
618
331
3E0
  5
3E8
331
629
  5
631
331
439
  5
441
331
D9
  5
E1
331
3F1
  5
3F9
331
63A
  5
642
331
EA
  5
F2
331
64B
  5
653
331
402
  5
40A
331
413
  5
41B
331
16B
  5
173
331
65C
  5
664
331
F4
  5
FC
331
424
  5
42C
331
17C
  5
184
331
66D
  5
675
331
105
  5
10D
331
56D
  5
575
331
435
  5
43D
331
57E
  5
586
331
19E
  5
1A6
331
58F
  5
597
331
1AF
  5
1B7
331
127
  5
12F
331
1C0
  5
1C8
331
1D1
  5
1D9
331
149
  5
151
331
15A
  5
162
331
5AA
  5
5B2
331
3A
  5
42
331
5BB
  5
5C3
331
4B
  5
53
331
1EC
  5
1F4
331
84
  5
8C
331
5CC
  5
5D4
331
3B4
  5
3BC
331
1FD
  5
205
331
95
  5
9D
331
5C
  5
64
331
3A3
  5
3AB
331
29
  5
31
331
138
  5
140
331
116
  5
11E
331
18D
  5
195
331
5DD
  5
5E5
331
5EE
  5
5F6
331
20E
  5
216
331
A6
  5
AE
331
5FF
  5
607
331
3CF
  5
3D7
331
B7
  5
BF
331
6D
  5
75
331
600
  5
608
331
B8
  5
C0
331
3D0
  5
3D8
331
619
  5
621
331
C9
  5
D1
331
611
  5
619
331
3E1
  5
3E9
331
62A
  5
632
331
43A
  5
442
331
DA
  5
E2
331
3F2
  5
3FA
331
63B
  5
643
331
EB
  5
F3
331
64C
  5
654
331
403
  5
40B
331
414
  5
41C
331
16C
  5
174
331
65D
  5
665
331
425
  5
42D
331
17D
  5
185
331
66E
  5
676
331
106
  5
10E
331
56E
  5
576
331
436
  5
43E
331
57F
  5
587
331
19F
  5
1A7
331
590
  5
598
331
1B0
  5
1B8
331
128
  5
130
331
1C1
  5
1C9
331
139
  5
141
331
1D2
  5
1DA
331
15B
  5
163
331
2A
  5
32
331
5AB
  5
5B3
331
5BC
  5
5C4
331
4C
  5
54
331
3A4
  5
3AC
331
1ED
  5
1F5
331
5CD
  5
5D5
331
5D
  5
65
331
3B5
  5
3BD
331
1FE
  5
206
331
96
  5
9E
331
85
  5
8D
331
3B
  5
43
331
14A
  5
152
331
117
  5
11F
331
18E
  5
196
331
F5
  5
FD
331
5DE
  5
5E6
331
5EF
  5
5F7
331
20F
  5
217
331
A7
  5
AF
331
6E
  5
76
331
5F0
  5
5F8
331
210
  5
218
331
A8
  5
B0
331
3C0
  5
3C8
331
601
  5
609
331
B9
  5
C1
331
3D1
  5
3D9
331
61A
  5
622
331
CA
  5
D2
331
612
  5
61A
331
3E2
  5
3EA
331
62B
  5
633
331
43B
  5
443
331
DB
  5
E3
331
63C
  5
644
331
EC
  5
F4
331
3F3
  5
3FB
331
64D
  5
655
331
415
  5
41D
331
16D
  5
175
331
65E
  5
666
331
426
  5
42E
331
17E
  5
186
331
66F
  5
677
331
107
  5
10F
331
56F
  5
577
331
437
  5
43F
331
580
  5
588
331
1A0
  5
1A8
331
591
  5
599
331
1B1
  5
1B9
331
129
  5
131
331
1C2
  5
1CA
331
13A
  5
142
331
1D3
  5
1DB
331
15C
  5
164
331
2B
  5
33
331
5AC
  5
5B4
331
5BD
  5
5C5
331
4D
  5
55
331
3A5
  5
3AD
331
1EE
  5
1F6
331
5CE
  5
5D6
331
5E
  5
66
331
3B6
  5
3BE
331
1FF
  5
207
331
97
  5
9F
331
86
  5
8E
331
3C
  5
44
331
14B
  5
153
331
118
  5
120
331
18F
  5
197
331
F6
  5
FE
331
404
  5
40C
331
5DF
  5
5E7
331
6F
  5
77
331
200
  5
208
331
98
  5
A0
331
5E0
  5
5E8
331
70
  5
78
331
5F1
  5
5F9
331
211
  5
219
331
A9
  5
B1
331
3C1
  5
3C9
331
602
  5
60A
331
BA
  5
C2
331
3D2
  5
3DA
331
61B
  5
623
331
CB
  5
D3
331
613
  5
61B
331
3E3
  5
3EB
331
62C
  5
634
331
43C
  5
444
331
3F4
  5
3FC
331
63D
  5
645
331
ED
  5
F5
331
64E
  5
656
331
416
  5
41E
331
16E
  5
176
331
65F
  5
667
331
427
  5
42F
331
17F
  5
187
331
670
  5
678
331
108
  5
110
331
570
  5
578
331
119
  5
121
331
581
  5
589
331
1A1
  5
1A9
331
592
  5
59A
331
1B2
  5
1BA
331
12A
  5
132
331
1C3
  5
1CB
331
13B
  5
143
331
1D4
  5
1DC
331
15D
  5
165
331
2C
  5
34
331
5AD
  5
5B5
331
5BE
  5
5C6
331
4E
  5
56
331
3A6
  5
3AE
331
1EF
  5
1F7
331
5CF
  5
5D7
331
5F
  5
67
331
3B7
  5
3BF
331
87
  5
8F
331
3D
  5
45
331
14C
  5
154
331
190
  5
198
331
F7
  5
FF
331
405
  5
40D
331
DC
  5
E4
331
1F0
  5
1F8
331
88
  5
90
331
5D0
  5
5D8
331
60
  5
68
331
3B8
  5
3C0
331
201
  5
209
331
99
  5
A1
331
5E1
  5
5E9
331
71
  5
79
331
5F2
  5
5FA
331
212
  5
21A
331
AA
  5
B2
331
3C2
  5
3CA
331
603
  5
60B
331
BB
  5
C3
331
3D3
  5
3DB
331
61C
  5
624
331
614
  5
61C
331
3E4
  5
3EC
331
62D
  5
635
331
43D
  5
445
331
3F5
  5
3FD
331
63E
  5
646
331
EE
  5
F6
331
64F
  5
657
331
417
  5
41F
331
16F
  5
177
331
660
  5
668
331
428
  5
430
331
180
  5
188
331
671
  5
679
331
109
  5
111
331
571
  5
579
331
11A
  5
122
331
582
  5
58A
331
1A2
  5
1AA
331
593
  5
59B
331
1B3
  5
1BB
331
12B
  5
133
331
1C4
  5
1CC
331
13C
  5
144
331
1D5
  5
1DD
331
15E
  5
166
331
2D
  5
35
331
5AE
  5
5B6
331
5BF
  5
5C7
331
4F
  5
57
331
3A7
  5
3AF
331
3E
  5
46
331
14D
  5
155
331
191
  5
199
331
F8
  5
100
331
406
  5
40E
331
DD
  5
E5
331
CC
  5
D4
331
1E0
  5
1E8
331
78
  5
80
331
5C0
  5
5C8
331
50
  5
58
331
3A8
  5
3B0
331
1F1
  5
1F9
331
89
  5
91
331
5D1
  5
5D9
331
61
  5
69
331
3B9
  5
3C1
331
202
  5
20A
331
9A
  5
A2
331
5E2
  5
5EA
331
72
  5
7A
331
5F3
  5
5FB
331
213
  5
21B
331
AB
  5
B3
331
604
  5
60C
331
BC
  5
C4
331
3D4
  5
3DC
331
61D
  5
625
331
615
  5
61D
331
3E5
  5
3ED
331
62E
  5
636
331
43E
  5
446
331
3F6
  5
3FE
331
63F
  5
647
331
EF
  5
F7
331
650
  5
658
331
418
  5
420
331
170
  5
178
331
661
  5
669
331
429
  5
431
331
181
  5
189
331
672
  5
67A
331
10A
  5
112
331
572
  5
57A
331
11B
  5
123
331
583
  5
58B
331
1A3
  5
1AB
331
594
  5
59C
331
1B4
  5
1BC
331
12C
  5
134
331
1C5
  5
1CD
331
13D
  5
145
331
1D6
  5
1DE
331
15F
  5
167
331
2E
  5
36
331
5AF
  5
5B7
331
3F
  5
47
331
397
  5
39F
331
14E
  5
156
331
192
  5
19A
331
F9
  5
101
331
407
  5
40F
331
DE
  5
E6
331
CD
  5
D5
331
3C3
  5
3CB
331
160
  5
168
331
5B0
  5
5B8
331
40
  5
48
331
398
  5
3A0
331
1E1
  5
1E9
331
79
  5
81
331
5C1
  5
5C9
331
51
  5
59
331
3A9
  5
3B1
331
1F2
  5
1FA
331
8A
  5
92
331
5D2
  5
5DA
331
62
  5
6A
331
3BA
  5
3C2
331
203
  5
20B
331
5E3
  5
5EB
331
73
  5
7B
331
5F4
  5
5FC
331
214
  5
21C
331
AC
  5
B4
331
605
  5
60D
331
BD
  5
C5
331
3D5
  5
3DD
331
61E
  5
626
331
616
  5
61E
331
3E6
  5
3EE
331
62F
  5
637
331
43F
  5
447
331
640
  5
648
331
3F7
  5
3FF
331
651
  5
659
331
408
  5
410
331
419
  5
421
331
662
  5
66A
331
FA
  5
102
331
42A
  5
432
331
673
  5
67B
331
10B
  5
113
331
573
  5
57B
331
193
  5
19B
331
584
  5
58C
331
1A4
  5
1AC
331
595
  5
59D
331
1B5
  5
1BD
331
12D
  5
135
331
1C6
  5
1CE
331
13E
  5
146
331
1D7
  5
1DF
331
2F
  5
37
331
14F
  5
157
331
11C
  5
124
331
182
  5
18A
331
171
  5
179
331
DF
  5
E7
331
CE
  5
D6
331
3C4
  5
3CC
331
9B
  5
A3
  0
XRECORD
  5
6F6
102
{ACAD_REACTORS
330
6F5
102
}
330
6F5
100
AcDbXrecord
280
     1
1004
1800000001000000000000C0000000000000000000000000
  0
ACDBDETAILVIEWSTYLE
  5
270
102
{ACAD_REACTORS
330
26F
102
}
330
26F
100
AcDbModelDocViewStyle
 70
     0
  3
Imperial24
290
     0
100
AcDbDetailViewStyle
 70
     0
 71
     0
 90
        3
 71
     1
340
11
 40
0.24
340
0
 40
0.24
300

 40
0.36
280
     3
 71
     2
340
16
 90
       25
 71
     3
340
11
 40
0.24
 90
        1
 40
0.75
 90
        1
300
%<\AcVar ViewType \f "%tc1">% %<\AcVar ViewDetailId>%\PSCALE %<\AcVar ViewScale \f "%sn">%
 71
     4
340
16
 90
       25
340
16
 90
       25
280
     0
  0
LAYOUT
  5
1C
102
{ACAD_XDICTIONARY
360
6F7
102
}
102
{ACAD_REACTORS
330
1A
102
}
330
1A
100
AcDbPlotSettings
  1

  2
none_device
  4

  6

 40
0.0
 41
0.0
 42
0.0
 43
0.0
 44
0.0
 45
0.0
 46
0.0
 47
0.0
 48
0.0
 49
0.0
140
0.0
141
0.0
142
1.0
143
1.0
 70
   688
 72
     0
 73
     0
 74
     5
  7

 75
    16
147
1.0
148
0.0
149
0.0
100
AcDbLayout
  1
Layout1
 70
     1
 71
     1
 10
0.0
 20
0.0
 11
12.0
 21
9.0
 12
0.0
 22
0.0
 32
0.0
 14
1.000000000000000E+20
 24
1.000000000000000E+20
 34
1.000000000000000E+20
 15
-1.000000000000000E+20
 25
-1.000000000000000E+20
 35
-1.000000000000000E+20
146
0.0
 13
0.0
 23
0.0
 33
0.0
 16
1.0
 26
0.0
 36
0.0
 17
0.0
 27
1.0
 37
0.0
 76
     0
330
1B
  0
LAYOUT
  5
1E
102
{ACAD_XDICTIONARY
360
6F9
102
}
102
{ACAD_REACTORS
330
1A
102
}
330
1A
100
AcDbPlotSettings
  1

  2
none_device
  4

  6

 40
0.0
 41
0.0
 42
0.0
 43
0.0
 44
0.0
 45
0.0
 46
0.0
 47
0.0
 48
0.0
 49
0.0
140
0.0
141
0.0
142
1.0
143
1.0
 70
  1712
 72
     0
 73
     0
 74
     0
  7

 75
     0
147
1.0
148
0.0
149
0.0
100
AcDbLayout
  1
Model
 70
     1
 71
     0
 10
0.0
 20
0.0
 11
12.0
 21
9.0
 12
0.0
 22
0.0
 32
0.0
 14
1.000000000000000E+20
 24
1.000000000000000E+20
 34
1.000000000000000E+20
 15
-1.000000000000000E+20
 25
-1.000000000000000E+20
 35
-1.000000000000000E+20
146
0.0
 13
0.0
 23
0.0
 33
0.0
 16
1.0
 26
0.0
 36
0.0
 17
0.0
 27
1.0
 37
0.0
 76
     0
330
1D
331
21D
  0
MATERIAL
  5
22C
102
{ACAD_XDICTIONARY
360
22D
102
}
102
{ACAD_REACTORS
330
223
102
}
330
223
100
AcDbMaterial
  1
ByBlock
 72
     0
 43
0.0208333333333333
 43
0.0
 43
0.0
 43
0.0
 43
0.0
 43
0.0208333333333333
 43
0.0
 43
0.0
 43
0.0
 43
0.0
 43
1.0
 43
0.0
 43
0.0
 43
0.0
 43
0.0
 43
1.0
 77
     0
 47
0.0208333333333333
 47
0.0
 47
0.0
 47
0.0
 47
0.0
 47
0.0208333333333333
 47
0.0
 47
0.0
 47
0.0
 47
0.0
 47
1.0
 47
0.0
 47
0.0
 47
0.0
 47
0.0
 47
1.0
171
     0
 49
0.0208333333333333
 49
0.0
 49
0.0
 49
0.0
 49
0.0
 49
0.0208333333333333
 49
0.0
 49
0.0
 49
0.0
 49
0.0
 49
1.0
 49
0.0
 49
0.0
 49
0.0
 49
0.0
 49
1.0
175
     0
142
0.0208333333333333
142
0.0
142
0.0
142
0.0
142
0.0
142
0.0208333333333333
142
0.0
142
0.0
142
0.0
142
0.0
142
1.0
142
0.0
142
0.0
142
0.0
142
0.0
142
1.0
179
     0
144
0.0208333333333333
144
0.0
144
0.0
144
0.0
144
0.0
144
0.0208333333333333
144
0.0
144
0.0
144
0.0
144
0.0
144
1.0
144
0.0
144
0.0
144
0.0
144
0.0
144
1.0
147
0.0208333333333333
147
0.0
147
0.0
147
0.0
147
0.0
147
0.0208333333333333
147
0.0
147
0.0
147
0.0
147
0.0
147
1.0
147
0.0
147
0.0
147
0.0
147
0.0
147
1.0
  0
MATERIAL
  5
224
102
{ACAD_XDICTIONARY
360
225
102
}
102
{ACAD_REACTORS
330
223
102
}
330
223
100
AcDbMaterial
  1
ByLayer
 72
     0
 43
0.0208333333333333
 43
0.0
 43
0.0
 43
0.0
 43
0.0
 43
0.0208333333333333
 43
0.0
 43
0.0
 43
0.0
 43
0.0
 43
1.0
 43
0.0
 43
0.0
 43
0.0
 43
0.0
 43
1.0
 77
     0
 47
0.0208333333333333
 47
0.0
 47
0.0
 47
0.0
 47
0.0
 47
0.0208333333333333
 47
0.0
 47
0.0
 47
0.0
 47
0.0
 47
1.0
 47
0.0
 47
0.0
 47
0.0
 47
0.0
 47
1.0
171
     0
 49
0.0208333333333333
 49
0.0
 49
0.0
 49
0.0
 49
0.0
 49
0.0208333333333333
 49
0.0
 49
0.0
 49
0.0
 49
0.0
 49
1.0
 49
0.0
 49
0.0
 49
0.0
 49
0.0
 49
1.0
175
     0
142
0.0208333333333333
142
0.0
142
0.0
142
0.0
142
0.0
142
0.0208333333333333
142
0.0
142
0.0
142
0.0
142
0.0
142
1.0
142
0.0
142
0.0
142
0.0
142
0.0
142
1.0
179
     0
144
0.0208333333333333
144
0.0
144
0.0
144
0.0
144
0.0
144
0.0208333333333333
144
0.0
144
0.0
144
0.0
144
0.0
144
1.0
144
0.0
144
0.0
144
0.0
144
0.0
144
1.0
147
0.0208333333333333
147
0.0
147
0.0
147
0.0
147
0.0
147
0.0208333333333333
147
0.0
147
0.0
147
0.0
147
0.0
147
1.0
147
0.0
147
0.0
147
0.0
147
0.0
147
1.0
  0
MATERIAL
  5
234
102
{ACAD_XDICTIONARY
360
235
102
}
102
{ACAD_REACTORS
330
223
102
}
330
223
100
AcDbMaterial
  1
Global
 72
     0
 43
0.0208333333333333
 43
0.0
 43
0.0
 43
0.0
 43
0.0
 43
0.0208333333333333
 43
0.0
 43
0.0
 43
0.0
 43
0.0
 43
1.0
 43
0.0
 43
0.0
 43
0.0
 43
0.0
 43
1.0
 77
     0
 47
0.0208333333333333
 47
0.0
 47
0.0
 47
0.0
 47
0.0
 47
0.0208333333333333
 47
0.0
 47
0.0
 47
0.0
 47
0.0
 47
1.0
 47
0.0
 47
0.0
 47
0.0
 47
0.0
 47
1.0
171
     0
 49
0.0208333333333333
 49
0.0
 49
0.0
 49
0.0
 49
0.0
 49
0.0208333333333333
 49
0.0
 49
0.0
 49
0.0
 49
0.0
 49
1.0
 49
0.0
 49
0.0
 49
0.0
 49
0.0
 49
1.0
175
     0
142
0.0208333333333333
142
0.0
142
0.0
142
0.0
142
0.0
142
0.0208333333333333
142
0.0
142
0.0
142
0.0
142
0.0
142
1.0
142
0.0
142
0.0
142
0.0
142
0.0
142
1.0
179
     0
144
0.0208333333333333
144
0.0
144
0.0
144
0.0
144
0.0
144
0.0208333333333333
144
0.0
144
0.0
144
0.0
144
0.0
144
1.0
144
0.0
144
0.0
144
0.0
144
0.0
144
1.0
147
0.0208333333333333
147
0.0
147
0.0
147
0.0
147
0.0
147
0.0208333333333333
147
0.0
147
0.0
147
0.0
147
0.0
147
1.0
147
0.0
147
0.0
147
0.0
147
0.0
147
1.0
  0
MLEADERSTYLE
  5
26B
102
{ACAD_XDICTIONARY
360
730
102
}
102
{ACAD_REACTORS
330
26A
102
}
330
26A
100
AcDbMLeaderStyle
170
     2
171
     1
172
     0
 90
        2
 40
0.0
 41
0.0
173
     1
 91
-1056964608
340
14
 92
       -2
290
     1
 42
0.09
291
     1
 43
0.36
  3
Standard
 44
0.18
300

342
11
174
     1
178
     6
175
     1
176
     0
 93
-1056964608
 45
0.18
292
     0
297
     0
 46
0.18
 94
-1056964608
 47
1.0
 49
1.0
140
1.0
293
     1
141
0.0
294
     1
177
     0
142
1.0
295
     0
296
     0
143
0.125
1001
ACAD_MLEADERVER
1070
     2
  0
MLINESTYLE
  5
18
102
{ACAD_REACTORS
330
17
102
}
330
17
100
AcDbMlineStyle
  2
STANDARD
 70
     0
  3

 62
   256
 51
90.0
 52
90.0
 71
     2
 49
0.5
 62
   256
  6
BYLAYER
 49
-0.5
 62
   256
  6
BYLAYER
  0
ACDBPLACEHOLDER
  5
F
102
{ACAD_REACTORS
330
E
102
}
330
E
  0
SCALE
  5
259
102
{ACAD_REACTORS
330
258
102
}
330
258
100
AcDbScale
 70
     0
300
1:1
140
1.0
141
1.0
290
     1
  0
SCALE
  5
25A
102
{ACAD_REACTORS
330
258
102
}
330
258
100
AcDbScale
 70
     0
300
1/128" = 1'-0"
140
0.0078125
141
12.0
290
     0
  0
SCALE
  5
25B
102
{ACAD_REACTORS
330
258
102
}
330
258
100
AcDbScale
 70
     0
300
1/64" = 1'-0"
140
0.015625
141
12.0
290
     0
  0
SCALE
  5
25C
102
{ACAD_REACTORS
330
258
102
}
330
258
100
AcDbScale
 70
     0
300
1/32" = 1'-0"
140
0.03125
141
12.0
290
     0
  0
SCALE
  5
25D
102
{ACAD_REACTORS
330
258
102
}
330
258
100
AcDbScale
 70
     0
300
1/16" = 1'-0"
140
0.0625
141
12.0
290
     0
  0
SCALE
  5
25E
102
{ACAD_REACTORS
330
258
102
}
330
258
100
AcDbScale
 70
     0
300
3/32" = 1'-0"
140
0.09375
141
12.0
290
     0
  0
SCALE
  5
25F
102
{ACAD_REACTORS
330
258
102
}
330
258
100
AcDbScale
 70
     0
300
1/8" = 1'-0"
140
0.125
141
12.0
290
     0
  0
SCALE
  5
260
102
{ACAD_REACTORS
330
258
102
}
330
258
100
AcDbScale
 70
     0
300
3/16" = 1'-0"
140
0.1875
141
12.0
290
     0
  0
SCALE
  5
261
102
{ACAD_REACTORS
330
258
102
}
330
258
100
AcDbScale
 70
     0
300
1/4" = 1'-0"
140
0.25
141
12.0
290
     0
  0
SCALE
  5
262
102
{ACAD_REACTORS
330
258
102
}
330
258
100
AcDbScale
 70
     0
300
3/8" = 1'-0"
140
0.375
141
12.0
290
     0
  0
SCALE
  5
263
102
{ACAD_REACTORS
330
258
102
}
330
258
100
AcDbScale
 70
     0
300
1/2" = 1'-0"
140
0.5
141
12.0
290
     0
  0
SCALE
  5
264
102
{ACAD_REACTORS
330
258
102
}
330
258
100
AcDbScale
 70
     0
300
3/4" = 1'-0"
140
0.75
141
12.0
290
     0
  0
SCALE
  5
265
102
{ACAD_REACTORS
330
258
102
}
330
258
100
AcDbScale
 70
     0
300
1" = 1'-0"
140
1.0
141
12.0
290
     0
  0
SCALE
  5
266
102
{ACAD_REACTORS
330
258
102
}
330
258
100
AcDbScale
 70
     0
300
1-1/2" = 1'-0"
140
1.5
141
12.0
290
     0
  0
SCALE
  5
267
102
{ACAD_REACTORS
330
258
102
}
330
258
100
AcDbScale
 70
     0
300
3" = 1'-0"
140
3.0
141
12.0
290
     0
  0
SCALE
  5
268
102
{ACAD_REACTORS
330
258
102
}
330
258
100
AcDbScale
 70
     0
300
6" = 1'-0"
140
6.0
141
12.0
290
     0
  0
SCALE
  5
269
102
{ACAD_REACTORS
330
258
102
}
330
258
100
AcDbScale
 70
     0
300
1'-0" = 1'-0"
140
12.0
141
12.0
290
     0
  0
ACDBSECTIONVIEWSTYLE
  5
26E
102
{ACAD_REACTORS
330
26C
102
}
330
26C
100
AcDbModelDocViewStyle
 70
     0
  3
Imperial24
290
     0
100
AcDbSectionViewStyle
 70
     0
 71
     0
 90
       78
 71
     1
340
11
 40
0.24
340
0
340
0
 40
0.24
300
I, O, Q, S, X, Z
 40
0.48
 90
        3
 40
0.18
 90
        1
 71
     2
340
26D
 90
       25
340
16
 90
       50
 40
0.24
 40
0.0
 40
0.24
 71
     3
340
11
 40
0.24
 90
        1
 40
0.75
 90
        1
300
%<\AcVar ViewType \f "%tc1">% %<\AcVar ViewSectionStartId>%-%<\AcVar ViewSectionEndId>%\PSCALE %<\AcVar ViewScale \f "%sn">%
 71
     4
300
ANSI31
 40
1.0
 90
        0
290
     0
290
     0
 90
        6
 40
0.0
 40
1.570796326794896
 40
0.2617993877991494
 40
1.308996938995747
 40
-0.2617993877991494
 40
1.832595714594046
  0
TABLESTYLE
  5
257
102
{ACAD_XDICTIONARY
360
6F1
102
}
102
{ACAD_REACTORS
330
256
102
}
330
256
100
AcDbTableStyle
  3
Standard
 70
     0
 71
     0
 40
0.06
 41
0.06
280
     0
281
     0
  7
Standard
140
0.18
170
     2
 62
     0
 63
     7
283
     0
274
    -2
284
     1
 64
     0
275
    -2
285
     1
 65
     0
276
    -2
286
     1
 66
     0
277
    -2
287
     1
 67
     0
278
    -2
288
     1
 68
     0
279
    -2
289
     1
 69
     0
  7
Standard
140
0.25
170
     5
 62
     0
 63
     7
283
     0
274
    -2
284
     1
 64
     0
275
    -2
285
     1
 65
     0
276
    -2
286
     1
 66
     0
277
    -2
287
     1
 67
     0
278
    -2
288
     1
 68
     0
279
    -2
289
     1
 69
     0
  7
Standard
140
0.18
170
     5
 62
     0
 63
     7
283
     0
274
    -2
284
     1
 64
     0
275
    -2
285
     1
 65
     0
276
    -2
286
     1
 66
     0
277
    -2
287
     1
 67
     0
278
    -2
288
     1
 68
     0
279
    -2
289
     1
 69
     0
  0
VISUALSTYLE
  5
242
102
{ACAD_XDICTIONARY
360
708
102
}
102
{ACAD_REACTORS
330
23C
102
}
330
23C
100
AcDbVisualStyle
  2
2dWireframe
 70
     4
 71
     0
 72
     2
 73
     0
 90
        0
 40
-0.6
 41
-30.0
 62
     5
 63
     7
 74
     1
 91
        4
 64
     7
 65
   257
 75
     1
175
     1
 42
1.0
 92
        0
 66
   257
 43
1.0
 76
     1
 77
     6
 78
     2
 67
     7
 79
     5
170
     0
171
     0
290
     0
174
     0
 93
        1
 44
0.0
173
     0
291
     0
 45
0.0
1001
ACAD
1000
AcDbSavedByObjectVersion
1070
     0
  0
VISUALSTYLE
  5
241
102
{ACAD_XDICTIONARY
360
706
102
}
102
{ACAD_REACTORS
330
23C
102
}
330
23C
100
AcDbVisualStyle
  2
Basic
 70
     7
 71
     1
 72
     0
 73
     1
 90
        0
 40
-0.6
 41
-30.0
 62
     5
 63
     7
 74
     0
 91
        4
 64
     7
 65
   257
 75
     1
175
     1
 42
1.0
 92
        8
 66
     7
 43
1.0
 76
     1
 77
     6
 78
     2
 67
     7
 79
     5
170
     0
171
     0
290
     0
174
     0
 93
        1
 44
0.0
173
     0
291
     1
 45
0.0
1001
ACAD
1000
AcDbSavedByObjectVersion
1070
     0
  0
VISUALSTYLE
  5
248
102
{ACAD_XDICTIONARY
360
714
102
}
102
{ACAD_REACTORS
330
23C
102
}
330
23C
100
AcDbVisualStyle
  2
Brighten
 70
    12
 71
     2
 72
     2
 73
     0
 90
        0
 40
-0.6
 41
-30.0
 62
     5
 63
     7
 74
     1
 91
        4
 64
     7
 65
   257
 75
     1
175
     1
 42
1.0
 92
        8
 66
     7
 43
1.0
 76
     1
 77
     6
 78
     2
 67
     7
 79
     5
170
     0
171
     0
290
     0
174
     0
 93
        1
 44
50.0
173
     0
291
     1
 45
0.0
1001
ACAD
1000
AcDbSavedByObjectVersion
1070
     0
  0
VISUALSTYLE
  5
24C
102
{ACAD_XDICTIONARY
360
71C
102
}
102
{ACAD_REACTORS
330
23C
102
}
330
23C
100
AcDbVisualStyle
  2
ColorChange
 70
    16
 71
     2
 72
     2
 73
     3
 90
        0
 40
-0.6
 41
-30.0
 62
     5
 63
     8
 74
     1
 91
        4
 64
     7
 65
   257
 75
     1
175
     1
 42
1.0
 92
        8
 66
     8
 43
1.0
 76
     1
 77
     6
 78
     2
 67
     7
 79
     5
170
     0
171
     0
290
     0
174
     0
 93
        1
 44
0.0
173
     0
291
     1
 45
0.0
1001
ACAD
1000
AcDbSavedByObjectVersion
1070
     0
  0
VISUALSTYLE
  5
245
102
{ACAD_XDICTIONARY
360
70E
102
}
102
{ACAD_REACTORS
330
23C
102
}
330
23C
100
AcDbVisualStyle
  2
Conceptual
 70
     9
 71
     3
 72
     2
 73
     0
 90
        0
 40
-0.6
 41
-30.0
 62
     5
 63
     7
 74
     2
 91
        2
 64
     7
 65
   257
 75
     1
175
     1
 42
179.0
 92
        8
 66
     7
 43
1.0
 76
     1
 77
     6
 78
     2
 67
     7
 79
     3
170
     0
171
     0
290
     0
174
     0
 93
        1
 44
0.0
173
     0
291
     0
 45
0.0
1001
ACAD
1000
AcDbSavedByObjectVersion
1070
     0
  0
VISUALSTYLE
  5
247
102
{ACAD_XDICTIONARY
360
712
102
}
102
{ACAD_REACTORS
330
23C
102
}
330
23C
100
AcDbVisualStyle
  2
Dim
 70
    11
 71
     2
 72
     2
 73
     0
 90
        0
 40
-0.6
 41
-30.0
 62
     5
 63
     7
 74
     1
 91
        4
 64
     7
 65
   257
 75
     1
175
     1
 42
1.0
 92
        8
 66
     7
 43
1.0
 76
     1
 77
     6
 78
     2
 67
     7
 79
     5
170
     0
171
     0
290
     0
174
     0
 93
        1
 44
-50.0
173
     0
291
     1
 45
0.0
1001
ACAD
1000
AcDbSavedByObjectVersion
1070
     0
  0
VISUALSTYLE
  5
254
102
{ACAD_XDICTIONARY
360
72C
102
}
102
{ACAD_REACTORS
330
23C
102
}
330
23C
100
AcDbVisualStyle
  2
EdgeColorOff
 70
    22
 71
     2
 72
     2
 73
     0
 90
        0
 40
-0.6
 41
-30.0
 62
     5
 63
     7
 74
     1
 91
        4
 64
     7
 65
   257
 75
     1
175
     1
 42
1.0
 92
        8
 66
     7
 43
1.0
 76
     1
 77
     6
 78
     2
 67
     7
 79
     5
170
     0
171
     0
290
     0
174
     0
 93
        1
 44
0.0
173
     0
291
     1
 45
0.0
1001
ACAD
1000
AcDbSavedByObjectVersion
1070
     0
  0
VISUALSTYLE
  5
24B
102
{ACAD_XDICTIONARY
360
71A
102
}
102
{ACAD_REACTORS
330
23C
102
}
330
23C
100
AcDbVisualStyle
  2
Facepattern
 70
    15
 71
     2
 72
     2
 73
     0
 90
        0
 40
-0.6
 41
-30.0
 62
     5
 63
     7
 74
     1
 91
        4
 64
     7
 65
   257
 75
     1
175
     1
 42
1.0
 92
        8
 66
     7
 43
1.0
 76
     1
 77
     6
 78
     2
 67
     7
 79
     5
170
     0
171
     0
290
     0
174
     0
 93
        1
 44
0.0
173
     0
291
     1
 45
0.0
1001
ACAD
1000
AcDbSavedByObjectVersion
1070
     0
  0
VISUALSTYLE
  5
23D
102
{ACAD_XDICTIONARY
360
6FE
102
}
102
{ACAD_REACTORS
330
23C
102
}
330
23C
100
AcDbVisualStyle
  2
Flat
 70
     0
 71
     2
 72
     1
 73
     1
 90
        2
 40
-0.6
 41
30.0
 62
     5
 63
     7
 74
     0
 91
        0
 64
     7
 65
   257
 75
     1
175
     1
 42
1.0
 92
        8
 66
     7
 43
1.0
 76
     1
 77
     6
 78
     2
 67
     7
 79
     5
170
     0
171
     0
290
     0
174
     0
 93
       13
 44
0.0
173
     0
291
     1
 45
0.0
1001
ACAD
1000
AcDbSavedByObjectVersion
1070
     0
  0
VISUALSTYLE
  5
23E
102
{ACAD_XDICTIONARY
360
700
102
}
102
{ACAD_REACTORS
330
23C
102
}
330
23C
100
AcDbVisualStyle
  2
FlatWithEdges
 70
     1
 71
     2
 72
     1
 73
     1
 90
        2
 40
-0.6
 41
30.0
 62
     5
 63
     7
 74
     1
 91
        0
 64
     7
 65
   257
 75
     1
175
     1
 42
1.0
 92
        0
 66
   257
 43
1.0
 76
     1
 77
     6
 78
     2
 67
     7
 79
     5
170
     0
171
     0
290
     0
174
     0
 93
       13
 44
0.0
173
     0
291
     1
 45
0.0
1001
ACAD
1000
AcDbSavedByObjectVersion
1070
     0
  0
VISUALSTYLE
  5
23F
102
{ACAD_XDICTIONARY
360
702
102
}
102
{ACAD_REACTORS
330
23C
102
}
330
23C
100
AcDbVisualStyle
  2
Gouraud
 70
     2
 71
     2
 72
     2
 73
     1
 90
        2
 40
-0.6
 41
30.0
 62
     5
 63
     7
 74
     0
 91
        0
 64
     7
 65
   257
 75
     1
175
     1
 42
1.0
 92
        0
 66
     7
 43
1.0
 76
     1
 77
     6
 78
     2
 67
     7
 79
     5
170
     0
171
     0
290
     0
174
     0
 93
       13
 44
0.0
173
     0
291
     1
 45
0.0
1001
ACAD
1000
AcDbSavedByObjectVersion
1070
     0
  0
VISUALSTYLE
  5
240
102
{ACAD_XDICTIONARY
360
704
102
}
102
{ACAD_REACTORS
330
23C
102
}
330
23C
100
AcDbVisualStyle
  2
GouraudWithEdges
 70
     3
 71
     2
 72
     2
 73
     1
 90
        2
 40
-0.6
 41
30.0
 62
     5
 63
     7
 74
     1
 91
        0
 64
     7
 65
   257
 75
     1
175
     1
 42
1.0
 92
        0
 66
   257
 43
1.0
 76
     1
 77
     6
 78
     2
 67
     7
 79
     5
170
     0
171
     0
290
     0
174
     0
 93
       13
 44
0.0
173
     0
291
     1
 45
0.0
1001
ACAD
1000
AcDbSavedByObjectVersion
1070
     0
  0
VISUALSTYLE
  5
244
102
{ACAD_XDICTIONARY
360
70C
102
}
102
{ACAD_REACTORS
330
23C
102
}
330
23C
100
AcDbVisualStyle
  2
Hidden
 70
     6
 71
     1
 72
     2
 73
     2
 90
        0
 40
-0.6
 41
-30.0
 62
     5
 63
     7
 74
     2
 91
        2
 64
     7
 65
   257
 75
     2
175
     1
 42
40.0
 92
        0
 66
   257
 43
1.0
 76
     1
 77
     6
 78
     2
 67
     7
 79
     3
170
     0
171
     0
290
     0
174
     0
 93
        1
 44
0.0
173
     0
291
     0
 45
0.0
1001
ACAD
1000
AcDbSavedByObjectVersion
1070
     0
  0
VISUALSTYLE
  5
252
102
{ACAD_XDICTIONARY
360
728
102
}
102
{ACAD_REACTORS
330
23C
102
}
330
23C
100
AcDbVisualStyle
  2
JitterOff
 70
    20
 71
     2
 72
     2
 73
     0
 90
        0
 40
-0.6
 41
-30.0
 62
     5
 63
     7
 74
     1
 91
        4
 64
     7
 65
   257
 75
     1
175
     1
 42
1.0
 92
       10
 66
     7
 43
1.0
 76
     1
 77
     6
 78
     2
 67
     7
 79
     5
170
     0
171
     0
290
     0
174
     0
 93
        1
 44
0.0
173
     0
291
     1
 45
0.0
1001
ACAD
1000
AcDbSavedByObjectVersion
1070
     0
  0
VISUALSTYLE
  5
24A
102
{ACAD_XDICTIONARY
360
718
102
}
102
{ACAD_REACTORS
330
23C
102
}
330
23C
100
AcDbVisualStyle
  2
Linepattern
 70
    14
 71
     2
 72
     2
 73
     0
 90
        0
 40
-0.6
 41
-30.0
 62
     5
 63
     7
 74
     1
 91
        4
 64
     7
 65
   257
 75
     7
175
     7
 42
1.0
 92
        8
 66
     7
 43
1.0
 76
     1
 77
     6
 78
     2
 67
     7
 79
     5
170
     0
171
     0
290
     0
174
     0
 93
        1
 44
0.0
173
     0
291
     1
 45
0.0
1001
ACAD
1000
AcDbSavedByObjectVersion
1070
     0
  0
VISUALSTYLE
  5
253
102
{ACAD_XDICTIONARY
360
72A
102
}
102
{ACAD_REACTORS
330
23C
102
}
330
23C
100
AcDbVisualStyle
  2
OverhangOff
 70
    21
 71
     2
 72
     2
 73
     0
 90
        0
 40
-0.6
 41
-30.0
 62
     5
 63
     7
 74
     1
 91
        4
 64
     7
 65
   257
 75
     1
175
     1
 42
1.0
 92
        9
 66
     7
 43
1.0
 76
     1
 77
     6
 78
     2
 67
     7
 79
     5
170
     0
171
     0
290
     0
174
     0
 93
        1
 44
0.0
173
     0
291
     1
 45
0.0
1001
ACAD
1000
AcDbSavedByObjectVersion
1070
     0
  0
VISUALSTYLE
  5
246
102
{ACAD_XDICTIONARY
360
710
102
}
102
{ACAD_REACTORS
330
23C
102
}
330
23C
100
AcDbVisualStyle
  2
Realistic
 70
     8
 71
     2
 72
     3
 73
     0
 90
        2
 40
-0.6
 41
30.0
 62
     5
 63
     7
 74
     0
 91
        0
 64
     7
 65
   257
 75
     1
175
     1
 42
1.0
 92
        8
 66
   257
 43
1.0
 76
     1
 77
     6
 78
     2
 67
     7
 79
     3
170
     0
171
     0
290
     0
174
     0
 93
       13
 44
0.0
173
     0
291
     0
 45
0.0
1001
ACAD
1000
AcDbSavedByObjectVersion
1070
     0
  0
VISUALSTYLE
  5
251
102
{ACAD_XDICTIONARY
360
726
102
}
102
{ACAD_REACTORS
330
23C
102
}
330
23C
100
AcDbVisualStyle
  2
Shaded
 70
    27
 71
     2
 72
     2
 73
     1
 90
        2
 40
-0.6
 41
30.0
 62
     5
 63
     7
 74
     0
 91
        4
 64
     7
 65
   257
 75
     1
175
     1
 42
1.0
 92
        8
 66
   257
 43
1.0
 76
     1
 77
     6
 78
     2
 67
     8
 79
     3
170
     0
171
     0
290
     0
174
     0
 93
        5
 44
0.0
173
     0
291
     0
 45
0.0
1001
ACAD
1000
AcDbSavedByObjectVersion
1070
     0
  0
VISUALSTYLE
  5
250
102
{ACAD_XDICTIONARY
360
724
102
}
102
{ACAD_REACTORS
330
23C
102
}
330
23C
100
AcDbVisualStyle
  2
Shaded with edges
 70
    26
 71
     2
 72
     2
 73
     1
 90
        2
 40
-0.6
 41
30.0
 62
     5
 63
     7
 74
     1
 91
       10
 64
     7
 65
   257
 75
     2
175
     1
 42
1.0
 92
        8
 66
   257
 43
1.0
 76
     1
 77
     6
 78
     2
 67
     7
 79
     3
170
     0
171
     0
290
     0
174
     0
 93
        5
 44
0.0
173
     0
291
     0
 45
0.0
1001
ACAD
1000
AcDbSavedByObjectVersion
1070
     0
  0
VISUALSTYLE
  5
24D
102
{ACAD_XDICTIONARY
360
71E
102
}
102
{ACAD_REACTORS
330
23C
102
}
330
23C
100
AcDbVisualStyle
  2
Shades of Gray
 70
    23
 71
     2
 72
     2
 73
     3
 90
        0
 40
-0.6
 41
-30.0
 62
     5
 63
     7
 74
     2
 91
        2
 64
     7
 65
     7
 75
     1
175
     1
 42
40.0
 92
        8
 66
     7
 43
1.0
 76
     1
 77
     6
 78
     2
 67
     7
 79
     3
170
     0
171
     0
290
     0
174
     0
 93
        1
 44
0.0
173
     0
291
     0
 45
0.0
1001
ACAD
1000
AcDbSavedByObjectVersion
1070
     0
  0
VISUALSTYLE
  5
24E
102
{ACAD_XDICTIONARY
360
720
102
}
102
{ACAD_REACTORS
330
23C
102
}
330
23C
100
AcDbVisualStyle
  2
Sketchy
 70
    24
 71
     1
 72
     2
 73
     2
 90
        0
 40
-0.6
 41
-30.0
 62
     5
 63
     7
 74
     2
 91
        2
 64
     7
 65
     7
 75
     1
175
     1
 42
40.0
 92
       11
 66
     7
 43
1.0
 76
     1
 77
     6
 78
     2
 67
     7
 79
     6
170
     0
171
     0
290
     0
174
     0
 93
        1
 44
0.0
173
     0
291
     0
 45
0.0
1001
ACAD
1000
AcDbSavedByObjectVersion
1070
     0
  0
VISUALSTYLE
  5
249
102
{ACAD_XDICTIONARY
360
716
102
}
102
{ACAD_REACTORS
330
23C
102
}
330
23C
100
AcDbVisualStyle
  2
Thicken
 70
    13
 71
     2
 72
     2
 73
     0
 90
        0
 40
-0.6
 41
-30.0
 62
     5
 63
     7
 74
     1
 91
        4
 64
     7
 65
   257
 75
     1
175
     1
 42
1.0
 92
       12
 66
     7
 43
1.0
 76
     1
 77
     6
 78
     2
 67
     7
 79
     5
170
     0
171
     0
290
     0
174
     0
 93
        1
 44
0.0
173
     0
291
     1
 45
0.0
1001
ACAD
1000
AcDbSavedByObjectVersion
1070
     0
  0
VISUALSTYLE
  5
243
102
{ACAD_XDICTIONARY
360
70A
102
}
102
{ACAD_REACTORS
330
23C
102
}
330
23C
100
AcDbVisualStyle
  2
Wireframe
 70
     5
 71
     0
 72
     2
 73
     0
 90
        0
 40
-0.6
 41
-30.0
 62
     5
 63
     7
 74
     1
 91
        4
 64
     7
 65
   257
 75
     1
175
     1
 42
1.0
 92
        0
 66
   257
 43
1.0
 76
     1
 77
     6
 78
     2
 67
     7
 79
     3
170
     0
171
     0
290
     0
174
     0
 93
        1
 44
0.0
173
     0
291
     0
 45
0.0
1001
ACAD
1000
AcDbSavedByObjectVersion
1070
     0
  0
VISUALSTYLE
  5
24F
102
{ACAD_XDICTIONARY
360
722
102
}
102
{ACAD_REACTORS
330
23C
102
}
330
23C
100
AcDbVisualStyle
  2
X-Ray
 70
    25
 71
     2
 72
     2
 73
     1
 90
        1
 40
0.5
 41
-30.0
 62
     5
 63
     7
 74
     1
 91
        0
 64
     7
 65
   257
 75
     1
175
     1
 42
1.0
 92
        8
 66
     7
 43
1.0
 76
     1
 77
     6
 78
     2
 67
     7
 79
     3
170
     0
171
     0
290
     0
174
     0
 93
       13
 44
0.0
173
     0
291
     0
 45
0.0
1001
ACAD
1000
AcDbSavedByObjectVersion
1070
     0
  0
DICTIONARYVAR
  5
6E9
102
{ACAD_REACTORS
330
6E4
102
}
330
6E4
100
DictionaryVariables
280
     0
  1
1:1
  0
DICTIONARYVAR
  5
6E6
102
{ACAD_REACTORS
330
6E4
102
}
330
6E4
100
DictionaryVariables
280
     0
  1
STANDARD
  0
DICTIONARYVAR
  5
6E5
102
{ACAD_REACTORS
330
6E4
102
}
330
6E4
100
DictionaryVariables
280
     0
  1
STANDARD
  0
DICTIONARYVAR
  5
6E7
102
{ACAD_REACTORS
330
6E4
102
}
330
6E4
100
DictionaryVariables
280
     0
  1
Imperial24
  0
DICTIONARYVAR
  5
6E8
102
{ACAD_REACTORS
330
6E4
102
}
330
6E4
100
DictionaryVariables
280
     0
  1
Imperial24
  0
DICTIONARYVAR
  5
6F0
102
{ACAD_REACTORS
330
6E4
102
}
330
6E4
100
DictionaryVariables
280
     0
  1
2
  0
DICTIONARYVAR
  5
6EE
102
{ACAD_REACTORS
330
6E4
102
}
330
6E4
100
DictionaryVariables
280
     0
  1
2
  0
DICTIONARYVAR
  5
6EC
102
{ACAD_REACTORS
330
6E4
102
}
330
6E4
100
DictionaryVariables
280
     0
  1
1
  0
DICTIONARYVAR
  5
6EB
102
{ACAD_REACTORS
330
6E4
102
}
330
6E4
100
DictionaryVariables
280
     0
  1
0
  0
DICTIONARYVAR
  5
6EF
102
{ACAD_REACTORS
330
6E4
102
}
330
6E4
100
DictionaryVariables
280
     0
  1
1
  0
DICTIONARYVAR
  5
6EA
102
{ACAD_REACTORS
330
6E4
102
}
330
6E4
100
DictionaryVariables
280
     0
  1
127
  0
DICTIONARYVAR
  5
6ED
102
{ACAD_REACTORS
330
6E4
102
}
330
6E4
100
DictionaryVariables
280
     0
  1
0
  0
DICTIONARY
  5
2A8
102
{ACAD_REACTORS
330
2A1
102
}
330
2A1
100
AcDbDictionary
281
     1
  0
DICTIONARY
  5
6F7
330
1C
100
AcDbDictionary
280
     1
281
     1
  3
ACAD_XREC_ROUNDTRIP
360
6F8
  0
DICTIONARY
  5
6F9
330
1E
100
AcDbDictionary
280
     1
281
     1
  3
ACAD_XREC_ROUNDTRIP
360
6FA
  0
DICTIONARY
  5
22D
330
22C
100
AcDbDictionary
280
     1
281
     1
  3
ACAD_XREC_ROUNDTRIP
360
6FC
  3
BUMPTILE
360
22F
  3
DIFFUSETILE
360
22E
  3
OPACITYTILE
360
232
  3
REFLECTIONTILE
360
231
  3
REFRACTIONTILE
360
233
  3
SPECULARTILE
360
230
  0
DICTIONARY
  5
225
330
224
100
AcDbDictionary
280
     1
281
     1
  3
ACAD_XREC_ROUNDTRIP
360
6FB
  3
BUMPTILE
360
227
  3
DIFFUSETILE
360
226
  3
OPACITYTILE
360
22A
  3
REFLECTIONTILE
360
229
  3
REFRACTIONTILE
360
22B
  3
SPECULARTILE
360
228
  0
DICTIONARY
  5
235
330
234
100
AcDbDictionary
280
     1
281
     1
  3
ACAD_XREC_ROUNDTRIP
360
6FD
  3
BUMPTILE
360
237
  3
DIFFUSETILE
360
236
  3
OPACITYTILE
360
23A
  3
REFLECTIONTILE
360
239
  3
REFRACTIONTILE
360
23B
  3
SPECULARTILE
360
238
  0
DICTIONARY
  5
730
330
26B
100
AcDbDictionary
280
     1
281
     1
  3
ACAD_XREC_ROUNDTRIP
360
731
  0
DICTIONARY
  5
6F1
330
257
100
AcDbDictionary
280
     1
281
     1
  3
ACAD_ROUNDTRIP_2008_TABLESTYLE_CELLSTYLEMAP
360
6F2
  3
ACAD_XREC_ROUNDTRIP
360
72E
  0
DICTIONARY
  5
708
330
242
100
AcDbDictionary
280
     1
281
     1
  3
ACAD_XREC_ROUNDTRIP
360
709
  0
DICTIONARY
  5
706
330
241
100
AcDbDictionary
280
     1
281
     1
  3
ACAD_XREC_ROUNDTRIP
360
707
  0
DICTIONARY
  5
714
330
248
100
AcDbDictionary
280
     1
281
     1
  3
ACAD_XREC_ROUNDTRIP
360
715
  0
DICTIONARY
  5
71C
330
24C
100
AcDbDictionary
280
     1
281
     1
  3
ACAD_XREC_ROUNDTRIP
360
71D
  0
DICTIONARY
  5
70E
330
245
100
AcDbDictionary
280
     1
281
     1
  3
ACAD_XREC_ROUNDTRIP
360
70F
  0
DICTIONARY
  5
712
330
247
100
AcDbDictionary
280
     1
281
     1
  3
ACAD_XREC_ROUNDTRIP
360
713
  0
DICTIONARY
  5
72C
330
254
100
AcDbDictionary
280
     1
281
     1
  3
ACAD_XREC_ROUNDTRIP
360
72D
  0
DICTIONARY
  5
71A
330
24B
100
AcDbDictionary
280
     1
281
     1
  3
ACAD_XREC_ROUNDTRIP
360
71B
  0
DICTIONARY
  5
6FE
330
23D
100
AcDbDictionary
280
     1
281
     1
  3
ACAD_XREC_ROUNDTRIP
360
6FF
  0
DICTIONARY
  5
700
330
23E
100
AcDbDictionary
280
     1
281
     1
  3
ACAD_XREC_ROUNDTRIP
360
701
  0
DICTIONARY
  5
702
330
23F
100
AcDbDictionary
280
     1
281
     1
  3
ACAD_XREC_ROUNDTRIP
360
703
  0
DICTIONARY
  5
704
330
240
100
AcDbDictionary
280
     1
281
     1
  3
ACAD_XREC_ROUNDTRIP
360
705
  0
DICTIONARY
  5
70C
330
244
100
AcDbDictionary
280
     1
281
     1
  3
ACAD_XREC_ROUNDTRIP
360
70D
  0
DICTIONARY
  5
728
330
252
100
AcDbDictionary
280
     1
281
     1
  3
ACAD_XREC_ROUNDTRIP
360
729
  0
DICTIONARY
  5
718
330
24A
100
AcDbDictionary
280
     1
281
     1
  3
ACAD_XREC_ROUNDTRIP
360
719
  0
DICTIONARY
  5
72A
330
253
100
AcDbDictionary
280
     1
281
     1
  3
ACAD_XREC_ROUNDTRIP
360
72B
  0
DICTIONARY
  5
710
330
246
100
AcDbDictionary
280
     1
281
     1
  3
ACAD_XREC_ROUNDTRIP
360
711
  0
DICTIONARY
  5
726
330
251
100
AcDbDictionary
280
     1
281
     1
  3
ACAD_XREC_ROUNDTRIP
360
727
  0
DICTIONARY
  5
724
330
250
100
AcDbDictionary
280
     1
281
     1
  3
ACAD_XREC_ROUNDTRIP
360
725
  0
DICTIONARY
  5
71E
330
24D
100
AcDbDictionary
280
     1
281
     1
  3
ACAD_XREC_ROUNDTRIP
360
71F
  0
DICTIONARY
  5
720
330
24E
100
AcDbDictionary
280
     1
281
     1
  3
ACAD_XREC_ROUNDTRIP
360
721
  0
DICTIONARY
  5
716
330
249
100
AcDbDictionary
280
     1
281
     1
  3
ACAD_XREC_ROUNDTRIP
360
717
  0
DICTIONARY
  5
70A
330
243
100
AcDbDictionary
280
     1
281
     1
  3
ACAD_XREC_ROUNDTRIP
360
70B
  0
DICTIONARY
  5
722
330
24F
100
AcDbDictionary
280
     1
281
     1
  3
ACAD_XREC_ROUNDTRIP
360
723
  0
XRECORD
  5
6F8
102
{ACAD_REACTORS
330
6F7
102
}
330
6F7
100
AcDbXrecord
280
     1
102
SHADEPLOT
 70
     0
102
SHADEPLOTRESLEVEL
 70
     2
102
SHADEPLOTCUSTOMDPI
 70
   300
  0
XRECORD
  5
6FA
102
{ACAD_REACTORS
330
6F9
102
}
330
6F9
100
AcDbXrecord
280
     1
102
SHADEPLOT
 70
     0
102
SHADEPLOTRESLEVEL
 70
     2
102
SHADEPLOTCUSTOMDPI
 70
   300
  0
XRECORD
  5
6FC
102
{ACAD_REACTORS
330
22D
102
}
330
22D
100
AcDbXrecord
280
     1
102
MATERIAL
148
0.0
149
0.0
149
0.0
 93
        0
 94
      127
282
     0
 72
     0
 77
     0
171
     0
175
     0
179
     0
273
     0
  0
XRECORD
  5
22F
102
{ACAD_REACTORS
330
22D
102
}
330
22D
100
AcDbXrecord
280
     1
270
     1
271
     1
  0
XRECORD
  5
22E
102
{ACAD_REACTORS
330
22D
102
}
330
22D
100
AcDbXrecord
280
     1
270
     1
271
     1
  0
XRECORD
  5
232
102
{ACAD_REACTORS
330
22D
102
}
330
22D
100
AcDbXrecord
280
     1
270
     1
271
     1
  0
XRECORD
  5
231
102
{ACAD_REACTORS
330
22D
102
}
330
22D
100
AcDbXrecord
280
     1
270
     1
271
     1
  0
XRECORD
  5
233
102
{ACAD_REACTORS
330
22D
102
}
330
22D
100
AcDbXrecord
280
     1
270
     1
271
     1
  0
XRECORD
  5
230
102
{ACAD_REACTORS
330
22D
102
}
330
22D
100
AcDbXrecord
280
     1
270
     1
271
     1
  0
XRECORD
  5
6FB
102
{ACAD_REACTORS
330
225
102
}
330
225
100
AcDbXrecord
280
     1
102
MATERIAL
148
0.0
149
0.0
149
0.0
 93
        0
 94
      127
282
     0
 72
     0
 77
     0
171
     0
175
     0
179
     0
273
     0
  0
XRECORD
  5
227
102
{ACAD_REACTORS
330
225
102
}
330
225
100
AcDbXrecord
280
     1
270
     1
271
     1
  0
XRECORD
  5
226
102
{ACAD_REACTORS
330
225
102
}
330
225
100
AcDbXrecord
280
     1
270
     1
271
     1
  0
XRECORD
  5
22A
102
{ACAD_REACTORS
330
225
102
}
330
225
100
AcDbXrecord
280
     1
270
     1
271
     1
  0
XRECORD
  5
229
102
{ACAD_REACTORS
330
225
102
}
330
225
100
AcDbXrecord
280
     1
270
     1
271
     1
  0
XRECORD
  5
22B
102
{ACAD_REACTORS
330
225
102
}
330
225
100
AcDbXrecord
280
     1
270
     1
271
     1
  0
XRECORD
  5
228
102
{ACAD_REACTORS
330
225
102
}
330
225
100
AcDbXrecord
280
     1
270
     1
271
     1
  0
XRECORD
  5
6FD
102
{ACAD_REACTORS
330
235
102
}
330
235
100
AcDbXrecord
280
     1
102
MATERIAL
148
0.0
149
0.0
149
0.0
 93
        0
 94
      127
282
     0
 72
     0
 77
     0
171
     0
175
     0
179
     0
273
     0
  0
XRECORD
  5
237
102
{ACAD_REACTORS
330
235
102
}
330
235
100
AcDbXrecord
280
     1
270
     1
271
     1
  0
XRECORD
  5
236
102
{ACAD_REACTORS
330
235
102
}
330
235
100
AcDbXrecord
280
     1
270
     1
271
     1
  0
XRECORD
  5
23A
102
{ACAD_REACTORS
330
235
102
}
330
235
100
AcDbXrecord
280
     1
270
     1
271
     1
  0
XRECORD
  5
239
102
{ACAD_REACTORS
330
235
102
}
330
235
100
AcDbXrecord
280
     1
270
     1
271
     1
  0
XRECORD
  5
23B
102
{ACAD_REACTORS
330
235
102
}
330
235
100
AcDbXrecord
280
     1
270
     1
271
     1
  0
XRECORD
  5
238
102
{ACAD_REACTORS
330
235
102
}
330
235
100
AcDbXrecord
280
     1
270
     1
271
     1
  0
XRECORD
  5
731
102
{ACAD_REACTORS
330
730
102
}
330
730
100
AcDbXrecord
280
     1
102
ACAD_ROUNDTRIP_2012_MLEADER_STYLE
298
     1
  0
CELLSTYLEMAP
  5
6F2
102
{ACAD_REACTORS
330
6F1
102
}
330
6F1
100
AcDbCellStyleMap
 90
        3
300
CELLSTYLE
  1
TABLEFORMAT_BEGIN
 90
        5
170
     1
 91
        0
 92
    32768
 62
   257
 93
        1
300
CONTENTFORMAT
  1
CONTENTFORMAT_BEGIN
 90
        0
 91
        0
 92
      512
 93
        0
300

 40
0.0
140
1.0
 94
        5
 62
     0
340
11
144
0.25
309
CONTENTFORMAT_END
171
     0
 94
        0
309
TABLEFORMAT_END
  1
CELLSTYLE_BEGIN
 90
        1
 91
        1
300
_TITLE
309
CELLSTYLE_END
300
CELLSTYLE
  1
TABLEFORMAT_BEGIN
 90
        5
170
     1
 91
        0
 92
        0
 62
   257
 93
        1
300
CONTENTFORMAT
  1
CONTENTFORMAT_BEGIN
 90
        0
 91
        0
 92
      512
 93
        0
300

 40
0.0
140
1.0
 94
        5
 62
     0
340
11
144
0.18
309
CONTENTFORMAT_END
171
     0
 94
        0
309
TABLEFORMAT_END
  1
CELLSTYLE_BEGIN
 90
        2
 91
        1
300
_HEADER
309
CELLSTYLE_END
300
CELLSTYLE
  1
TABLEFORMAT_BEGIN
 90
        5
170
     1
 91
        0
 92
        0
 62
   257
 93
        1
300
CONTENTFORMAT
  1
CONTENTFORMAT_BEGIN
 90
        0
 91
        0
 92
      512
 93
        0
300

 40
0.0
140
1.0
 94
        2
 62
     0
340
11
144
0.18
309
CONTENTFORMAT_END
171
     0
 94
        0
309
TABLEFORMAT_END
  1
CELLSTYLE_BEGIN
 90
        3
 91
        2
300
_DATA
309
CELLSTYLE_END
  0
XRECORD
  5
72E
102
{ACAD_REACTORS
330
6F1
102
}
330
6F1
100
AcDbXrecord
280
     1
102
ACAD_ROUNDTRIP_PRE2007_TABLESTYLE
 90
      512
 91
        0
  1

 92
      512
 93
        0
  2

 94
      512
 95
        0
  3

  0
XRECORD
  5
709
102
{ACAD_REACTORS
330
708
102
}
330
708
100
AcDbXrecord
280
     1
102
RTVSPost2010Prop28
280
     1
102
RTVSPost2010PropOp28
 70
     1
102
RTVSPost2010Prop29
280
     1
102
RTVSPost2010PropOp29
 70
     1
102
RTVSPost2010Prop30
280
     0
102
RTVSPost2010PropOp30
 70
     1
102
RTVSPost2010Prop31
280
     0
102
RTVSPost2010PropOp31
 70
     1
102
RTVSPost2010Prop32
280
     0
102
RTVSPost2010PropOp32
 70
     1
102
RTVSPost2010Prop33
280
     0
102
RTVSPost2010PropOp33
 70
     1
102
RTVSPost2010Prop34
280
     0
102
RTVSPost2010PropOp34
 70
     1
102
RTVSPost2010Prop35
280
     0
102
RTVSPost2010PropOp35
 70
     1
102
RTVSPost2010Prop36
280
     0
102
RTVSPost2010PropOp36
 70
     1
102
RTVSPost2010Prop37
 90
       50
102
RTVSPost2010PropOp37
 70
     1
102
RTVSPost2010Prop38
140
0.0
102
RTVSPost2010PropOp38
 70
     1
102
RTVSPost2010Prop39
140
1.0
102
RTVSPost2010PropOp39
 70
     1
102
RTVSPost2010Prop40
 90
        0
102
RTVSPost2010PropOp40
 70
     1
102
RTVSPost2010Prop41ColorIndex
 90
       18
102
RTVSPost2010Prop41ColorRGB
 90
        0
102
RTVSPost2010PropOp41
 70
     1
102
RTVSPost2010Prop42
 90
       50
102
RTVSPost2010PropOp42
 70
     1
102
RTVSPost2010Prop43
 90
        3
102
RTVSPost2010PropOp43
 70
     1
102
RTVSPost2010Prop44ColorIndex
 90
        5
102
RTVSPost2010Prop44ColorRGB
 90
      255
102
RTVSPost2010PropOp44
 70
     1
102
RTVSPost2010Prop45
280
     0
102
RTVSPost2010PropOp45
 70
     1
102
RTVSPost2010Prop46
 90
       50
102
RTVSPost2010PropOp46
 70
     1
102
RTVSPost2010Prop47
 90
       50
102
RTVSPost2010PropOp47
 70
     1
102
RTVSPost2010Prop48
 90
       50
102
RTVSPost2010PropOp48
 70
     1
102
RTVSPost2010Prop49
280
     0
102
RTVSPost2010PropOp49
 70
     1
102
RTVSPost2010Prop50
 90
       50
102
RTVSPost2010PropOp50
 70
     1
102
RTVSPost2010Prop51ColorIndex
 90
      256
102
RTVSPost2010Prop51ColorRGB
 90
-16777216
102
RTVSPost2010PropOp51
 70
     0
102
RTVSPost2010Prop52
140
1.0
102
RTVSPost2010PropOp52
 70
     0
102
RTVSPost2010Prop53
 90
        2
102
RTVSPost2010PropOp53
 70
     1
102
RTVSPost2010Prop54
  1
strokes_ogs.tif
102
RTVSPost2010PropOp54
 70
     1
102
RTVSPost2010Prop55
280
     0
102
RTVSPost2010PropOp55
 70
     1
102
RTVSPost2010Prop56
140
1.0
102
RTVSPost2010PropOp56
 70
     1
102
RTVSPost2010Prop57
140
1.0
102
RTVSPost2010PropOp57
 70
     1
102
RTVSPropertyOp0
 70
     1
102
RTVSPropertyOp1
 70
     1
102
RTVSPropertyOp2
 70
     1
102
RTVSPropertyOp3
 70
     1
102
RTVSPropertyOp4
 70
     1
102
RTVSPropertyOp5
 70
     1
102
RTVSPropertyOp6
 70
     1
102
RTVSPropertyOp7
 70
     1
102
RTVSPropertyOp8
 70
     1
102
RTVSPropertyOp9
 70
     1
102
RTVSPropertyOp10
 70
     1
102
RTVSPropertyOp11
 70
     1
102
RTVSPropertyOp12
 70
     1
102
RTVSPropertyOp13
 70
     1
102
RTVSPropertyOp14
 70
     1
102
RTVSPropertyOp15
 70
     1
102
RTVSPropertyOp16
 70
     1
102
RTVSPropertyOp17
 70
     1
102
RTVSPropertyOp18
 70
     1
102
RTVSPropertyOp19
 70
     1
102
RTVSPropertyOp20
 70
     1
102
RTVSPropertyOp21
 70
     1
102
RTVSPropertyOp22
 70
     1
102
RTVSPropertyOp23
 70
     1
102
RTVSPropertyOp24
 70
     1
102
RTVSPropertyOp25
 70
     1
102
RTVSPropertyOp26
 70
     1
102
RTVSPropertyOp27
 70
     1
102
RTVSPropertyOp28
 70
     1
102
RTVSPropertyOp29
 70
     1
102
RTVSPropertyOp30
 70
     1
102
RTVSPropertyOp31
 70
     1
102
RTVSPropertyOp32
 70
     1
102
RTVSPropertyOp33
 70
     1
102
RTVSPropertyOp34
 70
     1
102
RTVSPropertyOp35
 70
     1
102
RTVSPropertyOp36
 70
     1
102
RTVSPropertyOp37
 70
     1
102
RTVSPropertyOp38
 70
     1
102
RTVSPropertyOp39
 70
     1
102
RTVSPropertyOp40
 70
     1
102
RTVSPropertyOp41
 70
     1
102
RTVSPropertyOp42
 70
     1
102
RTVSPropertyOp43
 70
     1
102
RTVSPropertyOp44
 70
     1
102
RTVSPropertyOp45
 70
     1
102
RTVSPropertyOp46
 70
     1
102
RTVSPropertyOp47
 70
     1
102
RTVSPropertyOp48
 70
     1
102
RTVSPropertyOp49
 70
     1
102
RTVSPropertyOp50
 70
     1
102
RTVSPropertyOp51
 70
     0
102
RTVSPropertyOp52
 70
     0
102
RTVSPropertyOp53
 70
     1
102
RTVSPropertyOp54
 70
     1
102
RTVSPropertyOp55
 70
     1
102
RTVSPropertyOp56
 70
     1
102
RTVSPropertyOp57
 70
     1
102
RTVSPropertyOp58
 70
     1
102
RTVSPropertyOp59
 70
     1
102
RTVSPropertyOp60
 70
     1
102
RTVSPropertyOp61
 70
     1
102
RTVSPropertyOp62
 70
     1
  0
XRECORD
  5
707
102
{ACAD_REACTORS
330
706
102
}
330
706
100
AcDbXrecord
280
     1
102
RTVSPost2010Prop28
280
     0
102
RTVSPost2010PropOp28
 70
     1
102
RTVSPost2010Prop29
280
     1
102
RTVSPost2010PropOp29
 70
     1
102
RTVSPost2010Prop30
280
     1
102
RTVSPost2010PropOp30
 70
     1
102
RTVSPost2010Prop31
280
     0
102
RTVSPost2010PropOp31
 70
     1
102
RTVSPost2010Prop32
280
     0
102
RTVSPost2010PropOp32
 70
     1
102
RTVSPost2010Prop33
280
     0
102
RTVSPost2010PropOp33
 70
     1
102
RTVSPost2010Prop34
280
     0
102
RTVSPost2010PropOp34
 70
     1
102
RTVSPost2010Prop35
280
     0
102
RTVSPost2010PropOp35
 70
     1
102
RTVSPost2010Prop36
280
     0
102
RTVSPost2010PropOp36
 70
     1
102
RTVSPost2010Prop37
 90
       50
102
RTVSPost2010PropOp37
 70
     1
102
RTVSPost2010Prop38
140
0.0
102
RTVSPost2010PropOp38
 70
     1
102
RTVSPost2010Prop39
140
1.0
102
RTVSPost2010PropOp39
 70
     1
102
RTVSPost2010Prop40
 90
        0
102
RTVSPost2010PropOp40
 70
     1
102
RTVSPost2010Prop41ColorIndex
 90
       18
102
RTVSPost2010Prop41ColorRGB
 90
        0
102
RTVSPost2010PropOp41
 70
     1
102
RTVSPost2010Prop42
 90
       50
102
RTVSPost2010PropOp42
 70
     1
102
RTVSPost2010Prop43
 90
        3
102
RTVSPost2010PropOp43
 70
     1
102
RTVSPost2010Prop44ColorIndex
 90
        5
102
RTVSPost2010Prop44ColorRGB
 90
      255
102
RTVSPost2010PropOp44
 70
     1
102
RTVSPost2010Prop45
280
     0
102
RTVSPost2010PropOp45
 70
     1
102
RTVSPost2010Prop46
 90
       50
102
RTVSPost2010PropOp46
 70
     1
102
RTVSPost2010Prop47
 90
       50
102
RTVSPost2010PropOp47
 70
     1
102
RTVSPost2010Prop48
 90
       50
102
RTVSPost2010PropOp48
 70
     1
102
RTVSPost2010Prop49
280
     0
102
RTVSPost2010PropOp49
 70
     1
102
RTVSPost2010Prop50
 90
       50
102
RTVSPost2010PropOp50
 70
     1
102
RTVSPost2010Prop51ColorIndex
 90
      256
102
RTVSPost2010Prop51ColorRGB
 90
-16777216
102
RTVSPost2010PropOp51
 70
     0
102
RTVSPost2010Prop52
140
1.0
102
RTVSPost2010PropOp52
 70
     0
102
RTVSPost2010Prop53
 90
        2
102
RTVSPost2010PropOp53
 70
     1
102
RTVSPost2010Prop54
  1
strokes_ogs.tif
102
RTVSPost2010PropOp54
 70
     1
102
RTVSPost2010Prop55
280
     0
102
RTVSPost2010PropOp55
 70
     1
102
RTVSPost2010Prop56
140
1.0
102
RTVSPost2010PropOp56
 70
     1
102
RTVSPost2010Prop57
140
1.0
102
RTVSPost2010PropOp57
 70
     1
102
RTVSPropertyOp0
 70
     1
102
RTVSPropertyOp1
 70
     1
102
RTVSPropertyOp2
 70
     1
102
RTVSPropertyOp3
 70
     1
102
RTVSPropertyOp4
 70
     1
102
RTVSPropertyOp5
 70
     1
102
RTVSPropertyOp6
 70
     1
102
RTVSPropertyOp7
 70
     1
102
RTVSPropertyOp8
 70
     1
102
RTVSPropertyOp9
 70
     1
102
RTVSPropertyOp10
 70
     1
102
RTVSPropertyOp11
 70
     1
102
RTVSPropertyOp12
 70
     1
102
RTVSPropertyOp13
 70
     1
102
RTVSPropertyOp14
 70
     1
102
RTVSPropertyOp15
 70
     1
102
RTVSPropertyOp16
 70
     1
102
RTVSPropertyOp17
 70
     1
102
RTVSPropertyOp18
 70
     1
102
RTVSPropertyOp19
 70
     1
102
RTVSPropertyOp20
 70
     1
102
RTVSPropertyOp21
 70
     1
102
RTVSPropertyOp22
 70
     1
102
RTVSPropertyOp23
 70
     1
102
RTVSPropertyOp24
 70
     1
102
RTVSPropertyOp25
 70
     1
102
RTVSPropertyOp26
 70
     1
102
RTVSPropertyOp27
 70
     1
102
RTVSPropertyOp28
 70
     1
102
RTVSPropertyOp29
 70
     1
102
RTVSPropertyOp30
 70
     1
102
RTVSPropertyOp31
 70
     1
102
RTVSPropertyOp32
 70
     1
102
RTVSPropertyOp33
 70
     1
102
RTVSPropertyOp34
 70
     1
102
RTVSPropertyOp35
 70
     1
102
RTVSPropertyOp36
 70
     1
102
RTVSPropertyOp37
 70
     1
102
RTVSPropertyOp38
 70
     1
102
RTVSPropertyOp39
 70
     1
102
RTVSPropertyOp40
 70
     1
102
RTVSPropertyOp41
 70
     1
102
RTVSPropertyOp42
 70
     1
102
RTVSPropertyOp43
 70
     1
102
RTVSPropertyOp44
 70
     1
102
RTVSPropertyOp45
 70
     1
102
RTVSPropertyOp46
 70
     1
102
RTVSPropertyOp47
 70
     1
102
RTVSPropertyOp48
 70
     1
102
RTVSPropertyOp49
 70
     1
102
RTVSPropertyOp50
 70
     1
102
RTVSPropertyOp51
 70
     0
102
RTVSPropertyOp52
 70
     0
102
RTVSPropertyOp53
 70
     1
102
RTVSPropertyOp54
 70
     1
102
RTVSPropertyOp55
 70
     1
102
RTVSPropertyOp56
 70
     1
102
RTVSPropertyOp57
 70
     1
102
RTVSPropertyOp58
 70
     1
102
RTVSPropertyOp59
 70
     1
102
RTVSPropertyOp60
 70
     1
102
RTVSPropertyOp61
 70
     1
102
RTVSPropertyOp62
 70
     1
  0
XRECORD
  5
715
102
{ACAD_REACTORS
330
714
102
}
330
714
100
AcDbXrecord
280
     1
102
RTVSPost2010Prop28
280
     0
102
RTVSPost2010PropOp28
 70
     1
102
RTVSPost2010Prop29
280
     1
102
RTVSPost2010PropOp29
 70
     1
102
RTVSPost2010Prop30
280
     1
102
RTVSPost2010PropOp30
 70
     1
102
RTVSPost2010Prop31
280
     0
102
RTVSPost2010PropOp31
 70
     1
102
RTVSPost2010Prop32
280
     0
102
RTVSPost2010PropOp32
 70
     1
102
RTVSPost2010Prop33
280
     0
102
RTVSPost2010PropOp33
 70
     1
102
RTVSPost2010Prop34
280
     0
102
RTVSPost2010PropOp34
 70
     1
102
RTVSPost2010Prop35
280
     0
102
RTVSPost2010PropOp35
 70
     1
102
RTVSPost2010Prop36
280
     0
102
RTVSPost2010PropOp36
 70
     1
102
RTVSPost2010Prop37
 90
       50
102
RTVSPost2010PropOp37
 70
     1
102
RTVSPost2010Prop38
140
0.0
102
RTVSPost2010PropOp38
 70
     1
102
RTVSPost2010Prop39
140
1.0
102
RTVSPost2010PropOp39
 70
     1
102
RTVSPost2010Prop40
 90
        0
102
RTVSPost2010PropOp40
 70
     1
102
RTVSPost2010Prop41ColorIndex
 90
       18
102
RTVSPost2010Prop41ColorRGB
 90
        0
102
RTVSPost2010PropOp41
 70
     1
102
RTVSPost2010Prop42
 90
       50
102
RTVSPost2010PropOp42
 70
     1
102
RTVSPost2010Prop43
 90
        3
102
RTVSPost2010PropOp43
 70
     1
102
RTVSPost2010Prop44ColorIndex
 90
        5
102
RTVSPost2010Prop44ColorRGB
 90
      255
102
RTVSPost2010PropOp44
 70
     1
102
RTVSPost2010Prop45
280
     0
102
RTVSPost2010PropOp45
 70
     1
102
RTVSPost2010Prop46
 90
       50
102
RTVSPost2010PropOp46
 70
     1
102
RTVSPost2010Prop47
 90
       50
102
RTVSPost2010PropOp47
 70
     1
102
RTVSPost2010Prop48
 90
       50
102
RTVSPost2010PropOp48
 70
     1
102
RTVSPost2010Prop49
280
     0
102
RTVSPost2010PropOp49
 70
     1
102
RTVSPost2010Prop50
 90
       50
102
RTVSPost2010PropOp50
 70
     1
102
RTVSPost2010Prop51ColorIndex
 90
      256
102
RTVSPost2010Prop51ColorRGB
 90
-16777216
102
RTVSPost2010PropOp51
 70
     0
102
RTVSPost2010Prop52
140
1.0
102
RTVSPost2010PropOp52
 70
     0
102
RTVSPost2010Prop53
 90
        2
102
RTVSPost2010PropOp53
 70
     1
102
RTVSPost2010Prop54
  1
strokes_ogs.tif
102
RTVSPost2010PropOp54
 70
     1
102
RTVSPost2010Prop55
280
     0
102
RTVSPost2010PropOp55
 70
     1
102
RTVSPost2010Prop56
140
1.0
102
RTVSPost2010PropOp56
 70
     1
102
RTVSPost2010Prop57
140
1.0
102
RTVSPost2010PropOp57
 70
     1
102
RTVSPropertyOp0
 70
     1
102
RTVSPropertyOp1
 70
     1
102
RTVSPropertyOp2
 70
     1
102
RTVSPropertyOp3
 70
     1
102
RTVSPropertyOp4
 70
     1
102
RTVSPropertyOp5
 70
     1
102
RTVSPropertyOp6
 70
     1
102
RTVSPropertyOp7
 70
     1
102
RTVSPropertyOp8
 70
     1
102
RTVSPropertyOp9
 70
     1
102
RTVSPropertyOp10
 70
     1
102
RTVSPropertyOp11
 70
     1
102
RTVSPropertyOp12
 70
     1
102
RTVSPropertyOp13
 70
     1
102
RTVSPropertyOp14
 70
     1
102
RTVSPropertyOp15
 70
     1
102
RTVSPropertyOp16
 70
     1
102
RTVSPropertyOp17
 70
     1
102
RTVSPropertyOp18
 70
     1
102
RTVSPropertyOp19
 70
     1
102
RTVSPropertyOp20
 70
     1
102
RTVSPropertyOp21
 70
     1
102
RTVSPropertyOp22
 70
     1
102
RTVSPropertyOp23
 70
     1
102
RTVSPropertyOp24
 70
     1
102
RTVSPropertyOp25
 70
     1
102
RTVSPropertyOp26
 70
     1
102
RTVSPropertyOp27
 70
     1
102
RTVSPropertyOp28
 70
     1
102
RTVSPropertyOp29
 70
     1
102
RTVSPropertyOp30
 70
     1
102
RTVSPropertyOp31
 70
     1
102
RTVSPropertyOp32
 70
     1
102
RTVSPropertyOp33
 70
     1
102
RTVSPropertyOp34
 70
     1
102
RTVSPropertyOp35
 70
     1
102
RTVSPropertyOp36
 70
     1
102
RTVSPropertyOp37
 70
     1
102
RTVSPropertyOp38
 70
     1
102
RTVSPropertyOp39
 70
     1
102
RTVSPropertyOp40
 70
     1
102
RTVSPropertyOp41
 70
     1
102
RTVSPropertyOp42
 70
     1
102
RTVSPropertyOp43
 70
     1
102
RTVSPropertyOp44
 70
     1
102
RTVSPropertyOp45
 70
     1
102
RTVSPropertyOp46
 70
     1
102
RTVSPropertyOp47
 70
     1
102
RTVSPropertyOp48
 70
     1
102
RTVSPropertyOp49
 70
     1
102
RTVSPropertyOp50
 70
     1
102
RTVSPropertyOp51
 70
     0
102
RTVSPropertyOp52
 70
     0
102
RTVSPropertyOp53
 70
     1
102
RTVSPropertyOp54
 70
     1
102
RTVSPropertyOp55
 70
     1
102
RTVSPropertyOp56
 70
     1
102
RTVSPropertyOp57
 70
     1
102
RTVSPropertyOp58
 70
     1
102
RTVSPropertyOp59
 70
     1
102
RTVSPropertyOp60
 70
     1
102
RTVSPropertyOp61
 70
     1
102
RTVSPropertyOp62
 70
     1
  0
XRECORD
  5
71D
102
{ACAD_REACTORS
330
71C
102
}
330
71C
100
AcDbXrecord
280
     1
102
RTVSPost2010Prop28
280
     0
102
RTVSPost2010PropOp28
 70
     1
102
RTVSPost2010Prop29
280
     1
102
RTVSPost2010PropOp29
 70
     1
102
RTVSPost2010Prop30
280
     1
102
RTVSPost2010PropOp30
 70
     1
102
RTVSPost2010Prop31
280
     0
102
RTVSPost2010PropOp31
 70
     1
102
RTVSPost2010Prop32
280
     0
102
RTVSPost2010PropOp32
 70
     1
102
RTVSPost2010Prop33
280
     0
102
RTVSPost2010PropOp33
 70
     1
102
RTVSPost2010Prop34
280
     0
102
RTVSPost2010PropOp34
 70
     1
102
RTVSPost2010Prop35
280
     0
102
RTVSPost2010PropOp35
 70
     1
102
RTVSPost2010Prop36
280
     0
102
RTVSPost2010PropOp36
 70
     1
102
RTVSPost2010Prop37
 90
       50
102
RTVSPost2010PropOp37
 70
     1
102
RTVSPost2010Prop38
140
0.0
102
RTVSPost2010PropOp38
 70
     1
102
RTVSPost2010Prop39
140
1.0
102
RTVSPost2010PropOp39
 70
     1
102
RTVSPost2010Prop40
 90
        0
102
RTVSPost2010PropOp40
 70
     1
102
RTVSPost2010Prop41ColorIndex
 90
       18
102
RTVSPost2010Prop41ColorRGB
 90
        0
102
RTVSPost2010PropOp41
 70
     1
102
RTVSPost2010Prop42
 90
       50
102
RTVSPost2010PropOp42
 70
     1
102
RTVSPost2010Prop43
 90
        3
102
RTVSPost2010PropOp43
 70
     1
102
RTVSPost2010Prop44ColorIndex
 90
        5
102
RTVSPost2010Prop44ColorRGB
 90
      255
102
RTVSPost2010PropOp44
 70
     1
102
RTVSPost2010Prop45
280
     0
102
RTVSPost2010PropOp45
 70
     1
102
RTVSPost2010Prop46
 90
       50
102
RTVSPost2010PropOp46
 70
     1
102
RTVSPost2010Prop47
 90
       50
102
RTVSPost2010PropOp47
 70
     1
102
RTVSPost2010Prop48
 90
       50
102
RTVSPost2010PropOp48
 70
     1
102
RTVSPost2010Prop49
280
     0
102
RTVSPost2010PropOp49
 70
     1
102
RTVSPost2010Prop50
 90
       50
102
RTVSPost2010PropOp50
 70
     1
102
RTVSPost2010Prop51ColorIndex
 90
      256
102
RTVSPost2010Prop51ColorRGB
 90
-16777216
102
RTVSPost2010PropOp51
 70
     0
102
RTVSPost2010Prop52
140
1.0
102
RTVSPost2010PropOp52
 70
     0
102
RTVSPost2010Prop53
 90
        2
102
RTVSPost2010PropOp53
 70
     1
102
RTVSPost2010Prop54
  1
strokes_ogs.tif
102
RTVSPost2010PropOp54
 70
     1
102
RTVSPost2010Prop55
280
     0
102
RTVSPost2010PropOp55
 70
     1
102
RTVSPost2010Prop56
140
1.0
102
RTVSPost2010PropOp56
 70
     1
102
RTVSPost2010Prop57
140
1.0
102
RTVSPost2010PropOp57
 70
     1
102
RTVSPropertyOp0
 70
     1
102
RTVSPropertyOp1
 70
     1
102
RTVSPropertyOp2
 70
     1
102
RTVSPropertyOp3
 70
     1
102
RTVSPropertyOp4
 70
     1
102
RTVSPropertyOp5
 70
     1
102
RTVSPropertyOp6
 70
     1
102
RTVSPropertyOp7
 70
     1
102
RTVSPropertyOp8
 70
     1
102
RTVSPropertyOp9
 70
     1
102
RTVSPropertyOp10
 70
     1
102
RTVSPropertyOp11
 70
     1
102
RTVSPropertyOp12
 70
     1
102
RTVSPropertyOp13
 70
     1
102
RTVSPropertyOp14
 70
     1
102
RTVSPropertyOp15
 70
     1
102
RTVSPropertyOp16
 70
     1
102
RTVSPropertyOp17
 70
     1
102
RTVSPropertyOp18
 70
     1
102
RTVSPropertyOp19
 70
     1
102
RTVSPropertyOp20
 70
     1
102
RTVSPropertyOp21
 70
     1
102
RTVSPropertyOp22
 70
     1
102
RTVSPropertyOp23
 70
     1
102
RTVSPropertyOp24
 70
     1
102
RTVSPropertyOp25
 70
     1
102
RTVSPropertyOp26
 70
     1
102
RTVSPropertyOp27
 70
     1
102
RTVSPropertyOp28
 70
     1
102
RTVSPropertyOp29
 70
     1
102
RTVSPropertyOp30
 70
     1
102
RTVSPropertyOp31
 70
     1
102
RTVSPropertyOp32
 70
     1
102
RTVSPropertyOp33
 70
     1
102
RTVSPropertyOp34
 70
     1
102
RTVSPropertyOp35
 70
     1
102
RTVSPropertyOp36
 70
     1
102
RTVSPropertyOp37
 70
     1
102
RTVSPropertyOp38
 70
     1
102
RTVSPropertyOp39
 70
     1
102
RTVSPropertyOp40
 70
     1
102
RTVSPropertyOp41
 70
     1
102
RTVSPropertyOp42
 70
     1
102
RTVSPropertyOp43
 70
     1
102
RTVSPropertyOp44
 70
     1
102
RTVSPropertyOp45
 70
     1
102
RTVSPropertyOp46
 70
     1
102
RTVSPropertyOp47
 70
     1
102
RTVSPropertyOp48
 70
     1
102
RTVSPropertyOp49
 70
     1
102
RTVSPropertyOp50
 70
     1
102
RTVSPropertyOp51
 70
     0
102
RTVSPropertyOp52
 70
     0
102
RTVSPropertyOp53
 70
     1
102
RTVSPropertyOp54
 70
     1
102
RTVSPropertyOp55
 70
     1
102
RTVSPropertyOp56
 70
     1
102
RTVSPropertyOp57
 70
     1
102
RTVSPropertyOp58
 70
     1
102
RTVSPropertyOp59
 70
     1
102
RTVSPropertyOp60
 70
     1
102
RTVSPropertyOp61
 70
     1
102
RTVSPropertyOp62
 70
     1
  0
XRECORD
  5
70F
102
{ACAD_REACTORS
330
70E
102
}
330
70E
100
AcDbXrecord
280
     1
102
RTVSPost2010Prop28
280
     0
102
RTVSPost2010PropOp28
 70
     1
102
RTVSPost2010Prop29
280
     1
102
RTVSPost2010PropOp29
 70
     1
102
RTVSPost2010Prop30
280
     1
102
RTVSPost2010PropOp30
 70
     1
102
RTVSPost2010Prop31
280
     0
102
RTVSPost2010PropOp31
 70
     1
102
RTVSPost2010Prop32
280
     0
102
RTVSPost2010PropOp32
 70
     1
102
RTVSPost2010Prop33
280
     0
102
RTVSPost2010PropOp33
 70
     1
102
RTVSPost2010Prop34
280
     0
102
RTVSPost2010PropOp34
 70
     1
102
RTVSPost2010Prop35
280
     0
102
RTVSPost2010PropOp35
 70
     1
102
RTVSPost2010Prop36
280
     0
102
RTVSPost2010PropOp36
 70
     1
102
RTVSPost2010Prop37
 90
       50
102
RTVSPost2010PropOp37
 70
     1
102
RTVSPost2010Prop38
140
0.0
102
RTVSPost2010PropOp38
 70
     1
102
RTVSPost2010Prop39
140
1.0
102
RTVSPost2010PropOp39
 70
     1
102
RTVSPost2010Prop40
 90
        0
102
RTVSPost2010PropOp40
 70
     1
102
RTVSPost2010Prop41ColorIndex
 90
       18
102
RTVSPost2010Prop41ColorRGB
 90
        0
102
RTVSPost2010PropOp41
 70
     1
102
RTVSPost2010Prop42
 90
       50
102
RTVSPost2010PropOp42
 70
     1
102
RTVSPost2010Prop43
 90
        3
102
RTVSPost2010PropOp43
 70
     1
102
RTVSPost2010Prop44ColorIndex
 90
        5
102
RTVSPost2010Prop44ColorRGB
 90
      255
102
RTVSPost2010PropOp44
 70
     1
102
RTVSPost2010Prop45
280
     0
102
RTVSPost2010PropOp45
 70
     1
102
RTVSPost2010Prop46
 90
       50
102
RTVSPost2010PropOp46
 70
     1
102
RTVSPost2010Prop47
 90
       50
102
RTVSPost2010PropOp47
 70
     1
102
RTVSPost2010Prop48
 90
       50
102
RTVSPost2010PropOp48
 70
     1
102
RTVSPost2010Prop49
280
     0
102
RTVSPost2010PropOp49
 70
     1
102
RTVSPost2010Prop50
 90
       50
102
RTVSPost2010PropOp50
 70
     1
102
RTVSPost2010Prop51ColorIndex
 90
      256
102
RTVSPost2010Prop51ColorRGB
 90
-16777216
102
RTVSPost2010PropOp51
 70
     0
102
RTVSPost2010Prop52
140
1.0
102
RTVSPost2010PropOp52
 70
     0
102
RTVSPost2010Prop53
 90
        2
102
RTVSPost2010PropOp53
 70
     1
102
RTVSPost2010Prop54
  1
strokes_ogs.tif
102
RTVSPost2010PropOp54
 70
     1
102
RTVSPost2010Prop55
280
     0
102
RTVSPost2010PropOp55
 70
     1
102
RTVSPost2010Prop56
140
1.0
102
RTVSPost2010PropOp56
 70
     1
102
RTVSPost2010Prop57
140
1.0
102
RTVSPost2010PropOp57
 70
     1
102
RTVSPropertyOp0
 70
     1
102
RTVSPropertyOp1
 70
     1
102
RTVSPropertyOp2
 70
     1
102
RTVSPropertyOp3
 70
     1
102
RTVSPropertyOp4
 70
     1
102
RTVSPropertyOp5
 70
     1
102
RTVSPropertyOp6
 70
     1
102
RTVSPropertyOp7
 70
     1
102
RTVSPropertyOp8
 70
     1
102
RTVSPropertyOp9
 70
     1
102
RTVSPropertyOp10
 70
     1
102
RTVSPropertyOp11
 70
     1
102
RTVSPropertyOp12
 70
     1
102
RTVSPropertyOp13
 70
     1
102
RTVSPropertyOp14
 70
     1
102
RTVSPropertyOp15
 70
     1
102
RTVSPropertyOp16
 70
     1
102
RTVSPropertyOp17
 70
     1
102
RTVSPropertyOp18
 70
     1
102
RTVSPropertyOp19
 70
     1
102
RTVSPropertyOp20
 70
     1
102
RTVSPropertyOp21
 70
     1
102
RTVSPropertyOp22
 70
     1
102
RTVSPropertyOp23
 70
     1
102
RTVSPropertyOp24
 70
     1
102
RTVSPropertyOp25
 70
     1
102
RTVSPropertyOp26
 70
     1
102
RTVSPropertyOp27
 70
     1
102
RTVSPropertyOp28
 70
     1
102
RTVSPropertyOp29
 70
     1
102
RTVSPropertyOp30
 70
     1
102
RTVSPropertyOp31
 70
     1
102
RTVSPropertyOp32
 70
     1
102
RTVSPropertyOp33
 70
     1
102
RTVSPropertyOp34
 70
     1
102
RTVSPropertyOp35
 70
     1
102
RTVSPropertyOp36
 70
     1
102
RTVSPropertyOp37
 70
     1
102
RTVSPropertyOp38
 70
     1
102
RTVSPropertyOp39
 70
     1
102
RTVSPropertyOp40
 70
     1
102
RTVSPropertyOp41
 70
     1
102
RTVSPropertyOp42
 70
     1
102
RTVSPropertyOp43
 70
     1
102
RTVSPropertyOp44
 70
     1
102
RTVSPropertyOp45
 70
     1
102
RTVSPropertyOp46
 70
     1
102
RTVSPropertyOp47
 70
     1
102
RTVSPropertyOp48
 70
     1
102
RTVSPropertyOp49
 70
     1
102
RTVSPropertyOp50
 70
     1
102
RTVSPropertyOp51
 70
     0
102
RTVSPropertyOp52
 70
     0
102
RTVSPropertyOp53
 70
     1
102
RTVSPropertyOp54
 70
     1
102
RTVSPropertyOp55
 70
     1
102
RTVSPropertyOp56
 70
     1
102
RTVSPropertyOp57
 70
     1
102
RTVSPropertyOp58
 70
     1
102
RTVSPropertyOp59
 70
     1
102
RTVSPropertyOp60
 70
     1
102
RTVSPropertyOp61
 70
     1
102
RTVSPropertyOp62
 70
     1
  0
XRECORD
  5
713
102
{ACAD_REACTORS
330
712
102
}
330
712
100
AcDbXrecord
280
     1
102
RTVSPost2010Prop28
280
     0
102
RTVSPost2010PropOp28
 70
     1
102
RTVSPost2010Prop29
280
     1
102
RTVSPost2010PropOp29
 70
     1
102
RTVSPost2010Prop30
280
     1
102
RTVSPost2010PropOp30
 70
     1
102
RTVSPost2010Prop31
280
     0
102
RTVSPost2010PropOp31
 70
     1
102
RTVSPost2010Prop32
280
     0
102
RTVSPost2010PropOp32
 70
     1
102
RTVSPost2010Prop33
280
     0
102
RTVSPost2010PropOp33
 70
     1
102
RTVSPost2010Prop34
280
     0
102
RTVSPost2010PropOp34
 70
     1
102
RTVSPost2010Prop35
280
     0
102
RTVSPost2010PropOp35
 70
     1
102
RTVSPost2010Prop36
280
     0
102
RTVSPost2010PropOp36
 70
     1
102
RTVSPost2010Prop37
 90
       50
102
RTVSPost2010PropOp37
 70
     1
102
RTVSPost2010Prop38
140
0.0
102
RTVSPost2010PropOp38
 70
     1
102
RTVSPost2010Prop39
140
1.0
102
RTVSPost2010PropOp39
 70
     1
102
RTVSPost2010Prop40
 90
        0
102
RTVSPost2010PropOp40
 70
     1
102
RTVSPost2010Prop41ColorIndex
 90
       18
102
RTVSPost2010Prop41ColorRGB
 90
        0
102
RTVSPost2010PropOp41
 70
     1
102
RTVSPost2010Prop42
 90
       50
102
RTVSPost2010PropOp42
 70
     1
102
RTVSPost2010Prop43
 90
        3
102
RTVSPost2010PropOp43
 70
     1
102
RTVSPost2010Prop44ColorIndex
 90
        5
102
RTVSPost2010Prop44ColorRGB
 90
      255
102
RTVSPost2010PropOp44
 70
     1
102
RTVSPost2010Prop45
280
     0
102
RTVSPost2010PropOp45
 70
     1
102
RTVSPost2010Prop46
 90
       50
102
RTVSPost2010PropOp46
 70
     1
102
RTVSPost2010Prop47
 90
       50
102
RTVSPost2010PropOp47
 70
     1
102
RTVSPost2010Prop48
 90
       50
102
RTVSPost2010PropOp48
 70
     1
102
RTVSPost2010Prop49
280
     0
102
RTVSPost2010PropOp49
 70
     1
102
RTVSPost2010Prop50
 90
       50
102
RTVSPost2010PropOp50
 70
     1
102
RTVSPost2010Prop51ColorIndex
 90
      256
102
RTVSPost2010Prop51ColorRGB
 90
-16777216
102
RTVSPost2010PropOp51
 70
     0
102
RTVSPost2010Prop52
140
1.0
102
RTVSPost2010PropOp52
 70
     0
102
RTVSPost2010Prop53
 90
        2
102
RTVSPost2010PropOp53
 70
     1
102
RTVSPost2010Prop54
  1
strokes_ogs.tif
102
RTVSPost2010PropOp54
 70
     1
102
RTVSPost2010Prop55
280
     0
102
RTVSPost2010PropOp55
 70
     1
102
RTVSPost2010Prop56
140
1.0
102
RTVSPost2010PropOp56
 70
     1
102
RTVSPost2010Prop57
140
1.0
102
RTVSPost2010PropOp57
 70
     1
102
RTVSPropertyOp0
 70
     1
102
RTVSPropertyOp1
 70
     1
102
RTVSPropertyOp2
 70
     1
102
RTVSPropertyOp3
 70
     1
102
RTVSPropertyOp4
 70
     1
102
RTVSPropertyOp5
 70
     1
102
RTVSPropertyOp6
 70
     1
102
RTVSPropertyOp7
 70
     1
102
RTVSPropertyOp8
 70
     1
102
RTVSPropertyOp9
 70
     1
102
RTVSPropertyOp10
 70
     1
102
RTVSPropertyOp11
 70
     1
102
RTVSPropertyOp12
 70
     1
102
RTVSPropertyOp13
 70
     1
102
RTVSPropertyOp14
 70
     1
102
RTVSPropertyOp15
 70
     1
102
RTVSPropertyOp16
 70
     1
102
RTVSPropertyOp17
 70
     1
102
RTVSPropertyOp18
 70
     1
102
RTVSPropertyOp19
 70
     1
102
RTVSPropertyOp20
 70
     1
102
RTVSPropertyOp21
 70
     1
102
RTVSPropertyOp22
 70
     1
102
RTVSPropertyOp23
 70
     1
102
RTVSPropertyOp24
 70
     1
102
RTVSPropertyOp25
 70
     1
102
RTVSPropertyOp26
 70
     1
102
RTVSPropertyOp27
 70
     1
102
RTVSPropertyOp28
 70
     1
102
RTVSPropertyOp29
 70
     1
102
RTVSPropertyOp30
 70
     1
102
RTVSPropertyOp31
 70
     1
102
RTVSPropertyOp32
 70
     1
102
RTVSPropertyOp33
 70
     1
102
RTVSPropertyOp34
 70
     1
102
RTVSPropertyOp35
 70
     1
102
RTVSPropertyOp36
 70
     1
102
RTVSPropertyOp37
 70
     1
102
RTVSPropertyOp38
 70
     1
102
RTVSPropertyOp39
 70
     1
102
RTVSPropertyOp40
 70
     1
102
RTVSPropertyOp41
 70
     1
102
RTVSPropertyOp42
 70
     1
102
RTVSPropertyOp43
 70
     1
102
RTVSPropertyOp44
 70
     1
102
RTVSPropertyOp45
 70
     1
102
RTVSPropertyOp46
 70
     1
102
RTVSPropertyOp47
 70
     1
102
RTVSPropertyOp48
 70
     1
102
RTVSPropertyOp49
 70
     1
102
RTVSPropertyOp50
 70
     1
102
RTVSPropertyOp51
 70
     0
102
RTVSPropertyOp52
 70
     0
102
RTVSPropertyOp53
 70
     1
102
RTVSPropertyOp54
 70
     1
102
RTVSPropertyOp55
 70
     1
102
RTVSPropertyOp56
 70
     1
102
RTVSPropertyOp57
 70
     1
102
RTVSPropertyOp58
 70
     1
102
RTVSPropertyOp59
 70
     1
102
RTVSPropertyOp60
 70
     1
102
RTVSPropertyOp61
 70
     1
102
RTVSPropertyOp62
 70
     1
  0
XRECORD
  5
72D
102
{ACAD_REACTORS
330
72C
102
}
330
72C
100
AcDbXrecord
280
     1
102
RTVSPost2010Prop28
280
     0
102
RTVSPost2010PropOp28
 70
     0
102
RTVSPost2010Prop29
280
     1
102
RTVSPost2010PropOp29
 70
     0
102
RTVSPost2010Prop30
280
     1
102
RTVSPost2010PropOp30
 70
     0
102
RTVSPost2010Prop31
280
     0
102
RTVSPost2010PropOp31
 70
     0
102
RTVSPost2010Prop32
280
     0
102
RTVSPost2010PropOp32
 70
     0
102
RTVSPost2010Prop33
280
     0
102
RTVSPost2010PropOp33
 70
     0
102
RTVSPost2010Prop34
280
     0
102
RTVSPost2010PropOp34
 70
     0
102
RTVSPost2010Prop35
280
     0
102
RTVSPost2010PropOp35
 70
     0
102
RTVSPost2010Prop36
280
     0
102
RTVSPost2010PropOp36
 70
     0
102
RTVSPost2010Prop37
 90
       50
102
RTVSPost2010PropOp37
 70
     0
102
RTVSPost2010Prop38
140
0.0
102
RTVSPost2010PropOp38
 70
     0
102
RTVSPost2010Prop39
140
1.0
102
RTVSPost2010PropOp39
 70
     0
102
RTVSPost2010Prop40
 90
        0
102
RTVSPost2010PropOp40
 70
     0
102
RTVSPost2010Prop41ColorIndex
 90
       18
102
RTVSPost2010Prop41ColorRGB
 90
        0
102
RTVSPost2010PropOp41
 70
     0
102
RTVSPost2010Prop42
 90
       50
102
RTVSPost2010PropOp42
 70
     0
102
RTVSPost2010Prop43
 90
        3
102
RTVSPost2010PropOp43
 70
     0
102
RTVSPost2010Prop44ColorIndex
 90
        5
102
RTVSPost2010Prop44ColorRGB
 90
      255
102
RTVSPost2010PropOp44
 70
     0
102
RTVSPost2010Prop45
280
     0
102
RTVSPost2010PropOp45
 70
     0
102
RTVSPost2010Prop46
 90
       50
102
RTVSPost2010PropOp46
 70
     0
102
RTVSPost2010Prop47
 90
       50
102
RTVSPost2010PropOp47
 70
     0
102
RTVSPost2010Prop48
 90
       50
102
RTVSPost2010PropOp48
 70
     0
102
RTVSPost2010Prop49
280
     0
102
RTVSPost2010PropOp49
 70
     0
102
RTVSPost2010Prop50
 90
       50
102
RTVSPost2010PropOp50
 70
     0
102
RTVSPost2010Prop51ColorIndex
 90
      256
102
RTVSPost2010Prop51ColorRGB
 90
-16777216
102
RTVSPost2010PropOp51
 70
     0
102
RTVSPost2010Prop52
140
1.0
102
RTVSPost2010PropOp52
 70
     0
102
RTVSPost2010Prop53
 90
        2
102
RTVSPost2010PropOp53
 70
     0
102
RTVSPost2010Prop54
  1
strokes_ogs.tif
102
RTVSPost2010PropOp54
 70
     0
102
RTVSPost2010Prop55
280
     0
102
RTVSPost2010PropOp55
 70
     0
102
RTVSPost2010Prop56
140
1.0
102
RTVSPost2010PropOp56
 70
     0
102
RTVSPost2010Prop57
140
1.0
102
RTVSPost2010PropOp57
 70
     0
102
RTVSPropertyOp0
 70
     0
102
RTVSPropertyOp1
 70
     0
102
RTVSPropertyOp2
 70
     0
102
RTVSPropertyOp3
 70
     0
102
RTVSPropertyOp4
 70
     0
102
RTVSPropertyOp5
 70
     0
102
RTVSPropertyOp6
 70
     0
102
RTVSPropertyOp7
 70
     0
102
RTVSPropertyOp8
 70
     0
102
RTVSPropertyOp9
 70
     0
102
RTVSPropertyOp10
 70
     0
102
RTVSPropertyOp11
 70
     0
102
RTVSPropertyOp12
 70
     0
102
RTVSPropertyOp13
 70
     0
102
RTVSPropertyOp14
 70
     2
102
RTVSPropertyOp15
 70
     0
102
RTVSPropertyOp16
 70
     0
102
RTVSPropertyOp17
 70
     0
102
RTVSPropertyOp18
 70
     0
102
RTVSPropertyOp19
 70
     0
102
RTVSPropertyOp20
 70
     0
102
RTVSPropertyOp21
 70
     0
102
RTVSPropertyOp22
 70
     0
102
RTVSPropertyOp23
 70
     0
102
RTVSPropertyOp24
 70
     0
102
RTVSPropertyOp25
 70
     0
102
RTVSPropertyOp26
 70
     0
102
RTVSPropertyOp27
 70
     0
102
RTVSPropertyOp28
 70
     0
102
RTVSPropertyOp29
 70
     0
102
RTVSPropertyOp30
 70
     0
102
RTVSPropertyOp31
 70
     0
102
RTVSPropertyOp32
 70
     0
102
RTVSPropertyOp33
 70
     0
102
RTVSPropertyOp34
 70
     0
102
RTVSPropertyOp35
 70
     0
102
RTVSPropertyOp36
 70
     0
102
RTVSPropertyOp37
 70
     0
102
RTVSPropertyOp38
 70
     0
102
RTVSPropertyOp39
 70
     0
102
RTVSPropertyOp40
 70
     0
102
RTVSPropertyOp41
 70
     0
102
RTVSPropertyOp42
 70
     0
102
RTVSPropertyOp43
 70
     0
102
RTVSPropertyOp44
 70
     0
102
RTVSPropertyOp45
 70
     0
102
RTVSPropertyOp46
 70
     0
102
RTVSPropertyOp47
 70
     0
102
RTVSPropertyOp48
 70
     0
102
RTVSPropertyOp49
 70
     0
102
RTVSPropertyOp50
 70
     0
102
RTVSPropertyOp51
 70
     0
102
RTVSPropertyOp52
 70
     0
102
RTVSPropertyOp53
 70
     0
102
RTVSPropertyOp54
 70
     0
102
RTVSPropertyOp55
 70
     0
102
RTVSPropertyOp56
 70
     0
102
RTVSPropertyOp57
 70
     0
102
RTVSPropertyOp58
 70
     0
102
RTVSPropertyOp59
 70
     0
102
RTVSPropertyOp60
 70
     0
102
RTVSPropertyOp61
 70
     0
102
RTVSPropertyOp62
 70
     0
  0
XRECORD
  5
71B
102
{ACAD_REACTORS
330
71A
102
}
330
71A
100
AcDbXrecord
280
     1
102
RTVSPost2010Prop28
280
     0
102
RTVSPost2010PropOp28
 70
     1
102
RTVSPost2010Prop29
280
     1
102
RTVSPost2010PropOp29
 70
     1
102
RTVSPost2010Prop30
280
     1
102
RTVSPost2010PropOp30
 70
     1
102
RTVSPost2010Prop31
280
     0
102
RTVSPost2010PropOp31
 70
     1
102
RTVSPost2010Prop32
280
     0
102
RTVSPost2010PropOp32
 70
     1
102
RTVSPost2010Prop33
280
     0
102
RTVSPost2010PropOp33
 70
     1
102
RTVSPost2010Prop34
280
     0
102
RTVSPost2010PropOp34
 70
     1
102
RTVSPost2010Prop35
280
     0
102
RTVSPost2010PropOp35
 70
     1
102
RTVSPost2010Prop36
280
     0
102
RTVSPost2010PropOp36
 70
     1
102
RTVSPost2010Prop37
 90
       50
102
RTVSPost2010PropOp37
 70
     1
102
RTVSPost2010Prop38
140
0.0
102
RTVSPost2010PropOp38
 70
     1
102
RTVSPost2010Prop39
140
1.0
102
RTVSPost2010PropOp39
 70
     1
102
RTVSPost2010Prop40
 90
        0
102
RTVSPost2010PropOp40
 70
     1
102
RTVSPost2010Prop41ColorIndex
 90
       18
102
RTVSPost2010Prop41ColorRGB
 90
        0
102
RTVSPost2010PropOp41
 70
     1
102
RTVSPost2010Prop42
 90
       50
102
RTVSPost2010PropOp42
 70
     1
102
RTVSPost2010Prop43
 90
        3
102
RTVSPost2010PropOp43
 70
     1
102
RTVSPost2010Prop44ColorIndex
 90
        5
102
RTVSPost2010Prop44ColorRGB
 90
      255
102
RTVSPost2010PropOp44
 70
     1
102
RTVSPost2010Prop45
280
     0
102
RTVSPost2010PropOp45
 70
     1
102
RTVSPost2010Prop46
 90
       50
102
RTVSPost2010PropOp46
 70
     1
102
RTVSPost2010Prop47
 90
       50
102
RTVSPost2010PropOp47
 70
     1
102
RTVSPost2010Prop48
 90
       50
102
RTVSPost2010PropOp48
 70
     1
102
RTVSPost2010Prop49
280
     0
102
RTVSPost2010PropOp49
 70
     1
102
RTVSPost2010Prop50
 90
       50
102
RTVSPost2010PropOp50
 70
     1
102
RTVSPost2010Prop51ColorIndex
 90
      256
102
RTVSPost2010Prop51ColorRGB
 90
-16777216
102
RTVSPost2010PropOp51
 70
     0
102
RTVSPost2010Prop52
140
1.0
102
RTVSPost2010PropOp52
 70
     0
102
RTVSPost2010Prop53
 90
        2
102
RTVSPost2010PropOp53
 70
     1
102
RTVSPost2010Prop54
  1
strokes_ogs.tif
102
RTVSPost2010PropOp54
 70
     1
102
RTVSPost2010Prop55
280
     0
102
RTVSPost2010PropOp55
 70
     1
102
RTVSPost2010Prop56
140
1.0
102
RTVSPost2010PropOp56
 70
     1
102
RTVSPost2010Prop57
140
1.0
102
RTVSPost2010PropOp57
 70
     1
102
RTVSPropertyOp0
 70
     1
102
RTVSPropertyOp1
 70
     1
102
RTVSPropertyOp2
 70
     1
102
RTVSPropertyOp3
 70
     1
102
RTVSPropertyOp4
 70
     1
102
RTVSPropertyOp5
 70
     1
102
RTVSPropertyOp6
 70
     1
102
RTVSPropertyOp7
 70
     1
102
RTVSPropertyOp8
 70
     1
102
RTVSPropertyOp9
 70
     1
102
RTVSPropertyOp10
 70
     1
102
RTVSPropertyOp11
 70
     1
102
RTVSPropertyOp12
 70
     1
102
RTVSPropertyOp13
 70
     1
102
RTVSPropertyOp14
 70
     1
102
RTVSPropertyOp15
 70
     1
102
RTVSPropertyOp16
 70
     1
102
RTVSPropertyOp17
 70
     1
102
RTVSPropertyOp18
 70
     1
102
RTVSPropertyOp19
 70
     1
102
RTVSPropertyOp20
 70
     1
102
RTVSPropertyOp21
 70
     1
102
RTVSPropertyOp22
 70
     1
102
RTVSPropertyOp23
 70
     1
102
RTVSPropertyOp24
 70
     1
102
RTVSPropertyOp25
 70
     1
102
RTVSPropertyOp26
 70
     1
102
RTVSPropertyOp27
 70
     1
102
RTVSPropertyOp28
 70
     1
102
RTVSPropertyOp29
 70
     1
102
RTVSPropertyOp30
 70
     1
102
RTVSPropertyOp31
 70
     1
102
RTVSPropertyOp32
 70
     1
102
RTVSPropertyOp33
 70
     1
102
RTVSPropertyOp34
 70
     1
102
RTVSPropertyOp35
 70
     1
102
RTVSPropertyOp36
 70
     1
102
RTVSPropertyOp37
 70
     1
102
RTVSPropertyOp38
 70
     1
102
RTVSPropertyOp39
 70
     1
102
RTVSPropertyOp40
 70
     1
102
RTVSPropertyOp41
 70
     1
102
RTVSPropertyOp42
 70
     1
102
RTVSPropertyOp43
 70
     1
102
RTVSPropertyOp44
 70
     1
102
RTVSPropertyOp45
 70
     1
102
RTVSPropertyOp46
 70
     1
102
RTVSPropertyOp47
 70
     1
102
RTVSPropertyOp48
 70
     1
102
RTVSPropertyOp49
 70
     1
102
RTVSPropertyOp50
 70
     1
102
RTVSPropertyOp51
 70
     0
102
RTVSPropertyOp52
 70
     0
102
RTVSPropertyOp53
 70
     1
102
RTVSPropertyOp54
 70
     1
102
RTVSPropertyOp55
 70
     1
102
RTVSPropertyOp56
 70
     1
102
RTVSPropertyOp57
 70
     1
102
RTVSPropertyOp58
 70
     1
102
RTVSPropertyOp59
 70
     1
102
RTVSPropertyOp60
 70
     1
102
RTVSPropertyOp61
 70
     1
102
RTVSPropertyOp62
 70
     1
  0
XRECORD
  5
6FF
102
{ACAD_REACTORS
330
6FE
102
}
330
6FE
100
AcDbXrecord
280
     1
102
RTVSPost2010Prop28
280
     0
102
RTVSPost2010PropOp28
 70
     1
102
RTVSPost2010Prop29
280
     1
102
RTVSPost2010PropOp29
 70
     1
102
RTVSPost2010Prop30
280
     1
102
RTVSPost2010PropOp30
 70
     1
102
RTVSPost2010Prop31
280
     0
102
RTVSPost2010PropOp31
 70
     1
102
RTVSPost2010Prop32
280
     0
102
RTVSPost2010PropOp32
 70
     1
102
RTVSPost2010Prop33
280
     0
102
RTVSPost2010PropOp33
 70
     1
102
RTVSPost2010Prop34
280
     0
102
RTVSPost2010PropOp34
 70
     1
102
RTVSPost2010Prop35
280
     0
102
RTVSPost2010PropOp35
 70
     1
102
RTVSPost2010Prop36
280
     0
102
RTVSPost2010PropOp36
 70
     1
102
RTVSPost2010Prop37
 90
       50
102
RTVSPost2010PropOp37
 70
     1
102
RTVSPost2010Prop38
140
0.0
102
RTVSPost2010PropOp38
 70
     1
102
RTVSPost2010Prop39
140
1.0
102
RTVSPost2010PropOp39
 70
     1
102
RTVSPost2010Prop40
 90
        0
102
RTVSPost2010PropOp40
 70
     1
102
RTVSPost2010Prop41ColorIndex
 90
       18
102
RTVSPost2010Prop41ColorRGB
 90
        0
102
RTVSPost2010PropOp41
 70
     1
102
RTVSPost2010Prop42
 90
       50
102
RTVSPost2010PropOp42
 70
     1
102
RTVSPost2010Prop43
 90
        3
102
RTVSPost2010PropOp43
 70
     1
102
RTVSPost2010Prop44ColorIndex
 90
        5
102
RTVSPost2010Prop44ColorRGB
 90
      255
102
RTVSPost2010PropOp44
 70
     1
102
RTVSPost2010Prop45
280
     0
102
RTVSPost2010PropOp45
 70
     1
102
RTVSPost2010Prop46
 90
       50
102
RTVSPost2010PropOp46
 70
     1
102
RTVSPost2010Prop47
 90
       50
102
RTVSPost2010PropOp47
 70
     1
102
RTVSPost2010Prop48
 90
       50
102
RTVSPost2010PropOp48
 70
     1
102
RTVSPost2010Prop49
280
     0
102
RTVSPost2010PropOp49
 70
     1
102
RTVSPost2010Prop50
 90
       50
102
RTVSPost2010PropOp50
 70
     1
102
RTVSPost2010Prop51ColorIndex
 90
      256
102
RTVSPost2010Prop51ColorRGB
 90
-16777216
102
RTVSPost2010PropOp51
 70
     0
102
RTVSPost2010Prop52
140
1.0
102
RTVSPost2010PropOp52
 70
     0
102
RTVSPost2010Prop53
 90
        2
102
RTVSPost2010PropOp53
 70
     1
102
RTVSPost2010Prop54
  1
strokes_ogs.tif
102
RTVSPost2010PropOp54
 70
     1
102
RTVSPost2010Prop55
280
     0
102
RTVSPost2010PropOp55
 70
     1
102
RTVSPost2010Prop56
140
1.0
102
RTVSPost2010PropOp56
 70
     1
102
RTVSPost2010Prop57
140
1.0
102
RTVSPost2010PropOp57
 70
     1
102
RTVSPropertyOp0
 70
     1
102
RTVSPropertyOp1
 70
     1
102
RTVSPropertyOp2
 70
     1
102
RTVSPropertyOp3
 70
     1
102
RTVSPropertyOp4
 70
     1
102
RTVSPropertyOp5
 70
     1
102
RTVSPropertyOp6
 70
     1
102
RTVSPropertyOp7
 70
     1
102
RTVSPropertyOp8
 70
     1
102
RTVSPropertyOp9
 70
     1
102
RTVSPropertyOp10
 70
     1
102
RTVSPropertyOp11
 70
     1
102
RTVSPropertyOp12
 70
     1
102
RTVSPropertyOp13
 70
     1
102
RTVSPropertyOp14
 70
     1
102
RTVSPropertyOp15
 70
     1
102
RTVSPropertyOp16
 70
     1
102
RTVSPropertyOp17
 70
     1
102
RTVSPropertyOp18
 70
     1
102
RTVSPropertyOp19
 70
     1
102
RTVSPropertyOp20
 70
     1
102
RTVSPropertyOp21
 70
     1
102
RTVSPropertyOp22
 70
     1
102
RTVSPropertyOp23
 70
     1
102
RTVSPropertyOp24
 70
     1
102
RTVSPropertyOp25
 70
     1
102
RTVSPropertyOp26
 70
     1
102
RTVSPropertyOp27
 70
     1
102
RTVSPropertyOp28
 70
     1
102
RTVSPropertyOp29
 70
     1
102
RTVSPropertyOp30
 70
     1
102
RTVSPropertyOp31
 70
     1
102
RTVSPropertyOp32
 70
     1
102
RTVSPropertyOp33
 70
     1
102
RTVSPropertyOp34
 70
     1
102
RTVSPropertyOp35
 70
     1
102
RTVSPropertyOp36
 70
     1
102
RTVSPropertyOp37
 70
     1
102
RTVSPropertyOp38
 70
     1
102
RTVSPropertyOp39
 70
     1
102
RTVSPropertyOp40
 70
     1
102
RTVSPropertyOp41
 70
     1
102
RTVSPropertyOp42
 70
     1
102
RTVSPropertyOp43
 70
     1
102
RTVSPropertyOp44
 70
     1
102
RTVSPropertyOp45
 70
     1
102
RTVSPropertyOp46
 70
     1
102
RTVSPropertyOp47
 70
     1
102
RTVSPropertyOp48
 70
     1
102
RTVSPropertyOp49
 70
     1
102
RTVSPropertyOp50
 70
     1
102
RTVSPropertyOp51
 70
     0
102
RTVSPropertyOp52
 70
     0
102
RTVSPropertyOp53
 70
     1
102
RTVSPropertyOp54
 70
     1
102
RTVSPropertyOp55
 70
     1
102
RTVSPropertyOp56
 70
     1
102
RTVSPropertyOp57
 70
     1
102
RTVSPropertyOp58
 70
     1
102
RTVSPropertyOp59
 70
     1
102
RTVSPropertyOp60
 70
     1
102
RTVSPropertyOp61
 70
     1
102
RTVSPropertyOp62
 70
     1
  0
XRECORD
  5
701
102
{ACAD_REACTORS
330
700
102
}
330
700
100
AcDbXrecord
280
     1
102
RTVSPost2010Prop28
280
     0
102
RTVSPost2010PropOp28
 70
     1
102
RTVSPost2010Prop29
280
     1
102
RTVSPost2010PropOp29
 70
     1
102
RTVSPost2010Prop30
280
     1
102
RTVSPost2010PropOp30
 70
     1
102
RTVSPost2010Prop31
280
     0
102
RTVSPost2010PropOp31
 70
     1
102
RTVSPost2010Prop32
280
     0
102
RTVSPost2010PropOp32
 70
     1
102
RTVSPost2010Prop33
280
     0
102
RTVSPost2010PropOp33
 70
     1
102
RTVSPost2010Prop34
280
     0
102
RTVSPost2010PropOp34
 70
     1
102
RTVSPost2010Prop35
280
     0
102
RTVSPost2010PropOp35
 70
     1
102
RTVSPost2010Prop36
280
     0
102
RTVSPost2010PropOp36
 70
     1
102
RTVSPost2010Prop37
 90
       50
102
RTVSPost2010PropOp37
 70
     1
102
RTVSPost2010Prop38
140
0.0
102
RTVSPost2010PropOp38
 70
     1
102
RTVSPost2010Prop39
140
1.0
102
RTVSPost2010PropOp39
 70
     1
102
RTVSPost2010Prop40
 90
        0
102
RTVSPost2010PropOp40
 70
     1
102
RTVSPost2010Prop41ColorIndex
 90
       18
102
RTVSPost2010Prop41ColorRGB
 90
        0
102
RTVSPost2010PropOp41
 70
     1
102
RTVSPost2010Prop42
 90
       50
102
RTVSPost2010PropOp42
 70
     1
102
RTVSPost2010Prop43
 90
        3
102
RTVSPost2010PropOp43
 70
     1
102
RTVSPost2010Prop44ColorIndex
 90
        5
102
RTVSPost2010Prop44ColorRGB
 90
      255
102
RTVSPost2010PropOp44
 70
     1
102
RTVSPost2010Prop45
280
     0
102
RTVSPost2010PropOp45
 70
     1
102
RTVSPost2010Prop46
 90
       50
102
RTVSPost2010PropOp46
 70
     1
102
RTVSPost2010Prop47
 90
       50
102
RTVSPost2010PropOp47
 70
     1
102
RTVSPost2010Prop48
 90
       50
102
RTVSPost2010PropOp48
 70
     1
102
RTVSPost2010Prop49
280
     0
102
RTVSPost2010PropOp49
 70
     1
102
RTVSPost2010Prop50
 90
       50
102
RTVSPost2010PropOp50
 70
     1
102
RTVSPost2010Prop51ColorIndex
 90
      256
102
RTVSPost2010Prop51ColorRGB
 90
-16777216
102
RTVSPost2010PropOp51
 70
     0
102
RTVSPost2010Prop52
140
1.0
102
RTVSPost2010PropOp52
 70
     0
102
RTVSPost2010Prop53
 90
        2
102
RTVSPost2010PropOp53
 70
     1
102
RTVSPost2010Prop54
  1
strokes_ogs.tif
102
RTVSPost2010PropOp54
 70
     1
102
RTVSPost2010Prop55
280
     0
102
RTVSPost2010PropOp55
 70
     1
102
RTVSPost2010Prop56
140
1.0
102
RTVSPost2010PropOp56
 70
     1
102
RTVSPost2010Prop57
140
1.0
102
RTVSPost2010PropOp57
 70
     1
102
RTVSPropertyOp0
 70
     1
102
RTVSPropertyOp1
 70
     1
102
RTVSPropertyOp2
 70
     1
102
RTVSPropertyOp3
 70
     1
102
RTVSPropertyOp4
 70
     1
102
RTVSPropertyOp5
 70
     1
102
RTVSPropertyOp6
 70
     1
102
RTVSPropertyOp7
 70
     1
102
RTVSPropertyOp8
 70
     1
102
RTVSPropertyOp9
 70
     1
102
RTVSPropertyOp10
 70
     1
102
RTVSPropertyOp11
 70
     1
102
RTVSPropertyOp12
 70
     1
102
RTVSPropertyOp13
 70
     1
102
RTVSPropertyOp14
 70
     1
102
RTVSPropertyOp15
 70
     1
102
RTVSPropertyOp16
 70
     1
102
RTVSPropertyOp17
 70
     1
102
RTVSPropertyOp18
 70
     1
102
RTVSPropertyOp19
 70
     1
102
RTVSPropertyOp20
 70
     1
102
RTVSPropertyOp21
 70
     1
102
RTVSPropertyOp22
 70
     1
102
RTVSPropertyOp23
 70
     1
102
RTVSPropertyOp24
 70
     1
102
RTVSPropertyOp25
 70
     1
102
RTVSPropertyOp26
 70
     1
102
RTVSPropertyOp27
 70
     1
102
RTVSPropertyOp28
 70
     1
102
RTVSPropertyOp29
 70
     1
102
RTVSPropertyOp30
 70
     1
102
RTVSPropertyOp31
 70
     1
102
RTVSPropertyOp32
 70
     1
102
RTVSPropertyOp33
 70
     1
102
RTVSPropertyOp34
 70
     1
102
RTVSPropertyOp35
 70
     1
102
RTVSPropertyOp36
 70
     1
102
RTVSPropertyOp37
 70
     1
102
RTVSPropertyOp38
 70
     1
102
RTVSPropertyOp39
 70
     1
102
RTVSPropertyOp40
 70
     1
102
RTVSPropertyOp41
 70
     1
102
RTVSPropertyOp42
 70
     1
102
RTVSPropertyOp43
 70
     1
102
RTVSPropertyOp44
 70
     1
102
RTVSPropertyOp45
 70
     1
102
RTVSPropertyOp46
 70
     1
102
RTVSPropertyOp47
 70
     1
102
RTVSPropertyOp48
 70
     1
102
RTVSPropertyOp49
 70
     1
102
RTVSPropertyOp50
 70
     1
102
RTVSPropertyOp51
 70
     0
102
RTVSPropertyOp52
 70
     0
102
RTVSPropertyOp53
 70
     1
102
RTVSPropertyOp54
 70
     1
102
RTVSPropertyOp55
 70
     1
102
RTVSPropertyOp56
 70
     1
102
RTVSPropertyOp57
 70
     1
102
RTVSPropertyOp58
 70
     1
102
RTVSPropertyOp59
 70
     1
102
RTVSPropertyOp60
 70
     1
102
RTVSPropertyOp61
 70
     1
102
RTVSPropertyOp62
 70
     1
  0
XRECORD
  5
703
102
{ACAD_REACTORS
330
702
102
}
330
702
100
AcDbXrecord
280
     1
102
RTVSPost2010Prop28
280
     0
102
RTVSPost2010PropOp28
 70
     1
102
RTVSPost2010Prop29
280
     1
102
RTVSPost2010PropOp29
 70
     1
102
RTVSPost2010Prop30
280
     1
102
RTVSPost2010PropOp30
 70
     1
102
RTVSPost2010Prop31
280
     0
102
RTVSPost2010PropOp31
 70
     1
102
RTVSPost2010Prop32
280
     0
102
RTVSPost2010PropOp32
 70
     1
102
RTVSPost2010Prop33
280
     0
102
RTVSPost2010PropOp33
 70
     1
102
RTVSPost2010Prop34
280
     0
102
RTVSPost2010PropOp34
 70
     1
102
RTVSPost2010Prop35
280
     0
102
RTVSPost2010PropOp35
 70
     1
102
RTVSPost2010Prop36
280
     0
102
RTVSPost2010PropOp36
 70
     1
102
RTVSPost2010Prop37
 90
       50
102
RTVSPost2010PropOp37
 70
     1
102
RTVSPost2010Prop38
140
0.0
102
RTVSPost2010PropOp38
 70
     1
102
RTVSPost2010Prop39
140
1.0
102
RTVSPost2010PropOp39
 70
     1
102
RTVSPost2010Prop40
 90
        0
102
RTVSPost2010PropOp40
 70
     1
102
RTVSPost2010Prop41ColorIndex
 90
       18
102
RTVSPost2010Prop41ColorRGB
 90
        0
102
RTVSPost2010PropOp41
 70
     1
102
RTVSPost2010Prop42
 90
       50
102
RTVSPost2010PropOp42
 70
     1
102
RTVSPost2010Prop43
 90
        3
102
RTVSPost2010PropOp43
 70
     1
102
RTVSPost2010Prop44ColorIndex
 90
        5
102
RTVSPost2010Prop44ColorRGB
 90
      255
102
RTVSPost2010PropOp44
 70
     1
102
RTVSPost2010Prop45
280
     0
102
RTVSPost2010PropOp45
 70
     1
102
RTVSPost2010Prop46
 90
       50
102
RTVSPost2010PropOp46
 70
     1
102
RTVSPost2010Prop47
 90
       50
102
RTVSPost2010PropOp47
 70
     1
102
RTVSPost2010Prop48
 90
       50
102
RTVSPost2010PropOp48
 70
     1
102
RTVSPost2010Prop49
280
     0
102
RTVSPost2010PropOp49
 70
     1
102
RTVSPost2010Prop50
 90
       50
102
RTVSPost2010PropOp50
 70
     1
102
RTVSPost2010Prop51ColorIndex
 90
      256
102
RTVSPost2010Prop51ColorRGB
 90
-16777216
102
RTVSPost2010PropOp51
 70
     0
102
RTVSPost2010Prop52
140
1.0
102
RTVSPost2010PropOp52
 70
     0
102
RTVSPost2010Prop53
 90
        2
102
RTVSPost2010PropOp53
 70
     1
102
RTVSPost2010Prop54
  1
strokes_ogs.tif
102
RTVSPost2010PropOp54
 70
     1
102
RTVSPost2010Prop55
280
     0
102
RTVSPost2010PropOp55
 70
     1
102
RTVSPost2010Prop56
140
1.0
102
RTVSPost2010PropOp56
 70
     1
102
RTVSPost2010Prop57
140
1.0
102
RTVSPost2010PropOp57
 70
     1
102
RTVSPropertyOp0
 70
     1
102
RTVSPropertyOp1
 70
     1
102
RTVSPropertyOp2
 70
     1
102
RTVSPropertyOp3
 70
     1
102
RTVSPropertyOp4
 70
     1
102
RTVSPropertyOp5
 70
     1
102
RTVSPropertyOp6
 70
     1
102
RTVSPropertyOp7
 70
     1
102
RTVSPropertyOp8
 70
     1
102
RTVSPropertyOp9
 70
     1
102
RTVSPropertyOp10
 70
     1
102
RTVSPropertyOp11
 70
     1
102
RTVSPropertyOp12
 70
     1
102
RTVSPropertyOp13
 70
     1
102
RTVSPropertyOp14
 70
     1
102
RTVSPropertyOp15
 70
     1
102
RTVSPropertyOp16
 70
     1
102
RTVSPropertyOp17
 70
     1
102
RTVSPropertyOp18
 70
     1
102
RTVSPropertyOp19
 70
     1
102
RTVSPropertyOp20
 70
     1
102
RTVSPropertyOp21
 70
     1
102
RTVSPropertyOp22
 70
     1
102
RTVSPropertyOp23
 70
     1
102
RTVSPropertyOp24
 70
     1
102
RTVSPropertyOp25
 70
     1
102
RTVSPropertyOp26
 70
     1
102
RTVSPropertyOp27
 70
     1
102
RTVSPropertyOp28
 70
     1
102
RTVSPropertyOp29
 70
     1
102
RTVSPropertyOp30
 70
     1
102
RTVSPropertyOp31
 70
     1
102
RTVSPropertyOp32
 70
     1
102
RTVSPropertyOp33
 70
     1
102
RTVSPropertyOp34
 70
     1
102
RTVSPropertyOp35
 70
     1
102
RTVSPropertyOp36
 70
     1
102
RTVSPropertyOp37
 70
     1
102
RTVSPropertyOp38
 70
     1
102
RTVSPropertyOp39
 70
     1
102
RTVSPropertyOp40
 70
     1
102
RTVSPropertyOp41
 70
     1
102
RTVSPropertyOp42
 70
     1
102
RTVSPropertyOp43
 70
     1
102
RTVSPropertyOp44
 70
     1
102
RTVSPropertyOp45
 70
     1
102
RTVSPropertyOp46
 70
     1
102
RTVSPropertyOp47
 70
     1
102
RTVSPropertyOp48
 70
     1
102
RTVSPropertyOp49
 70
     1
102
RTVSPropertyOp50
 70
     1
102
RTVSPropertyOp51
 70
     0
102
RTVSPropertyOp52
 70
     0
102
RTVSPropertyOp53
 70
     1
102
RTVSPropertyOp54
 70
     1
102
RTVSPropertyOp55
 70
     1
102
RTVSPropertyOp56
 70
     1
102
RTVSPropertyOp57
 70
     1
102
RTVSPropertyOp58
 70
     1
102
RTVSPropertyOp59
 70
     1
102
RTVSPropertyOp60
 70
     1
102
RTVSPropertyOp61
 70
     1
102
RTVSPropertyOp62
 70
     1
  0
XRECORD
  5
705
102
{ACAD_REACTORS
330
704
102
}
330
704
100
AcDbXrecord
280
     1
102
RTVSPost2010Prop28
280
     0
102
RTVSPost2010PropOp28
 70
     1
102
RTVSPost2010Prop29
280
     1
102
RTVSPost2010PropOp29
 70
     1
102
RTVSPost2010Prop30
280
     1
102
RTVSPost2010PropOp30
 70
     1
102
RTVSPost2010Prop31
280
     0
102
RTVSPost2010PropOp31
 70
     1
102
RTVSPost2010Prop32
280
     0
102
RTVSPost2010PropOp32
 70
     1
102
RTVSPost2010Prop33
280
     0
102
RTVSPost2010PropOp33
 70
     1
102
RTVSPost2010Prop34
280
     0
102
RTVSPost2010PropOp34
 70
     1
102
RTVSPost2010Prop35
280
     0
102
RTVSPost2010PropOp35
 70
     1
102
RTVSPost2010Prop36
280
     0
102
RTVSPost2010PropOp36
 70
     1
102
RTVSPost2010Prop37
 90
       50
102
RTVSPost2010PropOp37
 70
     1
102
RTVSPost2010Prop38
140
0.0
102
RTVSPost2010PropOp38
 70
     1
102
RTVSPost2010Prop39
140
1.0
102
RTVSPost2010PropOp39
 70
     1
102
RTVSPost2010Prop40
 90
        0
102
RTVSPost2010PropOp40
 70
     1
102
RTVSPost2010Prop41ColorIndex
 90
       18
102
RTVSPost2010Prop41ColorRGB
 90
        0
102
RTVSPost2010PropOp41
 70
     1
102
RTVSPost2010Prop42
 90
       50
102
RTVSPost2010PropOp42
 70
     1
102
RTVSPost2010Prop43
 90
        3
102
RTVSPost2010PropOp43
 70
     1
102
RTVSPost2010Prop44ColorIndex
 90
        5
102
RTVSPost2010Prop44ColorRGB
 90
      255
102
RTVSPost2010PropOp44
 70
     1
102
RTVSPost2010Prop45
280
     0
102
RTVSPost2010PropOp45
 70
     1
102
RTVSPost2010Prop46
 90
       50
102
RTVSPost2010PropOp46
 70
     1
102
RTVSPost2010Prop47
 90
       50
102
RTVSPost2010PropOp47
 70
     1
102
RTVSPost2010Prop48
 90
       50
102
RTVSPost2010PropOp48
 70
     1
102
RTVSPost2010Prop49
280
     0
102
RTVSPost2010PropOp49
 70
     1
102
RTVSPost2010Prop50
 90
       50
102
RTVSPost2010PropOp50
 70
     1
102
RTVSPost2010Prop51ColorIndex
 90
      256
102
RTVSPost2010Prop51ColorRGB
 90
-16777216
102
RTVSPost2010PropOp51
 70
     0
102
RTVSPost2010Prop52
140
1.0
102
RTVSPost2010PropOp52
 70
     0
102
RTVSPost2010Prop53
 90
        2
102
RTVSPost2010PropOp53
 70
     1
102
RTVSPost2010Prop54
  1
strokes_ogs.tif
102
RTVSPost2010PropOp54
 70
     1
102
RTVSPost2010Prop55
280
     0
102
RTVSPost2010PropOp55
 70
     1
102
RTVSPost2010Prop56
140
1.0
102
RTVSPost2010PropOp56
 70
     1
102
RTVSPost2010Prop57
140
1.0
102
RTVSPost2010PropOp57
 70
     1
102
RTVSPropertyOp0
 70
     1
102
RTVSPropertyOp1
 70
     1
102
RTVSPropertyOp2
 70
     1
102
RTVSPropertyOp3
 70
     1
102
RTVSPropertyOp4
 70
     1
102
RTVSPropertyOp5
 70
     1
102
RTVSPropertyOp6
 70
     1
102
RTVSPropertyOp7
 70
     1
102
RTVSPropertyOp8
 70
     1
102
RTVSPropertyOp9
 70
     1
102
RTVSPropertyOp10
 70
     1
102
RTVSPropertyOp11
 70
     1
102
RTVSPropertyOp12
 70
     1
102
RTVSPropertyOp13
 70
     1
102
RTVSPropertyOp14
 70
     1
102
RTVSPropertyOp15
 70
     1
102
RTVSPropertyOp16
 70
     1
102
RTVSPropertyOp17
 70
     1
102
RTVSPropertyOp18
 70
     1
102
RTVSPropertyOp19
 70
     1
102
RTVSPropertyOp20
 70
     1
102
RTVSPropertyOp21
 70
     1
102
RTVSPropertyOp22
 70
     1
102
RTVSPropertyOp23
 70
     1
102
RTVSPropertyOp24
 70
     1
102
RTVSPropertyOp25
 70
     1
102
RTVSPropertyOp26
 70
     1
102
RTVSPropertyOp27
 70
     1
102
RTVSPropertyOp28
 70
     1
102
RTVSPropertyOp29
 70
     1
102
RTVSPropertyOp30
 70
     1
102
RTVSPropertyOp31
 70
     1
102
RTVSPropertyOp32
 70
     1
102
RTVSPropertyOp33
 70
     1
102
RTVSPropertyOp34
 70
     1
102
RTVSPropertyOp35
 70
     1
102
RTVSPropertyOp36
 70
     1
102
RTVSPropertyOp37
 70
     1
102
RTVSPropertyOp38
 70
     1
102
RTVSPropertyOp39
 70
     1
102
RTVSPropertyOp40
 70
     1
102
RTVSPropertyOp41
 70
     1
102
RTVSPropertyOp42
 70
     1
102
RTVSPropertyOp43
 70
     1
102
RTVSPropertyOp44
 70
     1
102
RTVSPropertyOp45
 70
     1
102
RTVSPropertyOp46
 70
     1
102
RTVSPropertyOp47
 70
     1
102
RTVSPropertyOp48
 70
     1
102
RTVSPropertyOp49
 70
     1
102
RTVSPropertyOp50
 70
     1
102
RTVSPropertyOp51
 70
     0
102
RTVSPropertyOp52
 70
     0
102
RTVSPropertyOp53
 70
     1
102
RTVSPropertyOp54
 70
     1
102
RTVSPropertyOp55
 70
     1
102
RTVSPropertyOp56
 70
     1
102
RTVSPropertyOp57
 70
     1
102
RTVSPropertyOp58
 70
     1
102
RTVSPropertyOp59
 70
     1
102
RTVSPropertyOp60
 70
     1
102
RTVSPropertyOp61
 70
     1
102
RTVSPropertyOp62
 70
     1
  0
XRECORD
  5
70D
102
{ACAD_REACTORS
330
70C
102
}
330
70C
100
AcDbXrecord
280
     1
102
RTVSPost2010Prop28
280
     0
102
RTVSPost2010PropOp28
 70
     1
102
RTVSPost2010Prop29
280
     1
102
RTVSPost2010PropOp29
 70
     1
102
RTVSPost2010Prop30
280
     1
102
RTVSPost2010PropOp30
 70
     1
102
RTVSPost2010Prop31
280
     0
102
RTVSPost2010PropOp31
 70
     1
102
RTVSPost2010Prop32
280
     0
102
RTVSPost2010PropOp32
 70
     1
102
RTVSPost2010Prop33
280
     0
102
RTVSPost2010PropOp33
 70
     1
102
RTVSPost2010Prop34
280
     0
102
RTVSPost2010PropOp34
 70
     1
102
RTVSPost2010Prop35
280
     0
102
RTVSPost2010PropOp35
 70
     1
102
RTVSPost2010Prop36
280
     0
102
RTVSPost2010PropOp36
 70
     1
102
RTVSPost2010Prop37
 90
       50
102
RTVSPost2010PropOp37
 70
     1
102
RTVSPost2010Prop38
140
0.0
102
RTVSPost2010PropOp38
 70
     1
102
RTVSPost2010Prop39
140
1.0
102
RTVSPost2010PropOp39
 70
     1
102
RTVSPost2010Prop40
 90
        0
102
RTVSPost2010PropOp40
 70
     1
102
RTVSPost2010Prop41ColorIndex
 90
       18
102
RTVSPost2010Prop41ColorRGB
 90
        0
102
RTVSPost2010PropOp41
 70
     1
102
RTVSPost2010Prop42
 90
       50
102
RTVSPost2010PropOp42
 70
     1
102
RTVSPost2010Prop43
 90
        3
102
RTVSPost2010PropOp43
 70
     1
102
RTVSPost2010Prop44ColorIndex
 90
        5
102
RTVSPost2010Prop44ColorRGB
 90
      255
102
RTVSPost2010PropOp44
 70
     1
102
RTVSPost2010Prop45
280
     0
102
RTVSPost2010PropOp45
 70
     1
102
RTVSPost2010Prop46
 90
       50
102
RTVSPost2010PropOp46
 70
     1
102
RTVSPost2010Prop47
 90
       50
102
RTVSPost2010PropOp47
 70
     1
102
RTVSPost2010Prop48
 90
       50
102
RTVSPost2010PropOp48
 70
     1
102
RTVSPost2010Prop49
280
     0
102
RTVSPost2010PropOp49
 70
     1
102
RTVSPost2010Prop50
 90
       50
102
RTVSPost2010PropOp50
 70
     1
102
RTVSPost2010Prop51ColorIndex
 90
      256
102
RTVSPost2010Prop51ColorRGB
 90
-16777216
102
RTVSPost2010PropOp51
 70
     0
102
RTVSPost2010Prop52
140
1.0
102
RTVSPost2010PropOp52
 70
     0
102
RTVSPost2010Prop53
 90
        2
102
RTVSPost2010PropOp53
 70
     1
102
RTVSPost2010Prop54
  1
strokes_ogs.tif
102
RTVSPost2010PropOp54
 70
     1
102
RTVSPost2010Prop55
280
     0
102
RTVSPost2010PropOp55
 70
     1
102
RTVSPost2010Prop56
140
1.0
102
RTVSPost2010PropOp56
 70
     1
102
RTVSPost2010Prop57
140
1.0
102
RTVSPost2010PropOp57
 70
     1
102
RTVSPropertyOp0
 70
     1
102
RTVSPropertyOp1
 70
     1
102
RTVSPropertyOp2
 70
     1
102
RTVSPropertyOp3
 70
     1
102
RTVSPropertyOp4
 70
     1
102
RTVSPropertyOp5
 70
     1
102
RTVSPropertyOp6
 70
     1
102
RTVSPropertyOp7
 70
     1
102
RTVSPropertyOp8
 70
     1
102
RTVSPropertyOp9
 70
     1
102
RTVSPropertyOp10
 70
     1
102
RTVSPropertyOp11
 70
     1
102
RTVSPropertyOp12
 70
     1
102
RTVSPropertyOp13
 70
     1
102
RTVSPropertyOp14
 70
     1
102
RTVSPropertyOp15
 70
     1
102
RTVSPropertyOp16
 70
     1
102
RTVSPropertyOp17
 70
     1
102
RTVSPropertyOp18
 70
     1
102
RTVSPropertyOp19
 70
     1
102
RTVSPropertyOp20
 70
     1
102
RTVSPropertyOp21
 70
     1
102
RTVSPropertyOp22
 70
     1
102
RTVSPropertyOp23
 70
     1
102
RTVSPropertyOp24
 70
     1
102
RTVSPropertyOp25
 70
     1
102
RTVSPropertyOp26
 70
     1
102
RTVSPropertyOp27
 70
     1
102
RTVSPropertyOp28
 70
     1
102
RTVSPropertyOp29
 70
     1
102
RTVSPropertyOp30
 70
     1
102
RTVSPropertyOp31
 70
     1
102
RTVSPropertyOp32
 70
     1
102
RTVSPropertyOp33
 70
     1
102
RTVSPropertyOp34
 70
     1
102
RTVSPropertyOp35
 70
     1
102
RTVSPropertyOp36
 70
     1
102
RTVSPropertyOp37
 70
     1
102
RTVSPropertyOp38
 70
     1
102
RTVSPropertyOp39
 70
     1
102
RTVSPropertyOp40
 70
     1
102
RTVSPropertyOp41
 70
     1
102
RTVSPropertyOp42
 70
     1
102
RTVSPropertyOp43
 70
     1
102
RTVSPropertyOp44
 70
     1
102
RTVSPropertyOp45
 70
     1
102
RTVSPropertyOp46
 70
     1
102
RTVSPropertyOp47
 70
     1
102
RTVSPropertyOp48
 70
     1
102
RTVSPropertyOp49
 70
     1
102
RTVSPropertyOp50
 70
     1
102
RTVSPropertyOp51
 70
     0
102
RTVSPropertyOp52
 70
     0
102
RTVSPropertyOp53
 70
     1
102
RTVSPropertyOp54
 70
     1
102
RTVSPropertyOp55
 70
     1
102
RTVSPropertyOp56
 70
     1
102
RTVSPropertyOp57
 70
     1
102
RTVSPropertyOp58
 70
     1
102
RTVSPropertyOp59
 70
     1
102
RTVSPropertyOp60
 70
     1
102
RTVSPropertyOp61
 70
     1
102
RTVSPropertyOp62
 70
     1
  0
XRECORD
  5
729
102
{ACAD_REACTORS
330
728
102
}
330
728
100
AcDbXrecord
280
     1
102
RTVSPost2010Prop28
280
     0
102
RTVSPost2010PropOp28
 70
     0
102
RTVSPost2010Prop29
280
     1
102
RTVSPost2010PropOp29
 70
     0
102
RTVSPost2010Prop30
280
     1
102
RTVSPost2010PropOp30
 70
     0
102
RTVSPost2010Prop31
280
     0
102
RTVSPost2010PropOp31
 70
     0
102
RTVSPost2010Prop32
280
     0
102
RTVSPost2010PropOp32
 70
     0
102
RTVSPost2010Prop33
280
     0
102
RTVSPost2010PropOp33
 70
     0
102
RTVSPost2010Prop34
280
     0
102
RTVSPost2010PropOp34
 70
     0
102
RTVSPost2010Prop35
280
     0
102
RTVSPost2010PropOp35
 70
     0
102
RTVSPost2010Prop36
280
     0
102
RTVSPost2010PropOp36
 70
     0
102
RTVSPost2010Prop37
 90
       50
102
RTVSPost2010PropOp37
 70
     0
102
RTVSPost2010Prop38
140
0.0
102
RTVSPost2010PropOp38
 70
     0
102
RTVSPost2010Prop39
140
1.0
102
RTVSPost2010PropOp39
 70
     0
102
RTVSPost2010Prop40
 90
        0
102
RTVSPost2010PropOp40
 70
     0
102
RTVSPost2010Prop41ColorIndex
 90
       18
102
RTVSPost2010Prop41ColorRGB
 90
        0
102
RTVSPost2010PropOp41
 70
     0
102
RTVSPost2010Prop42
 90
       50
102
RTVSPost2010PropOp42
 70
     0
102
RTVSPost2010Prop43
 90
        3
102
RTVSPost2010PropOp43
 70
     0
102
RTVSPost2010Prop44ColorIndex
 90
        5
102
RTVSPost2010Prop44ColorRGB
 90
      255
102
RTVSPost2010PropOp44
 70
     0
102
RTVSPost2010Prop45
280
     0
102
RTVSPost2010PropOp45
 70
     0
102
RTVSPost2010Prop46
 90
       50
102
RTVSPost2010PropOp46
 70
     0
102
RTVSPost2010Prop47
 90
       50
102
RTVSPost2010PropOp47
 70
     0
102
RTVSPost2010Prop48
 90
       50
102
RTVSPost2010PropOp48
 70
     0
102
RTVSPost2010Prop49
280
     0
102
RTVSPost2010PropOp49
 70
     0
102
RTVSPost2010Prop50
 90
       50
102
RTVSPost2010PropOp50
 70
     0
102
RTVSPost2010Prop51ColorIndex
 90
      256
102
RTVSPost2010Prop51ColorRGB
 90
-16777216
102
RTVSPost2010PropOp51
 70
     0
102
RTVSPost2010Prop52
140
1.0
102
RTVSPost2010PropOp52
 70
     0
102
RTVSPost2010Prop53
 90
        2
102
RTVSPost2010PropOp53
 70
     0
102
RTVSPost2010Prop54
  1
strokes_ogs.tif
102
RTVSPost2010PropOp54
 70
     0
102
RTVSPost2010Prop55
280
     0
102
RTVSPost2010PropOp55
 70
     0
102
RTVSPost2010Prop56
140
1.0
102
RTVSPost2010PropOp56
 70
     0
102
RTVSPost2010Prop57
140
1.0
102
RTVSPost2010PropOp57
 70
     0
102
RTVSPropertyOp0
 70
     0
102
RTVSPropertyOp1
 70
     0
102
RTVSPropertyOp2
 70
     0
102
RTVSPropertyOp3
 70
     0
102
RTVSPropertyOp4
 70
     0
102
RTVSPropertyOp5
 70
     0
102
RTVSPropertyOp6
 70
     0
102
RTVSPropertyOp7
 70
     0
102
RTVSPropertyOp8
 70
     0
102
RTVSPropertyOp9
 70
     0
102
RTVSPropertyOp10
 70
     0
102
RTVSPropertyOp11
 70
     0
102
RTVSPropertyOp12
 70
     0
102
RTVSPropertyOp13
 70
     0
102
RTVSPropertyOp14
 70
     2
102
RTVSPropertyOp15
 70
     0
102
RTVSPropertyOp16
 70
     0
102
RTVSPropertyOp17
 70
     0
102
RTVSPropertyOp18
 70
     0
102
RTVSPropertyOp19
 70
     0
102
RTVSPropertyOp20
 70
     0
102
RTVSPropertyOp21
 70
     0
102
RTVSPropertyOp22
 70
     0
102
RTVSPropertyOp23
 70
     0
102
RTVSPropertyOp24
 70
     0
102
RTVSPropertyOp25
 70
     0
102
RTVSPropertyOp26
 70
     0
102
RTVSPropertyOp27
 70
     0
102
RTVSPropertyOp28
 70
     0
102
RTVSPropertyOp29
 70
     0
102
RTVSPropertyOp30
 70
     0
102
RTVSPropertyOp31
 70
     0
102
RTVSPropertyOp32
 70
     0
102
RTVSPropertyOp33
 70
     0
102
RTVSPropertyOp34
 70
     0
102
RTVSPropertyOp35
 70
     0
102
RTVSPropertyOp36
 70
     0
102
RTVSPropertyOp37
 70
     0
102
RTVSPropertyOp38
 70
     0
102
RTVSPropertyOp39
 70
     0
102
RTVSPropertyOp40
 70
     0
102
RTVSPropertyOp41
 70
     0
102
RTVSPropertyOp42
 70
     0
102
RTVSPropertyOp43
 70
     0
102
RTVSPropertyOp44
 70
     0
102
RTVSPropertyOp45
 70
     0
102
RTVSPropertyOp46
 70
     0
102
RTVSPropertyOp47
 70
     0
102
RTVSPropertyOp48
 70
     0
102
RTVSPropertyOp49
 70
     0
102
RTVSPropertyOp50
 70
     0
102
RTVSPropertyOp51
 70
     0
102
RTVSPropertyOp52
 70
     0
102
RTVSPropertyOp53
 70
     0
102
RTVSPropertyOp54
 70
     0
102
RTVSPropertyOp55
 70
     0
102
RTVSPropertyOp56
 70
     0
102
RTVSPropertyOp57
 70
     0
102
RTVSPropertyOp58
 70
     0
102
RTVSPropertyOp59
 70
     0
102
RTVSPropertyOp60
 70
     0
102
RTVSPropertyOp61
 70
     0
102
RTVSPropertyOp62
 70
     0
  0
XRECORD
  5
719
102
{ACAD_REACTORS
330
718
102
}
330
718
100
AcDbXrecord
280
     1
102
RTVSPost2010Prop28
280
     0
102
RTVSPost2010PropOp28
 70
     1
102
RTVSPost2010Prop29
280
     1
102
RTVSPost2010PropOp29
 70
     1
102
RTVSPost2010Prop30
280
     1
102
RTVSPost2010PropOp30
 70
     1
102
RTVSPost2010Prop31
280
     0
102
RTVSPost2010PropOp31
 70
     1
102
RTVSPost2010Prop32
280
     0
102
RTVSPost2010PropOp32
 70
     1
102
RTVSPost2010Prop33
280
     0
102
RTVSPost2010PropOp33
 70
     1
102
RTVSPost2010Prop34
280
     0
102
RTVSPost2010PropOp34
 70
     1
102
RTVSPost2010Prop35
280
     0
102
RTVSPost2010PropOp35
 70
     1
102
RTVSPost2010Prop36
280
     0
102
RTVSPost2010PropOp36
 70
     1
102
RTVSPost2010Prop37
 90
       50
102
RTVSPost2010PropOp37
 70
     1
102
RTVSPost2010Prop38
140
0.0
102
RTVSPost2010PropOp38
 70
     1
102
RTVSPost2010Prop39
140
1.0
102
RTVSPost2010PropOp39
 70
     1
102
RTVSPost2010Prop40
 90
        0
102
RTVSPost2010PropOp40
 70
     1
102
RTVSPost2010Prop41ColorIndex
 90
       18
102
RTVSPost2010Prop41ColorRGB
 90
        0
102
RTVSPost2010PropOp41
 70
     1
102
RTVSPost2010Prop42
 90
       50
102
RTVSPost2010PropOp42
 70
     1
102
RTVSPost2010Prop43
 90
        3
102
RTVSPost2010PropOp43
 70
     1
102
RTVSPost2010Prop44ColorIndex
 90
        5
102
RTVSPost2010Prop44ColorRGB
 90
      255
102
RTVSPost2010PropOp44
 70
     1
102
RTVSPost2010Prop45
280
     0
102
RTVSPost2010PropOp45
 70
     1
102
RTVSPost2010Prop46
 90
       50
102
RTVSPost2010PropOp46
 70
     1
102
RTVSPost2010Prop47
 90
       50
102
RTVSPost2010PropOp47
 70
     1
102
RTVSPost2010Prop48
 90
       50
102
RTVSPost2010PropOp48
 70
     1
102
RTVSPost2010Prop49
280
     0
102
RTVSPost2010PropOp49
 70
     1
102
RTVSPost2010Prop50
 90
       50
102
RTVSPost2010PropOp50
 70
     1
102
RTVSPost2010Prop51ColorIndex
 90
      256
102
RTVSPost2010Prop51ColorRGB
 90
-16777216
102
RTVSPost2010PropOp51
 70
     0
102
RTVSPost2010Prop52
140
1.0
102
RTVSPost2010PropOp52
 70
     0
102
RTVSPost2010Prop53
 90
        2
102
RTVSPost2010PropOp53
 70
     1
102
RTVSPost2010Prop54
  1
strokes_ogs.tif
102
RTVSPost2010PropOp54
 70
     1
102
RTVSPost2010Prop55
280
     0
102
RTVSPost2010PropOp55
 70
     1
102
RTVSPost2010Prop56
140
1.0
102
RTVSPost2010PropOp56
 70
     1
102
RTVSPost2010Prop57
140
1.0
102
RTVSPost2010PropOp57
 70
     1
102
RTVSPropertyOp0
 70
     1
102
RTVSPropertyOp1
 70
     1
102
RTVSPropertyOp2
 70
     1
102
RTVSPropertyOp3
 70
     1
102
RTVSPropertyOp4
 70
     1
102
RTVSPropertyOp5
 70
     1
102
RTVSPropertyOp6
 70
     1
102
RTVSPropertyOp7
 70
     1
102
RTVSPropertyOp8
 70
     1
102
RTVSPropertyOp9
 70
     1
102
RTVSPropertyOp10
 70
     1
102
RTVSPropertyOp11
 70
     1
102
RTVSPropertyOp12
 70
     1
102
RTVSPropertyOp13
 70
     1
102
RTVSPropertyOp14
 70
     1
102
RTVSPropertyOp15
 70
     1
102
RTVSPropertyOp16
 70
     1
102
RTVSPropertyOp17
 70
     1
102
RTVSPropertyOp18
 70
     1
102
RTVSPropertyOp19
 70
     1
102
RTVSPropertyOp20
 70
     1
102
RTVSPropertyOp21
 70
     1
102
RTVSPropertyOp22
 70
     1
102
RTVSPropertyOp23
 70
     1
102
RTVSPropertyOp24
 70
     1
102
RTVSPropertyOp25
 70
     1
102
RTVSPropertyOp26
 70
     1
102
RTVSPropertyOp27
 70
     1
102
RTVSPropertyOp28
 70
     1
102
RTVSPropertyOp29
 70
     1
102
RTVSPropertyOp30
 70
     1
102
RTVSPropertyOp31
 70
     1
102
RTVSPropertyOp32
 70
     1
102
RTVSPropertyOp33
 70
     1
102
RTVSPropertyOp34
 70
     1
102
RTVSPropertyOp35
 70
     1
102
RTVSPropertyOp36
 70
     1
102
RTVSPropertyOp37
 70
     1
102
RTVSPropertyOp38
 70
     1
102
RTVSPropertyOp39
 70
     1
102
RTVSPropertyOp40
 70
     1
102
RTVSPropertyOp41
 70
     1
102
RTVSPropertyOp42
 70
     1
102
RTVSPropertyOp43
 70
     1
102
RTVSPropertyOp44
 70
     1
102
RTVSPropertyOp45
 70
     1
102
RTVSPropertyOp46
 70
     1
102
RTVSPropertyOp47
 70
     1
102
RTVSPropertyOp48
 70
     1
102
RTVSPropertyOp49
 70
     1
102
RTVSPropertyOp50
 70
     1
102
RTVSPropertyOp51
 70
     0
102
RTVSPropertyOp52
 70
     0
102
RTVSPropertyOp53
 70
     1
102
RTVSPropertyOp54
 70
     1
102
RTVSPropertyOp55
 70
     1
102
RTVSPropertyOp56
 70
     1
102
RTVSPropertyOp57
 70
     1
102
RTVSPropertyOp58
 70
     1
102
RTVSPropertyOp59
 70
     1
102
RTVSPropertyOp60
 70
     1
102
RTVSPropertyOp61
 70
     1
102
RTVSPropertyOp62
 70
     1
  0
XRECORD
  5
72B
102
{ACAD_REACTORS
330
72A
102
}
330
72A
100
AcDbXrecord
280
     1
102
RTVSPost2010Prop28
280
     0
102
RTVSPost2010PropOp28
 70
     0
102
RTVSPost2010Prop29
280
     1
102
RTVSPost2010PropOp29
 70
     0
102
RTVSPost2010Prop30
280
     1
102
RTVSPost2010PropOp30
 70
     0
102
RTVSPost2010Prop31
280
     0
102
RTVSPost2010PropOp31
 70
     0
102
RTVSPost2010Prop32
280
     0
102
RTVSPost2010PropOp32
 70
     0
102
RTVSPost2010Prop33
280
     0
102
RTVSPost2010PropOp33
 70
     0
102
RTVSPost2010Prop34
280
     0
102
RTVSPost2010PropOp34
 70
     0
102
RTVSPost2010Prop35
280
     0
102
RTVSPost2010PropOp35
 70
     0
102
RTVSPost2010Prop36
280
     0
102
RTVSPost2010PropOp36
 70
     0
102
RTVSPost2010Prop37
 90
       50
102
RTVSPost2010PropOp37
 70
     0
102
RTVSPost2010Prop38
140
0.0
102
RTVSPost2010PropOp38
 70
     0
102
RTVSPost2010Prop39
140
1.0
102
RTVSPost2010PropOp39
 70
     0
102
RTVSPost2010Prop40
 90
        0
102
RTVSPost2010PropOp40
 70
     0
102
RTVSPost2010Prop41ColorIndex
 90
       18
102
RTVSPost2010Prop41ColorRGB
 90
        0
102
RTVSPost2010PropOp41
 70
     0
102
RTVSPost2010Prop42
 90
       50
102
RTVSPost2010PropOp42
 70
     0
102
RTVSPost2010Prop43
 90
        3
102
RTVSPost2010PropOp43
 70
     0
102
RTVSPost2010Prop44ColorIndex
 90
        5
102
RTVSPost2010Prop44ColorRGB
 90
      255
102
RTVSPost2010PropOp44
 70
     0
102
RTVSPost2010Prop45
280
     0
102
RTVSPost2010PropOp45
 70
     0
102
RTVSPost2010Prop46
 90
       50
102
RTVSPost2010PropOp46
 70
     0
102
RTVSPost2010Prop47
 90
       50
102
RTVSPost2010PropOp47
 70
     0
102
RTVSPost2010Prop48
 90
       50
102
RTVSPost2010PropOp48
 70
     0
102
RTVSPost2010Prop49
280
     0
102
RTVSPost2010PropOp49
 70
     0
102
RTVSPost2010Prop50
 90
       50
102
RTVSPost2010PropOp50
 70
     0
102
RTVSPost2010Prop51ColorIndex
 90
      256
102
RTVSPost2010Prop51ColorRGB
 90
-16777216
102
RTVSPost2010PropOp51
 70
     0
102
RTVSPost2010Prop52
140
1.0
102
RTVSPost2010PropOp52
 70
     0
102
RTVSPost2010Prop53
 90
        2
102
RTVSPost2010PropOp53
 70
     0
102
RTVSPost2010Prop54
  1
strokes_ogs.tif
102
RTVSPost2010PropOp54
 70
     0
102
RTVSPost2010Prop55
280
     0
102
RTVSPost2010PropOp55
 70
     0
102
RTVSPost2010Prop56
140
1.0
102
RTVSPost2010PropOp56
 70
     0
102
RTVSPost2010Prop57
140
1.0
102
RTVSPost2010PropOp57
 70
     0
102
RTVSPropertyOp0
 70
     0
102
RTVSPropertyOp1
 70
     0
102
RTVSPropertyOp2
 70
     0
102
RTVSPropertyOp3
 70
     0
102
RTVSPropertyOp4
 70
     0
102
RTVSPropertyOp5
 70
     0
102
RTVSPropertyOp6
 70
     0
102
RTVSPropertyOp7
 70
     0
102
RTVSPropertyOp8
 70
     0
102
RTVSPropertyOp9
 70
     0
102
RTVSPropertyOp10
 70
     0
102
RTVSPropertyOp11
 70
     0
102
RTVSPropertyOp12
 70
     0
102
RTVSPropertyOp13
 70
     0
102
RTVSPropertyOp14
 70
     2
102
RTVSPropertyOp15
 70
     0
102
RTVSPropertyOp16
 70
     0
102
RTVSPropertyOp17
 70
     0
102
RTVSPropertyOp18
 70
     0
102
RTVSPropertyOp19
 70
     0
102
RTVSPropertyOp20
 70
     0
102
RTVSPropertyOp21
 70
     0
102
RTVSPropertyOp22
 70
     0
102
RTVSPropertyOp23
 70
     0
102
RTVSPropertyOp24
 70
     0
102
RTVSPropertyOp25
 70
     0
102
RTVSPropertyOp26
 70
     0
102
RTVSPropertyOp27
 70
     0
102
RTVSPropertyOp28
 70
     0
102
RTVSPropertyOp29
 70
     0
102
RTVSPropertyOp30
 70
     0
102
RTVSPropertyOp31
 70
     0
102
RTVSPropertyOp32
 70
     0
102
RTVSPropertyOp33
 70
     0
102
RTVSPropertyOp34
 70
     0
102
RTVSPropertyOp35
 70
     0
102
RTVSPropertyOp36
 70
     0
102
RTVSPropertyOp37
 70
     0
102
RTVSPropertyOp38
 70
     0
102
RTVSPropertyOp39
 70
     0
102
RTVSPropertyOp40
 70
     0
102
RTVSPropertyOp41
 70
     0
102
RTVSPropertyOp42
 70
     0
102
RTVSPropertyOp43
 70
     0
102
RTVSPropertyOp44
 70
     0
102
RTVSPropertyOp45
 70
     0
102
RTVSPropertyOp46
 70
     0
102
RTVSPropertyOp47
 70
     0
102
RTVSPropertyOp48
 70
     0
102
RTVSPropertyOp49
 70
     0
102
RTVSPropertyOp50
 70
     0
102
RTVSPropertyOp51
 70
     0
102
RTVSPropertyOp52
 70
     0
102
RTVSPropertyOp53
 70
     0
102
RTVSPropertyOp54
 70
     0
102
RTVSPropertyOp55
 70
     0
102
RTVSPropertyOp56
 70
     0
102
RTVSPropertyOp57
 70
     0
102
RTVSPropertyOp58
 70
     0
102
RTVSPropertyOp59
 70
     0
102
RTVSPropertyOp60
 70
     0
102
RTVSPropertyOp61
 70
     0
102
RTVSPropertyOp62
 70
     0
  0
XRECORD
  5
711
102
{ACAD_REACTORS
330
710
102
}
330
710
100
AcDbXrecord
280
     1
102
RTVSPost2010Prop28
280
     0
102
RTVSPost2010PropOp28
 70
     1
102
RTVSPost2010Prop29
280
     1
102
RTVSPost2010PropOp29
 70
     1
102
RTVSPost2010Prop30
280
     1
102
RTVSPost2010PropOp30
 70
     1
102
RTVSPost2010Prop31
280
     0
102
RTVSPost2010PropOp31
 70
     1
102
RTVSPost2010Prop32
280
     0
102
RTVSPost2010PropOp32
 70
     1
102
RTVSPost2010Prop33
280
     0
102
RTVSPost2010PropOp33
 70
     1
102
RTVSPost2010Prop34
280
     0
102
RTVSPost2010PropOp34
 70
     1
102
RTVSPost2010Prop35
280
     0
102
RTVSPost2010PropOp35
 70
     1
102
RTVSPost2010Prop36
280
     0
102
RTVSPost2010PropOp36
 70
     1
102
RTVSPost2010Prop37
 90
       50
102
RTVSPost2010PropOp37
 70
     1
102
RTVSPost2010Prop38
140
0.0
102
RTVSPost2010PropOp38
 70
     1
102
RTVSPost2010Prop39
140
1.0
102
RTVSPost2010PropOp39
 70
     1
102
RTVSPost2010Prop40
 90
        0
102
RTVSPost2010PropOp40
 70
     1
102
RTVSPost2010Prop41ColorIndex
 90
       18
102
RTVSPost2010Prop41ColorRGB
 90
        0
102
RTVSPost2010PropOp41
 70
     1
102
RTVSPost2010Prop42
 90
       50
102
RTVSPost2010PropOp42
 70
     1
102
RTVSPost2010Prop43
 90
        3
102
RTVSPost2010PropOp43
 70
     1
102
RTVSPost2010Prop44ColorIndex
 90
        5
102
RTVSPost2010Prop44ColorRGB
 90
      255
102
RTVSPost2010PropOp44
 70
     1
102
RTVSPost2010Prop45
280
     0
102
RTVSPost2010PropOp45
 70
     1
102
RTVSPost2010Prop46
 90
       50
102
RTVSPost2010PropOp46
 70
     1
102
RTVSPost2010Prop47
 90
       50
102
RTVSPost2010PropOp47
 70
     1
102
RTVSPost2010Prop48
 90
       50
102
RTVSPost2010PropOp48
 70
     1
102
RTVSPost2010Prop49
280
     0
102
RTVSPost2010PropOp49
 70
     1
102
RTVSPost2010Prop50
 90
       50
102
RTVSPost2010PropOp50
 70
     1
102
RTVSPost2010Prop51ColorIndex
 90
      256
102
RTVSPost2010Prop51ColorRGB
 90
-16777216
102
RTVSPost2010PropOp51
 70
     0
102
RTVSPost2010Prop52
140
1.0
102
RTVSPost2010PropOp52
 70
     0
102
RTVSPost2010Prop53
 90
        2
102
RTVSPost2010PropOp53
 70
     1
102
RTVSPost2010Prop54
  1
strokes_ogs.tif
102
RTVSPost2010PropOp54
 70
     1
102
RTVSPost2010Prop55
280
     0
102
RTVSPost2010PropOp55
 70
     1
102
RTVSPost2010Prop56
140
1.0
102
RTVSPost2010PropOp56
 70
     1
102
RTVSPost2010Prop57
140
1.0
102
RTVSPost2010PropOp57
 70
     1
102
RTVSPropertyOp0
 70
     1
102
RTVSPropertyOp1
 70
     1
102
RTVSPropertyOp2
 70
     1
102
RTVSPropertyOp3
 70
     1
102
RTVSPropertyOp4
 70
     1
102
RTVSPropertyOp5
 70
     1
102
RTVSPropertyOp6
 70
     1
102
RTVSPropertyOp7
 70
     1
102
RTVSPropertyOp8
 70
     1
102
RTVSPropertyOp9
 70
     1
102
RTVSPropertyOp10
 70
     1
102
RTVSPropertyOp11
 70
     1
102
RTVSPropertyOp12
 70
     1
102
RTVSPropertyOp13
 70
     1
102
RTVSPropertyOp14
 70
     1
102
RTVSPropertyOp15
 70
     1
102
RTVSPropertyOp16
 70
     1
102
RTVSPropertyOp17
 70
     1
102
RTVSPropertyOp18
 70
     1
102
RTVSPropertyOp19
 70
     1
102
RTVSPropertyOp20
 70
     1
102
RTVSPropertyOp21
 70
     1
102
RTVSPropertyOp22
 70
     1
102
RTVSPropertyOp23
 70
     1
102
RTVSPropertyOp24
 70
     1
102
RTVSPropertyOp25
 70
     1
102
RTVSPropertyOp26
 70
     1
102
RTVSPropertyOp27
 70
     1
102
RTVSPropertyOp28
 70
     1
102
RTVSPropertyOp29
 70
     1
102
RTVSPropertyOp30
 70
     1
102
RTVSPropertyOp31
 70
     1
102
RTVSPropertyOp32
 70
     1
102
RTVSPropertyOp33
 70
     1
102
RTVSPropertyOp34
 70
     1
102
RTVSPropertyOp35
 70
     1
102
RTVSPropertyOp36
 70
     1
102
RTVSPropertyOp37
 70
     1
102
RTVSPropertyOp38
 70
     1
102
RTVSPropertyOp39
 70
     1
102
RTVSPropertyOp40
 70
     1
102
RTVSPropertyOp41
 70
     1
102
RTVSPropertyOp42
 70
     1
102
RTVSPropertyOp43
 70
     1
102
RTVSPropertyOp44
 70
     1
102
RTVSPropertyOp45
 70
     1
102
RTVSPropertyOp46
 70
     1
102
RTVSPropertyOp47
 70
     1
102
RTVSPropertyOp48
 70
     1
102
RTVSPropertyOp49
 70
     1
102
RTVSPropertyOp50
 70
     1
102
RTVSPropertyOp51
 70
     0
102
RTVSPropertyOp52
 70
     0
102
RTVSPropertyOp53
 70
     1
102
RTVSPropertyOp54
 70
     1
102
RTVSPropertyOp55
 70
     1
102
RTVSPropertyOp56
 70
     1
102
RTVSPropertyOp57
 70
     1
102
RTVSPropertyOp58
 70
     1
102
RTVSPropertyOp59
 70
     1
102
RTVSPropertyOp60
 70
     1
102
RTVSPropertyOp61
 70
     1
102
RTVSPropertyOp62
 70
     1
  0
XRECORD
  5
727
102
{ACAD_REACTORS
330
726
102
}
330
726
100
AcDbXrecord
280
     1
102
RTVSPost2010Prop28
280
     0
102
RTVSPost2010PropOp28
 70
     1
102
RTVSPost2010Prop29
280
     1
102
RTVSPost2010PropOp29
 70
     1
102
RTVSPost2010Prop30
280
     1
102
RTVSPost2010PropOp30
 70
     1
102
RTVSPost2010Prop31
280
     0
102
RTVSPost2010PropOp31
 70
     1
102
RTVSPost2010Prop32
280
     0
102
RTVSPost2010PropOp32
 70
     1
102
RTVSPost2010Prop33
280
     0
102
RTVSPost2010PropOp33
 70
     1
102
RTVSPost2010Prop34
280
     0
102
RTVSPost2010PropOp34
 70
     1
102
RTVSPost2010Prop35
280
     0
102
RTVSPost2010PropOp35
 70
     1
102
RTVSPost2010Prop36
280
     0
102
RTVSPost2010PropOp36
 70
     1
102
RTVSPost2010Prop37
 90
       50
102
RTVSPost2010PropOp37
 70
     1
102
RTVSPost2010Prop38
140
0.0
102
RTVSPost2010PropOp38
 70
     1
102
RTVSPost2010Prop39
140
1.0
102
RTVSPost2010PropOp39
 70
     1
102
RTVSPost2010Prop40
 90
        0
102
RTVSPost2010PropOp40
 70
     1
102
RTVSPost2010Prop41ColorIndex
 90
       18
102
RTVSPost2010Prop41ColorRGB
 90
        0
102
RTVSPost2010PropOp41
 70
     1
102
RTVSPost2010Prop42
 90
       50
102
RTVSPost2010PropOp42
 70
     1
102
RTVSPost2010Prop43
 90
        3
102
RTVSPost2010PropOp43
 70
     1
102
RTVSPost2010Prop44ColorIndex
 90
        5
102
RTVSPost2010Prop44ColorRGB
 90
      255
102
RTVSPost2010PropOp44
 70
     1
102
RTVSPost2010Prop45
280
     0
102
RTVSPost2010PropOp45
 70
     1
102
RTVSPost2010Prop46
 90
       50
102
RTVSPost2010PropOp46
 70
     1
102
RTVSPost2010Prop47
 90
       50
102
RTVSPost2010PropOp47
 70
     1
102
RTVSPost2010Prop48
 90
       50
102
RTVSPost2010PropOp48
 70
     1
102
RTVSPost2010Prop49
280
     0
102
RTVSPost2010PropOp49
 70
     1
102
RTVSPost2010Prop50
 90
       50
102
RTVSPost2010PropOp50
 70
     1
102
RTVSPost2010Prop51ColorIndex
 90
      256
102
RTVSPost2010Prop51ColorRGB
 90
-16777216
102
RTVSPost2010PropOp51
 70
     0
102
RTVSPost2010Prop52
140
1.0
102
RTVSPost2010PropOp52
 70
     0
102
RTVSPost2010Prop53
 90
        2
102
RTVSPost2010PropOp53
 70
     1
102
RTVSPost2010Prop54
  1
strokes_ogs.tif
102
RTVSPost2010PropOp54
 70
     1
102
RTVSPost2010Prop55
280
     0
102
RTVSPost2010PropOp55
 70
     1
102
RTVSPost2010Prop56
140
1.0
102
RTVSPost2010PropOp56
 70
     1
102
RTVSPost2010Prop57
140
1.0
102
RTVSPost2010PropOp57
 70
     1
102
RTVSPropertyOp0
 70
     1
102
RTVSPropertyOp1
 70
     1
102
RTVSPropertyOp2
 70
     1
102
RTVSPropertyOp3
 70
     1
102
RTVSPropertyOp4
 70
     1
102
RTVSPropertyOp5
 70
     1
102
RTVSPropertyOp6
 70
     1
102
RTVSPropertyOp7
 70
     1
102
RTVSPropertyOp8
 70
     1
102
RTVSPropertyOp9
 70
     1
102
RTVSPropertyOp10
 70
     1
102
RTVSPropertyOp11
 70
     1
102
RTVSPropertyOp12
 70
     1
102
RTVSPropertyOp13
 70
     1
102
RTVSPropertyOp14
 70
     1
102
RTVSPropertyOp15
 70
     1
102
RTVSPropertyOp16
 70
     1
102
RTVSPropertyOp17
 70
     1
102
RTVSPropertyOp18
 70
     1
102
RTVSPropertyOp19
 70
     1
102
RTVSPropertyOp20
 70
     1
102
RTVSPropertyOp21
 70
     1
102
RTVSPropertyOp22
 70
     1
102
RTVSPropertyOp23
 70
     1
102
RTVSPropertyOp24
 70
     1
102
RTVSPropertyOp25
 70
     1
102
RTVSPropertyOp26
 70
     1
102
RTVSPropertyOp27
 70
     1
102
RTVSPropertyOp28
 70
     1
102
RTVSPropertyOp29
 70
     1
102
RTVSPropertyOp30
 70
     1
102
RTVSPropertyOp31
 70
     1
102
RTVSPropertyOp32
 70
     1
102
RTVSPropertyOp33
 70
     1
102
RTVSPropertyOp34
 70
     1
102
RTVSPropertyOp35
 70
     1
102
RTVSPropertyOp36
 70
     1
102
RTVSPropertyOp37
 70
     1
102
RTVSPropertyOp38
 70
     1
102
RTVSPropertyOp39
 70
     1
102
RTVSPropertyOp40
 70
     1
102
RTVSPropertyOp41
 70
     1
102
RTVSPropertyOp42
 70
     1
102
RTVSPropertyOp43
 70
     1
102
RTVSPropertyOp44
 70
     1
102
RTVSPropertyOp45
 70
     1
102
RTVSPropertyOp46
 70
     1
102
RTVSPropertyOp47
 70
     1
102
RTVSPropertyOp48
 70
     1
102
RTVSPropertyOp49
 70
     1
102
RTVSPropertyOp50
 70
     1
102
RTVSPropertyOp51
 70
     0
102
RTVSPropertyOp52
 70
     0
102
RTVSPropertyOp53
 70
     1
102
RTVSPropertyOp54
 70
     1
102
RTVSPropertyOp55
 70
     1
102
RTVSPropertyOp56
 70
     1
102
RTVSPropertyOp57
 70
     1
102
RTVSPropertyOp58
 70
     1
102
RTVSPropertyOp59
 70
     1
102
RTVSPropertyOp60
 70
     1
102
RTVSPropertyOp61
 70
     1
102
RTVSPropertyOp62
 70
     1
  0
XRECORD
  5
725
102
{ACAD_REACTORS
330
724
102
}
330
724
100
AcDbXrecord
280
     1
102
RTVSPost2010Prop28
280
     0
102
RTVSPost2010PropOp28
 70
     1
102
RTVSPost2010Prop29
280
     1
102
RTVSPost2010PropOp29
 70
     1
102
RTVSPost2010Prop30
280
     1
102
RTVSPost2010PropOp30
 70
     1
102
RTVSPost2010Prop31
280
     0
102
RTVSPost2010PropOp31
 70
     1
102
RTVSPost2010Prop32
280
     0
102
RTVSPost2010PropOp32
 70
     1
102
RTVSPost2010Prop33
280
     0
102
RTVSPost2010PropOp33
 70
     1
102
RTVSPost2010Prop34
280
     0
102
RTVSPost2010PropOp34
 70
     1
102
RTVSPost2010Prop35
280
     0
102
RTVSPost2010PropOp35
 70
     1
102
RTVSPost2010Prop36
280
     0
102
RTVSPost2010PropOp36
 70
     1
102
RTVSPost2010Prop37
 90
       50
102
RTVSPost2010PropOp37
 70
     1
102
RTVSPost2010Prop38
140
0.0
102
RTVSPost2010PropOp38
 70
     1
102
RTVSPost2010Prop39
140
1.0
102
RTVSPost2010PropOp39
 70
     1
102
RTVSPost2010Prop40
 90
        0
102
RTVSPost2010PropOp40
 70
     1
102
RTVSPost2010Prop41ColorIndex
 90
       18
102
RTVSPost2010Prop41ColorRGB
 90
        0
102
RTVSPost2010PropOp41
 70
     1
102
RTVSPost2010Prop42
 90
       50
102
RTVSPost2010PropOp42
 70
     1
102
RTVSPost2010Prop43
 90
        3
102
RTVSPost2010PropOp43
 70
     1
102
RTVSPost2010Prop44ColorIndex
 90
        5
102
RTVSPost2010Prop44ColorRGB
 90
      255
102
RTVSPost2010PropOp44
 70
     1
102
RTVSPost2010Prop45
280
     0
102
RTVSPost2010PropOp45
 70
     1
102
RTVSPost2010Prop46
 90
       50
102
RTVSPost2010PropOp46
 70
     1
102
RTVSPost2010Prop47
 90
       50
102
RTVSPost2010PropOp47
 70
     1
102
RTVSPost2010Prop48
 90
       50
102
RTVSPost2010PropOp48
 70
     1
102
RTVSPost2010Prop49
280
     0
102
RTVSPost2010PropOp49
 70
     1
102
RTVSPost2010Prop50
 90
       50
102
RTVSPost2010PropOp50
 70
     1
102
RTVSPost2010Prop51ColorIndex
 90
      256
102
RTVSPost2010Prop51ColorRGB
 90
-16777216
102
RTVSPost2010PropOp51
 70
     0
102
RTVSPost2010Prop52
140
1.0
102
RTVSPost2010PropOp52
 70
     0
102
RTVSPost2010Prop53
 90
        2
102
RTVSPost2010PropOp53
 70
     1
102
RTVSPost2010Prop54
  1
strokes_ogs.tif
102
RTVSPost2010PropOp54
 70
     1
102
RTVSPost2010Prop55
280
     0
102
RTVSPost2010PropOp55
 70
     1
102
RTVSPost2010Prop56
140
1.0
102
RTVSPost2010PropOp56
 70
     1
102
RTVSPost2010Prop57
140
1.0
102
RTVSPost2010PropOp57
 70
     1
102
RTVSPropertyOp0
 70
     1
102
RTVSPropertyOp1
 70
     1
102
RTVSPropertyOp2
 70
     1
102
RTVSPropertyOp3
 70
     1
102
RTVSPropertyOp4
 70
     1
102
RTVSPropertyOp5
 70
     1
102
RTVSPropertyOp6
 70
     1
102
RTVSPropertyOp7
 70
     1
102
RTVSPropertyOp8
 70
     1
102
RTVSPropertyOp9
 70
     1
102
RTVSPropertyOp10
 70
     1
102
RTVSPropertyOp11
 70
     1
102
RTVSPropertyOp12
 70
     1
102
RTVSPropertyOp13
 70
     1
102
RTVSPropertyOp14
 70
     1
102
RTVSPropertyOp15
 70
     1
102
RTVSPropertyOp16
 70
     1
102
RTVSPropertyOp17
 70
     1
102
RTVSPropertyOp18
 70
     1
102
RTVSPropertyOp19
 70
     1
102
RTVSPropertyOp20
 70
     1
102
RTVSPropertyOp21
 70
     1
102
RTVSPropertyOp22
 70
     1
102
RTVSPropertyOp23
 70
     1
102
RTVSPropertyOp24
 70
     1
102
RTVSPropertyOp25
 70
     1
102
RTVSPropertyOp26
 70
     1
102
RTVSPropertyOp27
 70
     1
102
RTVSPropertyOp28
 70
     1
102
RTVSPropertyOp29
 70
     1
102
RTVSPropertyOp30
 70
     1
102
RTVSPropertyOp31
 70
     1
102
RTVSPropertyOp32
 70
     1
102
RTVSPropertyOp33
 70
     1
102
RTVSPropertyOp34
 70
     1
102
RTVSPropertyOp35
 70
     1
102
RTVSPropertyOp36
 70
     1
102
RTVSPropertyOp37
 70
     1
102
RTVSPropertyOp38
 70
     1
102
RTVSPropertyOp39
 70
     1
102
RTVSPropertyOp40
 70
     1
102
RTVSPropertyOp41
 70
     1
102
RTVSPropertyOp42
 70
     1
102
RTVSPropertyOp43
 70
     1
102
RTVSPropertyOp44
 70
     1
102
RTVSPropertyOp45
 70
     1
102
RTVSPropertyOp46
 70
     1
102
RTVSPropertyOp47
 70
     1
102
RTVSPropertyOp48
 70
     1
102
RTVSPropertyOp49
 70
     1
102
RTVSPropertyOp50
 70
     1
102
RTVSPropertyOp51
 70
     0
102
RTVSPropertyOp52
 70
     0
102
RTVSPropertyOp53
 70
     1
102
RTVSPropertyOp54
 70
     1
102
RTVSPropertyOp55
 70
     1
102
RTVSPropertyOp56
 70
     1
102
RTVSPropertyOp57
 70
     1
102
RTVSPropertyOp58
 70
     1
102
RTVSPropertyOp59
 70
     1
102
RTVSPropertyOp60
 70
     1
102
RTVSPropertyOp61
 70
     1
102
RTVSPropertyOp62
 70
     1
  0
XRECORD
  5
71F
102
{ACAD_REACTORS
330
71E
102
}
330
71E
100
AcDbXrecord
280
     1
102
RTVSPost2010Prop28
280
     0
102
RTVSPost2010PropOp28
 70
     1
102
RTVSPost2010Prop29
280
     1
102
RTVSPost2010PropOp29
 70
     1
102
RTVSPost2010Prop30
280
     1
102
RTVSPost2010PropOp30
 70
     1
102
RTVSPost2010Prop31
280
     0
102
RTVSPost2010PropOp31
 70
     1
102
RTVSPost2010Prop32
280
     0
102
RTVSPost2010PropOp32
 70
     1
102
RTVSPost2010Prop33
280
     0
102
RTVSPost2010PropOp33
 70
     1
102
RTVSPost2010Prop34
280
     0
102
RTVSPost2010PropOp34
 70
     1
102
RTVSPost2010Prop35
280
     0
102
RTVSPost2010PropOp35
 70
     1
102
RTVSPost2010Prop36
280
     0
102
RTVSPost2010PropOp36
 70
     1
102
RTVSPost2010Prop37
 90
       50
102
RTVSPost2010PropOp37
 70
     1
102
RTVSPost2010Prop38
140
0.0
102
RTVSPost2010PropOp38
 70
     1
102
RTVSPost2010Prop39
140
1.0
102
RTVSPost2010PropOp39
 70
     1
102
RTVSPost2010Prop40
 90
        0
102
RTVSPost2010PropOp40
 70
     1
102
RTVSPost2010Prop41ColorIndex
 90
       18
102
RTVSPost2010Prop41ColorRGB
 90
        0
102
RTVSPost2010PropOp41
 70
     1
102
RTVSPost2010Prop42
 90
       50
102
RTVSPost2010PropOp42
 70
     1
102
RTVSPost2010Prop43
 90
        3
102
RTVSPost2010PropOp43
 70
     1
102
RTVSPost2010Prop44ColorIndex
 90
        5
102
RTVSPost2010Prop44ColorRGB
 90
      255
102
RTVSPost2010PropOp44
 70
     1
102
RTVSPost2010Prop45
280
     0
102
RTVSPost2010PropOp45
 70
     1
102
RTVSPost2010Prop46
 90
       50
102
RTVSPost2010PropOp46
 70
     1
102
RTVSPost2010Prop47
 90
       50
102
RTVSPost2010PropOp47
 70
     1
102
RTVSPost2010Prop48
 90
       50
102
RTVSPost2010PropOp48
 70
     1
102
RTVSPost2010Prop49
280
     0
102
RTVSPost2010PropOp49
 70
     1
102
RTVSPost2010Prop50
 90
       50
102
RTVSPost2010PropOp50
 70
     1
102
RTVSPost2010Prop51ColorIndex
 90
      256
102
RTVSPost2010Prop51ColorRGB
 90
-16777216
102
RTVSPost2010PropOp51
 70
     0
102
RTVSPost2010Prop52
140
1.0
102
RTVSPost2010PropOp52
 70
     0
102
RTVSPost2010Prop53
 90
        2
102
RTVSPost2010PropOp53
 70
     1
102
RTVSPost2010Prop54
  1
strokes_ogs.tif
102
RTVSPost2010PropOp54
 70
     1
102
RTVSPost2010Prop55
280
     0
102
RTVSPost2010PropOp55
 70
     1
102
RTVSPost2010Prop56
140
1.0
102
RTVSPost2010PropOp56
 70
     1
102
RTVSPost2010Prop57
140
1.0
102
RTVSPost2010PropOp57
 70
     1
102
RTVSPropertyOp0
 70
     1
102
RTVSPropertyOp1
 70
     1
102
RTVSPropertyOp2
 70
     1
102
RTVSPropertyOp3
 70
     1
102
RTVSPropertyOp4
 70
     1
102
RTVSPropertyOp5
 70
     1
102
RTVSPropertyOp6
 70
     1
102
RTVSPropertyOp7
 70
     1
102
RTVSPropertyOp8
 70
     1
102
RTVSPropertyOp9
 70
     1
102
RTVSPropertyOp10
 70
     1
102
RTVSPropertyOp11
 70
     1
102
RTVSPropertyOp12
 70
     1
102
RTVSPropertyOp13
 70
     1
102
RTVSPropertyOp14
 70
     1
102
RTVSPropertyOp15
 70
     1
102
RTVSPropertyOp16
 70
     1
102
RTVSPropertyOp17
 70
     1
102
RTVSPropertyOp18
 70
     1
102
RTVSPropertyOp19
 70
     1
102
RTVSPropertyOp20
 70
     1
102
RTVSPropertyOp21
 70
     1
102
RTVSPropertyOp22
 70
     1
102
RTVSPropertyOp23
 70
     1
102
RTVSPropertyOp24
 70
     1
102
RTVSPropertyOp25
 70
     1
102
RTVSPropertyOp26
 70
     1
102
RTVSPropertyOp27
 70
     1
102
RTVSPropertyOp28
 70
     1
102
RTVSPropertyOp29
 70
     1
102
RTVSPropertyOp30
 70
     1
102
RTVSPropertyOp31
 70
     1
102
RTVSPropertyOp32
 70
     1
102
RTVSPropertyOp33
 70
     1
102
RTVSPropertyOp34
 70
     1
102
RTVSPropertyOp35
 70
     1
102
RTVSPropertyOp36
 70
     1
102
RTVSPropertyOp37
 70
     1
102
RTVSPropertyOp38
 70
     1
102
RTVSPropertyOp39
 70
     1
102
RTVSPropertyOp40
 70
     1
102
RTVSPropertyOp41
 70
     1
102
RTVSPropertyOp42
 70
     1
102
RTVSPropertyOp43
 70
     1
102
RTVSPropertyOp44
 70
     1
102
RTVSPropertyOp45
 70
     1
102
RTVSPropertyOp46
 70
     1
102
RTVSPropertyOp47
 70
     1
102
RTVSPropertyOp48
 70
     1
102
RTVSPropertyOp49
 70
     1
102
RTVSPropertyOp50
 70
     1
102
RTVSPropertyOp51
 70
     0
102
RTVSPropertyOp52
 70
     0
102
RTVSPropertyOp53
 70
     1
102
RTVSPropertyOp54
 70
     1
102
RTVSPropertyOp55
 70
     1
102
RTVSPropertyOp56
 70
     1
102
RTVSPropertyOp57
 70
     1
102
RTVSPropertyOp58
 70
     1
102
RTVSPropertyOp59
 70
     1
102
RTVSPropertyOp60
 70
     1
102
RTVSPropertyOp61
 70
     1
102
RTVSPropertyOp62
 70
     1
  0
XRECORD
  5
721
102
{ACAD_REACTORS
330
720
102
}
330
720
100
AcDbXrecord
280
     1
102
RTVSPost2010Prop28
280
     0
102
RTVSPost2010PropOp28
 70
     1
102
RTVSPost2010Prop29
280
     1
102
RTVSPost2010PropOp29
 70
     1
102
RTVSPost2010Prop30
280
     1
102
RTVSPost2010PropOp30
 70
     1
102
RTVSPost2010Prop31
280
     0
102
RTVSPost2010PropOp31
 70
     1
102
RTVSPost2010Prop32
280
     0
102
RTVSPost2010PropOp32
 70
     1
102
RTVSPost2010Prop33
280
     0
102
RTVSPost2010PropOp33
 70
     1
102
RTVSPost2010Prop34
280
     0
102
RTVSPost2010PropOp34
 70
     1
102
RTVSPost2010Prop35
280
     0
102
RTVSPost2010PropOp35
 70
     1
102
RTVSPost2010Prop36
280
     0
102
RTVSPost2010PropOp36
 70
     1
102
RTVSPost2010Prop37
 90
       50
102
RTVSPost2010PropOp37
 70
     1
102
RTVSPost2010Prop38
140
0.0
102
RTVSPost2010PropOp38
 70
     1
102
RTVSPost2010Prop39
140
1.0
102
RTVSPost2010PropOp39
 70
     1
102
RTVSPost2010Prop40
 90
        0
102
RTVSPost2010PropOp40
 70
     1
102
RTVSPost2010Prop41ColorIndex
 90
       18
102
RTVSPost2010Prop41ColorRGB
 90
        0
102
RTVSPost2010PropOp41
 70
     1
102
RTVSPost2010Prop42
 90
       50
102
RTVSPost2010PropOp42
 70
     1
102
RTVSPost2010Prop43
 90
        3
102
RTVSPost2010PropOp43
 70
     1
102
RTVSPost2010Prop44ColorIndex
 90
        5
102
RTVSPost2010Prop44ColorRGB
 90
      255
102
RTVSPost2010PropOp44
 70
     1
102
RTVSPost2010Prop45
280
     0
102
RTVSPost2010PropOp45
 70
     1
102
RTVSPost2010Prop46
 90
       50
102
RTVSPost2010PropOp46
 70
     1
102
RTVSPost2010Prop47
 90
       50
102
RTVSPost2010PropOp47
 70
     1
102
RTVSPost2010Prop48
 90
       50
102
RTVSPost2010PropOp48
 70
     1
102
RTVSPost2010Prop49
280
     0
102
RTVSPost2010PropOp49
 70
     1
102
RTVSPost2010Prop50
 90
       50
102
RTVSPost2010PropOp50
 70
     1
102
RTVSPost2010Prop51ColorIndex
 90
      256
102
RTVSPost2010Prop51ColorRGB
 90
-16777216
102
RTVSPost2010PropOp51
 70
     0
102
RTVSPost2010Prop52
140
1.0
102
RTVSPost2010PropOp52
 70
     0
102
RTVSPost2010Prop53
 90
        2
102
RTVSPost2010PropOp53
 70
     1
102
RTVSPost2010Prop54
  1
strokes_ogs.tif
102
RTVSPost2010PropOp54
 70
     1
102
RTVSPost2010Prop55
280
     0
102
RTVSPost2010PropOp55
 70
     1
102
RTVSPost2010Prop56
140
1.0
102
RTVSPost2010PropOp56
 70
     1
102
RTVSPost2010Prop57
140
1.0
102
RTVSPost2010PropOp57
 70
     1
102
RTVSPropertyOp0
 70
     1
102
RTVSPropertyOp1
 70
     1
102
RTVSPropertyOp2
 70
     1
102
RTVSPropertyOp3
 70
     1
102
RTVSPropertyOp4
 70
     1
102
RTVSPropertyOp5
 70
     1
102
RTVSPropertyOp6
 70
     1
102
RTVSPropertyOp7
 70
     1
102
RTVSPropertyOp8
 70
     1
102
RTVSPropertyOp9
 70
     1
102
RTVSPropertyOp10
 70
     1
102
RTVSPropertyOp11
 70
     1
102
RTVSPropertyOp12
 70
     1
102
RTVSPropertyOp13
 70
     1
102
RTVSPropertyOp14
 70
     1
102
RTVSPropertyOp15
 70
     1
102
RTVSPropertyOp16
 70
     1
102
RTVSPropertyOp17
 70
     1
102
RTVSPropertyOp18
 70
     1
102
RTVSPropertyOp19
 70
     1
102
RTVSPropertyOp20
 70
     1
102
RTVSPropertyOp21
 70
     1
102
RTVSPropertyOp22
 70
     1
102
RTVSPropertyOp23
 70
     1
102
RTVSPropertyOp24
 70
     1
102
RTVSPropertyOp25
 70
     1
102
RTVSPropertyOp26
 70
     1
102
RTVSPropertyOp27
 70
     1
102
RTVSPropertyOp28
 70
     1
102
RTVSPropertyOp29
 70
     1
102
RTVSPropertyOp30
 70
     1
102
RTVSPropertyOp31
 70
     1
102
RTVSPropertyOp32
 70
     1
102
RTVSPropertyOp33
 70
     1
102
RTVSPropertyOp34
 70
     1
102
RTVSPropertyOp35
 70
     1
102
RTVSPropertyOp36
 70
     1
102
RTVSPropertyOp37
 70
     1
102
RTVSPropertyOp38
 70
     1
102
RTVSPropertyOp39
 70
     1
102
RTVSPropertyOp40
 70
     1
102
RTVSPropertyOp41
 70
     1
102
RTVSPropertyOp42
 70
     1
102
RTVSPropertyOp43
 70
     1
102
RTVSPropertyOp44
 70
     1
102
RTVSPropertyOp45
 70
     1
102
RTVSPropertyOp46
 70
     1
102
RTVSPropertyOp47
 70
     1
102
RTVSPropertyOp48
 70
     1
102
RTVSPropertyOp49
 70
     1
102
RTVSPropertyOp50
 70
     1
102
RTVSPropertyOp51
 70
     0
102
RTVSPropertyOp52
 70
     0
102
RTVSPropertyOp53
 70
     1
102
RTVSPropertyOp54
 70
     1
102
RTVSPropertyOp55
 70
     1
102
RTVSPropertyOp56
 70
     1
102
RTVSPropertyOp57
 70
     1
102
RTVSPropertyOp58
 70
     1
102
RTVSPropertyOp59
 70
     1
102
RTVSPropertyOp60
 70
     1
102
RTVSPropertyOp61
 70
     1
102
RTVSPropertyOp62
 70
     1
  0
XRECORD
  5
717
102
{ACAD_REACTORS
330
716
102
}
330
716
100
AcDbXrecord
280
     1
102
RTVSPost2010Prop28
280
     0
102
RTVSPost2010PropOp28
 70
     1
102
RTVSPost2010Prop29
280
     1
102
RTVSPost2010PropOp29
 70
     1
102
RTVSPost2010Prop30
280
     1
102
RTVSPost2010PropOp30
 70
     1
102
RTVSPost2010Prop31
280
     0
102
RTVSPost2010PropOp31
 70
     1
102
RTVSPost2010Prop32
280
     0
102
RTVSPost2010PropOp32
 70
     1
102
RTVSPost2010Prop33
280
     0
102
RTVSPost2010PropOp33
 70
     1
102
RTVSPost2010Prop34
280
     0
102
RTVSPost2010PropOp34
 70
     1
102
RTVSPost2010Prop35
280
     0
102
RTVSPost2010PropOp35
 70
     1
102
RTVSPost2010Prop36
280
     0
102
RTVSPost2010PropOp36
 70
     1
102
RTVSPost2010Prop37
 90
       50
102
RTVSPost2010PropOp37
 70
     1
102
RTVSPost2010Prop38
140
0.0
102
RTVSPost2010PropOp38
 70
     1
102
RTVSPost2010Prop39
140
1.0
102
RTVSPost2010PropOp39
 70
     1
102
RTVSPost2010Prop40
 90
        0
102
RTVSPost2010PropOp40
 70
     1
102
RTVSPost2010Prop41ColorIndex
 90
       18
102
RTVSPost2010Prop41ColorRGB
 90
        0
102
RTVSPost2010PropOp41
 70
     1
102
RTVSPost2010Prop42
 90
       50
102
RTVSPost2010PropOp42
 70
     1
102
RTVSPost2010Prop43
 90
        3
102
RTVSPost2010PropOp43
 70
     1
102
RTVSPost2010Prop44ColorIndex
 90
        5
102
RTVSPost2010Prop44ColorRGB
 90
      255
102
RTVSPost2010PropOp44
 70
     1
102
RTVSPost2010Prop45
280
     0
102
RTVSPost2010PropOp45
 70
     1
102
RTVSPost2010Prop46
 90
       50
102
RTVSPost2010PropOp46
 70
     1
102
RTVSPost2010Prop47
 90
       50
102
RTVSPost2010PropOp47
 70
     1
102
RTVSPost2010Prop48
 90
       50
102
RTVSPost2010PropOp48
 70
     1
102
RTVSPost2010Prop49
280
     0
102
RTVSPost2010PropOp49
 70
     1
102
RTVSPost2010Prop50
 90
       50
102
RTVSPost2010PropOp50
 70
     1
102
RTVSPost2010Prop51ColorIndex
 90
      256
102
RTVSPost2010Prop51ColorRGB
 90
-16777216
102
RTVSPost2010PropOp51
 70
     0
102
RTVSPost2010Prop52
140
1.0
102
RTVSPost2010PropOp52
 70
     0
102
RTVSPost2010Prop53
 90
        2
102
RTVSPost2010PropOp53
 70
     1
102
RTVSPost2010Prop54
  1
strokes_ogs.tif
102
RTVSPost2010PropOp54
 70
     1
102
RTVSPost2010Prop55
280
     0
102
RTVSPost2010PropOp55
 70
     1
102
RTVSPost2010Prop56
140
1.0
102
RTVSPost2010PropOp56
 70
     1
102
RTVSPost2010Prop57
140
1.0
102
RTVSPost2010PropOp57
 70
     1
102
RTVSPropertyOp0
 70
     1
102
RTVSPropertyOp1
 70
     1
102
RTVSPropertyOp2
 70
     1
102
RTVSPropertyOp3
 70
     1
102
RTVSPropertyOp4
 70
     1
102
RTVSPropertyOp5
 70
     1
102
RTVSPropertyOp6
 70
     1
102
RTVSPropertyOp7
 70
     1
102
RTVSPropertyOp8
 70
     1
102
RTVSPropertyOp9
 70
     1
102
RTVSPropertyOp10
 70
     1
102
RTVSPropertyOp11
 70
     1
102
RTVSPropertyOp12
 70
     1
102
RTVSPropertyOp13
 70
     1
102
RTVSPropertyOp14
 70
     1
102
RTVSPropertyOp15
 70
     1
102
RTVSPropertyOp16
 70
     1
102
RTVSPropertyOp17
 70
     1
102
RTVSPropertyOp18
 70
     1
102
RTVSPropertyOp19
 70
     1
102
RTVSPropertyOp20
 70
     1
102
RTVSPropertyOp21
 70
     1
102
RTVSPropertyOp22
 70
     1
102
RTVSPropertyOp23
 70
     1
102
RTVSPropertyOp24
 70
     1
102
RTVSPropertyOp25
 70
     1
102
RTVSPropertyOp26
 70
     1
102
RTVSPropertyOp27
 70
     1
102
RTVSPropertyOp28
 70
     1
102
RTVSPropertyOp29
 70
     1
102
RTVSPropertyOp30
 70
     1
102
RTVSPropertyOp31
 70
     1
102
RTVSPropertyOp32
 70
     1
102
RTVSPropertyOp33
 70
     1
102
RTVSPropertyOp34
 70
     1
102
RTVSPropertyOp35
 70
     1
102
RTVSPropertyOp36
 70
     1
102
RTVSPropertyOp37
 70
     1
102
RTVSPropertyOp38
 70
     1
102
RTVSPropertyOp39
 70
     1
102
RTVSPropertyOp40
 70
     1
102
RTVSPropertyOp41
 70
     1
102
RTVSPropertyOp42
 70
     1
102
RTVSPropertyOp43
 70
     1
102
RTVSPropertyOp44
 70
     1
102
RTVSPropertyOp45
 70
     1
102
RTVSPropertyOp46
 70
     1
102
RTVSPropertyOp47
 70
     1
102
RTVSPropertyOp48
 70
     1
102
RTVSPropertyOp49
 70
     1
102
RTVSPropertyOp50
 70
     1
102
RTVSPropertyOp51
 70
     0
102
RTVSPropertyOp52
 70
     0
102
RTVSPropertyOp53
 70
     1
102
RTVSPropertyOp54
 70
     1
102
RTVSPropertyOp55
 70
     1
102
RTVSPropertyOp56
 70
     1
102
RTVSPropertyOp57
 70
     1
102
RTVSPropertyOp58
 70
     1
102
RTVSPropertyOp59
 70
     1
102
RTVSPropertyOp60
 70
     1
102
RTVSPropertyOp61
 70
     1
102
RTVSPropertyOp62
 70
     1
  0
XRECORD
  5
70B
102
{ACAD_REACTORS
330
70A
102
}
330
70A
100
AcDbXrecord
280
     1
102
RTVSPost2010Prop28
280
     0
102
RTVSPost2010PropOp28
 70
     1
102
RTVSPost2010Prop29
280
     1
102
RTVSPost2010PropOp29
 70
     1
102
RTVSPost2010Prop30
280
     1
102
RTVSPost2010PropOp30
 70
     1
102
RTVSPost2010Prop31
280
     0
102
RTVSPost2010PropOp31
 70
     1
102
RTVSPost2010Prop32
280
     0
102
RTVSPost2010PropOp32
 70
     1
102
RTVSPost2010Prop33
280
     0
102
RTVSPost2010PropOp33
 70
     1
102
RTVSPost2010Prop34
280
     0
102
RTVSPost2010PropOp34
 70
     1
102
RTVSPost2010Prop35
280
     0
102
RTVSPost2010PropOp35
 70
     1
102
RTVSPost2010Prop36
280
     0
102
RTVSPost2010PropOp36
 70
     1
102
RTVSPost2010Prop37
 90
       50
102
RTVSPost2010PropOp37
 70
     1
102
RTVSPost2010Prop38
140
0.0
102
RTVSPost2010PropOp38
 70
     1
102
RTVSPost2010Prop39
140
1.0
102
RTVSPost2010PropOp39
 70
     1
102
RTVSPost2010Prop40
 90
        0
102
RTVSPost2010PropOp40
 70
     1
102
RTVSPost2010Prop41ColorIndex
 90
       18
102
RTVSPost2010Prop41ColorRGB
 90
        0
102
RTVSPost2010PropOp41
 70
     1
102
RTVSPost2010Prop42
 90
       50
102
RTVSPost2010PropOp42
 70
     1
102
RTVSPost2010Prop43
 90
        3
102
RTVSPost2010PropOp43
 70
     1
102
RTVSPost2010Prop44ColorIndex
 90
        5
102
RTVSPost2010Prop44ColorRGB
 90
      255
102
RTVSPost2010PropOp44
 70
     1
102
RTVSPost2010Prop45
280
     0
102
RTVSPost2010PropOp45
 70
     1
102
RTVSPost2010Prop46
 90
       50
102
RTVSPost2010PropOp46
 70
     1
102
RTVSPost2010Prop47
 90
       50
102
RTVSPost2010PropOp47
 70
     1
102
RTVSPost2010Prop48
 90
       50
102
RTVSPost2010PropOp48
 70
     1
102
RTVSPost2010Prop49
280
     0
102
RTVSPost2010PropOp49
 70
     1
102
RTVSPost2010Prop50
 90
       50
102
RTVSPost2010PropOp50
 70
     1
102
RTVSPost2010Prop51ColorIndex
 90
      256
102
RTVSPost2010Prop51ColorRGB
 90
-16777216
102
RTVSPost2010PropOp51
 70
     0
102
RTVSPost2010Prop52
140
1.0
102
RTVSPost2010PropOp52
 70
     0
102
RTVSPost2010Prop53
 90
        2
102
RTVSPost2010PropOp53
 70
     1
102
RTVSPost2010Prop54
  1
strokes_ogs.tif
102
RTVSPost2010PropOp54
 70
     1
102
RTVSPost2010Prop55
280
     0
102
RTVSPost2010PropOp55
 70
     1
102
RTVSPost2010Prop56
140
1.0
102
RTVSPost2010PropOp56
 70
     1
102
RTVSPost2010Prop57
140
1.0
102
RTVSPost2010PropOp57
 70
     1
102
RTVSPropertyOp0
 70
     1
102
RTVSPropertyOp1
 70
     1
102
RTVSPropertyOp2
 70
     1
102
RTVSPropertyOp3
 70
     1
102
RTVSPropertyOp4
 70
     1
102
RTVSPropertyOp5
 70
     1
102
RTVSPropertyOp6
 70
     1
102
RTVSPropertyOp7
 70
     1
102
RTVSPropertyOp8
 70
     1
102
RTVSPropertyOp9
 70
     1
102
RTVSPropertyOp10
 70
     1
102
RTVSPropertyOp11
 70
     1
102
RTVSPropertyOp12
 70
     1
102
RTVSPropertyOp13
 70
     1
102
RTVSPropertyOp14
 70
     1
102
RTVSPropertyOp15
 70
     1
102
RTVSPropertyOp16
 70
     1
102
RTVSPropertyOp17
 70
     1
102
RTVSPropertyOp18
 70
     1
102
RTVSPropertyOp19
 70
     1
102
RTVSPropertyOp20
 70
     1
102
RTVSPropertyOp21
 70
     1
102
RTVSPropertyOp22
 70
     1
102
RTVSPropertyOp23
 70
     1
102
RTVSPropertyOp24
 70
     1
102
RTVSPropertyOp25
 70
     1
102
RTVSPropertyOp26
 70
     1
102
RTVSPropertyOp27
 70
     1
102
RTVSPropertyOp28
 70
     1
102
RTVSPropertyOp29
 70
     1
102
RTVSPropertyOp30
 70
     1
102
RTVSPropertyOp31
 70
     1
102
RTVSPropertyOp32
 70
     1
102
RTVSPropertyOp33
 70
     1
102
RTVSPropertyOp34
 70
     1
102
RTVSPropertyOp35
 70
     1
102
RTVSPropertyOp36
 70
     1
102
RTVSPropertyOp37
 70
     1
102
RTVSPropertyOp38
 70
     1
102
RTVSPropertyOp39
 70
     1
102
RTVSPropertyOp40
 70
     1
102
RTVSPropertyOp41
 70
     1
102
RTVSPropertyOp42
 70
     1
102
RTVSPropertyOp43
 70
     1
102
RTVSPropertyOp44
 70
     1
102
RTVSPropertyOp45
 70
     1
102
RTVSPropertyOp46
 70
     1
102
RTVSPropertyOp47
 70
     1
102
RTVSPropertyOp48
 70
     1
102
RTVSPropertyOp49
 70
     1
102
RTVSPropertyOp50
 70
     1
102
RTVSPropertyOp51
 70
     0
102
RTVSPropertyOp52
 70
     0
102
RTVSPropertyOp53
 70
     1
102
RTVSPropertyOp54
 70
     1
102
RTVSPropertyOp55
 70
     1
102
RTVSPropertyOp56
 70
     1
102
RTVSPropertyOp57
 70
     1
102
RTVSPropertyOp58
 70
     1
102
RTVSPropertyOp59
 70
     1
102
RTVSPropertyOp60
 70
     1
102
RTVSPropertyOp61
 70
     1
102
RTVSPropertyOp62
 70
     1
  0
XRECORD
  5
723
102
{ACAD_REACTORS
330
722
102
}
330
722
100
AcDbXrecord
280
     1
102
RTVSPost2010Prop28
280
     0
102
RTVSPost2010PropOp28
 70
     1
102
RTVSPost2010Prop29
280
     1
102
RTVSPost2010PropOp29
 70
     1
102
RTVSPost2010Prop30
280
     1
102
RTVSPost2010PropOp30
 70
     1
102
RTVSPost2010Prop31
280
     0
102
RTVSPost2010PropOp31
 70
     1
102
RTVSPost2010Prop32
280
     0
102
RTVSPost2010PropOp32
 70
     1
102
RTVSPost2010Prop33
280
     0
102
RTVSPost2010PropOp33
 70
     1
102
RTVSPost2010Prop34
280
     0
102
RTVSPost2010PropOp34
 70
     1
102
RTVSPost2010Prop35
280
     0
102
RTVSPost2010PropOp35
 70
     1
102
RTVSPost2010Prop36
280
     0
102
RTVSPost2010PropOp36
 70
     1
102
RTVSPost2010Prop37
 90
       50
102
RTVSPost2010PropOp37
 70
     1
102
RTVSPost2010Prop38
140
0.0
102
RTVSPost2010PropOp38
 70
     1
102
RTVSPost2010Prop39
140
1.0
102
RTVSPost2010PropOp39
 70
     1
102
RTVSPost2010Prop40
 90
        0
102
RTVSPost2010PropOp40
 70
     1
102
RTVSPost2010Prop41ColorIndex
 90
       18
102
RTVSPost2010Prop41ColorRGB
 90
        0
102
RTVSPost2010PropOp41
 70
     1
102
RTVSPost2010Prop42
 90
       50
102
RTVSPost2010PropOp42
 70
     1
102
RTVSPost2010Prop43
 90
        3
102
RTVSPost2010PropOp43
 70
     1
102
RTVSPost2010Prop44ColorIndex
 90
        5
102
RTVSPost2010Prop44ColorRGB
 90
      255
102
RTVSPost2010PropOp44
 70
     1
102
RTVSPost2010Prop45
280
     0
102
RTVSPost2010PropOp45
 70
     1
102
RTVSPost2010Prop46
 90
       50
102
RTVSPost2010PropOp46
 70
     1
102
RTVSPost2010Prop47
 90
       50
102
RTVSPost2010PropOp47
 70
     1
102
RTVSPost2010Prop48
 90
       50
102
RTVSPost2010PropOp48
 70
     1
102
RTVSPost2010Prop49
280
     0
102
RTVSPost2010PropOp49
 70
     1
102
RTVSPost2010Prop50
 90
       50
102
RTVSPost2010PropOp50
 70
     1
102
RTVSPost2010Prop51ColorIndex
 90
      256
102
RTVSPost2010Prop51ColorRGB
 90
-16777216
102
RTVSPost2010PropOp51
 70
     0
102
RTVSPost2010Prop52
140
1.0
102
RTVSPost2010PropOp52
 70
     0
102
RTVSPost2010Prop53
 90
        2
102
RTVSPost2010PropOp53
 70
     1
102
RTVSPost2010Prop54
  1
strokes_ogs.tif
102
RTVSPost2010PropOp54
 70
     1
102
RTVSPost2010Prop55
280
     0
102
RTVSPost2010PropOp55
 70
     1
102
RTVSPost2010Prop56
140
1.0
102
RTVSPost2010PropOp56
 70
     1
102
RTVSPost2010Prop57
140
1.0
102
RTVSPost2010PropOp57
 70
     1
102
RTVSPropertyOp0
 70
     1
102
RTVSPropertyOp1
 70
     1
102
RTVSPropertyOp2
 70
     1
102
RTVSPropertyOp3
 70
     1
102
RTVSPropertyOp4
 70
     1
102
RTVSPropertyOp5
 70
     1
102
RTVSPropertyOp6
 70
     1
102
RTVSPropertyOp7
 70
     1
102
RTVSPropertyOp8
 70
     1
102
RTVSPropertyOp9
 70
     1
102
RTVSPropertyOp10
 70
     1
102
RTVSPropertyOp11
 70
     1
102
RTVSPropertyOp12
 70
     1
102
RTVSPropertyOp13
 70
     1
102
RTVSPropertyOp14
 70
     1
102
RTVSPropertyOp15
 70
     1
102
RTVSPropertyOp16
 70
     1
102
RTVSPropertyOp17
 70
     1
102
RTVSPropertyOp18
 70
     1
102
RTVSPropertyOp19
 70
     1
102
RTVSPropertyOp20
 70
     1
102
RTVSPropertyOp21
 70
     1
102
RTVSPropertyOp22
 70
     1
102
RTVSPropertyOp23
 70
     1
102
RTVSPropertyOp24
 70
     1
102
RTVSPropertyOp25
 70
     1
102
RTVSPropertyOp26
 70
     1
102
RTVSPropertyOp27
 70
     1
102
RTVSPropertyOp28
 70
     1
102
RTVSPropertyOp29
 70
     1
102
RTVSPropertyOp30
 70
     1
102
RTVSPropertyOp31
 70
     1
102
RTVSPropertyOp32
 70
     1
102
RTVSPropertyOp33
 70
     1
102
RTVSPropertyOp34
 70
     1
102
RTVSPropertyOp35
 70
     1
102
RTVSPropertyOp36
 70
     1
102
RTVSPropertyOp37
 70
     1
102
RTVSPropertyOp38
 70
     1
102
RTVSPropertyOp39
 70
     1
102
RTVSPropertyOp40
 70
     1
102
RTVSPropertyOp41
 70
     1
102
RTVSPropertyOp42
 70
     1
102
RTVSPropertyOp43
 70
     1
102
RTVSPropertyOp44
 70
     1
102
RTVSPropertyOp45
 70
     1
102
RTVSPropertyOp46
 70
     1
102
RTVSPropertyOp47
 70
     1
102
RTVSPropertyOp48
 70
     1
102
RTVSPropertyOp49
 70
     1
102
RTVSPropertyOp50
 70
     1
102
RTVSPropertyOp51
 70
     0
102
RTVSPropertyOp52
 70
     0
102
RTVSPropertyOp53
 70
     1
102
RTVSPropertyOp54
 70
     1
102
RTVSPropertyOp55
 70
     1
102
RTVSPropertyOp56
 70
     1
102
RTVSPropertyOp57
 70
     1
102
RTVSPropertyOp58
 70
     1
102
RTVSPropertyOp59
 70
     1
102
RTVSPropertyOp60
 70
     1
102
RTVSPropertyOp61
 70
     1
102
RTVSPropertyOp62
 70
     1
  0
ENDSEC
  0
EOF
