  0
SECTION
  2
HEADER
  9
$ACADVER
  1
AC1018
  9
$ACADMAINTVER
 70
     0
  9
$DWGCODEPAGE
  3
ANSI_1252
  9
$INSBASE
 10
0.0
 20
0.0
 30
0.0
  9
$EXTMIN
 10
1.000000000000000E+20
 20
1.000000000000000E+20
 30
1.000000000000000E+20
  9
$EXTMAX
 10
-1.000000000000000E+20
 20
-1.000000000000000E+20
 30
-1.000000000000000E+20
  9
$LIMMIN
 10
0.0
 20
0.0
  9
$LIMMAX
 10
12.0
 20
9.0
  9
$ORTHOMODE
 70
     0
  9
$REGENMODE
 70
     1
  9
$FILLMODE
 70
     1
  9
$QTEXTMODE
 70
     0
  9
$MIRRTEXT
 70
     1
  9
$LTSCALE
 40
1.0
  9
$ATTMODE
 70
     1
  9
$TEXTSIZE
 40
0.2
  9
$TRACEWID
 40
0.05
  9
$TEXTSTYLE
  7
Standard
  9
$CLAYER
  8
0
  9
$CELTYPE
  6
ByLayer
  9
$CECOLOR
 62
   256
  9
$CELTSCALE
 40
1.0
  9
$DISPSILH
 70
     0
  9
$DIMSCALE
 40
1.0
  9
$DIMASZ
 40
0.18
  9
$DIMEXO
 40
0.0625
  9
$DIMDLI
 40
0.38
  9
$DIMRND
 40
0.0
  9
$DIMDLE
 40
0.0
  9
$DIMEXE
 40
0.18
  9
$DIMTP
 40
0.0
  9
$DIMTM
 40
0.0
  9
$DIMTXT
 40
0.18
  9
$DIMCEN
 40
0.09
  9
$DIMTSZ
 40
0.0
  9
$DIMTOL
 70
     0
  9
$DIMLIM
 70
     0
  9
$DIMTIH
 70
     1
  9
$DIMTOH
 70
     1
  9
$DIMSE1
 70
     0
  9
$DIMSE2
 70
     0
  9
$DIMTAD
 70
     0
  9
$DIMZIN
 70
     0
  9
$DIMBLK
  1

  9
$DIMASO
 70
     1
  9
$DIMSHO
 70
     1
  9
$DIMPOST
  1

  9
$DIMAPOST
  1

  9
$DIMALT
 70
     0
  9
$DIMALTD
 70
     2
  9
$DIMALTF
 40
25.4
  9
$DIMLFAC
 40
1.0
  9
$DIMTOFL
 70
     0
  9
$DIMTVP
 40
0.0
  9
$DIMTIX
 70
     0
  9
$DIMSOXD
 70
     0
  9
$DIMSAH
 70
     0
  9
$DIMBLK1
  1

  9
$DIMBLK2
  1

  9
$DIMSTYLE
  2
Standard
  9
$DIMCLRD
 70
     0
  9
$DIMCLRE
 70
     0
  9
$DIMCLRT
 70
     0
  9
$DIMTFAC
 40
1.0
  9
$DIMGAP
 40
0.09
  9
$DIMJUST
 70
     0
  9
$DIMSD1
 70
     0
  9
$DIMSD2
 70
     0
  9
$DIMTOLJ
 70
     1
  9
$DIMTZIN
 70
     0
  9
$DIMALTZ
 70
     0
  9
$DIMALTTZ
 70
     0
  9
$DIMUPT
 70
     0
  9
$DIMDEC
 70
     4
  9
$DIMTDEC
 70
     4
  9
$DIMALTU
 70
     2
  9
$DIMALTTD
 70
     2
  9
$DIMTXSTY
  7
Standard
  9
$DIMAUNIT
 70
     0
  9
$DIMADEC
 70
     0
  9
$DIMALTRND
 40
0.0
  9
$DIMAZIN
 70
     0
  9
$DIMDSEP
 70
    46
  9
$DIMATFIT
 70
     3
  9
$DIMFRAC
 70
     0
  9
$DIMLDRBLK
  1

  9
$DIMLUNIT
 70
     2
  9
$DIMLWD
 70
    -2
  9
$DIMLWE
 70
    -2
  9
$DIMTMOVE
 70
     0
  9
$LUNITS
 70
     2
  9
$LUPREC
 70
     4
  9
$SKETCHINC
 40
0.1
  9
$FILLETRAD
 40
0.5
  9
$AUNITS
 70
     0
  9
$AUPREC
 70
     0
  9
$MENU
  1
.
  9
$ELEVATION
 40
0.0
  9
$PELEVATION
 40
0.0
  9
$THICKNESS
 40
0.0
  9
$LIMCHECK
 70
     0
  9
$CHAMFERA
 40
0.5
  9
$CHAMFERB
 40
0.5
  9
$CHAMFERC
 40
1.0
  9
$CHAMFERD
 40
0.0
  9
$SKPOLY
 70
     0
  9
$TDCREATE
 40
2456016.594394421
  9
$TDUCREATE
 40
2456016.511061088
  9
$TDUPDATE
 40
2456016.594394433
  9
$TDUUPDATE
 40
2456016.511061099
  9
$TDINDWG
 40
0.0000000116
  9
$TDUSRTIMER
 40
0.0000000116
  9
$USRTIMER
 70
     1
  9
$ANGBASE
 50
0.0
  9
$ANGDIR
 70
     0
  9
$PDMODE
 70
     0
  9
$PDSIZE
 40
0.0
  9
$PLINEWID
 40
0.0
  9
$SPLFRAME
 70
     0
  9
$SPLINETYPE
 70
     6
  9
$SPLINESEGS
 70
     8
  9
$HANDSEED
  5
3CC
  9
$SURFTAB1
 70
     6
  9
$SURFTAB2
 70
     6
  9
$SURFTYPE
 70
     6
  9
$SURFU
 70
     6
  9
$SURFV
 70
     6
  9
$UCSBASE
  2

  9
$UCSNAME
  2

  9
$UCSORG
 10
0.0
 20
0.0
 30
0.0
  9
$UCSXDIR
 10
1.0
 20
0.0
 30
0.0
  9
$UCSYDIR
 10
0.0
 20
1.0
 30
0.0
  9
$UCSORTHOREF
  2

  9
$UCSORTHOVIEW
 70
     0
  9
$UCSORGTOP
 10
0.0
 20
0.0
 30
0.0
  9
$UCSORGBOTTOM
 10
0.0
 20
0.0
 30
0.0
  9
$UCSORGLEFT
 10
0.0
 20
0.0
 30
0.0
  9
$UCSORGRIGHT
 10
0.0
 20
0.0
 30
0.0
  9
$UCSORGFRONT
 10
0.0
 20
0.0
 30
0.0
  9
$UCSORGBACK
 10
0.0
 20
0.0
 30
0.0
  9
$PUCSBASE
  2

  9
$PUCSNAME
  2

  9
$PUCSORG
 10
0.0
 20
0.0
 30
0.0
  9
$PUCSXDIR
 10
1.0
 20
0.0
 30
0.0
  9
$PUCSYDIR
 10
0.0
 20
1.0
 30
0.0
  9
$PUCSORTHOREF
  2

  9
$PUCSORTHOVIEW
 70
     0
  9
$PUCSORGTOP
 10
0.0
 20
0.0
 30
0.0
  9
$PUCSORGBOTTOM
 10
0.0
 20
0.0
 30
0.0
  9
$PUCSORGLEFT
 10
0.0
 20
0.0
 30
0.0
  9
$PUCSORGRIGHT
 10
0.0
 20
0.0
 30
0.0
  9
$PUCSORGFRONT
 10
0.0
 20
0.0
 30
0.0
  9
$PUCSORGBACK
 10
0.0
 20
0.0
 30
0.0
  9
$USERI1
 70
     0
  9
$USERI2
 70
     0
  9
$USERI3
 70
     0
  9
$USERI4
 70
     0
  9
$USERI5
 70
     0
  9
$USERR1
 40
0.0
  9
$USERR2
 40
0.0
  9
$USERR3
 40
0.0
  9
$USERR4
 40
0.0
  9
$USERR5
 40
0.0
  9
$WORLDVIEW
 70
     1
  9
$SHADEDGE
 70
     3
  9
$SHADEDIF
 70
    70
  9
$TILEMODE
 70
     1
  9
$MAXACTVP
 70
    64
  9
$PINSBASE
 10
0.0
 20
0.0
 30
0.0
  9
$PLIMCHECK
 70
     0
  9
$PEXTMIN
 10
1.000000000000000E+20
 20
1.000000000000000E+20
 30
1.000000000000000E+20
  9
$PEXTMAX
 10
-1.000000000000000E+20
 20
-1.000000000000000E+20
 30
-1.000000000000000E+20
  9
$PLIMMIN
 10
0.0
 20
0.0
  9
$PLIMMAX
 10
12.0
 20
9.0
  9
$UNITMODE
 70
     0
  9
$VISRETAIN
 70
     1
  9
$PLINEGEN
 70
     0
  9
$PSLTSCALE
 70
     1
  9
$TREEDEPTH
 70
  3020
  9
$CMLSTYLE
  2
Standard
  9
$CMLJUST
 70
     0
  9
$CMLSCALE
 40
1.0
  9
$PROXYGRAPHICS
 70
     1
  9
$MEASUREMENT
 70
     0
  9
$CELWEIGHT
370
    -1
  9
$ENDCAPS
280
     0
  9
$JOINSTYLE
280
     0
  9
$LWDISPLAY
290
     1
  9
$INSUNITS
 70
     1
  9
$HYPERLINKBASE
  1

  9
$STYLESHEET
  1

  9
$XEDIT
290
     1
  9
$CEPSNTYPE
380
     0
  9
$PSTYLEMODE
290
     1
  9
$FINGERPRINTGUID
  2
{0A31CC7F-B009-46C4-959C-9E3CEEA1546B}
  9
$VERSIONGUID
  2
{FAEB1C32-E019-11D5-929B-00C0DF256EC4}
  9
$EXTNAMES
290
     1
  9
$PSVPSCALE
 40
0.0
  9
$OLESTARTUP
290
     0
  9
$SORTENTS
280
   127
  9
$INDEXCTL
280
     0
  9
$HIDETEXT
280
     1
  9
$XCLIPFRAME
290
     0
  9
$HALOGAP
280
     0
  9
$OBSCOLOR
 70
   257
  9
$OBSLTYPE
280
     0
  9
$INTERSECTIONDISPLAY
280
     0
  9
$INTERSECTIONCOLOR
 70
   257
  9
$DIMASSOC
280
     2
  9
$PROJECTNAME
  1

  0
ENDSEC
  0
SECTION
  2
CLASSES
  0
CLASS
  1
ACDBDICTIONARYWDFLT
  2
AcDbDictionaryWithDefault
  3
ObjectDBX Classes
 90
        0
 91
        3
280
     0
281
     0
  0
CLASS
  1
VISUALSTYLE
  2
AcDbVisualStyle
  3
ObjectDBX Classes
 90
     4095
 91
        3
280
     0
281
     0
  0
ENDSEC
  0
SECTION
  2
TABLES
  0
TABLE
  2
VPORT
  5
8
330
0
100
AcDbSymbolTable
 70
     1
  0
VPORT
  5
29
330
8
100
AcDbSymbolTableRecord
100
AcDbViewportTableRecord
  2
*Active
 70
     0
 10
0.0
 20
0.0
 11
1.0
 21
1.0
 12
0.0
 22
0.0
 13
0.0
 23
0.0
 14
0.5
 24
0.5
 15
0.5
 25
0.5
 16
0.0
 26
0.0
 36
1.0
 17
21.37922905281492
 27
17.10679388678233
 37
0.0
 40
26.33052028421598
 41
1.028235355689594
 42
50.0
 43
0.0
 44
0.0
 50
0.0
 51
0.0
 71
     0
 72
   100
 73
     1
 74
     3
 75
     0
 76
     0
 77
     0
 78
     0
281
     0
 65
     1
110
0.0
120
0.0
130
0.0
111
1.0
121
0.0
131
0.0
112
0.0
122
1.0
132
0.0
 79
     0
146
0.0
  0
ENDTAB
  0
TABLE
  2
LTYPE
  5
5
330
0
100
AcDbSymbolTable
 70
     1
  0
LTYPE
  5
14
330
5
100
AcDbSymbolTableRecord
100
AcDbLinetypeTableRecord
  2
ByBlock
 70
     0
  3

 72
    65
 73
     0
 40
0.0
  0
LTYPE
  5
15
330
5
100
AcDbSymbolTableRecord
100
AcDbLinetypeTableRecord
  2
ByLayer
 70
     0
  3

 72
    65
 73
     0
 40
0.0
  0
LTYPE
  5
16
330
5
100
AcDbSymbolTableRecord
100
AcDbLinetypeTableRecord
  2
Continuous
 70
     0
  3
Solid line
 72
    65
 73
     0
 40
0.0
  0
ENDTAB
  0
TABLE
  2
LAYER
  5
2
330
0
100
AcDbSymbolTable
 70
     4
  0
LAYER
  5
10
330
2
100
AcDbSymbolTableRecord
100
AcDbLayerTableRecord
  2
0
 70
     0
 62
     7
  6
Continuous
370
    -3
390
F
  0
LAYER
  5
3B
330
2
100
AcDbSymbolTableRecord
100
AcDbLayerTableRecord
  2
Hintergrund
 70
     0
 62
     7
  6
Continuous
370
    -3
390
F
  0
LAYER
  5
3C
330
2
100
AcDbSymbolTableRecord
100
AcDbLayerTableRecord
  2
Hilfslinien
 70
     0
 62
     7
  6
Continuous
370
    -3
390
F
  0
LAYER
  5
3D
330
2
100
AcDbSymbolTableRecord
100
AcDbLayerTableRecord
  2
Vordergrund
 70
     0
 62
     7
  6
Continuous
370
    -3
390
F
  0
ENDTAB
  0
TABLE
  2
STYLE
  5
3
330
0
100
AcDbSymbolTable
 70
     1
  0
STYLE
  5
11
330
3
100
AcDbSymbolTableRecord
100
AcDbTextStyleTableRecord
  2
Standard
 70
     0
 40
0.0
 41
1.0
 50
0.0
 71
     0
 42
0.2
  3
txt
  4

  0
ENDTAB
  0
TABLE
  2
VIEW
  5
6
330
0
100
AcDbSymbolTable
 70
     0
  0
ENDTAB
  0
TABLE
  2
UCS
  5
7
330
0
100
AcDbSymbolTable
 70
     0
  0
ENDTAB
  0
TABLE
  2
APPID
  5
9
330
0
100
AcDbSymbolTable
 70
     1
  0
APPID
  5
12
330
9
100
AcDbSymbolTableRecord
100
AcDbRegAppTableRecord
  2
ACAD
 70
     0
  0
ENDTAB
  0
TABLE
  2
DIMSTYLE
  5
A
330
0
100
AcDbSymbolTable
 70
     1
100
AcDbDimStyleTable
  0
DIMSTYLE
105
27
330
A
100
AcDbSymbolTableRecord
100
AcDbDimStyleTableRecord
  2
Standard
 70
     0
340
11
  0
ENDTAB
  0
TABLE
  2
BLOCK_RECORD
  5
1
330
0
100
AcDbSymbolTable
 70
     4
  0
BLOCK_RECORD
  5
1F
330
1
100
AcDbSymbolTableRecord
100
AcDbBlockTableRecord
  2
*Model_Space
340
22
  0
BLOCK_RECORD
  5
1B
330
1
100
AcDbSymbolTableRecord
100
AcDbBlockTableRecord
  2
*Paper_Space
340
1E
  0
BLOCK_RECORD
  5
23
330
1
100
AcDbSymbolTableRecord
100
AcDbBlockTableRecord
  2
*Paper_Space0
340
26
  0
BLOCK_RECORD
  5
3E
330
1
100
AcDbSymbolTableRecord
100
AcDbBlockTableRecord
  2
block 2
340
0
102
{BLKREFS
331
3F
102
}
  0
BLOCK_RECORD
  5
8A
330
1
100
AcDbSymbolTableRecord
100
AcDbBlockTableRecord
  2
block 3
340
0
102
{BLKREFS
331
8B
102
}
  0
BLOCK_RECORD
  5
1F7
330
1
100
AcDbSymbolTableRecord
100
AcDbBlockTableRecord
  2
block 4
340
0
102
{BLKREFS
331
1F8
102
}
  0
ENDTAB
  0
ENDSEC
  0
SECTION
  2
BLOCKS
  0
BLOCK
  5
20
330
1F
100
AcDbEntity
  8
0
100
AcDbBlockBegin
  2
*Model_Space
 70
     0
 71
     0
 10
0.0
 20
0.0
 30
0.0
  3
*Model_Space
  1

  0
ENDBLK
  5
21
330
1F
100
AcDbEntity
  8
0
100
AcDbBlockEnd
  0
BLOCK
  5
1C
330
1B
100
AcDbEntity
 67
     1
  8
0
100
AcDbBlockBegin
  2
*Paper_Space
 70
     0
 71
     0
 10
0.0
 20
0.0
 30
0.0
  3
*Paper_Space
  1

  0
ENDBLK
  5
1D
330
1B
100
AcDbEntity
 67
     1
  8
0
100
AcDbBlockEnd
  0
BLOCK
  5
24
330
23
100
AcDbEntity
  8
0
100
AcDbBlockBegin
  2
*Paper_Space0
 70
     0
 71
     0
 10
0.0
 20
0.0
 30
0.0
  3
*Paper_Space0
  1

  0
ENDBLK
  5
25
330
23
100
AcDbEntity
  8
0
100
AcDbBlockEnd
  0
BLOCK
  5
40
330
3E
100
AcDbEntity
  8
0
100
AcDbBlockBegin
  2
block 2
 70
     0
 71
     0
 10
0.0
 20
0.0
 30
0.0
  3
block 2
  1

  0
POLYLINE
  5
42
330
3E
100
AcDbEntity
  8
Vordergrund
 62
     7
370
    13
100
AcDb2dPolyline
 66
     1
 10
0.0
 20
0.0
 30
0.0
  0
VERTEX
  5
43
330
42
100
AcDbEntity
  8
Vordergrund
 62
     7
370
    13
100
AcDbVertex
100
AcDb2dVertex
 10
32.60248886988757
 20
12.92875433704559
 30
0.0
  0
VERTEX
  5
44
330
42
100
AcDbEntity
  8
Vordergrund
 62
     7
370
    13
100
AcDbVertex
100
AcDb2dVertex
 10
32.85329182121376
 20
12.94287922853511
 30
0.0
  0
VERTEX
  5
45
330
42
100
AcDbEntity
  8
Vordergrund
 62
     7
370
    13
100
AcDbVertex
100
AcDb2dVertex
 10
33.09996065795765
 20
12.98525390300369
 30
0.0
  0
VERTEX
  5
46
330
42
100
AcDbEntity
  8
Vordergrund
 62
     7
370
    13
100
AcDbVertex
100
AcDb2dVertex
 10
33.33973930373104
 20
13.05208875541753
 30
0.0
  0
VERTEX
  5
47
330
42
100
AcDbEntity
  8
Vordergrund
 62
     7
370
    13
100
AcDbVertex
100
AcDb2dVertex
 10
33.56918266304868
 20
13.14751790035895
 30
0.0
  0
VERTEX
  5
48
330
42
100
AcDbEntity
  8
Vordergrund
 62
     7
370
    13
100
AcDbVertex
100
AcDb2dVertex
 10
33.78760171681352
 20
13.26740722324565
 30
0.0
  0
VERTEX
  5
49
330
42
100
AcDbEntity
  8
Vordergrund
 62
     7
370
    13
100
AcDbVertex
100
AcDb2dVertex
 10
33.99224038863736
 20
13.40865613814089
 30
0.0
  0
VERTEX
  5
4A
330
42
100
AcDbEntity
  8
Vordergrund
 62
     7
370
    13
100
AcDbVertex
100
AcDb2dVertex
 10
34.1830986785202
 20
13.57436523098141
 30
0.0
  0
VERTEX
  5
4B
330
42
100
AcDbEntity
  8
Vordergrund
 62
     7
370
    13
100
AcDbVertex
100
AcDb2dVertex
 10
34.34846326181219
 20
13.7576443107967
 30
0.0
  0
VERTEX
  5
4C
330
42
100
AcDbEntity
  8
Vordergrund
 62
     7
370
    13
100
AcDbVertex
100
AcDb2dVertex
 10
34.49729138677498
 20
13.96228298262054
 30
0.0
  0
VERTEX
  5
4D
330
42
100
AcDbEntity
  8
Vordergrund
 62
     7
370
    13
100
AcDbVertex
100
AcDb2dVertex
 10
34.62062580514693
 20
14.17760145044866
 30
0.0
  0
VERTEX
  5
4E
330
42
100
AcDbEntity
  8
Vordergrund
 62
     7
370
    13
100
AcDbVertex
100
AcDb2dVertex
 10
34.71915553602507
 20
14.4070448097663
 30
0.0
  0
VERTEX
  5
4F
330
42
100
AcDbEntity
  8
Vordergrund
 62
     7
370
    13
100
AcDbVertex
100
AcDb2dVertex
 10
34.78943548392417
 20
14.64682345553968
 30
0.0
  0
VERTEX
  5
50
330
42
100
AcDbEntity
  8
Vordergrund
 62
     7
370
    13
100
AcDbVertex
100
AcDb2dVertex
 10
34.83559976342652
 20
14.8938368018321
 30
0.0
  0
VERTEX
  5
51
330
42
100
AcDbEntity
  8
Vordergrund
 62
     7
370
    13
100
AcDbVertex
100
AcDb2dVertex
 10
34.85351425994982
 20
15.14050563857599
 30
0.0
  0
VERTEX
  5
52
330
42
100
AcDbEntity
  8
Vordergrund
 62
     7
370
    13
100
AcDbVertex
100
AcDb2dVertex
 10
34.85351425994982
 20
15.17943521755931
 30
0.0
  0
SEQEND
  5
53
330
42
100
AcDbEntity
  8
Vordergrund
370
    13
  0
POLYLINE
  5
54
330
3E
100
AcDbEntity
  8
Vordergrund
 62
     7
370
    13
100
AcDb2dPolyline
 66
     1
 10
0.0
 20
0.0
 30
0.0
  0
VERTEX
  5
55
330
54
100
AcDbEntity
  8
Vordergrund
 62
     7
370
    13
100
AcDbVertex
100
AcDb2dVertex
 10
30.35198024414812
 20
15.17943521755931
 30
0.0
  0
VERTEX
  5
56
330
54
100
AcDbEntity
  8
Vordergrund
 62
     7
370
    13
100
AcDbVertex
100
AcDb2dVertex
 10
30.36576062608912
 20
14.92897677578165
 30
0.0
  0
VERTEX
  5
57
330
54
100
AcDbEntity
  8
Vordergrund
 62
     7
370
    13
100
AcDbVertex
100
AcDb2dVertex
 10
30.40779079100917
 20
14.68540852497448
 30
0.0
  0
VERTEX
  5
58
330
54
100
AcDbEntity
  8
Vordergrund
 62
     7
370
    13
100
AcDbVertex
100
AcDb2dVertex
 10
30.47875975800531
 20
14.44562987920109
 30
0.0
  0
VERTEX
  5
59
330
54
100
AcDbEntity
  8
Vordergrund
 62
     7
370
    13
100
AcDbVertex
100
AcDb2dVertex
 10
30.57039929791296
 20
14.2127414243982
 30
0.0
  0
VERTEX
  5
5A
330
54
100
AcDbEntity
  8
Vordergrund
 62
     7
370
    13
100
AcDbVertex
100
AcDb2dVertex
 10
30.69028862079965
 20
13.99397786108484
 30
0.0
  0
VERTEX
  5
5B
330
54
100
AcDbEntity
  8
Vordergrund
 62
     7
370
    13
100
AcDbVertex
100
AcDb2dVertex
 10
30.83498263118014
 20
13.78968369880952
 30
0.0
  0
VERTEX
  5
5C
330
54
100
AcDbEntity
  8
Vordergrund
 62
     7
370
    13
100
AcDbVertex
100
AcDb2dVertex
 10
30.99707437376115
 20
13.60261501396046
 30
0.0
  0
VERTEX
  5
5D
330
54
100
AcDbEntity
  8
Vordergrund
 62
     7
370
    13
100
AcDbVertex
100
AcDb2dVertex
 10
31.18448756815874
 20
13.43311631608617
 30
0.0
  0
VERTEX
  5
5E
330
54
100
AcDbEntity
  8
Vordergrund
 62
     7
370
    13
100
AcDbVertex
100
AcDb2dVertex
 10
31.38568114449733
 20
13.28842230570567
 30
0.0
  0
VERTEX
  5
5F
330
54
100
AcDbEntity
  8
Vordergrund
 62
     7
370
    13
100
AcDbVertex
100
AcDb2dVertex
 10
31.60410019826217
 20
13.16508788733373
 30
0.0
  0
VERTEX
  5
60
330
54
100
AcDbEntity
  8
Vordergrund
 62
     7
370
    13
100
AcDbVertex
100
AcDb2dVertex
 10
31.83354355757981
 20
13.06621364690706
 30
0.0
  0
VERTEX
  5
61
330
54
100
AcDbEntity
  8
Vordergrund
 62
     7
370
    13
100
AcDbVertex
100
AcDb2dVertex
 10
32.06987710786795
 20
12.99214409397419
 30
0.0
  0
VERTEX
  5
62
330
54
100
AcDbEntity
  8
Vordergrund
 62
     7
370
    13
100
AcDbVertex
100
AcDb2dVertex
 10
32.31654594461184
 20
12.94632432402036
 30
0.0
  0
VERTEX
  5
63
330
54
100
AcDbEntity
  8
Vordergrund
 62
     7
370
    13
100
AcDbVertex
100
AcDb2dVertex
 10
32.56390380045278
 20
12.92875433704559
 30
0.0
  0
VERTEX
  5
64
330
54
100
AcDbEntity
  8
Vordergrund
 62
     7
370
    13
100
AcDbVertex
100
AcDb2dVertex
 10
32.60248886988757
 20
12.92875433704559
 30
0.0
  0
SEQEND
  5
65
330
54
100
AcDbEntity
  8
Vordergrund
370
    13
  0
POLYLINE
  5
66
330
3E
100
AcDbEntity
  8
Vordergrund
 62
     7
370
    13
100
AcDb2dPolyline
 66
     1
 10
0.0
 20
0.0
 30
0.0
  0
VERTEX
  5
67
330
66
100
AcDbEntity
  8
Vordergrund
 62
     7
370
    13
100
AcDbVertex
100
AcDb2dVertex
 10
34.85351425994982
 20
15.17943521755931
 30
0.0
  0
VERTEX
  5
68
330
66
100
AcDbEntity
  8
Vordergrund
 62
     7
370
    13
100
AcDbVertex
100
AcDb2dVertex
 10
34.83904485891177
 20
15.42989365933697
 30
0.0
  0
VERTEX
  5
69
330
66
100
AcDbEntity
  8
Vordergrund
 62
     7
370
    13
100
AcDbVertex
100
AcDb2dVertex
 10
34.80045978947697
 20
15.67346191014414
 30
0.0
  0
VERTEX
  5
6A
330
66
100
AcDbEntity
  8
Vordergrund
 62
     7
370
    13
100
AcDbVertex
100
AcDb2dVertex
 10
34.72949082248083
 20
15.91324055591752
 30
0.0
  0
VERTEX
  5
6B
330
66
100
AcDbEntity
  8
Vordergrund
 62
     7
370
    13
100
AcDbVertex
100
AcDb2dVertex
 10
34.63440618708793
 20
16.14612901072041
 30
0.0
  0
VERTEX
  5
6C
330
66
100
AcDbEntity
  8
Vordergrund
 62
     7
370
    13
100
AcDbVertex
100
AcDb2dVertex
 10
34.51796195968648
 20
16.36489257403378
 30
0.0
  0
VERTEX
  5
6D
330
66
100
AcDbEntity
  8
Vordergrund
 62
     7
370
    13
100
AcDbVertex
100
AcDb2dVertex
 10
34.37326794930599
 20
16.56953124585762
 30
0.0
  0
VERTEX
  5
6E
330
66
100
AcDbEntity
  8
Vordergrund
 62
     7
370
    13
100
AcDbVertex
100
AcDb2dVertex
 10
34.207903366014
 20
16.75625542115816
 30
0.0
  0
VERTEX
  5
6F
330
66
100
AcDbEntity
  8
Vordergrund
 62
     7
370
    13
100
AcDbVertex
100
AcDb2dVertex
 10
34.02393526710166
 20
16.92575411903245
 30
0.0
  0
VERTEX
  5
70
330
66
100
AcDbEntity
  8
Vordergrund
 62
     7
370
    13
100
AcDbVertex
100
AcDb2dVertex
 10
33.82343070986012
 20
17.07044812941295
 30
0.0
  0
VERTEX
  5
71
330
66
100
AcDbEntity
  8
Vordergrund
 62
     7
370
    13
100
AcDbVertex
100
AcDb2dVertex
 10
33.60432263699823
 20
17.19378254778489
 30
0.0
  0
VERTEX
  5
72
330
66
100
AcDbEntity
  8
Vordergrund
 62
     7
370
    13
100
AcDbVertex
100
AcDb2dVertex
 10
33.37487927768058
 20
17.29265678821156
 30
0.0
  0
VERTEX
  5
73
330
66
100
AcDbEntity
  8
Vordergrund
 62
     7
370
    13
100
AcDbVertex
100
AcDb2dVertex
 10
33.1351006319072
 20
17.36672634114443
 30
0.0
  0
VERTEX
  5
74
330
66
100
AcDbEntity
  8
Vordergrund
 62
     7
370
    13
100
AcDbVertex
100
AcDb2dVertex
 10
32.89187689064856
 20
17.41254611109825
 30
0.0
  0
VERTEX
  5
75
330
66
100
AcDbEntity
  8
Vordergrund
 62
     7
370
    13
100
AcDbVertex
100
AcDb2dVertex
 10
32.64107393932237
 20
17.43011609807303
 30
0.0
  0
VERTEX
  5
76
330
66
100
AcDbEntity
  8
Vordergrund
 62
     7
370
    13
100
AcDbVertex
100
AcDb2dVertex
 10
32.60248886988757
 20
17.43011609807303
 30
0.0
  0
SEQEND
  5
77
330
66
100
AcDbEntity
  8
Vordergrund
370
    13
  0
POLYLINE
  5
78
330
3E
100
AcDbEntity
  8
Vordergrund
 62
     7
370
    13
100
AcDb2dPolyline
 66
     1
 10
0.0
 20
0.0
 30
0.0
  0
VERTEX
  5
79
330
78
100
AcDbEntity
  8
Vordergrund
 62
     7
370
    13
100
AcDbVertex
100
AcDb2dVertex
 10
32.60248886988757
 20
17.43011609807303
 30
0.0
  0
VERTEX
  5
7A
330
78
100
AcDbEntity
  8
Vordergrund
 62
     7
370
    13
100
AcDbVertex
100
AcDb2dVertex
 10
32.35582003314369
 20
17.4159912065835
 30
0.0
  0
VERTEX
  5
7B
330
78
100
AcDbEntity
  8
Vordergrund
 62
     7
370
    13
100
AcDbVertex
100
AcDb2dVertex
 10
32.10846217730275
 20
17.37361653211493
 30
0.0
  0
VERTEX
  5
7C
330
78
100
AcDbEntity
  8
Vordergrund
 62
     7
370
    13
100
AcDbVertex
100
AcDb2dVertex
 10
31.86868353152936
 20
17.30678167970108
 30
0.0
  0
VERTEX
  5
7D
330
78
100
AcDbEntity
  8
Vordergrund
 62
     7
370
    13
100
AcDbVertex
100
AcDb2dVertex
 10
31.63579507672647
 20
17.21135253475966
 30
0.0
  0
VERTEX
  5
7E
330
78
100
AcDbEntity
  8
Vordergrund
 62
     7
370
    13
100
AcDbVertex
100
AcDb2dVertex
 10
31.41737602296163
 20
17.09146321187297
 30
0.0
  0
VERTEX
  5
7F
330
78
100
AcDbEntity
  8
Vordergrund
 62
     7
370
    13
100
AcDbVertex
100
AcDb2dVertex
 10
31.21273735113779
 20
16.95055880652625
 30
0.0
  0
VERTEX
  5
80
330
78
100
AcDbEntity
  8
Vordergrund
 62
     7
370
    13
100
AcDbVertex
100
AcDb2dVertex
 10
31.0253241567402
 20
16.78450520413721
 30
0.0
  0
VERTEX
  5
81
330
78
100
AcDbEntity
  8
Vordergrund
 62
     7
370
    13
100
AcDbVertex
100
AcDb2dVertex
 10
30.85978731867394
 20
16.60122612432192
 30
0.0
  0
VERTEX
  5
82
330
78
100
AcDbEntity
  8
Vordergrund
 62
     7
370
    13
100
AcDbVertex
100
AcDb2dVertex
 10
30.7116482128082
 20
16.39658745249807
 30
0.0
  0
VERTEX
  5
83
330
78
100
AcDbEntity
  8
Vordergrund
 62
     7
370
    13
100
AcDbVertex
100
AcDb2dVertex
 10
30.58831379443626
 20
16.18126898466996
 30
0.0
  0
VERTEX
  5
84
330
78
100
AcDbEntity
  8
Vordergrund
 62
     7
370
    13
100
AcDbVertex
100
AcDb2dVertex
 10
30.48909504446106
 20
15.95217013490085
 30
0.0
  0
VERTEX
  5
85
330
78
100
AcDbEntity
  8
Vordergrund
 62
     7
370
    13
100
AcDbVertex
100
AcDb2dVertex
 10
30.41881509656196
 20
15.71204697957893
 30
0.0
  0
VERTEX
  5
86
330
78
100
AcDbEntity
  8
Vordergrund
 62
     7
370
    13
100
AcDbVertex
100
AcDb2dVertex
 10
30.37265081705961
 20
15.4688232383203
 30
0.0
  0
VERTEX
  5
87
330
78
100
AcDbEntity
  8
Vordergrund
 62
     7
370
    13
100
AcDbVertex
100
AcDb2dVertex
 10
30.35542533963337
 20
15.21836479654263
 30
0.0
  0
VERTEX
  5
88
330
78
100
AcDbEntity
  8
Vordergrund
 62
     7
370
    13
100
AcDbVertex
100
AcDb2dVertex
 10
30.35198024414812
 20
15.17943521755931
 30
0.0
  0
SEQEND
  5
89
330
78
100
AcDbEntity
  8
Vordergrund
370
    13
  0
ENDBLK
  5
41
330
3E
100
AcDbEntity
  8
0
100
AcDbBlockEnd
  0
BLOCK
  5
8C
330
8A
100
AcDbEntity
  8
0
100
AcDbBlockBegin
  2
block 3
 70
     0
 71
     0
 10
0.0
 20
0.0
 30
0.0
  3
block 3
  1

  0
POLYLINE
  5
8E
330
8A
100
AcDbEntity
  8
Vordergrund
 62
     7
370
    13
100
AcDb2dPolyline
 66
     1
 10
0.0
 20
0.0
 30
0.0
  0
VERTEX
  5
8F
330
8E
100
AcDbEntity
  8
Vordergrund
 62
     7
370
    13
100
AcDbVertex
100
AcDb2dVertex
 10
34.85351425994982
 20
30.20935329105878
 30
0.0
  0
VERTEX
  5
90
330
8E
100
AcDbEntity
  8
Vordergrund
 62
     7
370
    13
100
AcDbVertex
100
AcDb2dVertex
 10
34.85351425994982
 20
20.20789658782997
 30
0.0
  0
SEQEND
  5
91
330
8E
100
AcDbEntity
  8
Vordergrund
370
    13
  0
POLYLINE
  5
92
330
8A
100
AcDbEntity
  8
Vordergrund
 62
     7
370
    13
100
AcDb2dPolyline
 66
     1
 10
0.0
 20
0.0
 30
0.0
  0
VERTEX
  5
93
330
92
100
AcDbEntity
  8
Vordergrund
 62
     7
370
    13
100
AcDbVertex
100
AcDb2dVertex
 10
30.35198024414812
 20
30.20935329105878
 30
0.0
  0
VERTEX
  5
94
330
92
100
AcDbEntity
  8
Vordergrund
 62
     7
370
    13
100
AcDbVertex
100
AcDb2dVertex
 10
30.35198024414812
 20
20.20789658782997
 30
0.0
  0
SEQEND
  5
95
330
92
100
AcDbEntity
  8
Vordergrund
370
    13
  0
POLYLINE
  5
96
330
8A
100
AcDbEntity
  8
Vordergrund
 62
     7
370
    13
100
AcDb2dPolyline
 66
     1
 10
0.0
 20
0.0
 30
0.0
  0
VERTEX
  5
97
330
96
100
AcDbEntity
  8
Vordergrund
 62
     7
370
    13
100
AcDbVertex
100
AcDb2dVertex
 10
32.60317788898463
 20
30.20935329105878
 30
0.0
  0
VERTEX
  5
98
330
96
100
AcDbEntity
  8
Vordergrund
 62
     7
370
    13
100
AcDbVertex
100
AcDb2dVertex
 10
34.85351425994982
 20
30.20935329105878
 30
0.0
  0
SEQEND
  5
99
330
96
100
AcDbEntity
  8
Vordergrund
370
    13
  0
POLYLINE
  5
9A
330
8A
100
AcDbEntity
  8
Vordergrund
 62
     7
370
    13
100
AcDb2dPolyline
 66
     1
 10
0.0
 20
0.0
 30
0.0
  0
VERTEX
  5
9B
330
9A
100
AcDbEntity
  8
Vordergrund
 62
     7
370
    13
100
AcDbVertex
100
AcDb2dVertex
 10
30.35198024414812
 20
30.20935329105878
 30
0.0
  0
VERTEX
  5
9C
330
9A
100
AcDbEntity
  8
Vordergrund
 62
     7
370
    13
100
AcDbVertex
100
AcDb2dVertex
 10
32.60317788898463
 20
30.20935329105878
 30
0.0
  0
SEQEND
  5
9D
330
9A
100
AcDbEntity
  8
Vordergrund
370
    13
  0
POLYLINE
  5
9E
330
8A
100
AcDbEntity
  8
Vordergrund
 62
     7
370
    13
100
AcDb2dPolyline
 66
     1
 10
0.0
 20
0.0
 30
0.0
  0
VERTEX
  5
9F
330
9E
100
AcDbEntity
  8
Vordergrund
 62
     7
370
    13
100
AcDbVertex
100
AcDb2dVertex
 10
34.85351425994982
 20
20.20789658782997
 30
0.0
  0
VERTEX
  5
A0
330
9E
100
AcDbEntity
  8
Vordergrund
 62
     7
370
    13
100
AcDbVertex
100
AcDb2dVertex
 10
34.85351425994982
 20
20.0208279029809
 30
0.0
  0
SEQEND
  5
A1
330
9E
100
AcDbEntity
  8
Vordergrund
370
    13
  0
POLYLINE
  5
A2
330
8A
100
AcDbEntity
  8
Vordergrund
 62
     7
370
    13
100
AcDb2dPolyline
 66
     1
 10
0.0
 20
0.0
 30
0.0
  0
VERTEX
  5
A3
330
A2
100
AcDbEntity
  8
Vordergrund
 62
     7
370
    13
100
AcDbVertex
100
AcDb2dVertex
 10
30.35198024414812
 20
20.0208279029809
 30
0.0
  0
VERTEX
  5
A4
330
A2
100
AcDbEntity
  8
Vordergrund
 62
     7
370
    13
100
AcDbVertex
100
AcDb2dVertex
 10
30.35198024414812
 20
20.20789658782997
 30
0.0
  0
SEQEND
  5
A5
330
A2
100
AcDbEntity
  8
Vordergrund
370
    13
  0
POLYLINE
  5
A6
330
8A
100
AcDbEntity
  8
Vordergrund
 62
     7
370
     5
100
AcDb2dPolyline
 66
     1
 10
0.0
 20
0.0
 30
0.0
  0
VERTEX
  5
A7
330
A6
100
AcDbEntity
  8
Vordergrund
 62
     7
370
     5
100
AcDbVertex
100
AcDb2dVertex
 10
34.53587645620978
 20
21.90116101883027
 30
0.0
  0
VERTEX
  5
A8
330
A6
100
AcDbEntity
  8
Vordergrund
 62
     7
370
     5
100
AcDbVertex
100
AcDb2dVertex
 10
34.54690076176258
 20
21.93630099277981
 30
0.0
  0
VERTEX
  5
A9
330
A6
100
AcDbEntity
  8
Vordergrund
 62
     7
370
     5
100
AcDbVertex
100
AcDb2dVertex
 10
34.55723604821833
 20
21.96799587124411
 30
0.0
  0
VERTEX
  5
AA
330
A6
100
AcDbEntity
  8
Vordergrund
 62
     7
370
     5
100
AcDbVertex
100
AcDb2dVertex
 10
34.56412623918883
 20
22.00348035474219
 30
0.0
  0
VERTEX
  5
AB
330
A6
100
AcDbEntity
  8
Vordergrund
 62
     7
370
     5
100
AcDbVertex
100
AcDb2dVertex
 10
34.57170544925638
 20
22.03517523320648
 30
0.0
  0
VERTEX
  5
AC
330
A6
100
AcDbEntity
  8
Vordergrund
 62
     7
370
     5
100
AcDbVertex
100
AcDb2dVertex
 10
34.58204073571213
 20
22.07031520715603
 30
0.0
  0
VERTEX
  5
AD
330
A6
100
AcDbEntity
  8
Vordergrund
 62
     7
370
     5
100
AcDbVertex
100
AcDb2dVertex
 10
34.58548583119738
 20
22.10579969065411
 30
0.0
  0
VERTEX
  5
AE
330
A6
100
AcDbEntity
  8
Vordergrund
 62
     7
370
     5
100
AcDbVertex
100
AcDb2dVertex
 10
34.59237602216788
 20
22.14093966460365
 30
0.0
  0
VERTEX
  5
AF
330
A6
100
AcDbEntity
  8
Vordergrund
 62
     7
370
     5
100
AcDbVertex
100
AcDb2dVertex
 10
34.59995523223543
 20
22.1760796385532
 30
0.0
  0
VERTEX
  5
B0
330
A6
100
AcDbEntity
  8
Vordergrund
 62
     7
370
     5
100
AcDbVertex
100
AcDb2dVertex
 10
34.60340032772068
 20
22.21500921753653
 30
0.0
  0
VERTEX
  5
B1
330
A6
100
AcDbEntity
  8
Vordergrund
 62
     7
370
     5
100
AcDbVertex
100
AcDb2dVertex
 10
34.61029051869118
 20
22.2504937010346
 30
0.0
  0
VERTEX
  5
B2
330
A6
100
AcDbEntity
  8
Vordergrund
 62
     7
370
     5
100
AcDbVertex
100
AcDb2dVertex
 10
34.61718070966168
 20
22.32456325396747
 30
0.0
  0
VERTEX
  5
B3
330
A6
100
AcDbEntity
  8
Vordergrund
 62
     7
370
     5
100
AcDbVertex
100
AcDb2dVertex
 10
34.62407090063218
 20
22.40207790238559
 30
0.0
  0
VERTEX
  5
B4
330
A6
100
AcDbEntity
  8
Vordergrund
 62
     7
370
     5
100
AcDbVertex
100
AcDb2dVertex
 10
34.62820501521448
 20
22.47614745531846
 30
0.0
  0
VERTEX
  5
B5
330
A6
100
AcDbEntity
  8
Vordergrund
 62
     7
370
     5
100
AcDbVertex
100
AcDb2dVertex
 10
34.63165011069973
 20
22.55366210373658
 30
0.0
  0
VERTEX
  5
B6
330
A6
100
AcDbEntity
  8
Vordergrund
 62
     7
370
     5
100
AcDbVertex
100
AcDb2dVertex
 10
34.63509520618498
 20
22.63117675215471
 30
0.0
  0
VERTEX
  5
B7
330
A6
100
AcDbEntity
  8
Vordergrund
 62
     7
370
     5
100
AcDbVertex
100
AcDb2dVertex
 10
34.63509520618498
 20
22.70903591012135
 30
0.0
  0
SEQEND
  5
B8
330
A6
100
AcDbEntity
  8
Vordergrund
370
     5
  0
POLYLINE
  5
B9
330
8A
100
AcDbEntity
  8
Vordergrund
 62
     7
370
     5
100
AcDb2dPolyline
 66
     1
 10
0.0
 20
0.0
 30
0.0
  0
VERTEX
  5
BA
330
B9
100
AcDbEntity
  8
Vordergrund
 62
     7
370
     5
100
AcDbVertex
100
AcDb2dVertex
 10
34.51176078781303
 20
21.82330186086362
 30
0.0
  0
VERTEX
  5
BB
330
B9
100
AcDbEntity
  8
Vordergrund
 62
     7
370
     5
100
AcDbVertex
100
AcDb2dVertex
 10
34.53587645620978
 20
21.90116101883027
 30
0.0
  0
SEQEND
  5
BC
330
B9
100
AcDbEntity
  8
Vordergrund
370
     5
  0
POLYLINE
  5
BD
330
8A
100
AcDbEntity
  8
Vordergrund
 62
     7
370
     5
100
AcDb2dPolyline
 66
     1
 10
0.0
 20
0.0
 30
0.0
  0
VERTEX
  5
BE
330
BD
100
AcDbEntity
  8
Vordergrund
 62
     7
370
     5
100
AcDbVertex
100
AcDb2dVertex
 10
34.42701143887589
 20
21.6575927680231
 30
0.0
  0
VERTEX
  5
BF
330
BD
100
AcDbEntity
  8
Vordergrund
 62
     7
370
     5
100
AcDbVertex
100
AcDb2dVertex
 10
34.51176078781303
 20
21.82330186086362
 30
0.0
  0
SEQEND
  5
C0
330
BD
100
AcDbEntity
  8
Vordergrund
370
     5
  0
POLYLINE
  5
C1
330
8A
100
AcDbEntity
  8
Vordergrund
 62
     7
370
     5
100
AcDb2dPolyline
 66
     1
 10
0.0
 20
0.0
 30
0.0
  0
VERTEX
  5
C2
330
C1
100
AcDbEntity
  8
Vordergrund
 62
     7
370
     5
100
AcDbVertex
100
AcDb2dVertex
 10
34.27129312294259
 20
21.48120387917831
 30
0.0
  0
VERTEX
  5
C3
330
C1
100
AcDbEntity
  8
Vordergrund
 62
     7
370
     5
100
AcDbVertex
100
AcDb2dVertex
 10
34.42701143887589
 20
21.6575927680231
 30
0.0
  0
SEQEND
  5
C4
330
C1
100
AcDbEntity
  8
Vordergrund
370
     5
  0
POLYLINE
  5
C5
330
8A
100
AcDbEntity
  8
Vordergrund
 62
     7
370
     5
100
AcDb2dPolyline
 66
     1
 10
0.0
 20
0.0
 30
0.0
  0
VERTEX
  5
C6
330
C5
100
AcDbEntity
  8
Vordergrund
 62
     7
370
     5
100
AcDbVertex
100
AcDb2dVertex
 10
34.06665445111876
 20
21.35786946080637
 30
0.0
  0
VERTEX
  5
C7
330
C5
100
AcDbEntity
  8
Vordergrund
 62
     7
370
     5
100
AcDbVertex
100
AcDb2dVertex
 10
34.27129312294259
 20
21.48120387917831
 30
0.0
  0
SEQEND
  5
C8
330
C5
100
AcDbEntity
  8
Vordergrund
370
     5
  0
POLYLINE
  5
C9
330
8A
100
AcDbEntity
  8
Vordergrund
 62
     7
370
     5
100
AcDb2dPolyline
 66
     1
 10
0.0
 20
0.0
 30
0.0
  0
VERTEX
  5
CA
330
C9
100
AcDbEntity
  8
Vordergrund
 62
     7
370
     5
100
AcDbVertex
100
AcDb2dVertex
 10
32.60317788898463
 20
21.21317545042587
 30
0.0
  0
VERTEX
  5
CB
330
C9
100
AcDbEntity
  8
Vordergrund
 62
     7
370
     5
100
AcDbVertex
100
AcDb2dVertex
 10
32.70859781083327
 20
21.21317545042587
 30
0.0
  0
VERTEX
  5
CC
330
C9
100
AcDbEntity
  8
Vordergrund
 62
     7
370
     5
100
AcDbVertex
100
AcDb2dVertex
 10
32.81815184726421
 20
21.21317545042587
 30
0.0
  0
VERTEX
  5
CD
330
C9
100
AcDbEntity
  8
Vordergrund
 62
     7
370
     5
100
AcDbVertex
100
AcDb2dVertex
 10
32.92426078820991
 20
21.21317545042587
 30
0.0
  0
VERTEX
  5
CE
330
C9
100
AcDbEntity
  8
Vordergrund
 62
     7
370
     5
100
AcDbVertex
100
AcDb2dVertex
 10
33.0331258055438
 20
21.21662054591112
 30
0.0
  0
VERTEX
  5
CF
330
C9
100
AcDbEntity
  8
Vordergrund
 62
     7
370
     5
100
AcDbVertex
100
AcDb2dVertex
 10
33.1392347464895
 20
21.22006564139637
 30
0.0
  0
VERTEX
  5
D0
330
C9
100
AcDbEntity
  8
Vordergrund
 62
     7
370
     5
100
AcDbVertex
100
AcDb2dVertex
 10
33.24878878292044
 20
21.22385524643015
 30
0.0
  0
VERTEX
  5
D1
330
C9
100
AcDbEntity
  8
Vordergrund
 62
     7
370
     5
100
AcDbVertex
100
AcDb2dVertex
 10
33.35076360928384
 20
21.2273003419154
 30
0.0
  0
VERTEX
  5
D2
330
C9
100
AcDbEntity
  8
Vordergrund
 62
     7
370
     5
100
AcDbVertex
100
AcDb2dVertex
 10
33.40381807975668
 20
21.23074543740065
 30
0.0
  0
VERTEX
  5
D3
330
C9
100
AcDbEntity
  8
Vordergrund
 62
     7
370
     5
100
AcDbVertex
100
AcDb2dVertex
 10
33.45342745474429
 20
21.2341905328859
 30
0.0
  0
VERTEX
  5
D4
330
C9
100
AcDbEntity
  8
Vordergrund
 62
     7
370
     5
100
AcDbVertex
100
AcDb2dVertex
 10
33.50234781063483
 20
21.23798013791967
 30
0.0
  0
VERTEX
  5
D5
330
C9
100
AcDbEntity
  8
Vordergrund
 62
     7
370
     5
100
AcDbVertex
100
AcDb2dVertex
 10
33.55195718562243
 20
21.24142523340492
 30
0.0
  0
VERTEX
  5
D6
330
C9
100
AcDbEntity
  8
Vordergrund
 62
     7
370
     5
100
AcDbVertex
100
AcDb2dVertex
 10
33.60156656061002
 20
21.24831542437542
 30
0.0
  0
VERTEX
  5
D7
330
C9
100
AcDbEntity
  8
Vordergrund
 62
     7
370
     5
100
AcDbVertex
100
AcDb2dVertex
 10
33.64704182101532
 20
21.25555012489445
 30
0.0
  0
VERTEX
  5
D8
330
C9
100
AcDbEntity
  8
Vordergrund
 62
     7
370
     5
100
AcDbVertex
100
AcDb2dVertex
 10
33.69320610051767
 20
21.2589952203797
 30
0.0
  0
VERTEX
  5
D9
330
C9
100
AcDbEntity
  8
Vordergrund
 62
     7
370
     5
100
AcDbVertex
100
AcDb2dVertex
 10
33.73868136092297
 20
21.26967501638397
 30
0.0
  0
VERTEX
  5
DA
330
C9
100
AcDbEntity
  8
Vordergrund
 62
     7
370
     5
100
AcDbVertex
100
AcDb2dVertex
 10
33.78484564042532
 20
21.27656520735447
 30
0.0
  0
VERTEX
  5
DB
330
C9
100
AcDbEntity
  8
Vordergrund
 62
     7
370
     5
100
AcDbVertex
100
AcDb2dVertex
 10
33.82687580534537
 20
21.28379990787349
 30
0.0
  0
VERTEX
  5
DC
330
C9
100
AcDbEntity
  8
Vordergrund
 62
     7
370
     5
100
AcDbVertex
100
AcDb2dVertex
 10
33.86959498936246
 20
21.29413519432924
 30
0.0
  0
VERTEX
  5
DD
330
C9
100
AcDbEntity
  8
Vordergrund
 62
     7
370
     5
100
AcDbVertex
100
AcDb2dVertex
 10
33.91162515428251
 20
21.30481499033352
 30
0.0
  0
VERTEX
  5
DE
330
C9
100
AcDbEntity
  8
Vordergrund
 62
     7
370
     5
100
AcDbVertex
100
AcDb2dVertex
 10
33.95089924281436
 20
21.31549478633779
 30
0.0
  0
VERTEX
  5
DF
330
C9
100
AcDbEntity
  8
Vordergrund
 62
     7
370
     5
100
AcDbVertex
100
AcDb2dVertex
 10
33.98948431224916
 20
21.32961967782732
 30
0.0
  0
VERTEX
  5
E0
330
C9
100
AcDbEntity
  8
Vordergrund
 62
     7
370
     5
100
AcDbVertex
100
AcDb2dVertex
 10
34.02806938168396
 20
21.34374456931684
 30
0.0
  0
VERTEX
  5
E1
330
C9
100
AcDbEntity
  8
Vordergrund
 62
     7
370
     5
100
AcDbVertex
100
AcDb2dVertex
 10
34.06665445111876
 20
21.35786946080637
 30
0.0
  0
SEQEND
  5
E2
330
C9
100
AcDbEntity
  8
Vordergrund
370
     5
  0
POLYLINE
  5
E3
330
8A
100
AcDbEntity
  8
Vordergrund
 62
     7
370
     5
100
AcDb2dPolyline
 66
     1
 10
0.0
 20
0.0
 30
0.0
  0
VERTEX
  5
E4
330
E3
100
AcDbEntity
  8
Vordergrund
 62
     7
370
     5
100
AcDbVertex
100
AcDb2dVertex
 10
33.67873669947962
 20
24.15873209031448
 30
0.0
  0
VERTEX
  5
E5
330
E3
100
AcDbEntity
  8
Vordergrund
 62
     7
370
     5
100
AcDbVertex
100
AcDb2dVertex
 10
33.63326143907432
 20
24.16252169534826
 30
0.0
  0
VERTEX
  5
E6
330
E3
100
AcDbEntity
  8
Vordergrund
 62
     7
370
     5
100
AcDbVertex
100
AcDb2dVertex
 10
33.59054225505723
 20
24.16941188631876
 30
0.0
  0
VERTEX
  5
E7
330
E3
100
AcDbEntity
  8
Vordergrund
 62
     7
370
     5
100
AcDbVertex
100
AcDb2dVertex
 10
33.54506699465193
 20
24.17285698180401
 30
0.0
  0
VERTEX
  5
E8
330
E3
100
AcDbEntity
  8
Vordergrund
 62
     7
370
     5
100
AcDbVertex
100
AcDb2dVertex
 10
33.49890271514958
 20
24.17664658683778
 30
0.0
  0
VERTEX
  5
E9
330
E3
100
AcDbEntity
  8
Vordergrund
 62
     7
370
     5
100
AcDbVertex
100
AcDb2dVertex
 10
33.45342745474429
 20
24.18353677780828
 30
0.0
  0
VERTEX
  5
EA
330
E3
100
AcDbEntity
  8
Vordergrund
 62
     7
370
     5
100
AcDbVertex
100
AcDb2dVertex
 10
33.40381807975668
 20
24.18698187329353
 30
0.0
  0
VERTEX
  5
EB
330
E3
100
AcDbEntity
  8
Vordergrund
 62
     7
370
     5
100
AcDbVertex
100
AcDb2dVertex
 10
33.30873344436379
 20
24.19077147832731
 30
0.0
  0
VERTEX
  5
EC
330
E3
100
AcDbEntity
  8
Vordergrund
 62
     7
370
     5
100
AcDbVertex
100
AcDb2dVertex
 10
33.2095146943886
 20
24.19421657381256
 30
0.0
  0
VERTEX
  5
ED
330
E3
100
AcDbEntity
  8
Vordergrund
 62
     7
370
     5
100
AcDbVertex
100
AcDb2dVertex
 10
33.1075398680252
 20
24.19766166929781
 30
0.0
  0
VERTEX
  5
EE
330
E3
100
AcDbEntity
  8
Vordergrund
 62
     7
370
     5
100
AcDbVertex
100
AcDb2dVertex
 10
33.00832111805001
 20
24.20110676478306
 30
0.0
  0
VERTEX
  5
EF
330
E3
100
AcDbEntity
  8
Vordergrund
 62
     7
370
     5
100
AcDbVertex
100
AcDb2dVertex
 10
32.90634629168661
 20
24.20110676478306
 30
0.0
  0
VERTEX
  5
F0
330
E3
100
AcDbEntity
  8
Vordergrund
 62
     7
370
     5
100
AcDbVertex
100
AcDb2dVertex
 10
32.80437146532321
 20
24.20110676478306
 30
0.0
  0
VERTEX
  5
F1
330
E3
100
AcDbEntity
  8
Vordergrund
 62
     7
370
     5
100
AcDbVertex
100
AcDb2dVertex
 10
32.60317788898463
 20
24.20455186026831
 30
0.0
  0
SEQEND
  5
F2
330
E3
100
AcDbEntity
  8
Vordergrund
370
     5
  0
POLYLINE
  5
F3
330
8A
100
AcDbEntity
  8
Vordergrund
 62
     7
370
     5
100
AcDb2dPolyline
 66
     1
 10
0.0
 20
0.0
 30
0.0
  0
VERTEX
  5
F4
330
F3
100
AcDbEntity
  8
Vordergrund
 62
     7
370
     5
100
AcDbVertex
100
AcDb2dVertex
 10
33.98603921676391
 20
24.08845214241539
 30
0.0
  0
VERTEX
  5
F5
330
F3
100
AcDbEntity
  8
Vordergrund
 62
     7
370
     5
100
AcDbVertex
100
AcDb2dVertex
 10
33.74626057099052
 20
24.14839680385873
 30
0.0
  0
VERTEX
  5
F6
330
F3
100
AcDbEntity
  8
Vordergrund
 62
     7
370
     5
100
AcDbVertex
100
AcDb2dVertex
 10
33.67873669947962
 20
24.15873209031448
 30
0.0
  0
SEQEND
  5
F7
330
F3
100
AcDbEntity
  8
Vordergrund
370
     5
  0
POLYLINE
  5
F8
330
8A
100
AcDbEntity
  8
Vordergrund
 62
     7
370
     5
100
AcDb2dPolyline
 66
     1
 10
0.0
 20
0.0
 30
0.0
  0
VERTEX
  5
F9
330
F8
100
AcDbEntity
  8
Vordergrund
 62
     7
370
     5
100
AcDbVertex
100
AcDb2dVertex
 10
34.21548257608155
 20
23.97889810598444
 30
0.0
  0
VERTEX
  5
FA
330
F8
100
AcDbEntity
  8
Vordergrund
 62
     7
370
     5
100
AcDbVertex
100
AcDb2dVertex
 10
33.99292940773441
 20
24.08466253738161
 30
0.0
  0
VERTEX
  5
FB
330
F8
100
AcDbEntity
  8
Vordergrund
 62
     7
370
     5
100
AcDbVertex
100
AcDb2dVertex
 10
33.98603921676391
 20
24.08845214241539
 30
0.0
  0
SEQEND
  5
FC
330
F8
100
AcDbEntity
  8
Vordergrund
370
     5
  0
POLYLINE
  5
FD
330
8A
100
AcDbEntity
  8
Vordergrund
 62
     7
370
     5
100
AcDb2dPolyline
 66
     1
 10
0.0
 20
0.0
 30
0.0
  0
VERTEX
  5
FE
330
FD
100
AcDbEntity
  8
Vordergrund
 62
     7
370
     5
100
AcDbVertex
100
AcDb2dVertex
 10
34.39531656041159
 20
23.80250921713965
 30
0.0
  0
VERTEX
  5
FF
330
FD
100
AcDbEntity
  8
Vordergrund
 62
     7
370
     5
100
AcDbVertex
100
AcDb2dVertex
 10
34.2189276715668
 20
23.97545301049919
 30
0.0
  0
VERTEX
  5
100
330
FD
100
AcDbEntity
  8
Vordergrund
 62
     7
370
     5
100
AcDbVertex
100
AcDb2dVertex
 10
34.21548257608155
 20
23.97889810598444
 30
0.0
  0
SEQEND
  5
101
330
FD
100
AcDbEntity
  8
Vordergrund
370
     5
  0
POLYLINE
  5
102
330
8A
100
AcDbEntity
  8
Vordergrund
 62
     7
370
     5
100
AcDb2dPolyline
 66
     1
 10
0.0
 20
0.0
 30
0.0
  0
VERTEX
  5
103
330
102
100
AcDbEntity
  8
Vordergrund
 62
     7
370
     5
100
AcDbVertex
100
AcDb2dVertex
 10
34.46904160379594
 20
23.68606498973821
 30
0.0
  0
VERTEX
  5
104
330
102
100
AcDbEntity
  8
Vordergrund
 62
     7
370
     5
100
AcDbVertex
100
AcDb2dVertex
 10
34.39531656041159
 20
23.80250921713965
 30
0.0
  0
SEQEND
  5
105
330
102
100
AcDbEntity
  8
Vordergrund
370
     5
  0
POLYLINE
  5
106
330
8A
100
AcDbEntity
  8
Vordergrund
 62
     7
370
     5
100
AcDb2dPolyline
 66
     1
 10
0.0
 20
0.0
 30
0.0
  0
VERTEX
  5
107
330
106
100
AcDbEntity
  8
Vordergrund
 62
     7
370
     5
100
AcDbVertex
100
AcDb2dVertex
 10
34.49384629128974
 20
23.62956542378011
 30
0.0
  0
VERTEX
  5
108
330
106
100
AcDbEntity
  8
Vordergrund
 62
     7
370
     5
100
AcDbVertex
100
AcDb2dVertex
 10
34.46904160379594
 20
23.68606498973821
 30
0.0
  0
SEQEND
  5
109
330
106
100
AcDbEntity
  8
Vordergrund
370
     5
  0
POLYLINE
  5
10A
330
8A
100
AcDbEntity
  8
Vordergrund
 62
     7
370
     5
100
AcDb2dPolyline
 66
     1
 10
0.0
 20
0.0
 30
0.0
  0
VERTEX
  5
10B
330
10A
100
AcDbEntity
  8
Vordergrund
 62
     7
370
     5
100
AcDbVertex
100
AcDb2dVertex
 10
34.60340032772068
 20
23.20271809315765
 30
0.0
  0
VERTEX
  5
10C
330
10A
100
AcDbEntity
  8
Vordergrund
 62
     7
370
     5
100
AcDbVertex
100
AcDb2dVertex
 10
34.59582111765313
 20
23.26645235963478
 30
0.0
  0
VERTEX
  5
10D
330
10A
100
AcDbEntity
  8
Vordergrund
 62
     7
370
     5
100
AcDbVertex
100
AcDb2dVertex
 10
34.58893092668263
 20
23.29814723809908
 30
0.0
  0
VERTEX
  5
10E
330
10A
100
AcDbEntity
  8
Vordergrund
 62
     7
370
     5
100
AcDbVertex
100
AcDb2dVertex
 10
34.58204073571213
 20
23.33328721204862
 30
0.0
  0
VERTEX
  5
10F
330
10A
100
AcDbEntity
  8
Vordergrund
 62
     7
370
     5
100
AcDbVertex
100
AcDb2dVertex
 10
34.57515054474163
 20
23.36153699502767
 30
0.0
  0
VERTEX
  5
110
330
10A
100
AcDbEntity
  8
Vordergrund
 62
     7
370
     5
100
AcDbVertex
100
AcDb2dVertex
 10
34.56826035377113
 20
23.39323187349197
 30
0.0
  0
VERTEX
  5
111
330
10A
100
AcDbEntity
  8
Vordergrund
 62
     7
370
     5
100
AcDbVertex
100
AcDb2dVertex
 10
34.56068114370358
 20
23.42492675195627
 30
0.0
  0
VERTEX
  5
112
330
10A
100
AcDbEntity
  8
Vordergrund
 62
     7
370
     5
100
AcDbVertex
100
AcDb2dVertex
 10
34.55379095273308
 20
23.45696613996909
 30
0.0
  0
VERTEX
  5
113
330
10A
100
AcDbEntity
  8
Vordergrund
 62
     7
370
     5
100
AcDbVertex
100
AcDb2dVertex
 10
34.54690076176258
 20
23.48521592294814
 30
0.0
  0
VERTEX
  5
114
330
10A
100
AcDbEntity
  8
Vordergrund
 62
     7
370
     5
100
AcDbVertex
100
AcDb2dVertex
 10
34.53587645620978
 20
23.51691080141244
 30
0.0
  0
VERTEX
  5
115
330
10A
100
AcDbEntity
  8
Vordergrund
 62
     7
370
     5
100
AcDbVertex
100
AcDb2dVertex
 10
34.52554116975404
 20
23.54516058439149
 30
0.0
  0
VERTEX
  5
116
330
10A
100
AcDbEntity
  8
Vordergrund
 62
     7
370
     5
100
AcDbVertex
100
AcDb2dVertex
 10
34.51520588329829
 20
23.57341036737054
 30
0.0
  0
VERTEX
  5
117
330
10A
100
AcDbEntity
  8
Vordergrund
 62
     7
370
     5
100
AcDbVertex
100
AcDb2dVertex
 10
34.50418157774548
 20
23.60131564080106
 30
0.0
  0
VERTEX
  5
118
330
10A
100
AcDbEntity
  8
Vordergrund
 62
     7
370
     5
100
AcDbVertex
100
AcDb2dVertex
 10
34.49384629128974
 20
23.62956542378011
 30
0.0
  0
SEQEND
  5
119
330
10A
100
AcDbEntity
  8
Vordergrund
370
     5
  0
POLYLINE
  5
11A
330
8A
100
AcDbEntity
  8
Vordergrund
 62
     7
370
     5
100
AcDb2dPolyline
 66
     1
 10
0.0
 20
0.0
 30
0.0
  0
VERTEX
  5
11B
330
11A
100
AcDbEntity
  8
Vordergrund
 62
     7
370
     5
100
AcDbVertex
100
AcDb2dVertex
 10
34.63509520618498
 20
22.70903591012135
 30
0.0
  0
VERTEX
  5
11C
330
11A
100
AcDbEntity
  8
Vordergrund
 62
     7
370
     5
100
AcDbVertex
100
AcDb2dVertex
 10
34.62820501521448
 20
22.95949435189902
 30
0.0
  0
VERTEX
  5
11D
330
11A
100
AcDbEntity
  8
Vordergrund
 62
     7
370
     5
100
AcDbVertex
100
AcDb2dVertex
 10
34.60340032772068
 20
23.20271809315765
 30
0.0
  0
SEQEND
  5
11E
330
11A
100
AcDbEntity
  8
Vordergrund
370
     5
  0
POLYLINE
  5
11F
330
8A
100
AcDbEntity
  8
Vordergrund
 62
     7
370
    13
100
AcDb2dPolyline
 66
     1
 10
0.0
 20
0.0
 30
0.0
  0
VERTEX
  5
120
330
11F
100
AcDbEntity
  8
Vordergrund
 62
     7
370
    13
100
AcDbVertex
100
AcDb2dVertex
 10
34.85351425994982
 20
20.0208279029809
 30
0.0
  0
VERTEX
  5
121
330
11F
100
AcDbEntity
  8
Vordergrund
 62
     7
370
    13
100
AcDbVertex
100
AcDb2dVertex
 10
34.85351425994982
 20
19.99946831097236
 30
0.0
  0
VERTEX
  5
122
330
11F
100
AcDbEntity
  8
Vordergrund
 62
     7
370
    13
100
AcDbVertex
100
AcDb2dVertex
 10
34.85006916446456
 20
19.97845322851233
 30
0.0
  0
VERTEX
  5
123
330
11F
100
AcDbEntity
  8
Vordergrund
 62
     7
370
    13
100
AcDbVertex
100
AcDb2dVertex
 10
34.84662406897932
 20
19.95743814605231
 30
0.0
  0
VERTEX
  5
124
330
11F
100
AcDbEntity
  8
Vordergrund
 62
     7
370
    13
100
AcDbVertex
100
AcDb2dVertex
 10
34.83973387800881
 20
19.93952364952901
 30
0.0
  0
VERTEX
  5
125
330
11F
100
AcDbEntity
  8
Vordergrund
 62
     7
370
    13
100
AcDbVertex
100
AcDb2dVertex
 10
34.83628878252357
 20
19.93263345855851
 30
0.0
  0
VERTEX
  5
126
330
11F
100
AcDbEntity
  8
Vordergrund
 62
     7
370
    13
100
AcDbVertex
100
AcDb2dVertex
 10
34.83284368703832
 20
19.92539875803948
 30
0.0
  0
VERTEX
  5
127
330
11F
100
AcDbEntity
  8
Vordergrund
 62
     7
370
    13
100
AcDbVertex
100
AcDb2dVertex
 10
34.82526447697077
 20
19.91506347158374
 30
0.0
  0
VERTEX
  5
128
330
11F
100
AcDbEntity
  8
Vordergrund
 62
     7
370
    13
100
AcDbVertex
100
AcDb2dVertex
 10
34.82181938148552
 20
19.90782877106471
 30
0.0
  0
VERTEX
  5
129
330
11F
100
AcDbEntity
  8
Vordergrund
 62
     7
370
    13
100
AcDbVertex
100
AcDb2dVertex
 10
34.81837428600027
 20
19.90093858009421
 30
0.0
  0
VERTEX
  5
12A
330
11F
100
AcDbEntity
  8
Vordergrund
 62
     7
370
    13
100
AcDbVertex
100
AcDb2dVertex
 10
34.81148409502977
 20
19.89370387957518
 30
0.0
  0
VERTEX
  5
12B
330
11F
100
AcDbEntity
  8
Vordergrund
 62
     7
370
    13
100
AcDbVertex
100
AcDb2dVertex
 10
34.80803899954452
 20
19.89025878408994
 30
0.0
  0
VERTEX
  5
12C
330
11F
100
AcDbEntity
  8
Vordergrund
 62
     7
370
    13
100
AcDbVertex
100
AcDb2dVertex
 10
34.80045978947697
 20
19.88302408357091
 30
0.0
  0
VERTEX
  5
12D
330
11F
100
AcDbEntity
  8
Vordergrund
 62
     7
370
    13
100
AcDbVertex
100
AcDb2dVertex
 10
34.79356959850647
 20
19.87957898808566
 30
0.0
  0
VERTEX
  5
12E
330
11F
100
AcDbEntity
  8
Vordergrund
 62
     7
370
    13
100
AcDbVertex
100
AcDb2dVertex
 10
34.78667940753597
 20
19.87268879711516
 30
0.0
  0
VERTEX
  5
12F
330
11F
100
AcDbEntity
  8
Vordergrund
 62
     7
370
    13
100
AcDbVertex
100
AcDb2dVertex
 10
34.78323431205072
 20
19.86924370162991
 30
0.0
  0
VERTEX
  5
130
330
11F
100
AcDbEntity
  8
Vordergrund
 62
     7
370
    13
100
AcDbVertex
100
AcDb2dVertex
 10
34.77634412108022
 20
19.86545409659614
 30
0.0
  0
VERTEX
  5
131
330
11F
100
AcDbEntity
  8
Vordergrund
 62
     7
370
    13
100
AcDbVertex
100
AcDb2dVertex
 10
34.76876491101267
 20
19.86200900111089
 30
0.0
  0
VERTEX
  5
132
330
11F
100
AcDbEntity
  8
Vordergrund
 62
     7
370
    13
100
AcDbVertex
100
AcDb2dVertex
 10
34.76187472004217
 20
19.86200900111089
 30
0.0
  0
VERTEX
  5
133
330
11F
100
AcDbEntity
  8
Vordergrund
 62
     7
370
    13
100
AcDbVertex
100
AcDb2dVertex
 10
34.75498452907167
 20
19.85856390562564
 30
0.0
  0
SEQEND
  5
134
330
11F
100
AcDbEntity
  8
Vordergrund
370
    13
  0
POLYLINE
  5
135
330
8A
100
AcDbEntity
  8
Vordergrund
 62
     7
370
    13
100
AcDb2dPolyline
 66
     1
 10
0.0
 20
0.0
 30
0.0
  0
VERTEX
  5
136
330
135
100
AcDbEntity
  8
Vordergrund
 62
     7
370
    13
100
AcDbVertex
100
AcDb2dVertex
 10
30.45464408960856
 20
19.85856390562564
 30
0.0
  0
VERTEX
  5
137
330
135
100
AcDbEntity
  8
Vordergrund
 62
     7
370
    13
100
AcDbVertex
100
AcDb2dVertex
 10
30.44706487954101
 20
19.86200900111089
 30
0.0
  0
VERTEX
  5
138
330
135
100
AcDbEntity
  8
Vordergrund
 62
     7
370
    13
100
AcDbVertex
100
AcDb2dVertex
 10
30.43328449760001
 20
19.86545409659614
 30
0.0
  0
VERTEX
  5
139
330
135
100
AcDbEntity
  8
Vordergrund
 62
     7
370
    13
100
AcDbVertex
100
AcDb2dVertex
 10
30.42294921114426
 20
19.86924370162991
 30
0.0
  0
VERTEX
  5
13A
330
135
100
AcDbEntity
  8
Vordergrund
 62
     7
370
    13
100
AcDbVertex
100
AcDb2dVertex
 10
30.41192490559147
 20
19.87957898808566
 30
0.0
  0
VERTEX
  5
13B
330
135
100
AcDbEntity
  8
Vordergrund
 62
     7
370
    13
100
AcDbVertex
100
AcDb2dVertex
 10
30.40158961913572
 20
19.88681368860469
 30
0.0
  0
VERTEX
  5
13C
330
135
100
AcDbEntity
  8
Vordergrund
 62
     7
370
    13
100
AcDbVertex
100
AcDb2dVertex
 10
30.39056531358291
 20
19.89714897506044
 30
0.0
  0
VERTEX
  5
13D
330
135
100
AcDbEntity
  8
Vordergrund
 62
     7
370
    13
100
AcDbVertex
100
AcDb2dVertex
 10
30.38367512261242
 20
19.90782877106471
 30
0.0
  0
VERTEX
  5
13E
330
135
100
AcDbEntity
  8
Vordergrund
 62
     7
370
    13
100
AcDbVertex
100
AcDb2dVertex
 10
30.37678493164191
 20
19.92195366255423
 30
0.0
  0
VERTEX
  5
13F
330
135
100
AcDbEntity
  8
Vordergrund
 62
     7
370
    13
100
AcDbVertex
100
AcDb2dVertex
 10
30.36989474067142
 20
19.93607855404376
 30
0.0
  0
VERTEX
  5
140
330
135
100
AcDbEntity
  8
Vordergrund
 62
     7
370
    13
100
AcDbVertex
100
AcDb2dVertex
 10
30.36231553060387
 20
19.95020344553328
 30
0.0
  0
VERTEX
  5
141
330
135
100
AcDbEntity
  8
Vordergrund
 62
     7
370
    13
100
AcDbVertex
100
AcDb2dVertex
 10
30.35887043511862
 20
19.96777343250806
 30
0.0
  0
VERTEX
  5
142
330
135
100
AcDbEntity
  8
Vordergrund
 62
     7
370
    13
100
AcDbVertex
100
AcDb2dVertex
 10
30.35542533963337
 20
19.98534341948283
 30
0.0
  0
VERTEX
  5
143
330
135
100
AcDbEntity
  8
Vordergrund
 62
     7
370
    13
100
AcDbVertex
100
AcDb2dVertex
 10
30.35198024414812
 20
20.00325791600613
 30
0.0
  0
VERTEX
  5
144
330
135
100
AcDbEntity
  8
Vordergrund
 62
     7
370
    13
100
AcDbVertex
100
AcDb2dVertex
 10
30.35198024414812
 20
20.0208279029809
 30
0.0
  0
SEQEND
  5
145
330
135
100
AcDbEntity
  8
Vordergrund
370
    13
  0
POLYLINE
  5
146
330
8A
100
AcDbEntity
  8
Vordergrund
 62
     7
370
     5
100
AcDb2dPolyline
 66
     1
 10
0.0
 20
0.0
 30
0.0
  0
VERTEX
  5
147
330
146
100
AcDbEntity
  8
Vordergrund
 62
     7
370
     5
100
AcDbVertex
100
AcDb2dVertex
 10
30.79639756174535
 20
23.78838432565013
 30
0.0
  0
VERTEX
  5
148
330
146
100
AcDbEntity
  8
Vordergrund
 62
     7
370
     5
100
AcDbVertex
100
AcDb2dVertex
 10
30.78261717980435
 20
23.76771375273863
 30
0.0
  0
VERTEX
  5
149
330
146
100
AcDbEntity
  8
Vordergrund
 62
     7
370
     5
100
AcDbVertex
100
AcDb2dVertex
 10
30.7681477787663
 20
23.74290906524483
 30
0.0
  0
VERTEX
  5
14A
330
146
100
AcDbEntity
  8
Vordergrund
 62
     7
370
     5
100
AcDbVertex
100
AcDb2dVertex
 10
30.75781249231055
 20
23.72154947323628
 30
0.0
  0
VERTEX
  5
14B
330
146
100
AcDbEntity
  8
Vordergrund
 62
     7
370
     5
100
AcDbVertex
100
AcDb2dVertex
 10
30.7433430912725
 20
23.70018988122773
 30
0.0
  0
VERTEX
  5
14C
330
146
100
AcDbEntity
  8
Vordergrund
 62
     7
370
     5
100
AcDbVertex
100
AcDb2dVertex
 10
30.73300780481675
 20
23.67538519373393
 30
0.0
  0
VERTEX
  5
14D
330
146
100
AcDbEntity
  8
Vordergrund
 62
     7
370
     5
100
AcDbVertex
100
AcDb2dVertex
 10
30.71922742287575
 20
23.65126952533718
 30
0.0
  0
VERTEX
  5
14E
330
146
100
AcDbEntity
  8
Vordergrund
 62
     7
370
     5
100
AcDbVertex
100
AcDb2dVertex
 10
30.70820311732295
 20
23.62646483784339
 30
0.0
  0
VERTEX
  5
14F
330
146
100
AcDbEntity
  8
Vordergrund
 62
     7
370
     5
100
AcDbVertex
100
AcDb2dVertex
 10
30.6978678308672
 20
23.60166015034959
 30
0.0
  0
VERTEX
  5
150
330
146
100
AcDbEntity
  8
Vordergrund
 62
     7
370
     5
100
AcDbVertex
100
AcDb2dVertex
 10
30.6909776398967
 20
23.57341036737054
 30
0.0
  0
VERTEX
  5
151
330
146
100
AcDbEntity
  8
Vordergrund
 62
     7
370
     5
100
AcDbVertex
100
AcDb2dVertex
 10
30.6799533343439
 20
23.54860567987674
 30
0.0
  0
VERTEX
  5
152
330
146
100
AcDbEntity
  8
Vordergrund
 62
     7
370
     5
100
AcDbVertex
100
AcDb2dVertex
 10
30.66961804788815
 20
23.52035589689769
 30
0.0
  0
VERTEX
  5
153
330
146
100
AcDbEntity
  8
Vordergrund
 62
     7
370
     5
100
AcDbVertex
100
AcDb2dVertex
 10
30.66272785691765
 20
23.49555120940389
 30
0.0
  0
VERTEX
  5
154
330
146
100
AcDbEntity
  8
Vordergrund
 62
     7
370
     5
100
AcDbVertex
100
AcDb2dVertex
 10
30.6551486468501
 20
23.46730142642484
 30
0.0
  0
VERTEX
  5
155
330
146
100
AcDbEntity
  8
Vordergrund
 62
     7
370
     5
100
AcDbVertex
100
AcDb2dVertex
 10
30.6482584558796
 20
23.43905164344579
 30
0.0
  0
VERTEX
  5
156
330
146
100
AcDbEntity
  8
Vordergrund
 62
     7
370
     5
100
AcDbVertex
100
AcDb2dVertex
 10
30.6413682649091
 20
23.41080186046674
 30
0.0
  0
VERTEX
  5
157
330
146
100
AcDbEntity
  8
Vordergrund
 62
     7
370
     5
100
AcDbVertex
100
AcDb2dVertex
 10
30.6344780739386
 20
23.38324109658475
 30
0.0
  0
VERTEX
  5
158
330
146
100
AcDbEntity
  8
Vordergrund
 62
     7
370
     5
100
AcDbVertex
100
AcDb2dVertex
 10
30.6234537683858
 20
23.32674153062665
 30
0.0
  0
VERTEX
  5
159
330
146
100
AcDbEntity
  8
Vordergrund
 62
     7
370
     5
100
AcDbVertex
100
AcDb2dVertex
 10
30.61311848193006
 20
23.2667968691833
 30
0.0
  0
VERTEX
  5
15A
330
146
100
AcDbEntity
  8
Vordergrund
 62
     7
370
     5
100
AcDbVertex
100
AcDb2dVertex
 10
30.60278319547431
 20
23.2102973032252
 30
0.0
  0
VERTEX
  5
15B
330
146
100
AcDbEntity
  8
Vordergrund
 62
     7
370
     5
100
AcDbVertex
100
AcDb2dVertex
 10
30.59520398540676
 20
23.14621852719956
 30
0.0
  0
VERTEX
  5
15C
330
146
100
AcDbEntity
  8
Vordergrund
 62
     7
370
     5
100
AcDbVertex
100
AcDb2dVertex
 10
30.58831379443626
 20
23.08627386575621
 30
0.0
  0
VERTEX
  5
15D
330
146
100
AcDbEntity
  8
Vordergrund
 62
     7
370
     5
100
AcDbVertex
100
AcDb2dVertex
 10
30.58486869895101
 20
23.02632920431286
 30
0.0
  0
VERTEX
  5
15E
330
146
100
AcDbEntity
  8
Vordergrund
 62
     7
370
     5
100
AcDbVertex
100
AcDb2dVertex
 10
30.57797850798051
 20
22.96293944738427
 30
0.0
  0
VERTEX
  5
15F
330
146
100
AcDbEntity
  8
Vordergrund
 62
     7
370
     5
100
AcDbVertex
100
AcDb2dVertex
 10
30.57453341249526
 20
22.89954969045567
 30
0.0
  0
VERTEX
  5
160
330
146
100
AcDbEntity
  8
Vordergrund
 62
     7
370
     5
100
AcDbVertex
100
AcDb2dVertex
 10
30.57453341249526
 20
22.83615993352707
 30
0.0
  0
VERTEX
  5
161
330
146
100
AcDbEntity
  8
Vordergrund
 62
     7
370
     5
100
AcDbVertex
100
AcDb2dVertex
 10
30.57108831701001
 20
22.77277017659847
 30
0.0
  0
VERTEX
  5
162
330
146
100
AcDbEntity
  8
Vordergrund
 62
     7
370
     5
100
AcDbVertex
100
AcDb2dVertex
 10
30.57108831701001
 20
22.70938041966988
 30
0.0
  0
SEQEND
  5
163
330
146
100
AcDbEntity
  8
Vordergrund
370
     5
  0
POLYLINE
  5
164
330
8A
100
AcDbEntity
  8
Vordergrund
 62
     7
370
     5
100
AcDb2dPolyline
 66
     1
 10
0.0
 20
0.0
 30
0.0
  0
VERTEX
  5
165
330
164
100
AcDbEntity
  8
Vordergrund
 62
     7
370
     5
100
AcDbVertex
100
AcDb2dVertex
 10
30.80328775271585
 20
23.79596353571768
 30
0.0
  0
VERTEX
  5
166
330
164
100
AcDbEntity
  8
Vordergrund
 62
     7
370
     5
100
AcDbVertex
100
AcDb2dVertex
 10
30.79639756174535
 20
23.78838432565013
 30
0.0
  0
SEQEND
  5
167
330
164
100
AcDbEntity
  8
Vordergrund
370
     5
  0
POLYLINE
  5
168
330
8A
100
AcDbEntity
  8
Vordergrund
 62
     7
370
     5
100
AcDb2dPolyline
 66
     1
 10
0.0
 20
0.0
 30
0.0
  0
VERTEX
  5
169
330
168
100
AcDbEntity
  8
Vordergrund
 62
     7
370
     5
100
AcDbVertex
100
AcDb2dVertex
 10
31.15623778517969
 20
24.06399196447012
 30
0.0
  0
VERTEX
  5
16A
330
168
100
AcDbEntity
  8
Vordergrund
 62
     7
370
     5
100
AcDbVertex
100
AcDb2dVertex
 10
31.13556721226819
 20
24.05641275440257
 30
0.0
  0
VERTEX
  5
16B
330
168
100
AcDbEntity
  8
Vordergrund
 62
     7
370
     5
100
AcDbVertex
100
AcDb2dVertex
 10
31.11420762025964
 20
24.04607746794682
 30
0.0
  0
VERTEX
  5
16C
330
168
100
AcDbEntity
  8
Vordergrund
 62
     7
370
     5
100
AcDbVertex
100
AcDb2dVertex
 10
31.09284802825109
 20
24.03574218149107
 30
0.0
  0
VERTEX
  5
16D
330
168
100
AcDbEntity
  8
Vordergrund
 62
     7
370
     5
100
AcDbVertex
100
AcDb2dVertex
 10
31.07562255082485
 20
24.02816297142352
 30
0.0
  0
VERTEX
  5
16E
330
168
100
AcDbEntity
  8
Vordergrund
 62
     7
370
     5
100
AcDbVertex
100
AcDb2dVertex
 10
31.0542629588163
 20
24.01782768496777
 30
0.0
  0
VERTEX
  5
16F
330
168
100
AcDbEntity
  8
Vordergrund
 62
     7
370
     5
100
AcDbVertex
100
AcDb2dVertex
 10
31.036348462293
 20
24.00749239851202
 30
0.0
  0
VERTEX
  5
170
330
168
100
AcDbEntity
  8
Vordergrund
 62
     7
370
     5
100
AcDbVertex
100
AcDb2dVertex
 10
31.01912298486675
 20
23.99646809295922
 30
0.0
  0
VERTEX
  5
171
330
168
100
AcDbEntity
  8
Vordergrund
 62
     7
370
     5
100
AcDbVertex
100
AcDb2dVertex
 10
31.00120848834345
 20
23.98268771101822
 30
0.0
  0
VERTEX
  5
172
330
168
100
AcDbEntity
  8
Vordergrund
 62
     7
370
     5
100
AcDbVertex
100
AcDb2dVertex
 10
30.98381075614294
 20
23.97235242456247
 30
0.0
  0
VERTEX
  5
173
330
168
100
AcDbEntity
  8
Vordergrund
 62
     7
370
     5
100
AcDbVertex
100
AcDb2dVertex
 10
30.96589625961964
 20
23.96132811900967
 30
0.0
  0
VERTEX
  5
174
330
168
100
AcDbEntity
  8
Vordergrund
 62
     7
370
     5
100
AcDbVertex
100
AcDb2dVertex
 10
30.95211587767864
 20
23.94754773706867
 30
0.0
  0
VERTEX
  5
175
330
168
100
AcDbEntity
  8
Vordergrund
 62
     7
370
     5
100
AcDbVertex
100
AcDb2dVertex
 10
30.93420138115534
 20
23.93652343151587
 30
0.0
  0
VERTEX
  5
176
330
168
100
AcDbEntity
  8
Vordergrund
 62
     7
370
     5
100
AcDbVertex
100
AcDb2dVertex
 10
30.91973198011729
 20
23.92274304957487
 30
0.0
  0
VERTEX
  5
177
330
168
100
AcDbEntity
  8
Vordergrund
 62
     7
370
     5
100
AcDbVertex
100
AcDb2dVertex
 10
30.90595159817629
 20
23.90827364853682
 30
0.0
  0
VERTEX
  5
178
330
168
100
AcDbEntity
  8
Vordergrund
 62
     7
370
     5
100
AcDbVertex
100
AcDb2dVertex
 10
30.89148219713824
 20
23.89793836208107
 30
0.0
  0
VERTEX
  5
179
330
168
100
AcDbEntity
  8
Vordergrund
 62
     7
370
     5
100
AcDbVertex
100
AcDb2dVertex
 10
30.87770181519724
 20
23.88415798014007
 30
0.0
  0
VERTEX
  5
17A
330
168
100
AcDbEntity
  8
Vordergrund
 62
     7
370
     5
100
AcDbVertex
100
AcDb2dVertex
 10
30.86392143325624
 20
23.86968857910203
 30
0.0
  0
VERTEX
  5
17B
330
168
100
AcDbEntity
  8
Vordergrund
 62
     7
370
     5
100
AcDbVertex
100
AcDb2dVertex
 10
30.8494520322182
 20
23.85590819716102
 30
0.0
  0
VERTEX
  5
17C
330
168
100
AcDbEntity
  8
Vordergrund
 62
     7
370
     5
100
AcDbVertex
100
AcDb2dVertex
 10
30.83911674576245
 20
23.84143879612298
 30
0.0
  0
VERTEX
  5
17D
330
168
100
AcDbEntity
  8
Vordergrund
 62
     7
370
     5
100
AcDbVertex
100
AcDb2dVertex
 10
30.82809244020964
 20
23.82765841418198
 30
0.0
  0
VERTEX
  5
17E
330
168
100
AcDbEntity
  8
Vordergrund
 62
     7
370
     5
100
AcDbVertex
100
AcDb2dVertex
 10
30.81431205826864
 20
23.80974391765868
 30
0.0
  0
VERTEX
  5
17F
330
168
100
AcDbEntity
  8
Vordergrund
 62
     7
370
     5
100
AcDbVertex
100
AcDb2dVertex
 10
30.80328775271585
 20
23.79596353571768
 30
0.0
  0
SEQEND
  5
180
330
168
100
AcDbEntity
  8
Vordergrund
370
     5
  0
POLYLINE
  5
181
330
8A
100
AcDbEntity
  8
Vordergrund
 62
     7
370
     5
100
AcDb2dPolyline
 66
     1
 10
0.0
 20
0.0
 30
0.0
  0
VERTEX
  5
182
330
181
100
AcDbEntity
  8
Vordergrund
 62
     7
370
     5
100
AcDbVertex
100
AcDb2dVertex
 10
32.60317788898463
 20
24.20455186026831
 30
0.0
  0
VERTEX
  5
183
330
181
100
AcDbEntity
  8
Vordergrund
 62
     7
370
     5
100
AcDbVertex
100
AcDb2dVertex
 10
32.43712428659558
 20
24.20455186026831
 30
0.0
  0
VERTEX
  5
184
330
181
100
AcDbEntity
  8
Vordergrund
 62
     7
370
     5
100
AcDbVertex
100
AcDb2dVertex
 10
32.26762558872129
 20
24.20110676478306
 30
0.0
  0
VERTEX
  5
185
330
181
100
AcDbEntity
  8
Vordergrund
 62
     7
370
     5
100
AcDbVertex
100
AcDb2dVertex
 10
32.18287623978414
 20
24.20110676478306
 30
0.0
  0
VERTEX
  5
186
330
181
100
AcDbEntity
  8
Vordergrund
 62
     7
370
     5
100
AcDbVertex
100
AcDb2dVertex
 10
32.1022610054293
 20
24.19766166929781
 30
0.0
  0
VERTEX
  5
187
330
181
100
AcDbEntity
  8
Vordergrund
 62
     7
370
     5
100
AcDbVertex
100
AcDb2dVertex
 10
32.01751165649215
 20
24.19421657381256
 30
0.0
  0
VERTEX
  5
188
330
181
100
AcDbEntity
  8
Vordergrund
 62
     7
370
     5
100
AcDbVertex
100
AcDb2dVertex
 10
31.93620740304026
 20
24.19421657381256
 30
0.0
  0
VERTEX
  5
189
330
181
100
AcDbEntity
  8
Vordergrund
 62
     7
370
     5
100
AcDbVertex
100
AcDb2dVertex
 10
31.85490314958836
 20
24.18698187329353
 30
0.0
  0
VERTEX
  5
18A
330
181
100
AcDbEntity
  8
Vordergrund
 62
     7
370
     5
100
AcDbVertex
100
AcDb2dVertex
 10
31.77359889613646
 20
24.18353677780828
 30
0.0
  0
VERTEX
  5
18B
330
181
100
AcDbEntity
  8
Vordergrund
 62
     7
370
     5
100
AcDbVertex
100
AcDb2dVertex
 10
31.69642875726687
 20
24.17699109638631
 30
0.0
  0
VERTEX
  5
18C
330
181
100
AcDbEntity
  8
Vordergrund
 62
     7
370
     5
100
AcDbVertex
100
AcDb2dVertex
 10
31.62201469478547
 20
24.16941188631876
 30
0.0
  0
VERTEX
  5
18D
330
181
100
AcDbEntity
  8
Vordergrund
 62
     7
370
     5
100
AcDbVertex
100
AcDb2dVertex
 10
31.58342962535067
 20
24.16596679083351
 30
0.0
  0
VERTEX
  5
18E
330
181
100
AcDbEntity
  8
Vordergrund
 62
     7
370
     5
100
AcDbVertex
100
AcDb2dVertex
 10
31.54828965140112
 20
24.15907659986301
 30
0.0
  0
VERTEX
  5
18F
330
181
100
AcDbEntity
  8
Vordergrund
 62
     7
370
     5
100
AcDbVertex
100
AcDb2dVertex
 10
31.51314967745158
 20
24.15563150437776
 30
0.0
  0
VERTEX
  5
190
330
181
100
AcDbEntity
  8
Vordergrund
 62
     7
370
     5
100
AcDbVertex
100
AcDb2dVertex
 10
31.47732068440498
 20
24.14874131340726
 30
0.0
  0
VERTEX
  5
191
330
181
100
AcDbEntity
  8
Vordergrund
 62
     7
370
     5
100
AcDbVertex
100
AcDb2dVertex
 10
31.44218071045543
 20
24.14460719882496
 30
0.0
  0
VERTEX
  5
192
330
181
100
AcDbEntity
  8
Vordergrund
 62
     7
370
     5
100
AcDbVertex
100
AcDb2dVertex
 10
31.40704073650588
 20
24.13771700785446
 30
0.0
  0
VERTEX
  5
193
330
181
100
AcDbEntity
  8
Vordergrund
 62
     7
370
     5
100
AcDbVertex
100
AcDb2dVertex
 10
31.37534585804158
 20
24.13082681688396
 30
0.0
  0
VERTEX
  5
194
330
181
100
AcDbEntity
  8
Vordergrund
 62
     7
370
     5
100
AcDbVertex
100
AcDb2dVertex
 10
31.34020588409203
 20
24.12393662591346
 30
0.0
  0
VERTEX
  5
195
330
181
100
AcDbEntity
  8
Vordergrund
 62
     7
370
     5
100
AcDbVertex
100
AcDb2dVertex
 10
31.30851100562774
 20
24.11291232036066
 30
0.0
  0
VERTEX
  5
196
330
181
100
AcDbEntity
  8
Vordergrund
 62
     7
370
     5
100
AcDbVertex
100
AcDb2dVertex
 10
31.27681612716344
 20
24.10602212939016
 30
0.0
  0
VERTEX
  5
197
330
181
100
AcDbEntity
  8
Vordergrund
 62
     7
370
     5
100
AcDbVertex
100
AcDb2dVertex
 10
31.24443222960209
 20
24.09568684293441
 30
0.0
  0
VERTEX
  5
198
330
181
100
AcDbEntity
  8
Vordergrund
 62
     7
370
     5
100
AcDbVertex
100
AcDb2dVertex
 10
31.21273735113779
 20
24.08466253738161
 30
0.0
  0
VERTEX
  5
199
330
181
100
AcDbEntity
  8
Vordergrund
 62
     7
370
     5
100
AcDbVertex
100
AcDb2dVertex
 10
31.18448756815874
 20
24.07432725092587
 30
0.0
  0
VERTEX
  5
19A
330
181
100
AcDbEntity
  8
Vordergrund
 62
     7
370
     5
100
AcDbVertex
100
AcDb2dVertex
 10
31.15623778517969
 20
24.06399196447012
 30
0.0
  0
SEQEND
  5
19B
330
181
100
AcDbEntity
  8
Vordergrund
370
     5
  0
POLYLINE
  5
19C
330
8A
100
AcDbEntity
  8
Vordergrund
 62
     7
370
     5
100
AcDb2dPolyline
 66
     1
 10
0.0
 20
0.0
 30
0.0
  0
VERTEX
  5
19D
330
19C
100
AcDbEntity
  8
Vordergrund
 62
     7
370
     5
100
AcDbVertex
100
AcDb2dVertex
 10
31.16037189976199
 20
21.35063476028734
 30
0.0
  0
VERTEX
  5
19E
330
19C
100
AcDbEntity
  8
Vordergrund
 62
     7
370
     5
100
AcDbVertex
100
AcDb2dVertex
 10
31.18862168274104
 20
21.34029947383159
 30
0.0
  0
VERTEX
  5
19F
330
19C
100
AcDbEntity
  8
Vordergrund
 62
     7
370
     5
100
AcDbVertex
100
AcDb2dVertex
 10
31.22031656120534
 20
21.32961967782732
 30
0.0
  0
VERTEX
  5
1A0
330
19C
100
AcDbEntity
  8
Vordergrund
 62
     7
370
     5
100
AcDbVertex
100
AcDb2dVertex
 10
31.24856634418439
 20
21.31893988182305
 30
0.0
  0
VERTEX
  5
1A1
330
19C
100
AcDbEntity
  8
Vordergrund
 62
     7
370
     5
100
AcDbVertex
100
AcDb2dVertex
 10
31.28026122264869
 20
21.30826008581877
 30
0.0
  0
VERTEX
  5
1A2
330
19C
100
AcDbEntity
  8
Vordergrund
 62
     7
370
     5
100
AcDbVertex
100
AcDb2dVertex
 10
31.31195610111298
 20
21.30136989484827
 30
0.0
  0
VERTEX
  5
1A3
330
19C
100
AcDbEntity
  8
Vordergrund
 62
     7
370
     5
100
AcDbVertex
100
AcDb2dVertex
 10
31.34365097957728
 20
21.29413519432924
 30
0.0
  0
VERTEX
  5
1A4
330
19C
100
AcDbEntity
  8
Vordergrund
 62
     7
370
     5
100
AcDbVertex
100
AcDb2dVertex
 10
31.37879095352683
 20
21.28379990787349
 30
0.0
  0
VERTEX
  5
1A5
330
19C
100
AcDbEntity
  8
Vordergrund
 62
     7
370
     5
100
AcDbVertex
100
AcDb2dVertex
 10
31.41048583199113
 20
21.27656520735447
 30
0.0
  0
VERTEX
  5
1A6
330
19C
100
AcDbEntity
  8
Vordergrund
 62
     7
370
     5
100
AcDbVertex
100
AcDb2dVertex
 10
31.44562580594068
 20
21.27312011186922
 30
0.0
  0
VERTEX
  5
1A7
330
19C
100
AcDbEntity
  8
Vordergrund
 62
     7
370
     5
100
AcDbVertex
100
AcDb2dVertex
 10
31.48145479898728
 20
21.26622992089872
 30
0.0
  0
VERTEX
  5
1A8
330
19C
100
AcDbEntity
  8
Vordergrund
 62
     7
370
     5
100
AcDbVertex
100
AcDb2dVertex
 10
31.51659477293682
 20
21.2589952203797
 30
0.0
  0
VERTEX
  5
1A9
330
19C
100
AcDbEntity
  8
Vordergrund
 62
     7
370
     5
100
AcDbVertex
100
AcDb2dVertex
 10
31.55173474688637
 20
21.25555012489445
 30
0.0
  0
VERTEX
  5
1AA
330
19C
100
AcDbEntity
  8
Vordergrund
 62
     7
370
     5
100
AcDbVertex
100
AcDb2dVertex
 10
31.62545979027072
 20
21.24487032889017
 30
0.0
  0
VERTEX
  5
1AB
330
19C
100
AcDbEntity
  8
Vordergrund
 62
     7
370
     5
100
AcDbVertex
100
AcDb2dVertex
 10
31.69987385275212
 20
21.23798013791967
 30
0.0
  0
VERTEX
  5
1AC
330
19C
100
AcDbEntity
  8
Vordergrund
 62
     7
370
     5
100
AcDbVertex
100
AcDb2dVertex
 10
31.77773301071876
 20
21.23074543740065
 30
0.0
  0
VERTEX
  5
1AD
330
19C
100
AcDbEntity
  8
Vordergrund
 62
     7
370
     5
100
AcDbVertex
100
AcDb2dVertex
 10
31.85834824507361
 20
21.2273003419154
 30
0.0
  0
VERTEX
  5
1AE
330
19C
100
AcDbEntity
  8
Vordergrund
 62
     7
370
     5
100
AcDbVertex
100
AcDb2dVertex
 10
31.9396524985255
 20
21.22385524643015
 30
0.0
  0
VERTEX
  5
1AF
330
19C
100
AcDbEntity
  8
Vordergrund
 62
     7
370
     5
100
AcDbVertex
100
AcDb2dVertex
 10
32.0209567519774
 20
21.22006564139637
 30
0.0
  0
VERTEX
  5
1B0
330
19C
100
AcDbEntity
  8
Vordergrund
 62
     7
370
     5
100
AcDbVertex
100
AcDb2dVertex
 10
32.1022610054293
 20
21.21662054591112
 30
0.0
  0
VERTEX
  5
1B1
330
19C
100
AcDbEntity
  8
Vordergrund
 62
     7
370
     5
100
AcDbVertex
100
AcDb2dVertex
 10
32.18701035436644
 20
21.21662054591112
 30
0.0
  0
VERTEX
  5
1B2
330
19C
100
AcDbEntity
  8
Vordergrund
 62
     7
370
     5
100
AcDbVertex
100
AcDb2dVertex
 10
32.35582003314369
 20
21.21317545042587
 30
0.0
  0
VERTEX
  5
1B3
330
19C
100
AcDbEntity
  8
Vordergrund
 62
     7
370
     5
100
AcDbVertex
100
AcDb2dVertex
 10
32.52187363553273
 20
21.21317545042587
 30
0.0
  0
VERTEX
  5
1B4
330
19C
100
AcDbEntity
  8
Vordergrund
 62
     7
370
     5
100
AcDbVertex
100
AcDb2dVertex
 10
32.60317788898463
 20
21.21317545042587
 30
0.0
  0
SEQEND
  5
1B5
330
19C
100
AcDbEntity
  8
Vordergrund
370
     5
  0
POLYLINE
  5
1B6
330
8A
100
AcDbEntity
  8
Vordergrund
 62
     7
370
     5
100
AcDb2dPolyline
 66
     1
 10
0.0
 20
0.0
 30
0.0
  0
VERTEX
  5
1B7
330
1B6
100
AcDbEntity
  8
Vordergrund
 62
     7
370
     5
100
AcDbVertex
100
AcDb2dVertex
 10
30.91628688463204
 20
21.49532877066784
 30
0.0
  0
VERTEX
  5
1B8
330
1B6
100
AcDbEntity
  8
Vordergrund
 62
     7
370
     5
100
AcDbVertex
100
AcDb2dVertex
 10
31.12454290671539
 20
21.36475965177687
 30
0.0
  0
VERTEX
  5
1B9
330
1B6
100
AcDbEntity
  8
Vordergrund
 62
     7
370
     5
100
AcDbVertex
100
AcDb2dVertex
 10
31.16037189976199
 20
21.35063476028734
 30
0.0
  0
SEQEND
  5
1BA
330
1B6
100
AcDbEntity
  8
Vordergrund
370
     5
  0
POLYLINE
  5
1BB
330
8A
100
AcDbEntity
  8
Vordergrund
 62
     7
370
     5
100
AcDb2dPolyline
 66
     1
 10
0.0
 20
0.0
 30
0.0
  0
VERTEX
  5
1BC
330
1BB
100
AcDbEntity
  8
Vordergrund
 62
     7
370
     5
100
AcDbVertex
100
AcDb2dVertex
 10
30.75092230134005
 20
21.70341253797693
 30
0.0
  0
VERTEX
  5
1BD
330
1BB
100
AcDbEntity
  8
Vordergrund
 62
     7
370
     5
100
AcDbVertex
100
AcDb2dVertex
 10
30.90250650269104
 20
21.50945366215736
 30
0.0
  0
VERTEX
  5
1BE
330
1BB
100
AcDbEntity
  8
Vordergrund
 62
     7
370
     5
100
AcDbVertex
100
AcDb2dVertex
 10
30.91628688463204
 20
21.49532877066784
 30
0.0
  0
SEQEND
  5
1BF
330
1BB
100
AcDbEntity
  8
Vordergrund
370
     5
  0
POLYLINE
  5
1C0
330
8A
100
AcDbEntity
  8
Vordergrund
 62
     7
370
     5
100
AcDb2dPolyline
 66
     1
 10
0.0
 20
0.0
 30
0.0
  0
VERTEX
  5
1C1
330
1C0
100
AcDbEntity
  8
Vordergrund
 62
     7
370
     5
100
AcDbVertex
100
AcDb2dVertex
 10
30.57108831701001
 20
22.70938041966988
 30
0.0
  0
VERTEX
  5
1C2
330
1C0
100
AcDbEntity
  8
Vordergrund
 62
     7
370
     5
100
AcDbVertex
100
AcDb2dVertex
 10
30.57108831701001
 20
22.64943575822653
 30
0.0
  0
VERTEX
  5
1C3
330
1C0
100
AcDbEntity
  8
Vordergrund
 62
     7
370
     5
100
AcDbVertex
100
AcDb2dVertex
 10
30.57453341249526
 20
22.59293619226843
 30
0.0
  0
VERTEX
  5
1C4
330
1C0
100
AcDbEntity
  8
Vordergrund
 62
     7
370
     5
100
AcDbVertex
100
AcDb2dVertex
 10
30.57453341249526
 20
22.53299153082509
 30
0.0
  0
VERTEX
  5
1C5
330
1C0
100
AcDbEntity
  8
Vordergrund
 62
     7
370
     5
100
AcDbVertex
100
AcDb2dVertex
 10
30.57797850798051
 20
22.47649196486699
 30
0.0
  0
VERTEX
  5
1C6
330
1C0
100
AcDbEntity
  8
Vordergrund
 62
     7
370
     5
100
AcDbVertex
100
AcDb2dVertex
 10
30.58142360346576
 20
22.41999239890889
 30
0.0
  0
VERTEX
  5
1C7
330
1C0
100
AcDbEntity
  8
Vordergrund
 62
     7
370
     5
100
AcDbVertex
100
AcDb2dVertex
 10
30.58486869895101
 20
22.36349283295079
 30
0.0
  0
VERTEX
  5
1C8
330
1C0
100
AcDbEntity
  8
Vordergrund
 62
     7
370
     5
100
AcDbVertex
100
AcDb2dVertex
 10
30.59175888992151
 20
22.3069932669927
 30
0.0
  0
VERTEX
  5
1C9
330
1C0
100
AcDbEntity
  8
Vordergrund
 62
     7
370
     5
100
AcDbVertex
100
AcDb2dVertex
 10
30.59933809998905
 20
22.2504937010346
 30
0.0
  0
VERTEX
  5
1CA
330
1C0
100
AcDbEntity
  8
Vordergrund
 62
     7
370
     5
100
AcDbVertex
100
AcDb2dVertex
 10
30.60622829095956
 20
22.19743923056175
 30
0.0
  0
VERTEX
  5
1CB
330
1C0
100
AcDbEntity
  8
Vordergrund
 62
     7
370
     5
100
AcDbVertex
100
AcDb2dVertex
 10
30.61311848193006
 20
22.14093966460365
 30
0.0
  0
VERTEX
  5
1CC
330
1C0
100
AcDbEntity
  8
Vordergrund
 62
     7
370
     5
100
AcDbVertex
100
AcDb2dVertex
 10
30.6234537683858
 20
22.08788519413081
 30
0.0
  0
VERTEX
  5
1CD
330
1C0
100
AcDbEntity
  8
Vordergrund
 62
     7
370
     5
100
AcDbVertex
100
AcDb2dVertex
 10
30.6344780739386
 20
22.03517523320648
 30
0.0
  0
VERTEX
  5
1CE
330
1C0
100
AcDbEntity
  8
Vordergrund
 62
     7
370
     5
100
AcDbVertex
100
AcDb2dVertex
 10
30.64481336039436
 20
21.98591036776741
 30
0.0
  0
VERTEX
  5
1CF
330
1C0
100
AcDbEntity
  8
Vordergrund
 62
     7
370
     5
100
AcDbVertex
100
AcDb2dVertex
 10
30.6592827614324
 20
21.93630099277981
 30
0.0
  0
VERTEX
  5
1D0
330
1C0
100
AcDbEntity
  8
Vordergrund
 62
     7
370
     5
100
AcDbVertex
100
AcDb2dVertex
 10
30.6730631433734
 20
21.88703612734074
 30
0.0
  0
VERTEX
  5
1D1
330
1C0
100
AcDbEntity
  8
Vordergrund
 62
     7
370
     5
100
AcDbVertex
100
AcDb2dVertex
 10
30.68339842982915
 20
21.86223143984694
 30
0.0
  0
VERTEX
  5
1D2
330
1C0
100
AcDbEntity
  8
Vordergrund
 62
     7
370
     5
100
AcDbVertex
100
AcDb2dVertex
 10
30.6909776398967
 20
21.83742675235315
 30
0.0
  0
VERTEX
  5
1D3
330
1C0
100
AcDbEntity
  8
Vordergrund
 62
     7
370
     5
100
AcDbVertex
100
AcDb2dVertex
 10
30.6978678308672
 20
21.81641166989312
 30
0.0
  0
VERTEX
  5
1D4
330
1C0
100
AcDbEntity
  8
Vordergrund
 62
     7
370
     5
100
AcDbVertex
100
AcDb2dVertex
 10
30.70820311732295
 20
21.79160698239932
 30
0.0
  0
VERTEX
  5
1D5
330
1C0
100
AcDbEntity
  8
Vordergrund
 62
     7
370
     5
100
AcDbVertex
100
AcDb2dVertex
 10
30.71922742287575
 20
21.7705918999393
 30
0.0
  0
VERTEX
  5
1D6
330
1C0
100
AcDbEntity
  8
Vordergrund
 62
     7
370
     5
100
AcDbVertex
100
AcDb2dVertex
 10
30.7295627093315
 20
21.7457872124455
 30
0.0
  0
VERTEX
  5
1D7
330
1C0
100
AcDbEntity
  8
Vordergrund
 62
     7
370
     5
100
AcDbVertex
100
AcDb2dVertex
 10
30.73989799578725
 20
21.72477212998547
 30
0.0
  0
VERTEX
  5
1D8
330
1C0
100
AcDbEntity
  8
Vordergrund
 62
     7
370
     5
100
AcDbVertex
100
AcDb2dVertex
 10
30.75092230134005
 20
21.70341253797693
 30
0.0
  0
SEQEND
  5
1D9
330
1C0
100
AcDbEntity
  8
Vordergrund
370
     5
  0
POLYLINE
  5
1DA
330
8A
100
AcDbEntity
  8
Vordergrund
 62
     7
370
    13
100
AcDb2dPolyline
 66
     1
 10
0.0
 20
0.0
 30
0.0
  0
VERTEX
  5
1DB
330
1DA
100
AcDbEntity
  8
Vordergrund
 62
     7
370
    13
100
AcDbVertex
100
AcDb2dVertex
 10
30.45464408960856
 20
19.85856390562564
 30
0.0
  0
VERTEX
  5
1DC
330
1DA
100
AcDbEntity
  8
Vordergrund
 62
     7
370
    13
100
AcDbVertex
100
AcDb2dVertex
 10
30.70131292635245
 20
19.82307942212756
 30
0.0
  0
VERTEX
  5
1DD
330
1DA
100
AcDbEntity
  8
Vordergrund
 62
     7
370
    13
100
AcDbVertex
100
AcDb2dVertex
 10
30.94798176309634
 20
19.79138454366327
 30
0.0
  0
VERTEX
  5
1DE
330
1DA
100
AcDbEntity
  8
Vordergrund
 62
     7
370
    13
100
AcDbVertex
100
AcDb2dVertex
 10
31.19551187371154
 20
19.76313476068422
 30
0.0
  0
VERTEX
  5
1DF
330
1DA
100
AcDbEntity
  8
Vordergrund
 62
     7
370
    13
100
AcDbVertex
100
AcDb2dVertex
 10
31.44562580594068
 20
19.74211967822419
 30
0.0
  0
VERTEX
  5
1E0
330
1DA
100
AcDbEntity
  8
Vordergrund
 62
     7
370
    13
100
AcDbVertex
100
AcDb2dVertex
 10
31.69642875726687
 20
19.72454969124942
 30
0.0
  0
VERTEX
  5
1E1
330
1DA
100
AcDbEntity
  8
Vordergrund
 62
     7
370
    13
100
AcDbVertex
100
AcDb2dVertex
 10
31.94309759401076
 20
19.7104247997599
 30
0.0
  0
VERTEX
  5
1E2
330
1DA
100
AcDbEntity
  8
Vordergrund
 62
     7
370
    13
100
AcDbVertex
100
AcDb2dVertex
 10
32.19390054533694
 20
19.69974500375562
 30
0.0
  0
VERTEX
  5
1E3
330
1DA
100
AcDbEntity
  8
Vordergrund
 62
     7
370
    13
100
AcDbVertex
100
AcDb2dVertex
 10
32.44401447756608
 20
19.69629990827037
 30
0.0
  0
VERTEX
  5
1E4
330
1DA
100
AcDbEntity
  8
Vordergrund
 62
     7
370
    13
100
AcDbVertex
100
AcDb2dVertex
 10
32.69481742889227
 20
19.69285481278512
 30
0.0
  0
VERTEX
  5
1E5
330
1DA
100
AcDbEntity
  8
Vordergrund
 62
     7
370
    13
100
AcDbVertex
100
AcDb2dVertex
 10
32.94493136112141
 20
19.69974500375562
 30
0.0
  0
VERTEX
  5
1E6
330
1DA
100
AcDbEntity
  8
Vordergrund
 62
     7
370
    13
100
AcDbVertex
100
AcDb2dVertex
 10
33.1957343124476
 20
19.70663519472612
 30
0.0
  0
VERTEX
  5
1E7
330
1DA
100
AcDbEntity
  8
Vordergrund
 62
     7
370
    13
100
AcDbVertex
100
AcDb2dVertex
 10
33.44240314919148
 20
19.72076008621564
 30
0.0
  0
VERTEX
  5
1E8
330
1DA
100
AcDbEntity
  8
Vordergrund
 62
     7
370
    13
100
AcDbVertex
100
AcDb2dVertex
 10
33.69320610051767
 20
19.73488497770517
 30
0.0
  0
VERTEX
  5
1E9
330
1DA
100
AcDbEntity
  8
Vordergrund
 62
     7
370
    13
100
AcDbVertex
100
AcDb2dVertex
 10
33.94332003274681
 20
19.75968966519897
 30
0.0
  0
VERTEX
  5
1EA
330
1DA
100
AcDbEntity
  8
Vordergrund
 62
     7
370
    13
100
AcDbVertex
100
AcDb2dVertex
 10
34.19067788858775
 20
19.78449435269277
 30
0.0
  0
VERTEX
  5
1EB
330
1DA
100
AcDbEntity
  8
Vordergrund
 62
     7
370
    13
100
AcDbVertex
100
AcDb2dVertex
 10
34.44079182081688
 20
19.81618923115706
 30
0.0
  0
VERTEX
  5
1EC
330
1DA
100
AcDbEntity
  8
Vordergrund
 62
     7
370
    13
100
AcDbVertex
100
AcDb2dVertex
 10
34.68814967665782
 20
19.85132920510661
 30
0.0
  0
VERTEX
  5
1ED
330
1DA
100
AcDbEntity
  8
Vordergrund
 62
     7
370
    13
100
AcDbVertex
100
AcDb2dVertex
 10
34.75498452907167
 20
19.85856390562564
 30
0.0
  0
SEQEND
  5
1EE
330
1DA
100
AcDbEntity
  8
Vordergrund
370
    13
  0
POLYLINE
  5
1EF
330
8A
100
AcDbEntity
  8
Vordergrund
 62
     7
370
    13
100
AcDb2dPolyline
 66
     1
 10
0.0
 20
0.0
 30
0.0
  0
VERTEX
  5
1F0
330
1EF
100
AcDbEntity
  8
Vordergrund
 62
     7
370
    13
100
AcDbVertex
100
AcDb2dVertex
 10
32.60317788898463
 20
30.20935329105878
 30
0.0
  0
VERTEX
  5
1F1
330
1EF
100
AcDbEntity
  8
Vordergrund
 62
     7
370
    13
100
AcDbVertex
100
AcDb2dVertex
 10
33.97846000669636
 20
30.20935329105878
 30
0.0
  0
SEQEND
  5
1F2
330
1EF
100
AcDbEntity
  8
Vordergrund
370
    13
  0
POLYLINE
  5
1F3
330
8A
100
AcDbEntity
  8
Vordergrund
 62
     7
370
    13
100
AcDb2dPolyline
 66
     1
 10
0.0
 20
0.0
 30
0.0
  0
VERTEX
  5
1F4
330
1F3
100
AcDbEntity
  8
Vordergrund
 62
     7
370
    13
100
AcDbVertex
100
AcDb2dVertex
 10
31.23065184766109
 20
30.20935329105878
 30
0.0
  0
VERTEX
  5
1F5
330
1F3
100
AcDbEntity
  8
Vordergrund
 62
     7
370
    13
100
AcDbVertex
100
AcDb2dVertex
 10
32.60317788898463
 20
30.20935329105878
 30
0.0
  0
SEQEND
  5
1F6
330
1F3
100
AcDbEntity
  8
Vordergrund
370
    13
  0
ENDBLK
  5
8D
330
8A
100
AcDbEntity
  8
0
100
AcDbBlockEnd
  0
BLOCK
  5
1F9
330
1F7
100
AcDbEntity
  8
0
100
AcDbBlockBegin
  2
block 4
 70
     0
 71
     0
 10
0.0
 20
0.0
 30
0.0
  3
block 4
  1

  0
POLYLINE
  5
1FB
330
1F7
100
AcDbEntity
  8
Vordergrund
 62
     7
370
     5
100
AcDb2dPolyline
 66
     1
 10
0.0
 20
0.0
 30
0.0
  0
VERTEX
  5
1FC
330
1FB
100
AcDbEntity
  8
Vordergrund
 62
     7
370
     5
100
AcDbVertex
100
AcDb2dVertex
 10
16.84152153441809
 20
12.43989528768864
 30
0.0
  0
VERTEX
  5
1FD
330
1FB
100
AcDbEntity
  8
Vordergrund
 62
     7
370
     5
100
AcDbVertex
100
AcDb2dVertex
 10
16.84152153441809
 20
3.941533744674339
 30
0.0
  0
SEQEND
  5
1FE
330
1FB
100
AcDbEntity
  8
Vordergrund
370
     5
  0
POLYLINE
  5
1FF
330
1F7
100
AcDbEntity
  8
Vordergrund
 62
     7
370
     5
100
AcDb2dPolyline
 66
     1
 10
0.0
 20
0.0
 30
0.0
  0
VERTEX
  5
200
330
1FF
100
AcDbEntity
  8
Vordergrund
 62
     7
370
     5
100
AcDbVertex
100
AcDb2dVertex
 10
27.35802001269175
 20
14.69057616820236
 30
0.0
  0
VERTEX
  5
201
330
1FF
100
AcDbEntity
  8
Vordergrund
 62
     7
370
     5
100
AcDbVertex
100
AcDb2dVertex
 10
27.35802001269175
 20
3.941533744674339
 30
0.0
  0
SEQEND
  5
202
330
1FF
100
AcDbEntity
  8
Vordergrund
370
     5
  0
POLYLINE
  5
203
330
1F7
100
AcDbEntity
  8
Vordergrund
 62
     7
370
     5
100
AcDb2dPolyline
 66
     1
 10
0.0
 20
0.0
 30
0.0
  0
VERTEX
  5
204
330
203
100
AcDbEntity
  8
Vordergrund
 62
     7
370
     5
100
AcDbVertex
100
AcDb2dVertex
 10
16.34404974634802
 20
17.4421739322714
 30
0.0
  0
VERTEX
  5
205
330
203
100
AcDbEntity
  8
Vordergrund
 62
     7
370
     5
100
AcDbVertex
100
AcDb2dVertex
 10
7.842243107848468
 20
17.4421739322714
 30
0.0
  0
SEQEND
  5
206
330
203
100
AcDbEntity
  8
Vordergrund
370
     5
  0
POLYLINE
  5
207
330
1F7
100
AcDbEntity
  8
Vordergrund
 62
     7
370
     5
100
AcDb2dPolyline
 66
     1
 10
0.0
 20
0.0
 30
0.0
  0
VERTEX
  5
208
330
207
100
AcDbEntity
  8
Vordergrund
 62
     7
370
     5
100
AcDbVertex
100
AcDb2dVertex
 10
16.34404974634802
 20
12.94081217124396
 30
0.0
  0
VERTEX
  5
209
330
207
100
AcDbEntity
  8
Vordergrund
 62
     7
370
     5
100
AcDbVertex
100
AcDb2dVertex
 10
7.842243107848468
 20
12.94081217124396
 30
0.0
  0
SEQEND
  5
20A
330
207
100
AcDbEntity
  8
Vordergrund
370
     5
  0
POLYLINE
  5
20B
330
1F7
100
AcDbEntity
  8
Vordergrund
 62
     7
370
    13
100
AcDb2dPolyline
 66
     1
 10
0.0
 20
0.0
 30
0.0
  0
VERTEX
  5
20C
330
20B
100
AcDbEntity
  8
Vordergrund
 62
     7
370
    13
100
AcDbVertex
100
AcDb2dVertex
 10
18.49964599146884
 20
12.98318684571254
 30
0.0
  0
VERTEX
  5
20D
330
20B
100
AcDbEntity
  8
Vordergrund
 62
     7
370
    13
100
AcDbVertex
100
AcDb2dVertex
 10
18.25263264517643
 20
12.96561685873776
 30
0.0
  0
VERTEX
  5
20E
330
20B
100
AcDbEntity
  8
Vordergrund
 62
     7
370
    13
100
AcDbVertex
100
AcDb2dVertex
 10
18.09036864782116
 20
12.94081217124396
 30
0.0
  0
SEQEND
  5
20F
330
20B
100
AcDbEntity
  8
Vordergrund
370
    13
  0
POLYLINE
  5
210
330
1F7
100
AcDbEntity
  8
Vordergrund
 62
     7
370
    13
100
AcDb2dPolyline
 66
     1
 10
0.0
 20
0.0
 30
0.0
  0
VERTEX
  5
211
330
210
100
AcDbEntity
  8
Vordergrund
 62
     7
370
    13
100
AcDbVertex
100
AcDb2dVertex
 10
16.84152153441809
 20
12.94081217124396
 30
0.0
  0
VERTEX
  5
212
330
210
100
AcDbEntity
  8
Vordergrund
 62
     7
370
    13
100
AcDbVertex
100
AcDb2dVertex
 10
18.09036864782116
 20
12.94081217124396
 30
0.0
  0
SEQEND
  5
213
330
210
100
AcDbEntity
  8
Vordergrund
370
    13
  0
POLYLINE
  5
214
330
1F7
100
AcDbEntity
  8
Vordergrund
 62
     7
370
    13
100
AcDb2dPolyline
 66
     1
 10
0.0
 20
0.0
 30
0.0
  0
VERTEX
  5
215
330
214
100
AcDbEntity
  8
Vordergrund
 62
     7
370
    13
100
AcDbVertex
100
AcDb2dVertex
 10
19.06774223698654
 20
12.94081217124396
 30
0.0
  0
VERTEX
  5
216
330
214
100
AcDbEntity
  8
Vordergrund
 62
     7
370
    13
100
AcDbVertex
100
AcDb2dVertex
 10
26.8429782376469
 20
12.94081217124396
 30
0.0
  0
SEQEND
  5
217
330
214
100
AcDbEntity
  8
Vordergrund
370
    13
  0
POLYLINE
  5
218
330
1F7
100
AcDbEntity
  8
Vordergrund
 62
     7
370
    13
100
AcDb2dPolyline
 66
     1
 10
0.0
 20
0.0
 30
0.0
  0
VERTEX
  5
219
330
218
100
AcDbEntity
  8
Vordergrund
 62
     7
370
    13
100
AcDbVertex
100
AcDb2dVertex
 10
19.03225775348847
 20
12.94804687176299
 30
0.0
  0
VERTEX
  5
21A
330
218
100
AcDbEntity
  8
Vordergrund
 62
     7
370
    13
100
AcDbVertex
100
AcDb2dVertex
 10
18.88067355213747
 20
12.96906195422301
 30
0.0
  0
SEQEND
  5
21B
330
218
100
AcDbEntity
  8
Vordergrund
370
    13
  0
POLYLINE
  5
21C
330
1F7
100
AcDbEntity
  8
Vordergrund
 62
     7
370
    13
100
AcDb2dPolyline
 66
     1
 10
0.0
 20
0.0
 30
0.0
  0
VERTEX
  5
21D
330
21C
100
AcDbEntity
  8
Vordergrund
 62
     7
370
    13
100
AcDbVertex
100
AcDb2dVertex
 10
18.88067355213747
 20
12.96906195422301
 30
0.0
  0
VERTEX
  5
21E
330
21C
100
AcDbEntity
  8
Vordergrund
 62
     7
370
    13
100
AcDbVertex
100
AcDb2dVertex
 10
18.63021511035981
 20
12.99007703668304
 30
0.0
  0
VERTEX
  5
21F
330
21C
100
AcDbEntity
  8
Vordergrund
 62
     7
370
    13
100
AcDbVertex
100
AcDb2dVertex
 10
18.49964599146884
 20
12.98318684571254
 30
0.0
  0
SEQEND
  5
220
330
21C
100
AcDbEntity
  8
Vordergrund
370
    13
  0
POLYLINE
  5
221
330
1F7
100
AcDbEntity
  8
Vordergrund
 62
     7
370
    13
100
AcDb2dPolyline
 66
     1
 10
0.0
 20
0.0
 30
0.0
  0
VERTEX
  5
222
330
221
100
AcDbEntity
  8
Vordergrund
 62
     7
370
    13
100
AcDbVertex
100
AcDb2dVertex
 10
18.45382622151502
 20
12.98663194119779
 30
0.0
  0
VERTEX
  5
223
330
221
100
AcDbEntity
  8
Vordergrund
 62
     7
370
    13
100
AcDbVertex
100
AcDb2dVertex
 10
18.49964599146884
 20
12.98318684571254
 30
0.0
  0
SEQEND
  5
224
330
221
100
AcDbEntity
  8
Vordergrund
370
    13
  0
POLYLINE
  5
225
330
1F7
100
AcDbEntity
  8
Vordergrund
 62
     7
370
    13
100
AcDb2dPolyline
 66
     1
 10
0.0
 20
0.0
 30
0.0
  0
VERTEX
  5
226
330
225
100
AcDbEntity
  8
Vordergrund
 62
     7
370
    13
100
AcDbVertex
100
AcDb2dVertex
 10
18.09036864782116
 20
12.94081217124396
 30
0.0
  0
VERTEX
  5
227
330
225
100
AcDbEntity
  8
Vordergrund
 62
     7
370
    13
100
AcDbVertex
100
AcDb2dVertex
 10
18.09760334834018
 20
12.94425726672921
 30
0.0
  0
SEQEND
  5
228
330
225
100
AcDbEntity
  8
Vordergrund
370
    13
  0
POLYLINE
  5
229
330
1F7
100
AcDbEntity
  8
Vordergrund
 62
     7
370
    13
100
AcDb2dPolyline
 66
     1
 10
0.0
 20
0.0
 30
0.0
  0
VERTEX
  5
22A
330
229
100
AcDbEntity
  8
Vordergrund
 62
     7
370
    13
100
AcDbVertex
100
AcDb2dVertex
 10
19.03225775348847
 20
12.94804687176299
 30
0.0
  0
VERTEX
  5
22B
330
229
100
AcDbEntity
  8
Vordergrund
 62
     7
370
    13
100
AcDbVertex
100
AcDb2dVertex
 10
19.06774223698654
 20
12.94081217124396
 30
0.0
  0
SEQEND
  5
22C
330
229
100
AcDbEntity
  8
Vordergrund
370
    13
  0
POLYLINE
  5
22D
330
1F7
100
AcDbEntity
  8
Vordergrund
 62
     7
370
    13
100
AcDb2dPolyline
 66
     1
 10
0.0
 20
0.0
 30
0.0
  0
VERTEX
  5
22E
330
22D
100
AcDbEntity
  8
Vordergrund
 62
     7
370
    13
100
AcDbVertex
100
AcDb2dVertex
 10
16.84152153441809
 20
12.94081217124396
 30
0.0
  0
VERTEX
  5
22F
330
22D
100
AcDbEntity
  8
Vordergrund
 62
     7
370
    13
100
AcDbVertex
100
AcDb2dVertex
 10
16.84152153441809
 20
15.19149305175768
 30
0.0
  0
SEQEND
  5
230
330
22D
100
AcDbEntity
  8
Vordergrund
370
    13
  0
POLYLINE
  5
231
330
1F7
100
AcDbEntity
  8
Vordergrund
 62
     7
370
    13
100
AcDb2dPolyline
 66
     1
 10
0.0
 20
0.0
 30
0.0
  0
VERTEX
  5
232
330
231
100
AcDbEntity
  8
Vordergrund
 62
     7
370
    13
100
AcDbVertex
100
AcDb2dVertex
 10
18.1820081877288
 20
12.95838215821874
 30
0.0
  0
VERTEX
  5
233
330
231
100
AcDbEntity
  8
Vordergrund
 62
     7
370
    13
100
AcDbVertex
100
AcDb2dVertex
 10
18.09760334834018
 20
12.94425726672921
 30
0.0
  0
SEQEND
  5
234
330
231
100
AcDbEntity
  8
Vordergrund
370
    13
  0
POLYLINE
  5
235
330
1F7
100
AcDbEntity
  8
Vordergrund
 62
     7
370
    13
100
AcDb2dPolyline
 66
     1
 10
0.0
 20
0.0
 30
0.0
  0
VERTEX
  5
236
330
235
100
AcDbEntity
  8
Vordergrund
 62
     7
370
    13
100
AcDbVertex
100
AcDb2dVertex
 10
18.35495198108834
 20
12.97974175022729
 30
0.0
  0
VERTEX
  5
237
330
235
100
AcDbEntity
  8
Vordergrund
 62
     7
370
    13
100
AcDbVertex
100
AcDb2dVertex
 10
18.1820081877288
 20
12.95838215821874
 30
0.0
  0
SEQEND
  5
238
330
235
100
AcDbEntity
  8
Vordergrund
370
    13
  0
POLYLINE
  5
239
330
1F7
100
AcDbEntity
  8
Vordergrund
 62
     7
370
    13
100
AcDb2dPolyline
 66
     1
 10
0.0
 20
0.0
 30
0.0
  0
VERTEX
  5
23A
330
239
100
AcDbEntity
  8
Vordergrund
 62
     7
370
    13
100
AcDbVertex
100
AcDb2dVertex
 10
18.89824353911225
 20
12.97974175022729
 30
0.0
  0
VERTEX
  5
23B
330
239
100
AcDbEntity
  8
Vordergrund
 62
     7
370
    13
100
AcDbVertex
100
AcDb2dVertex
 10
18.64778509733458
 20
12.99007703668304
 30
0.0
  0
VERTEX
  5
23C
330
239
100
AcDbEntity
  8
Vordergrund
 62
     7
370
    13
100
AcDbVertex
100
AcDb2dVertex
 10
18.39732665555692
 20
12.98318684571254
 30
0.0
  0
VERTEX
  5
23D
330
239
100
AcDbEntity
  8
Vordergrund
 62
     7
370
    13
100
AcDbVertex
100
AcDb2dVertex
 10
18.35495198108834
 20
12.97974175022729
 30
0.0
  0
SEQEND
  5
23E
330
239
100
AcDbEntity
  8
Vordergrund
370
    13
  0
POLYLINE
  5
23F
330
1F7
100
AcDbEntity
  8
Vordergrund
 62
     7
370
    13
100
AcDb2dPolyline
 66
     1
 10
0.0
 20
0.0
 30
0.0
  0
VERTEX
  5
240
330
23F
100
AcDbEntity
  8
Vordergrund
 62
     7
370
    13
100
AcDbVertex
100
AcDb2dVertex
 10
19.00056287502417
 20
12.96217176325251
 30
0.0
  0
VERTEX
  5
241
330
23F
100
AcDbEntity
  8
Vordergrund
 62
     7
370
    13
100
AcDbVertex
100
AcDb2dVertex
 10
18.89824353911225
 20
12.97974175022729
 30
0.0
  0
SEQEND
  5
242
330
23F
100
AcDbEntity
  8
Vordergrund
370
    13
  0
POLYLINE
  5
243
330
1F7
100
AcDbEntity
  8
Vordergrund
 62
     7
370
    13
100
AcDb2dPolyline
 66
     1
 10
0.0
 20
0.0
 30
0.0
  0
VERTEX
  5
244
330
243
100
AcDbEntity
  8
Vordergrund
 62
     7
370
    13
100
AcDbVertex
100
AcDb2dVertex
 10
19.03225775348847
 20
12.94804687176299
 30
0.0
  0
VERTEX
  5
245
330
243
100
AcDbEntity
  8
Vordergrund
 62
     7
370
    13
100
AcDbVertex
100
AcDb2dVertex
 10
19.00056287502417
 20
12.96217176325251
 30
0.0
  0
SEQEND
  5
246
330
243
100
AcDbEntity
  8
Vordergrund
370
    13
  0
POLYLINE
  5
247
330
1F7
100
AcDbEntity
  8
Vordergrund
 62
     7
370
    13
100
AcDb2dPolyline
 66
     1
 10
0.0
 20
0.0
 30
0.0
  0
VERTEX
  5
248
330
247
100
AcDbEntity
  8
Vordergrund
 62
     7
370
    13
100
AcDbVertex
100
AcDb2dVertex
 10
16.84152153441809
 20
15.19149305175768
 30
0.0
  0
VERTEX
  5
249
330
247
100
AcDbEntity
  8
Vordergrund
 62
     7
370
    13
100
AcDbVertex
100
AcDb2dVertex
 10
16.84152153441809
 20
17.4421739322714
 30
0.0
  0
SEQEND
  5
24A
330
247
100
AcDbEntity
  8
Vordergrund
370
    13
  0
POLYLINE
  5
24B
330
1F7
100
AcDbEntity
  8
Vordergrund
 62
     7
370
    13
100
AcDb2dPolyline
 66
     1
 10
0.0
 20
0.0
 30
0.0
  0
VERTEX
  5
24C
330
24B
100
AcDbEntity
  8
Vordergrund
 62
     7
370
    13
100
AcDbVertex
100
AcDb2dVertex
 10
25.96447888890819
 20
17.4421739322714
 30
0.0
  0
VERTEX
  5
24D
330
24B
100
AcDbEntity
  8
Vordergrund
 62
     7
370
    13
100
AcDbVertex
100
AcDb2dVertex
 10
26.8429782376469
 20
17.4421739322714
 30
0.0
  0
SEQEND
  5
24E
330
24B
100
AcDbEntity
  8
Vordergrund
370
    13
  0
POLYLINE
  5
24F
330
1F7
100
AcDbEntity
  8
Vordergrund
 62
     7
370
    13
100
AcDb2dPolyline
 66
     1
 10
0.0
 20
0.0
 30
0.0
  0
VERTEX
  5
250
330
24F
100
AcDbEntity
  8
Vordergrund
 62
     7
370
    13
100
AcDbVertex
100
AcDb2dVertex
 10
16.84152153441809
 20
17.4421739322714
 30
0.0
  0
VERTEX
  5
251
330
24F
100
AcDbEntity
  8
Vordergrund
 62
     7
370
    13
100
AcDbVertex
100
AcDb2dVertex
 10
22.72229952773957
 20
17.4421739322714
 30
0.0
  0
SEQEND
  5
252
330
24F
100
AcDbEntity
  8
Vordergrund
370
    13
  0
POLYLINE
  5
253
330
1F7
100
AcDbEntity
  8
Vordergrund
 62
     7
370
    13
100
AcDb2dPolyline
 66
     1
 10
0.0
 20
0.0
 30
0.0
  0
VERTEX
  5
254
330
253
100
AcDbEntity
  8
Vordergrund
 62
     7
370
    13
100
AcDbVertex
100
AcDb2dVertex
 10
27.02970241294744
 20
12.94081217124396
 30
0.0
  0
VERTEX
  5
255
330
253
100
AcDbEntity
  8
Vordergrund
 62
     7
370
    13
100
AcDbVertex
100
AcDb2dVertex
 10
26.8429782376469
 20
12.94081217124396
 30
0.0
  0
SEQEND
  5
256
330
253
100
AcDbEntity
  8
Vordergrund
370
    13
  0
POLYLINE
  5
257
330
1F7
100
AcDbEntity
  8
Vordergrund
 62
     7
370
    13
100
AcDb2dPolyline
 66
     1
 10
0.0
 20
0.0
 30
0.0
  0
VERTEX
  5
258
330
257
100
AcDbEntity
  8
Vordergrund
 62
     7
370
    13
100
AcDbVertex
100
AcDb2dVertex
 10
19.00400797050942
 20
12.96217176325251
 30
0.0
  0
VERTEX
  5
259
330
257
100
AcDbEntity
  8
Vordergrund
 62
     7
370
    13
100
AcDbVertex
100
AcDb2dVertex
 10
18.88067355213747
 20
12.96906195422301
 30
0.0
  0
SEQEND
  5
25A
330
257
100
AcDbEntity
  8
Vordergrund
370
    13
  0
POLYLINE
  5
25B
330
1F7
100
AcDbEntity
  8
Vordergrund
 62
     7
370
    13
100
AcDb2dPolyline
 66
     1
 10
0.0
 20
0.0
 30
0.0
  0
VERTEX
  5
25C
330
25B
100
AcDbEntity
  8
Vordergrund
 62
     7
370
    13
100
AcDbVertex
100
AcDb2dVertex
 10
26.8429782376469
 20
17.4421739322714
 30
0.0
  0
VERTEX
  5
25D
330
25B
100
AcDbEntity
  8
Vordergrund
 62
     7
370
    13
100
AcDbVertex
100
AcDb2dVertex
 10
27.02970241294744
 20
17.4421739322714
 30
0.0
  0
SEQEND
  5
25E
330
25B
100
AcDbEntity
  8
Vordergrund
370
    13
  0
POLYLINE
  5
25F
330
1F7
100
AcDbEntity
  8
Vordergrund
 62
     7
370
    13
100
AcDb2dPolyline
 66
     1
 10
0.0
 20
0.0
 30
0.0
  0
VERTEX
  5
260
330
25F
100
AcDbEntity
  8
Vordergrund
 62
     7
370
    13
100
AcDbVertex
100
AcDb2dVertex
 10
25.96447888890819
 20
17.4421739322714
 30
0.0
  0
VERTEX
  5
261
330
25F
100
AcDbEntity
  8
Vordergrund
 62
     7
370
    13
100
AcDbVertex
100
AcDb2dVertex
 10
25.83735486550247
 20
17.32572970486996
 30
0.0
  0
SEQEND
  5
262
330
25F
100
AcDbEntity
  8
Vordergrund
370
    13
  0
POLYLINE
  5
263
330
1F7
100
AcDbEntity
  8
Vordergrund
 62
     7
370
    13
100
AcDb2dPolyline
 66
     1
 10
0.0
 20
0.0
 30
0.0
  0
VERTEX
  5
264
330
263
100
AcDbEntity
  8
Vordergrund
 62
     7
370
    13
100
AcDbVertex
100
AcDb2dVertex
 10
22.84597845566003
 20
17.32572970486996
 30
0.0
  0
VERTEX
  5
265
330
263
100
AcDbEntity
  8
Vordergrund
 62
     7
370
    13
100
AcDbVertex
100
AcDb2dVertex
 10
22.72229952773957
 20
17.4421739322714
 30
0.0
  0
SEQEND
  5
266
330
263
100
AcDbEntity
  8
Vordergrund
370
    13
  0
POLYLINE
  5
267
330
1F7
100
AcDbEntity
  8
Vordergrund
 62
     7
370
    13
100
AcDb2dPolyline
 66
     1
 10
0.0
 20
0.0
 30
0.0
  0
VERTEX
  5
268
330
267
100
AcDbEntity
  8
Vordergrund
 62
     7
370
    13
100
AcDbVertex
100
AcDb2dVertex
 10
27.02970241294744
 20
12.94081217124396
 30
0.0
  0
VERTEX
  5
269
330
267
100
AcDbEntity
  8
Vordergrund
 62
     7
370
    13
100
AcDbVertex
100
AcDb2dVertex
 10
27.05106200495598
 20
12.94081217124396
 30
0.0
  0
VERTEX
  5
26A
330
267
100
AcDbEntity
  8
Vordergrund
 62
     7
370
    13
100
AcDbVertex
100
AcDb2dVertex
 10
27.07207708741601
 20
12.94425726672921
 30
0.0
  0
VERTEX
  5
26B
330
267
100
AcDbEntity
  8
Vordergrund
 62
     7
370
    13
100
AcDbVertex
100
AcDb2dVertex
 10
27.09343667942456
 20
12.94804687176299
 30
0.0
  0
VERTEX
  5
26C
330
267
100
AcDbEntity
  8
Vordergrund
 62
     7
370
    13
100
AcDbVertex
100
AcDb2dVertex
 10
27.11100666639933
 20
12.95493706273349
 30
0.0
  0
VERTEX
  5
26D
330
267
100
AcDbEntity
  8
Vordergrund
 62
     7
370
    13
100
AcDbVertex
100
AcDb2dVertex
 10
27.11789685736983
 20
12.95838215821874
 30
0.0
  0
VERTEX
  5
26E
330
267
100
AcDbEntity
  8
Vordergrund
 62
     7
370
    13
100
AcDbVertex
100
AcDb2dVertex
 10
27.12513155788886
 20
12.96217176325251
 30
0.0
  0
VERTEX
  5
26F
330
267
100
AcDbEntity
  8
Vordergrund
 62
     7
370
    13
100
AcDbVertex
100
AcDb2dVertex
 10
27.13581135389313
 20
12.96906195422301
 30
0.0
  0
VERTEX
  5
270
330
267
100
AcDbEntity
  8
Vordergrund
 62
     7
370
    13
100
AcDbVertex
100
AcDb2dVertex
 10
27.14270154486363
 20
12.97250704970826
 30
0.0
  0
VERTEX
  5
271
330
267
100
AcDbEntity
  8
Vordergrund
 62
     7
370
    13
100
AcDbVertex
100
AcDb2dVertex
 10
27.14993624538265
 20
12.97595214519351
 30
0.0
  0
VERTEX
  5
272
330
267
100
AcDbEntity
  8
Vordergrund
 62
     7
370
    13
100
AcDbVertex
100
AcDb2dVertex
 10
27.15682643635316
 20
12.98318684571254
 30
0.0
  0
VERTEX
  5
273
330
267
100
AcDbEntity
  8
Vordergrund
 62
     7
370
    13
100
AcDbVertex
100
AcDb2dVertex
 10
27.1602715318384
 20
12.98663194119779
 30
0.0
  0
VERTEX
  5
274
330
267
100
AcDbEntity
  8
Vordergrund
 62
     7
370
    13
100
AcDbVertex
100
AcDb2dVertex
 10
27.16750623235743
 20
12.99386664171681
 30
0.0
  0
VERTEX
  5
275
330
267
100
AcDbEntity
  8
Vordergrund
 62
     7
370
    13
100
AcDbVertex
100
AcDb2dVertex
 10
27.17095132784268
 20
13.00075683268731
 30
0.0
  0
VERTEX
  5
276
330
267
100
AcDbEntity
  8
Vordergrund
 62
     7
370
    13
100
AcDbVertex
100
AcDb2dVertex
 10
27.17784151881318
 20
13.00799153320634
 30
0.0
  0
VERTEX
  5
277
330
267
100
AcDbEntity
  8
Vordergrund
 62
     7
370
    13
100
AcDbVertex
100
AcDb2dVertex
 10
27.18163112384696
 20
13.01488172417683
 30
0.0
  0
VERTEX
  5
278
330
267
100
AcDbEntity
  8
Vordergrund
 62
     7
370
    13
100
AcDbVertex
100
AcDb2dVertex
 10
27.1850762193322
 20
13.01832681966209
 30
0.0
  0
VERTEX
  5
279
330
267
100
AcDbEntity
  8
Vordergrund
 62
     7
370
    13
100
AcDbVertex
100
AcDb2dVertex
 10
27.18852131481745
 20
13.02556152018111
 30
0.0
  0
VERTEX
  5
27A
330
267
100
AcDbEntity
  8
Vordergrund
 62
     7
370
    13
100
AcDbVertex
100
AcDb2dVertex
 10
27.18852131481745
 20
13.03245171115161
 30
0.0
  0
VERTEX
  5
27B
330
267
100
AcDbEntity
  8
Vordergrund
 62
     7
370
    13
100
AcDbVertex
100
AcDb2dVertex
 10
27.1919664103027
 20
13.04313150715588
 30
0.0
  0
SEQEND
  5
27C
330
267
100
AcDbEntity
  8
Vordergrund
370
    13
  0
POLYLINE
  5
27D
330
1F7
100
AcDbEntity
  8
Vordergrund
 62
     7
370
    13
100
AcDb2dPolyline
 66
     1
 10
0.0
 20
0.0
 30
0.0
  0
VERTEX
  5
27E
330
27D
100
AcDbEntity
  8
Vordergrund
 62
     7
370
    13
100
AcDbVertex
100
AcDb2dVertex
 10
23.26214599027821
 20
16.40175509572595
 30
0.0
  0
VERTEX
  5
27F
330
27D
100
AcDbEntity
  8
Vordergrund
 62
     7
370
    13
100
AcDbVertex
100
AcDb2dVertex
 10
23.44921467512728
 20
16.23570149333691
 30
0.0
  0
VERTEX
  5
280
330
27D
100
AcDbEntity
  8
Vordergrund
 62
     7
370
    13
100
AcDbVertex
100
AcDb2dVertex
 10
23.66074353792162
 20
16.10513237444594
 30
0.0
  0
VERTEX
  5
281
330
27D
100
AcDbEntity
  8
Vordergrund
 62
     7
370
    13
100
AcDbVertex
100
AcDb2dVertex
 10
23.89363199272451
 20
16.01004773905304
 30
0.0
  0
VERTEX
  5
282
330
27D
100
AcDbEntity
  8
Vordergrund
 62
     7
370
    13
100
AcDbVertex
100
AcDb2dVertex
 10
24.13720024353167
 20
15.9569932685802
 30
0.0
  0
VERTEX
  5
283
330
27D
100
AcDbEntity
  8
Vordergrund
 62
     7
370
    13
100
AcDbVertex
100
AcDb2dVertex
 10
24.38386908027556
 20
15.94286837709067
 30
0.0
  0
VERTEX
  5
284
330
27D
100
AcDbEntity
  8
Vordergrund
 62
     7
370
    13
100
AcDbVertex
100
AcDb2dVertex
 10
24.63088242656798
 20
15.97111816006972
 30
0.0
  0
VERTEX
  5
285
330
27D
100
AcDbEntity
  8
Vordergrund
 62
     7
370
    13
100
AcDbVertex
100
AcDb2dVertex
 10
24.87100558188989
 20
16.03829752203209
 30
0.0
  0
VERTEX
  5
286
330
27D
100
AcDbEntity
  8
Vordergrund
 62
     7
370
    13
100
AcDbVertex
100
AcDb2dVertex
 10
25.09665933617375
 20
16.14406195342926
 30
0.0
  0
VERTEX
  5
287
330
27D
100
AcDbEntity
  8
Vordergrund
 62
     7
370
    13
100
AcDbVertex
100
AcDb2dVertex
 10
25.30129800799759
 20
16.28875596380976
 30
0.0
  0
VERTEX
  5
288
330
27D
100
AcDbEntity
  8
Vordergrund
 62
     7
370
    13
100
AcDbVertex
100
AcDb2dVertex
 10
25.34711777795142
 20
16.32734103324455
 30
0.0
  0
SEQEND
  5
289
330
27D
100
AcDbEntity
  8
Vordergrund
370
    13
  0
POLYLINE
  5
28A
330
1F7
100
AcDbEntity
  8
Vordergrund
 62
     7
370
    13
100
AcDb2dPolyline
 66
     1
 10
0.0
 20
0.0
 30
0.0
  0
VERTEX
  5
28B
330
28A
100
AcDbEntity
  8
Vordergrund
 62
     7
370
    13
100
AcDbVertex
100
AcDb2dVertex
 10
23.26214599027821
 20
16.40175509572595
 30
0.0
  0
VERTEX
  5
28C
330
28A
100
AcDbEntity
  8
Vordergrund
 62
     7
370
    13
100
AcDbVertex
100
AcDb2dVertex
 10
23.25525579930772
 20
16.40864528669645
 30
0.0
  0
SEQEND
  5
28D
330
28A
100
AcDbEntity
  8
Vordergrund
370
    13
  0
POLYLINE
  5
28E
330
1F7
100
AcDbEntity
  8
Vordergrund
 62
     7
370
    13
100
AcDb2dPolyline
 66
     1
 10
0.0
 20
0.0
 30
0.0
  0
VERTEX
  5
28F
330
28E
100
AcDbEntity
  8
Vordergrund
 62
     7
370
    13
100
AcDbVertex
100
AcDb2dVertex
 10
22.84597845566003
 20
17.32572970486996
 30
0.0
  0
VERTEX
  5
290
330
28E
100
AcDbEntity
  8
Vordergrund
 62
     7
370
    13
100
AcDbVertex
100
AcDb2dVertex
 10
22.88835313012861
 20
17.08250596361132
 30
0.0
  0
VERTEX
  5
291
330
28E
100
AcDbEntity
  8
Vordergrund
 62
     7
370
    13
100
AcDbVertex
100
AcDb2dVertex
 10
22.96586777854673
 20
16.84617241332318
 30
0.0
  0
VERTEX
  5
292
330
28E
100
AcDbEntity
  8
Vordergrund
 62
     7
370
    13
100
AcDbVertex
100
AcDb2dVertex
 10
23.08575710143342
 20
16.62396375452457
 30
0.0
  0
VERTEX
  5
293
330
28E
100
AcDbEntity
  8
Vordergrund
 62
     7
370
    13
100
AcDbVertex
100
AcDb2dVertex
 10
23.23734130278442
 20
16.42966036915648
 30
0.0
  0
VERTEX
  5
294
330
28E
100
AcDbEntity
  8
Vordergrund
 62
     7
370
    13
100
AcDbVertex
100
AcDb2dVertex
 10
23.25525579930772
 20
16.40864528669645
 30
0.0
  0
SEQEND
  5
295
330
28E
100
AcDbEntity
  8
Vordergrund
370
    13
  0
POLYLINE
  5
296
330
1F7
100
AcDbEntity
  8
Vordergrund
 62
     7
370
    13
100
AcDb2dPolyline
 66
     1
 10
0.0
 20
0.0
 30
0.0
  0
VERTEX
  5
297
330
296
100
AcDbEntity
  8
Vordergrund
 62
     7
370
    13
100
AcDbVertex
100
AcDb2dVertex
 10
25.34711777795142
 20
16.32734103324455
 30
0.0
  0
VERTEX
  5
298
330
296
100
AcDbEntity
  8
Vordergrund
 62
     7
370
    13
100
AcDbVertex
100
AcDb2dVertex
 10
25.51627196627718
 20
16.51096462260837
 30
0.0
  0
VERTEX
  5
299
330
296
100
AcDbEntity
  8
Vordergrund
 62
     7
370
    13
100
AcDbVertex
100
AcDb2dVertex
 10
25.65407578568718
 20
16.71560329443221
 30
0.0
  0
VERTEX
  5
29A
330
296
100
AcDbEntity
  8
Vordergrund
 62
     7
370
    13
100
AcDbVertex
100
AcDb2dVertex
 10
25.7563951215991
 20
16.94470214420133
 30
0.0
  0
VERTEX
  5
29B
330
296
100
AcDbEntity
  8
Vordergrund
 62
     7
370
    13
100
AcDbVertex
100
AcDb2dVertex
 10
25.8197848785277
 20
17.18482529952324
 30
0.0
  0
VERTEX
  5
29C
330
296
100
AcDbEntity
  8
Vordergrund
 62
     7
370
    13
100
AcDbVertex
100
AcDb2dVertex
 10
25.83735486550247
 20
17.32572970486996
 30
0.0
  0
SEQEND
  5
29D
330
296
100
AcDbEntity
  8
Vordergrund
370
    13
  0
POLYLINE
  5
29E
330
1F7
100
AcDbEntity
  8
Vordergrund
 62
     7
370
    13
100
AcDb2dPolyline
 66
     1
 10
0.0
 20
0.0
 30
0.0
  0
VERTEX
  5
29F
330
29E
100
AcDbEntity
  8
Vordergrund
 62
     7
370
    13
100
AcDbVertex
100
AcDb2dVertex
 10
27.02970241294744
 20
17.4421739322714
 30
0.0
  0
VERTEX
  5
2A0
330
29E
100
AcDbEntity
  8
Vordergrund
 62
     7
370
    13
100
AcDbVertex
100
AcDb2dVertex
 10
27.05106200495598
 20
17.4421739322714
 30
0.0
  0
VERTEX
  5
2A1
330
29E
100
AcDbEntity
  8
Vordergrund
 62
     7
370
    13
100
AcDbVertex
100
AcDb2dVertex
 10
27.07207708741601
 20
17.43872883678615
 30
0.0
  0
VERTEX
  5
2A2
330
29E
100
AcDbEntity
  8
Vordergrund
 62
     7
370
    13
100
AcDbVertex
100
AcDb2dVertex
 10
27.09343667942456
 20
17.4352837413009
 30
0.0
  0
VERTEX
  5
2A3
330
29E
100
AcDbEntity
  8
Vordergrund
 62
     7
370
    13
100
AcDbVertex
100
AcDb2dVertex
 10
27.11100666639933
 20
17.42804904078188
 30
0.0
  0
VERTEX
  5
2A4
330
29E
100
AcDbEntity
  8
Vordergrund
 62
     7
370
    13
100
AcDbVertex
100
AcDb2dVertex
 10
27.11789685736983
 20
17.42460394529663
 30
0.0
  0
VERTEX
  5
2A5
330
29E
100
AcDbEntity
  8
Vordergrund
 62
     7
370
    13
100
AcDbVertex
100
AcDb2dVertex
 10
27.12513155788886
 20
17.42115884981138
 30
0.0
  0
VERTEX
  5
2A6
330
29E
100
AcDbEntity
  8
Vordergrund
 62
     7
370
    13
100
AcDbVertex
100
AcDb2dVertex
 10
27.13581135389313
 20
17.41392414929235
 30
0.0
  0
VERTEX
  5
2A7
330
29E
100
AcDbEntity
  8
Vordergrund
 62
     7
370
    13
100
AcDbVertex
100
AcDb2dVertex
 10
27.14270154486363
 20
17.4104790538071
 30
0.0
  0
VERTEX
  5
2A8
330
29E
100
AcDbEntity
  8
Vordergrund
 62
     7
370
    13
100
AcDbVertex
100
AcDb2dVertex
 10
27.14993624538265
 20
17.40703395832185
 30
0.0
  0
VERTEX
  5
2A9
330
29E
100
AcDbEntity
  8
Vordergrund
 62
     7
370
    13
100
AcDbVertex
100
AcDb2dVertex
 10
27.15682643635316
 20
17.39979925780283
 30
0.0
  0
VERTEX
  5
2AA
330
29E
100
AcDbEntity
  8
Vordergrund
 62
     7
370
    13
100
AcDbVertex
100
AcDb2dVertex
 10
27.1602715318384
 20
17.39635416231758
 30
0.0
  0
VERTEX
  5
2AB
330
29E
100
AcDbEntity
  8
Vordergrund
 62
     7
370
    13
100
AcDbVertex
100
AcDb2dVertex
 10
27.16750623235743
 20
17.38946397134708
 30
0.0
  0
VERTEX
  5
2AC
330
29E
100
AcDbEntity
  8
Vordergrund
 62
     7
370
    13
100
AcDbVertex
100
AcDb2dVertex
 10
27.17095132784268
 20
17.38222927082806
 30
0.0
  0
VERTEX
  5
2AD
330
29E
100
AcDbEntity
  8
Vordergrund
 62
     7
370
    13
100
AcDbVertex
100
AcDb2dVertex
 10
27.17784151881318
 20
17.37533907985755
 30
0.0
  0
VERTEX
  5
2AE
330
29E
100
AcDbEntity
  8
Vordergrund
 62
     7
370
    13
100
AcDbVertex
100
AcDb2dVertex
 10
27.18163112384696
 20
17.37189398437231
 30
0.0
  0
VERTEX
  5
2AF
330
29E
100
AcDbEntity
  8
Vordergrund
 62
     7
370
    13
100
AcDbVertex
100
AcDb2dVertex
 10
27.1850762193322
 20
17.36465928385328
 30
0.0
  0
VERTEX
  5
2B0
330
29E
100
AcDbEntity
  8
Vordergrund
 62
     7
370
    13
100
AcDbVertex
100
AcDb2dVertex
 10
27.18852131481745
 20
17.35776909288278
 30
0.0
  0
VERTEX
  5
2B1
330
29E
100
AcDbEntity
  8
Vordergrund
 62
     7
370
    13
100
AcDbVertex
100
AcDb2dVertex
 10
27.18852131481745
 20
17.35053439236376
 30
0.0
  0
VERTEX
  5
2B2
330
29E
100
AcDbEntity
  8
Vordergrund
 62
     7
370
    13
100
AcDbVertex
100
AcDb2dVertex
 10
27.1919664103027
 20
17.33985459635948
 30
0.0
  0
SEQEND
  5
2B3
330
29E
100
AcDbEntity
  8
Vordergrund
370
    13
  0
POLYLINE
  5
2B4
330
1F7
100
AcDbEntity
  8
Vordergrund
 62
     7
370
    13
100
AcDb2dPolyline
 66
     1
 10
0.0
 20
0.0
 30
0.0
  0
VERTEX
  5
2B5
330
2B4
100
AcDbEntity
  8
Vordergrund
 62
     7
370
    13
100
AcDbVertex
100
AcDb2dVertex
 10
27.1919664103027
 20
13.04313150715588
 30
0.0
  0
VERTEX
  5
2B6
330
2B4
100
AcDbEntity
  8
Vordergrund
 62
     7
370
    13
100
AcDbVertex
100
AcDb2dVertex
 10
27.22745089380078
 20
13.2901448534483
 30
0.0
  0
VERTEX
  5
2B7
330
2B4
100
AcDbEntity
  8
Vordergrund
 62
     7
370
    13
100
AcDbVertex
100
AcDb2dVertex
 10
27.25914577226508
 20
13.53715819974071
 30
0.0
  0
VERTEX
  5
2B8
330
2B4
100
AcDbEntity
  8
Vordergrund
 62
     7
370
    13
100
AcDbVertex
100
AcDb2dVertex
 10
27.28739555524412
 20
13.7838270364846
 30
0.0
  0
VERTEX
  5
2B9
330
2B4
100
AcDbEntity
  8
Vordergrund
 62
     7
370
    13
100
AcDbVertex
100
AcDb2dVertex
 10
27.30841063770415
 20
14.03428547826226
 30
0.0
  0
VERTEX
  5
2BA
330
2B4
100
AcDbEntity
  8
Vordergrund
 62
     7
370
    13
100
AcDbVertex
100
AcDb2dVertex
 10
27.32632513422745
 20
14.28508842958845
 30
0.0
  0
VERTEX
  5
2BB
330
2B4
100
AcDbEntity
  8
Vordergrund
 62
     7
370
    13
100
AcDbVertex
100
AcDb2dVertex
 10
27.34045002571697
 20
14.53175726633234
 30
0.0
  0
VERTEX
  5
2BC
330
2B4
100
AcDbEntity
  8
Vordergrund
 62
     7
370
    13
100
AcDbVertex
100
AcDb2dVertex
 10
27.35078531217272
 20
14.78221570811
 30
0.0
  0
VERTEX
  5
2BD
330
2B4
100
AcDbEntity
  8
Vordergrund
 62
     7
370
    13
100
AcDbVertex
100
AcDb2dVertex
 10
27.35423040765797
 20
15.03267414988767
 30
0.0
  0
VERTEX
  5
2BE
330
2B4
100
AcDbEntity
  8
Vordergrund
 62
     7
370
    13
100
AcDbVertex
100
AcDb2dVertex
 10
27.35802001269175
 20
15.19149305175768
 30
0.0
  0
SEQEND
  5
2BF
330
2B4
100
AcDbEntity
  8
Vordergrund
370
    13
  0
POLYLINE
  5
2C0
330
1F7
100
AcDbEntity
  8
Vordergrund
 62
     7
370
    13
100
AcDb2dPolyline
 66
     1
 10
0.0
 20
0.0
 30
0.0
  0
VERTEX
  5
2C1
330
2C0
100
AcDbEntity
  8
Vordergrund
 62
     7
370
    13
100
AcDbVertex
100
AcDb2dVertex
 10
27.35802001269175
 20
15.19149305175768
 30
0.0
  0
VERTEX
  5
2C2
330
2C0
100
AcDbEntity
  8
Vordergrund
 62
     7
370
    13
100
AcDbVertex
100
AcDb2dVertex
 10
27.35423040765797
 20
15.44195149353535
 30
0.0
  0
VERTEX
  5
2C3
330
2C0
100
AcDbEntity
  8
Vordergrund
 62
     7
370
    13
100
AcDbVertex
100
AcDb2dVertex
 10
27.34734021668747
 20
15.69240993531301
 30
0.0
  0
VERTEX
  5
2C4
330
2C0
100
AcDbEntity
  8
Vordergrund
 62
     7
370
    13
100
AcDbVertex
100
AcDb2dVertex
 10
27.3366604206832
 20
15.94286837709067
 30
0.0
  0
VERTEX
  5
2C5
330
2C0
100
AcDbEntity
  8
Vordergrund
 62
     7
370
    13
100
AcDbVertex
100
AcDb2dVertex
 10
27.31909043370842
 20
16.18988172338308
 30
0.0
  0
VERTEX
  5
2C6
330
2C0
100
AcDbEntity
  8
Vordergrund
 62
     7
370
    13
100
AcDbVertex
100
AcDb2dVertex
 10
27.30152044673365
 20
16.44034016516075
 30
0.0
  0
VERTEX
  5
2C7
330
2C0
100
AcDbEntity
  8
Vordergrund
 62
     7
370
    13
100
AcDbVertex
100
AcDb2dVertex
 10
27.27671575923985
 20
16.68735351145316
 30
0.0
  0
VERTEX
  5
2C8
330
2C0
100
AcDbEntity
  8
Vordergrund
 62
     7
370
    13
100
AcDbVertex
100
AcDb2dVertex
 10
27.2484659762608
 20
16.93781195323082
 30
0.0
  0
VERTEX
  5
2C9
330
2C0
100
AcDbEntity
  8
Vordergrund
 62
     7
370
    13
100
AcDbVertex
100
AcDb2dVertex
 10
27.21332600231125
 20
17.18482529952324
 30
0.0
  0
VERTEX
  5
2CA
330
2C0
100
AcDbEntity
  8
Vordergrund
 62
     7
370
    13
100
AcDbVertex
100
AcDb2dVertex
 10
27.1919664103027
 20
17.33985459635948
 30
0.0
  0
SEQEND
  5
2CB
330
2C0
100
AcDbEntity
  8
Vordergrund
370
    13
  0
POLYLINE
  5
2CC
330
1F7
100
AcDbEntity
  8
Vordergrund
370
     0
100
AcDb2dPolyline
 66
     1
 10
0.0
 20
0.0
 30
0.0
  0
VERTEX
  5
2CD
330
2CC
100
AcDbEntity
  8
Vordergrund
370
     0
100
AcDbVertex
100
AcDb2dVertex
 10
19.00779757554319
 20
7.19060329681346
 30
0.0
  0
VERTEX
  5
2CE
330
2CC
100
AcDbEntity
  8
Vordergrund
370
     0
100
AcDbVertex
100
AcDb2dVertex
 10
16.84152153441809
 20
5.941756183410394
 30
0.0
  0
VERTEX
  5
2CF
330
2CC
100
AcDbEntity
  8
Vordergrund
370
     0
100
AcDbVertex
100
AcDb2dVertex
 10
19.00779757554319
 20
4.689463974522079
 30
0.0
  0
VERTEX
  5
2D0
330
2CC
100
AcDbEntity
  8
Vordergrund
370
     0
100
AcDbVertex
100
AcDb2dVertex
 10
19.00779757554319
 20
7.19060329681346
 30
0.0
  0
SEQEND
  5
2D1
330
2CC
100
AcDbEntity
  8
Vordergrund
370
     0
  0
HATCH
  5
2D2
330
1F7
100
AcDbEntity
  8
Vordergrund
 62
     7
100
AcDbHatch
 10
0.0
 20
0.0
 30
0.0
210
0.0
220
0.0
230
1.0
  2
SOLID
 70
     1
 71
     0
 91
        1
 92
        1
 93
        3
 72
     1
 10
19.00779757554319
 20
7.19060329681346
 11
16.84152153441809
 21
5.941756183410394
 72
     1
 10
16.84152153441809
 20
5.941756183410394
 11
19.00779757554319
 21
4.689463974522079
 72
     1
 10
19.00779757554319
 20
4.689463974522079
 11
19.00779757554319
 21
7.19060329681346
 97
        0
 75
     0
 76
     1
 98
        0
  0
POLYLINE
  5
2D3
330
1F7
100
AcDbEntity
  8
Vordergrund
370
     0
100
AcDb2dPolyline
 66
     1
 10
0.0
 20
0.0
 30
0.0
  0
VERTEX
  5
2D4
330
2D3
100
AcDbEntity
  8
Vordergrund
370
     0
100
AcDbVertex
100
AcDb2dVertex
 10
25.19174397156665
 20
4.689463974522079
 30
0.0
  0
VERTEX
  5
2D5
330
2D3
100
AcDbEntity
  8
Vordergrund
370
     0
100
AcDbVertex
100
AcDb2dVertex
 10
27.35802001269175
 20
5.941756183410394
 30
0.0
  0
VERTEX
  5
2D6
330
2D3
100
AcDbEntity
  8
Vordergrund
370
     0
100
AcDbVertex
100
AcDb2dVertex
 10
25.19174397156665
 20
7.19060329681346
 30
0.0
  0
VERTEX
  5
2D7
330
2D3
100
AcDbEntity
  8
Vordergrund
370
     0
100
AcDbVertex
100
AcDb2dVertex
 10
25.19174397156665
 20
4.689463974522079
 30
0.0
  0
SEQEND
  5
2D8
330
2D3
100
AcDbEntity
  8
Vordergrund
370
     0
  0
HATCH
  5
2D9
330
1F7
100
AcDbEntity
  8
Vordergrund
 62
     7
100
AcDbHatch
 10
0.0
 20
0.0
 30
0.0
210
0.0
220
0.0
230
1.0
  2
SOLID
 70
     1
 71
     0
 91
        1
 92
        1
 93
        3
 72
     1
 10
25.19174397156665
 20
4.689463974522079
 11
27.35802001269175
 21
5.941756183410394
 72
     1
 10
27.35802001269175
 20
5.941756183410394
 11
25.19174397156665
 21
7.19060329681346
 72
     1
 10
25.19174397156665
 20
7.19060329681346
 11
25.19174397156665
 21
4.689463974522079
 97
        0
 75
     0
 76
     1
 98
        0
  0
POLYLINE
  5
2DA
330
1F7
100
AcDbEntity
  8
Vordergrund
370
     0
100
AcDb2dPolyline
 66
     1
 10
0.0
 20
0.0
 30
0.0
  0
VERTEX
  5
2DB
330
2DA
100
AcDbEntity
  8
Vordergrund
370
     0
100
AcDbVertex
100
AcDb2dVertex
 10
21.32910291350453
 20
5.352644855432672
 30
0.0
  0
VERTEX
  5
2DC
330
2DA
100
AcDbEntity
  8
Vordergrund
370
     0
100
AcDbVertex
100
AcDb2dVertex
 10
21.32910291350453
 20
7.331507702160179
 30
0.0
  0
VERTEX
  5
2DD
330
2DA
100
AcDbEntity
  8
Vordergrund
370
     0
100
AcDbVertex
100
AcDb2dVertex
 10
21.32186821298551
 20
7.331507702160179
 30
0.0
  0
VERTEX
  5
2DE
330
2DA
100
AcDbEntity
  8
Vordergrund
370
     0
100
AcDbVertex
100
AcDb2dVertex
 10
19.7732977923657
 20
5.094951713135985
 30
0.0
  0
VERTEX
  5
2DF
330
2DA
100
AcDbEntity
  8
Vordergrund
370
     0
100
AcDbVertex
100
AcDb2dVertex
 10
21.05039468874782
 20
5.094951713135985
 30
0.0
  0
VERTEX
  5
2E0
330
2DA
100
AcDbEntity
  8
Vordergrund
370
     0
100
AcDbVertex
100
AcDb2dVertex
 10
21.05039468874782
 20
4.689463974522079
 30
0.0
  0
VERTEX
  5
2E1
330
2DA
100
AcDbEntity
  8
Vordergrund
370
     0
100
AcDbVertex
100
AcDb2dVertex
 10
21.32910291350453
 20
4.689463974522079
 30
0.0
  0
VERTEX
  5
2E2
330
2DA
100
AcDbEntity
  8
Vordergrund
370
     0
100
AcDbVertex
100
AcDb2dVertex
 10
21.32910291350453
 20
5.094951713135985
 30
0.0
  0
VERTEX
  5
2E3
330
2DA
100
AcDbEntity
  8
Vordergrund
370
     0
100
AcDbVertex
100
AcDb2dVertex
 10
21.63950601672554
 20
5.094951713135985
 30
0.0
  0
VERTEX
  5
2E4
330
2DA
100
AcDbEntity
  8
Vordergrund
370
     0
100
AcDbVertex
100
AcDb2dVertex
 10
21.63950601672554
 20
5.352644855432672
 30
0.0
  0
VERTEX
  5
2E5
330
2DA
100
AcDbEntity
  8
Vordergrund
370
     0
100
AcDbVertex
100
AcDb2dVertex
 10
21.32910291350453
 20
5.352644855432672
 30
0.0
  0
SEQEND
  5
2E6
330
2DA
100
AcDbEntity
  8
Vordergrund
370
     0
  0
POLYLINE
  5
2E7
330
1F7
100
AcDbEntity
  8
Vordergrund
370
     0
100
AcDb2dPolyline
 66
     1
 10
0.0
 20
0.0
 30
0.0
  0
VERTEX
  5
2E8
330
2E7
100
AcDbEntity
  8
Vordergrund
370
     0
100
AcDbVertex
100
AcDb2dVertex
 10
21.05039468874782
 20
5.352644855432672
 30
0.0
  0
VERTEX
  5
2E9
330
2E7
100
AcDbEntity
  8
Vordergrund
370
     0
100
AcDbVertex
100
AcDb2dVertex
 10
20.26008978443151
 20
5.352644855432672
 30
0.0
  0
VERTEX
  5
2EA
330
2E7
100
AcDbEntity
  8
Vordergrund
370
     0
100
AcDbVertex
100
AcDb2dVertex
 10
21.04660508371405
 20
6.485047741434294
 30
0.0
  0
VERTEX
  5
2EB
330
2E7
100
AcDbEntity
  8
Vordergrund
370
     0
100
AcDbVertex
100
AcDb2dVertex
 10
21.05039468874782
 20
6.485047741434294
 30
0.0
  0
VERTEX
  5
2EC
330
2E7
100
AcDbEntity
  8
Vordergrund
370
     0
100
AcDbVertex
100
AcDb2dVertex
 10
21.05039468874782
 20
5.352644855432672
 30
0.0
  0
SEQEND
  5
2ED
330
2E7
100
AcDbEntity
  8
Vordergrund
370
     0
  0
POLYLINE
  5
2EE
330
1F7
100
AcDbEntity
  8
Vordergrund
370
     0
100
AcDb2dPolyline
 66
     1
 10
0.0
 20
0.0
 30
0.0
  0
VERTEX
  5
2EF
330
2EE
100
AcDbEntity
  8
Vordergrund
370
     0
100
AcDbVertex
100
AcDb2dVertex
 10
22.99411756152578
 20
4.950257702755492
 30
0.0
  0
VERTEX
  5
2F0
330
2EE
100
AcDbEntity
  8
Vordergrund
370
     0
100
AcDbVertex
100
AcDb2dVertex
 10
23.85849201877496
 20
5.966560870904194
 30
0.0
  0
VERTEX
  5
2F1
330
2EE
100
AcDbEntity
  8
Vordergrund
370
     0
100
AcDbVertex
100
AcDb2dVertex
 10
24.00284151960693
 20
6.209784612162832
 30
0.0
  0
VERTEX
  5
2F2
330
2EE
100
AcDbEntity
  8
Vordergrund
370
     0
100
AcDbVertex
100
AcDb2dVertex
 10
24.04900579910928
 20
6.495727537438569
 30
0.0
  0
VERTEX
  5
2F3
330
2EE
100
AcDbEntity
  8
Vordergrund
370
     0
100
AcDbVertex
100
AcDb2dVertex
 10
23.98182643714691
 20
6.792005749170055
 30
0.0
  0
VERTEX
  5
2F4
330
2EE
100
AcDbEntity
  8
Vordergrund
370
     0
100
AcDbVertex
100
AcDb2dVertex
 10
23.80888264378736
 20
7.024894203972943
 30
0.0
  0
VERTEX
  5
2F5
330
2EE
100
AcDbEntity
  8
Vordergrund
370
     0
100
AcDbVertex
100
AcDb2dVertex
 10
23.56186929749495
 20
7.176478405323937
 30
0.0
  0
VERTEX
  5
2F6
330
2EE
100
AcDbEntity
  8
Vordergrund
370
     0
100
AcDbVertex
100
AcDb2dVertex
 10
23.26214599027821
 20
7.232977971282033
 30
0.0
  0
VERTEX
  5
2F7
330
2EE
100
AcDbEntity
  8
Vordergrund
370
     0
100
AcDbVertex
100
AcDb2dVertex
 10
22.95518798254245
 20
7.173033309838686
 30
0.0
  0
VERTEX
  5
2F8
330
2EE
100
AcDbEntity
  8
Vordergrund
370
     0
100
AcDbVertex
100
AcDb2dVertex
 10
22.71196424128382
 20
7.010769312483419
 30
0.0
  0
VERTEX
  5
2F9
330
2EE
100
AcDbEntity
  8
Vordergrund
370
     0
100
AcDbVertex
100
AcDb2dVertex
 10
22.54970024392855
 20
6.767201061676255
 30
0.0
  0
VERTEX
  5
2FA
330
2EE
100
AcDbEntity
  8
Vordergrund
370
     0
100
AcDbVertex
100
AcDb2dVertex
 10
22.4897555824852
 20
6.460243053940495
 30
0.0
  0
VERTEX
  5
2FB
330
2EE
100
AcDbEntity
  8
Vordergrund
370
     0
100
AcDbVertex
100
AcDb2dVertex
 10
22.76811929769339
 20
6.460243053940495
 30
0.0
  0
VERTEX
  5
2FC
330
2EE
100
AcDbEntity
  8
Vordergrund
370
     0
100
AcDbVertex
100
AcDb2dVertex
 10
22.80360378119146
 20
6.664881725764335
 30
0.0
  0
VERTEX
  5
2FD
330
2EE
100
AcDbEntity
  8
Vordergrund
370
     0
100
AcDbVertex
100
AcDb2dVertex
 10
22.90936821258863
 20
6.827145723119603
 30
0.0
  0
VERTEX
  5
2FE
330
2EE
100
AcDbEntity
  8
Vordergrund
370
     0
100
AcDbVertex
100
AcDb2dVertex
 10
23.06818711445865
 20
6.936699759550548
 30
0.0
  0
VERTEX
  5
2FF
330
2EE
100
AcDbEntity
  8
Vordergrund
370
     0
100
AcDbVertex
100
AcDb2dVertex
 10
23.27282578628249
 20
6.975284828985346
 30
0.0
  0
VERTEX
  5
300
330
2EE
100
AcDbEntity
  8
Vordergrund
370
     0
100
AcDbVertex
100
AcDb2dVertex
 10
23.46333956661681
 20
6.940144855035798
 30
0.0
  0
VERTEX
  5
301
330
2EE
100
AcDbEntity
  8
Vordergrund
370
     0
100
AcDbVertex
100
AcDb2dVertex
 10
23.62215846848682
 20
6.837825519123878
 30
0.0
  0
VERTEX
  5
302
330
2EE
100
AcDbEntity
  8
Vordergrund
370
     0
100
AcDbVertex
100
AcDb2dVertex
 10
23.73136799536924
 20
6.68245171273911
 30
0.0
  0
VERTEX
  5
303
330
2EE
100
AcDbEntity
  8
Vordergrund
370
     0
100
AcDbVertex
100
AcDb2dVertex
 10
23.77029757435256
 20
6.491937932404793
 30
0.0
  0
VERTEX
  5
304
330
2EE
100
AcDbEntity
  8
Vordergrund
370
     0
100
AcDbVertex
100
AcDb2dVertex
 10
23.72068819936497
 20
6.266284178120929
 30
0.0
  0
VERTEX
  5
305
330
2EE
100
AcDbEntity
  8
Vordergrund
370
     0
100
AcDbVertex
100
AcDb2dVertex
 10
23.60079887647827
 20
6.072325302301364
 30
0.0
  0
VERTEX
  5
306
330
2EE
100
AcDbEntity
  8
Vordergrund
370
     0
100
AcDbVertex
100
AcDb2dVertex
 10
22.42946641149333
 20
4.689463974522079
 30
0.0
  0
VERTEX
  5
307
330
2EE
100
AcDbEntity
  8
Vordergrund
370
     0
100
AcDbVertex
100
AcDb2dVertex
 10
24.04900579910928
 20
4.689463974522079
 30
0.0
  0
VERTEX
  5
308
330
2EE
100
AcDbEntity
  8
Vordergrund
370
     0
100
AcDbVertex
100
AcDb2dVertex
 10
24.04900579910928
 20
4.950257702755492
 30
0.0
  0
VERTEX
  5
309
330
2EE
100
AcDbEntity
  8
Vordergrund
370
     0
100
AcDbVertex
100
AcDb2dVertex
 10
22.99411756152578
 20
4.950257702755492
 30
0.0
  0
SEQEND
  5
30A
330
2EE
100
AcDbEntity
  8
Vordergrund
370
     0
  0
HATCH
  5
30B
330
1F7
100
AcDbEntity
  8
Vordergrund
 62
     7
100
AcDbHatch
 10
0.0
 20
0.0
 30
0.0
210
0.0
220
0.0
230
1.0
  2
SOLID
 70
     1
 71
     0
 91
        3
 92
        1
 93
       26
 72
     1
 10
22.99411756152578
 20
4.950257702755492
 11
23.85849201877496
 21
5.966560870904194
 72
     1
 10
23.85849201877496
 20
5.966560870904194
 11
24.00284151960693
 21
6.209784612162832
 72
     1
 10
24.00284151960693
 20
6.209784612162832
 11
24.04900579910928
 21
6.495727537438569
 72
     1
 10
24.04900579910928
 20
6.495727537438569
 11
23.98182643714691
 21
6.792005749170055
 72
     1
 10
23.98182643714691
 20
6.792005749170055
 11
23.80888264378736
 21
7.024894203972943
 72
     1
 10
23.80888264378736
 20
7.024894203972943
 11
23.56186929749495
 21
7.176478405323937
 72
     1
 10
23.56186929749495
 20
7.176478405323937
 11
23.26214599027821
 21
7.232977971282033
 72
     1
 10
23.26214599027821
 20
7.232977971282033
 11
22.95518798254245
 21
7.173033309838686
 72
     1
 10
22.95518798254245
 20
7.173033309838686
 11
22.71196424128382
 21
7.010769312483419
 72
     1
 10
22.71196424128382
 20
7.010769312483419
 11
22.54970024392855
 21
6.767201061676255
 72
     1
 10
22.54970024392855
 20
6.767201061676255
 11
22.4897555824852
 21
6.460243053940495
 72
     1
 10
22.4897555824852
 20
6.460243053940495
 11
22.76811929769339
 21
6.460243053940495
 72
     1
 10
22.76811929769339
 20
6.460243053940495
 11
22.80360378119146
 21
6.664881725764335
 72
     1
 10
22.80360378119146
 20
6.664881725764335
 11
22.90936821258863
 21
6.827145723119603
 72
     1
 10
22.90936821258863
 20
6.827145723119603
 11
23.06818711445865
 21
6.936699759550548
 72
     1
 10
23.06818711445865
 20
6.936699759550548
 11
23.27282578628249
 21
6.975284828985346
 72
     1
 10
23.27282578628249
 20
6.975284828985346
 11
23.46333956661681
 21
6.940144855035798
 72
     1
 10
23.46333956661681
 20
6.940144855035798
 11
23.62215846848682
 21
6.837825519123878
 72
     1
 10
23.62215846848682
 20
6.837825519123878
 11
23.73136799536924
 21
6.68245171273911
 72
     1
 10
23.73136799536924
 20
6.68245171273911
 11
23.77029757435256
 21
6.491937932404793
 72
     1
 10
23.77029757435256
 20
6.491937932404793
 11
23.72068819936497
 21
6.266284178120929
 72
     1
 10
23.72068819936497
 20
6.266284178120929
 11
23.60079887647827
 21
6.072325302301364
 72
     1
 10
23.60079887647827
 20
6.072325302301364
 11
22.42946641149333
 21
4.689463974522079
 72
     1
 10
22.42946641149333
 20
4.689463974522079
 11
24.04900579910928
 21
4.689463974522079
 72
     1
 10
24.04900579910928
 20
4.689463974522079
 11
24.04900579910928
 21
4.950257702755492
 72
     1
 10
24.04900579910928
 20
4.950257702755492
 11
22.99411756152578
 21
4.950257702755492
 97
        0
 92
        1
 93
       10
 72
     1
 10
21.32910291350453
 20
5.352644855432672
 11
21.32910291350453
 21
7.331507702160179
 72
     1
 10
21.32910291350453
 20
7.331507702160179
 11
21.32186821298551
 21
7.331507702160179
 72
     1
 10
21.32186821298551
 20
7.331507702160179
 11
19.7732977923657
 21
5.094951713135985
 72
     1
 10
19.7732977923657
 20
5.094951713135985
 11
21.05039468874782
 21
5.094951713135985
 72
     1
 10
21.05039468874782
 20
5.094951713135985
 11
21.05039468874782
 21
4.689463974522079
 72
     1
 10
21.05039468874782
 20
4.689463974522079
 11
21.32910291350453
 21
4.689463974522079
 72
     1
 10
21.32910291350453
 20
4.689463974522079
 11
21.32910291350453
 21
5.094951713135985
 72
     1
 10
21.32910291350453
 20
5.094951713135985
 11
21.63950601672554
 21
5.094951713135985
 72
     1
 10
21.63950601672554
 20
5.094951713135985
 11
21.63950601672554
 21
5.352644855432672
 72
     1
 10
21.63950601672554
 20
5.352644855432672
 11
21.32910291350453
 21
5.352644855432672
 97
        0
 92
        1
 93
        4
 72
     1
 10
21.05039468874782
 20
5.352644855432672
 11
20.26008978443151
 21
5.352644855432672
 72
     1
 10
20.26008978443151
 20
5.352644855432672
 11
21.04660508371405
 21
6.485047741434294
 72
     1
 10
21.04660508371405
 20
6.485047741434294
 11
21.05039468874782
 21
6.485047741434294
 72
     1
 10
21.05039468874782
 20
6.485047741434294
 11
21.05039468874782
 21
5.352644855432672
 97
        0
 75
     0
 76
     1
 98
        0
  0
POLYLINE
  5
30C
330
1F7
100
AcDbEntity
  8
Vordergrund
 62
     7
370
     5
100
AcDb2dPolyline
 66
     1
 10
0.0
 20
0.0
 30
0.0
  0
VERTEX
  5
30D
330
30C
100
AcDbEntity
  8
Vordergrund
 62
     7
370
     5
100
AcDbVertex
100
AcDb2dVertex
 10
19.00779757554319
 20
7.19060329681346
 30
0.0
  0
VERTEX
  5
30E
330
30C
100
AcDbEntity
  8
Vordergrund
 62
     7
370
     5
100
AcDbVertex
100
AcDb2dVertex
 10
16.84152153441809
 20
5.941756183410394
 30
0.0
  0
SEQEND
  5
30F
330
30C
100
AcDbEntity
  8
Vordergrund
370
     5
  0
POLYLINE
  5
310
330
1F7
100
AcDbEntity
  8
Vordergrund
 62
     7
370
     5
100
AcDb2dPolyline
 66
     1
 10
0.0
 20
0.0
 30
0.0
  0
VERTEX
  5
311
330
310
100
AcDbEntity
  8
Vordergrund
 62
     7
370
     5
100
AcDbVertex
100
AcDb2dVertex
 10
16.84152153441809
 20
5.941756183410394
 30
0.0
  0
VERTEX
  5
312
330
310
100
AcDbEntity
  8
Vordergrund
 62
     7
370
     5
100
AcDbVertex
100
AcDb2dVertex
 10
19.00779757554319
 20
4.689463974522079
 30
0.0
  0
SEQEND
  5
313
330
310
100
AcDbEntity
  8
Vordergrund
370
     5
  0
POLYLINE
  5
314
330
1F7
100
AcDbEntity
  8
Vordergrund
 62
     7
370
     5
100
AcDb2dPolyline
 66
     1
 10
0.0
 20
0.0
 30
0.0
  0
VERTEX
  5
315
330
314
100
AcDbEntity
  8
Vordergrund
 62
     7
370
     5
100
AcDbVertex
100
AcDb2dVertex
 10
19.00779757554319
 20
4.689463974522079
 30
0.0
  0
VERTEX
  5
316
330
314
100
AcDbEntity
  8
Vordergrund
 62
     7
370
     5
100
AcDbVertex
100
AcDb2dVertex
 10
19.00779757554319
 20
7.19060329681346
 30
0.0
  0
SEQEND
  5
317
330
314
100
AcDbEntity
  8
Vordergrund
370
     5
  0
POLYLINE
  5
318
330
1F7
100
AcDbEntity
  8
Vordergrund
 62
     7
370
     5
100
AcDb2dPolyline
 66
     1
 10
0.0
 20
0.0
 30
0.0
  0
VERTEX
  5
319
330
318
100
AcDbEntity
  8
Vordergrund
 62
     7
370
     5
100
AcDbVertex
100
AcDb2dVertex
 10
25.19174397156665
 20
4.689463974522079
 30
0.0
  0
VERTEX
  5
31A
330
318
100
AcDbEntity
  8
Vordergrund
 62
     7
370
     5
100
AcDbVertex
100
AcDb2dVertex
 10
27.35802001269175
 20
5.941756183410394
 30
0.0
  0
SEQEND
  5
31B
330
318
100
AcDbEntity
  8
Vordergrund
370
     5
  0
POLYLINE
  5
31C
330
1F7
100
AcDbEntity
  8
Vordergrund
 62
     7
370
     5
100
AcDb2dPolyline
 66
     1
 10
0.0
 20
0.0
 30
0.0
  0
VERTEX
  5
31D
330
31C
100
AcDbEntity
  8
Vordergrund
 62
     7
370
     5
100
AcDbVertex
100
AcDb2dVertex
 10
27.35802001269175
 20
5.941756183410394
 30
0.0
  0
VERTEX
  5
31E
330
31C
100
AcDbEntity
  8
Vordergrund
 62
     7
370
     5
100
AcDbVertex
100
AcDb2dVertex
 10
25.19174397156665
 20
7.19060329681346
 30
0.0
  0
SEQEND
  5
31F
330
31C
100
AcDbEntity
  8
Vordergrund
370
     5
  0
POLYLINE
  5
320
330
1F7
100
AcDbEntity
  8
Vordergrund
 62
     7
370
     5
100
AcDb2dPolyline
 66
     1
 10
0.0
 20
0.0
 30
0.0
  0
VERTEX
  5
321
330
320
100
AcDbEntity
  8
Vordergrund
 62
     7
370
     5
100
AcDbVertex
100
AcDb2dVertex
 10
25.19174397156665
 20
7.19060329681346
 30
0.0
  0
VERTEX
  5
322
330
320
100
AcDbEntity
  8
Vordergrund
 62
     7
370
     5
100
AcDbVertex
100
AcDb2dVertex
 10
25.19174397156665
 20
4.689463974522079
 30
0.0
  0
SEQEND
  5
323
330
320
100
AcDbEntity
  8
Vordergrund
370
     5
  0
POLYLINE
  5
324
330
1F7
100
AcDbEntity
  8
Vordergrund
370
     0
100
AcDb2dPolyline
 66
     1
 10
0.0
 20
0.0
 30
0.0
  0
VERTEX
  5
325
330
324
100
AcDbEntity
  8
Vordergrund
370
     0
100
AcDbVertex
100
AcDb2dVertex
 10
8.593618433181456
 20
19.6084499733965
 30
0.0
  0
VERTEX
  5
326
330
324
100
AcDbEntity
  8
Vordergrund
370
     0
100
AcDbVertex
100
AcDb2dVertex
 10
9.842465546584522
 20
17.4421739322714
 30
0.0
  0
VERTEX
  5
327
330
324
100
AcDbEntity
  8
Vordergrund
370
     0
100
AcDbVertex
100
AcDb2dVertex
 10
11.09131265998759
 20
19.6084499733965
 30
0.0
  0
VERTEX
  5
328
330
324
100
AcDbEntity
  8
Vordergrund
370
     0
100
AcDbVertex
100
AcDb2dVertex
 10
8.593618433181456
 20
19.6084499733965
 30
0.0
  0
SEQEND
  5
329
330
324
100
AcDbEntity
  8
Vordergrund
370
     0
  0
HATCH
  5
32A
330
1F7
100
AcDbEntity
  8
Vordergrund
 62
     7
100
AcDbHatch
 10
0.0
 20
0.0
 30
0.0
210
0.0
220
0.0
230
1.0
  2
SOLID
 70
     1
 71
     0
 91
        1
 92
        1
 93
        3
 72
     1
 10
8.593618433181456
 20
19.6084499733965
 11
9.842465546584522
 21
17.4421739322714
 72
     1
 10
9.842465546584522
 20
17.4421739322714
 11
11.09131265998759
 21
19.6084499733965
 72
     1
 10
11.09131265998759
 20
19.6084499733965
 11
8.593618433181456
 21
19.6084499733965
 97
        0
 75
     0
 76
     1
 98
        0
  0
POLYLINE
  5
32B
330
1F7
100
AcDbEntity
  8
Vordergrund
370
     0
100
AcDb2dPolyline
 66
     1
 10
0.0
 20
0.0
 30
0.0
  0
VERTEX
  5
32C
330
32B
100
AcDbEntity
  8
Vordergrund
370
     0
100
AcDbVertex
100
AcDb2dVertex
 10
11.09131265998759
 20
10.77488063966739
 30
0.0
  0
VERTEX
  5
32D
330
32B
100
AcDbEntity
  8
Vordergrund
370
     0
100
AcDbVertex
100
AcDb2dVertex
 10
9.842465546584522
 20
12.94081217124396
 30
0.0
  0
VERTEX
  5
32E
330
32B
100
AcDbEntity
  8
Vordergrund
370
     0
100
AcDbVertex
100
AcDb2dVertex
 10
8.593618433181456
 20
10.77488063966739
 30
0.0
  0
VERTEX
  5
32F
330
32B
100
AcDbEntity
  8
Vordergrund
370
     0
100
AcDbVertex
100
AcDb2dVertex
 10
11.09131265998759
 20
10.77488063966739
 30
0.0
  0
SEQEND
  5
330
330
32B
100
AcDbEntity
  8
Vordergrund
370
     0
  0
HATCH
  5
331
330
1F7
100
AcDbEntity
  8
Vordergrund
 62
     7
100
AcDbHatch
 10
0.0
 20
0.0
 30
0.0
210
0.0
220
0.0
230
1.0
  2
SOLID
 70
     1
 71
     0
 91
        1
 92
        1
 93
        3
 72
     1
 10
11.09131265998759
 20
10.77488063966739
 11
9.842465546584522
 21
12.94081217124396
 72
     1
 10
9.842465546584522
 20
12.94081217124396
 11
8.593618433181456
 21
10.77488063966739
 72
     1
 10
8.593618433181456
 20
10.77488063966739
 11
11.09131265998759
 21
10.77488063966739
 97
        0
 75
     0
 76
     1
 98
        0
  0
POLYLINE
  5
332
330
1F7
100
AcDbEntity
  8
Vordergrund
370
     0
100
AcDb2dPolyline
 66
     1
 10
0.0
 20
0.0
 30
0.0
  0
VERTEX
  5
333
330
332
100
AcDbEntity
  8
Vordergrund
370
     0
100
AcDbVertex
100
AcDb2dVertex
 10
8.851311575478144
 20
26.82247991950966
 30
0.0
  0
VERTEX
  5
334
330
332
100
AcDbEntity
  8
Vordergrund
370
     0
100
AcDbVertex
100
AcDb2dVertex
 10
11.09131265998759
 20
26.82247991950966
 30
0.0
  0
VERTEX
  5
335
330
332
100
AcDbEntity
  8
Vordergrund
370
     0
100
AcDbVertex
100
AcDb2dVertex
 10
11.09131265998759
 20
27.10118814426637
 30
0.0
  0
VERTEX
  5
336
330
332
100
AcDbEntity
  8
Vordergrund
370
     0
100
AcDbVertex
100
AcDb2dVertex
 10
8.593618433181456
 20
27.10118814426637
 30
0.0
  0
VERTEX
  5
337
330
332
100
AcDbEntity
  8
Vordergrund
370
     0
100
AcDbVertex
100
AcDb2dVertex
 10
8.593618433181456
 20
26.55445149075722
 30
0.0
  0
VERTEX
  5
338
330
332
100
AcDbEntity
  8
Vordergrund
370
     0
100
AcDbVertex
100
AcDb2dVertex
 10
8.851311575478144
 20
26.40631238489148
 30
0.0
  0
VERTEX
  5
339
330
332
100
AcDbEntity
  8
Vordergrund
370
     0
100
AcDbVertex
100
AcDb2dVertex
 10
8.851311575478144
 20
26.82247991950966
 30
0.0
  0
SEQEND
  5
33A
330
332
100
AcDbEntity
  8
Vordergrund
370
     0
  0
POLYLINE
  5
33B
330
1F7
100
AcDbEntity
  8
Vordergrund
370
     0
100
AcDb2dPolyline
 66
     1
 10
0.0
 20
0.0
 30
0.0
  0
VERTEX
  5
33C
330
33B
100
AcDbEntity
  8
Vordergrund
370
     0
100
AcDbVertex
100
AcDb2dVertex
 10
8.547798663227635
 20
29.44729816972151
 30
0.0
  0
VERTEX
  5
33D
330
33B
100
AcDbEntity
  8
Vordergrund
370
     0
100
AcDbVertex
100
AcDb2dVertex
 10
8.60085313370048
 20
29.17203504045005
 30
0.0
  0
VERTEX
  5
33E
330
33B
100
AcDbEntity
  8
Vordergrund
370
     0
100
AcDbVertex
100
AcDb2dVertex
 10
8.748992239566224
 20
28.94982638165143
 30
0.0
  0
VERTEX
  5
33F
330
33B
100
AcDbEntity
  8
Vordergrund
370
     0
100
AcDbVertex
100
AcDb2dVertex
 10
8.97120089836484
 20
28.80168727578569
 30
0.0
  0
VERTEX
  5
340
330
33B
100
AcDbEntity
  8
Vordergrund
370
     0
100
AcDbVertex
100
AcDb2dVertex
 10
9.246464027636302
 20
28.74863280531284
 30
0.0
  0
VERTEX
  5
341
330
33B
100
AcDbEntity
  8
Vordergrund
370
     0
100
AcDbVertex
100
AcDb2dVertex
 10
9.56031222634256
 20
28.82614745373096
 30
0.0
  0
VERTEX
  5
342
330
33B
100
AcDbEntity
  8
Vordergrund
370
     0
100
AcDbVertex
100
AcDb2dVertex
 10
9.79320068114545
 20
29.05214571756335
 30
0.0
  0
VERTEX
  5
343
330
33B
100
AcDbEntity
  8
Vordergrund
370
     0
100
AcDbVertex
100
AcDb2dVertex
 10
9.89552001705737
 20
28.89332681569334
 30
0.0
  0
VERTEX
  5
344
330
33B
100
AcDbEntity
  8
Vordergrund
370
     0
100
AcDbVertex
100
AcDb2dVertex
 10
10.03642442240409
 20
28.77688258829189
 30
0.0
  0
VERTEX
  5
345
330
33B
100
AcDbEntity
  8
Vordergrund
370
     0
100
AcDbVertex
100
AcDb2dVertex
 10
10.39299180512745
 20
28.68524304838425
 30
0.0
  0
VERTEX
  5
346
330
33B
100
AcDbEntity
  8
Vordergrund
370
     0
100
AcDbVertex
100
AcDb2dVertex
 10
10.68927001685893
 20
28.74174261434234
 30
0.0
  0
VERTEX
  5
347
330
33B
100
AcDbEntity
  8
Vordergrund
370
     0
100
AcDbVertex
100
AcDb2dVertex
 10
10.92560356714707
 20
28.90400661169761
 30
0.0
  0
VERTEX
  5
348
330
33B
100
AcDbEntity
  8
Vordergrund
370
     0
100
AcDbVertex
100
AcDb2dVertex
 10
11.08063286398331
 20
29.14723035295625
 30
0.0
  0
VERTEX
  5
349
330
33B
100
AcDbEntity
  8
Vordergrund
370
     0
100
AcDbVertex
100
AcDb2dVertex
 10
11.13368733445616
 20
29.44729816972151
 30
0.0
  0
VERTEX
  5
34A
330
33B
100
AcDbEntity
  8
Vordergrund
370
     0
100
AcDbVertex
100
AcDb2dVertex
 10
11.08063286398331
 20
29.74702147693825
 30
0.0
  0
VERTEX
  5
34B
330
33B
100
AcDbEntity
  8
Vordergrund
370
     0
100
AcDbVertex
100
AcDb2dVertex
 10
10.92560356714707
 20
29.98680012271164
 30
0.0
  0
VERTEX
  5
34C
330
33B
100
AcDbEntity
  8
Vordergrund
370
     0
100
AcDbVertex
100
AcDb2dVertex
 10
10.68927001685893
 20
30.1490641200669
 30
0.0
  0
VERTEX
  5
34D
330
33B
100
AcDbEntity
  8
Vordergrund
370
     0
100
AcDbVertex
100
AcDb2dVertex
 10
10.39299180512745
 20
30.20935329105878
 30
0.0
  0
VERTEX
  5
34E
330
33B
100
AcDbEntity
  8
Vordergrund
370
     0
100
AcDbVertex
100
AcDb2dVertex
 10
10.03642442240409
 20
30.11392414611735
 30
0.0
  0
VERTEX
  5
34F
330
33B
100
AcDbEntity
  8
Vordergrund
370
     0
100
AcDbVertex
100
AcDb2dVertex
 10
9.89552001705737
 20
29.99747991871591
 30
0.0
  0
VERTEX
  5
350
330
33B
100
AcDbEntity
  8
Vordergrund
370
     0
100
AcDbVertex
100
AcDb2dVertex
 10
9.79320068114545
 20
29.84245062187967
 30
0.0
  0
VERTEX
  5
351
330
33B
100
AcDbEntity
  8
Vordergrund
370
     0
100
AcDbVertex
100
AcDb2dVertex
 10
9.56031222634256
 20
30.06465928067828
 30
0.0
  0
VERTEX
  5
352
330
33B
100
AcDbEntity
  8
Vordergrund
370
     0
100
AcDbVertex
100
AcDb2dVertex
 10
9.246464027636302
 20
30.14561902458165
 30
0.0
  0
VERTEX
  5
353
330
33B
100
AcDbEntity
  8
Vordergrund
370
     0
100
AcDbVertex
100
AcDb2dVertex
 10
8.97120089836484
 20
30.08911945862355
 30
0.0
  0
VERTEX
  5
354
330
33B
100
AcDbEntity
  8
Vordergrund
370
     0
100
AcDbVertex
100
AcDb2dVertex
 10
8.748992239566224
 20
29.94098035275781
 30
0.0
  0
VERTEX
  5
355
330
33B
100
AcDbEntity
  8
Vordergrund
370
     0
100
AcDbVertex
100
AcDb2dVertex
 10
8.60085313370048
 20
29.7187716939592
 30
0.0
  0
VERTEX
  5
356
330
33B
100
AcDbEntity
  8
Vordergrund
370
     0
100
AcDbVertex
100
AcDb2dVertex
 10
8.547798663227635
 20
29.44729816972151
 30
0.0
  0
SEQEND
  5
357
330
33B
100
AcDbEntity
  8
Vordergrund
370
     0
  0
POLYLINE
  5
358
330
1F7
100
AcDbEntity
  8
Vordergrund
370
     0
100
AcDb2dPolyline
 66
     1
 10
0.0
 20
0.0
 30
0.0
  0
VERTEX
  5
359
330
358
100
AcDbEntity
  8
Vordergrund
370
     0
100
AcDbVertex
100
AcDb2dVertex
 10
9.913090004032144
 20
29.44729816972151
 30
0.0
  0
VERTEX
  5
35A
330
358
100
AcDbEntity
  8
Vordergrund
370
     0
100
AcDbVertex
100
AcDb2dVertex
 10
9.955464678500718
 20
29.63781195005583
 30
0.0
  0
VERTEX
  5
35B
330
358
100
AcDbEntity
  8
Vordergrund
370
     0
100
AcDbVertex
100
AcDb2dVertex
 10
10.05778401441264
 20
29.78939615140682
 30
0.0
  0
VERTEX
  5
35C
330
358
100
AcDbEntity
  8
Vordergrund
370
     0
100
AcDbVertex
100
AcDb2dVertex
 10
10.20936821576363
 20
29.89171548731874
 30
0.0
  0
VERTEX
  5
35D
330
358
100
AcDbEntity
  8
Vordergrund
370
     0
100
AcDbVertex
100
AcDb2dVertex
 10
10.3964369006127
 20
29.93064506630206
 30
0.0
  0
VERTEX
  5
35E
330
358
100
AcDbEntity
  8
Vordergrund
370
     0
100
AcDbVertex
100
AcDb2dVertex
 10
10.58350558546176
 20
29.89171548731874
 30
0.0
  0
VERTEX
  5
35F
330
358
100
AcDbEntity
  8
Vordergrund
370
     0
100
AcDbVertex
100
AcDb2dVertex
 10
10.738534882298
 20
29.78939615140682
 30
0.0
  0
VERTEX
  5
360
330
358
100
AcDbEntity
  8
Vordergrund
370
     0
100
AcDbVertex
100
AcDb2dVertex
 10
10.84085421820993
 20
29.63781195005583
 30
0.0
  0
VERTEX
  5
361
330
358
100
AcDbEntity
  8
Vordergrund
370
     0
100
AcDbVertex
100
AcDb2dVertex
 10
10.87599419215947
 20
29.44729816972151
 30
0.0
  0
VERTEX
  5
362
330
358
100
AcDbEntity
  8
Vordergrund
370
     0
100
AcDbVertex
100
AcDb2dVertex
 10
10.84085421820993
 20
29.25678438938719
 30
0.0
  0
VERTEX
  5
363
330
358
100
AcDbEntity
  8
Vordergrund
370
     0
100
AcDbVertex
100
AcDb2dVertex
 10
10.738534882298
 20
29.10141058300243
 30
0.0
  0
VERTEX
  5
364
330
358
100
AcDbEntity
  8
Vordergrund
370
     0
100
AcDbVertex
100
AcDb2dVertex
 10
10.58350558546176
 20
28.99909124709051
 30
0.0
  0
VERTEX
  5
365
330
358
100
AcDbEntity
  8
Vordergrund
370
     0
100
AcDbVertex
100
AcDb2dVertex
 10
10.3964369006127
 20
28.96395127314096
 30
0.0
  0
VERTEX
  5
366
330
358
100
AcDbEntity
  8
Vordergrund
370
     0
100
AcDbVertex
100
AcDb2dVertex
 10
10.20936821576363
 20
28.99909124709051
 30
0.0
  0
VERTEX
  5
367
330
358
100
AcDbEntity
  8
Vordergrund
370
     0
100
AcDbVertex
100
AcDb2dVertex
 10
10.05778401441264
 20
29.10141058300243
 30
0.0
  0
VERTEX
  5
368
330
358
100
AcDbEntity
  8
Vordergrund
370
     0
100
AcDbVertex
100
AcDb2dVertex
 10
9.955464678500718
 20
29.25678438938719
 30
0.0
  0
VERTEX
  5
369
330
358
100
AcDbEntity
  8
Vordergrund
370
     0
100
AcDbVertex
100
AcDb2dVertex
 10
9.913090004032144
 20
29.44729816972151
 30
0.0
  0
SEQEND
  5
36A
330
358
100
AcDbEntity
  8
Vordergrund
370
     0
  0
POLYLINE
  5
36B
330
1F7
100
AcDbEntity
  8
Vordergrund
370
     0
100
AcDb2dPolyline
 66
     1
 10
0.0
 20
0.0
 30
0.0
  0
VERTEX
  5
36C
330
36B
100
AcDbEntity
  8
Vordergrund
370
     0
100
AcDbVertex
100
AcDb2dVertex
 10
8.808936901009572
 20
29.44729816972151
 30
0.0
  0
VERTEX
  5
36D
330
36B
100
AcDbEntity
  8
Vordergrund
370
     0
100
AcDbVertex
100
AcDb2dVertex
 10
8.84407687495912
 20
29.61300726256203
 30
0.0
  0
VERTEX
  5
36E
330
36B
100
AcDbEntity
  8
Vordergrund
370
     0
100
AcDbVertex
100
AcDb2dVertex
 10
8.932271319381515
 20
29.75425617745727
 30
0.0
  0
VERTEX
  5
36F
330
36B
100
AcDbEntity
  8
Vordergrund
370
     0
100
AcDbVertex
100
AcDb2dVertex
 10
9.07352023427676
 20
29.84589571736491
 30
0.0
  0
VERTEX
  5
370
330
36B
100
AcDbEntity
  8
Vordergrund
370
     0
100
AcDbVertex
100
AcDb2dVertex
 10
9.239229327117277
 20
29.88103569131447
 30
0.0
  0
VERTEX
  5
371
330
36B
100
AcDbEntity
  8
Vordergrund
370
     0
100
AcDbVertex
100
AcDb2dVertex
 10
9.412173120476819
 20
29.84589571736491
 30
0.0
  0
VERTEX
  5
372
330
36B
100
AcDbEntity
  8
Vordergrund
370
     0
100
AcDbVertex
100
AcDb2dVertex
 10
9.549632430338287
 20
29.75425617745727
 30
0.0
  0
VERTEX
  5
373
330
36B
100
AcDbEntity
  8
Vordergrund
370
     0
100
AcDbVertex
100
AcDb2dVertex
 10
9.641271970245933
 20
29.61300726256203
 30
0.0
  0
VERTEX
  5
374
330
36B
100
AcDbEntity
  8
Vordergrund
370
     0
100
AcDbVertex
100
AcDb2dVertex
 10
9.676756453744005
 20
29.44729816972151
 30
0.0
  0
VERTEX
  5
375
330
36B
100
AcDbEntity
  8
Vordergrund
370
     0
100
AcDbVertex
100
AcDb2dVertex
 10
9.641271970245933
 20
29.27779947184722
 30
0.0
  0
VERTEX
  5
376
330
36B
100
AcDbEntity
  8
Vordergrund
370
     0
100
AcDbVertex
100
AcDb2dVertex
 10
9.549632430338287
 20
29.14034016198575
 30
0.0
  0
VERTEX
  5
377
330
36B
100
AcDbEntity
  8
Vordergrund
370
     0
100
AcDbVertex
100
AcDb2dVertex
 10
9.412173120476819
 20
29.04491101704433
 30
0.0
  0
VERTEX
  5
378
330
36B
100
AcDbEntity
  8
Vordergrund
370
     0
100
AcDbVertex
100
AcDb2dVertex
 10
9.239229327117277
 20
29.01321613858003
 30
0.0
  0
VERTEX
  5
379
330
36B
100
AcDbEntity
  8
Vordergrund
370
     0
100
AcDbVertex
100
AcDb2dVertex
 10
9.07352023427676
 20
29.04491101704433
 30
0.0
  0
VERTEX
  5
37A
330
36B
100
AcDbEntity
  8
Vordergrund
370
     0
100
AcDbVertex
100
AcDb2dVertex
 10
8.932271319381515
 20
29.14034016198575
 30
0.0
  0
VERTEX
  5
37B
330
36B
100
AcDbEntity
  8
Vordergrund
370
     0
100
AcDbVertex
100
AcDb2dVertex
 10
8.84407687495912
 20
29.27779947184722
 30
0.0
  0
VERTEX
  5
37C
330
36B
100
AcDbEntity
  8
Vordergrund
370
     0
100
AcDbVertex
100
AcDb2dVertex
 10
8.808936901009572
 20
29.44729816972151
 30
0.0
  0
SEQEND
  5
37D
330
36B
100
AcDbEntity
  8
Vordergrund
370
     0
  0
HATCH
  5
37E
330
1F7
100
AcDbEntity
  8
Vordergrund
 62
     7
100
AcDbHatch
 10
0.0
 20
0.0
 30
0.0
210
0.0
220
0.0
230
1.0
  2
SOLID
 70
     1
 71
     0
 91
        4
 92
        1
 93
       16
 72
     1
 10
8.808936901009572
 20
29.44729816972151
 11
8.84407687495912
 21
29.61300726256203
 72
     1
 10
8.84407687495912
 20
29.61300726256203
 11
8.932271319381515
 21
29.75425617745727
 72
     1
 10
8.932271319381515
 20
29.75425617745727
 11
9.07352023427676
 21
29.84589571736491
 72
     1
 10
9.07352023427676
 20
29.84589571736491
 11
9.239229327117277
 21
29.88103569131447
 72
     1
 10
9.239229327117277
 20
29.88103569131447
 11
9.412173120476819
 21
29.84589571736491
 72
     1
 10
9.412173120476819
 20
29.84589571736491
 11
9.549632430338287
 21
29.75425617745727
 72
     1
 10
9.549632430338287
 20
29.75425617745727
 11
9.641271970245933
 21
29.61300726256203
 72
     1
 10
9.641271970245933
 20
29.61300726256203
 11
9.676756453744005
 21
29.44729816972151
 72
     1
 10
9.676756453744005
 20
29.44729816972151
 11
9.641271970245933
 21
29.27779947184722
 72
     1
 10
9.641271970245933
 20
29.27779947184722
 11
9.549632430338287
 21
29.14034016198575
 72
     1
 10
9.549632430338287
 20
29.14034016198575
 11
9.412173120476819
 21
29.04491101704433
 72
     1
 10
9.412173120476819
 20
29.04491101704433
 11
9.239229327117277
 21
29.01321613858003
 72
     1
 10
9.239229327117277
 20
29.01321613858003
 11
9.07352023427676
 21
29.04491101704433
 72
     1
 10
9.07352023427676
 20
29.04491101704433
 11
8.932271319381515
 21
29.14034016198575
 72
     1
 10
8.932271319381515
 20
29.14034016198575
 11
8.84407687495912
 21
29.27779947184722
 72
     1
 10
8.84407687495912
 20
29.27779947184722
 11
8.808936901009572
 21
29.44729816972151
 97
        0
 92
        1
 93
        6
 72
     1
 10
8.851311575478144
 20
26.82247991950966
 11
11.09131265998759
 21
26.82247991950966
 72
     1
 10
11.09131265998759
 20
26.82247991950966
 11
11.09131265998759
 21
27.10118814426637
 72
     1
 10
11.09131265998759
 20
27.10118814426637
 11
8.593618433181456
 21
27.10118814426637
 72
     1
 10
8.593618433181456
 20
27.10118814426637
 11
8.593618433181456
 21
26.55445149075722
 72
     1
 10
8.593618433181456
 20
26.55445149075722
 11
8.851311575478144
 21
26.40631238489148
 72
     1
 10
8.851311575478144
 20
26.40631238489148
 11
8.851311575478144
 21
26.82247991950966
 97
        0
 92
        1
 93
       26
 72
     1
 10
8.547798663227635
 20
29.44729816972151
 11
8.60085313370048
 21
29.17203504045005
 72
     1
 10
8.60085313370048
 20
29.17203504045005
 11
8.748992239566224
 21
28.94982638165143
 72
     1
 10
8.748992239566224
 20
28.94982638165143
 11
8.97120089836484
 21
28.80168727578569
 72
     1
 10
8.97120089836484
 20
28.80168727578569
 11
9.246464027636302
 21
28.74863280531284
 72
     1
 10
9.246464027636302
 20
28.74863280531284
 11
9.56031222634256
 21
28.82614745373096
 72
     1
 10
9.56031222634256
 20
28.82614745373096
 11
9.79320068114545
 21
29.05214571756335
 72
     1
 10
9.79320068114545
 20
29.05214571756335
 11
9.89552001705737
 21
28.89332681569334
 72
     1
 10
9.89552001705737
 20
28.89332681569334
 11
10.03642442240409
 21
28.77688258829189
 72
     1
 10
10.03642442240409
 20
28.77688258829189
 11
10.39299180512745
 21
28.68524304838425
 72
     1
 10
10.39299180512745
 20
28.68524304838425
 11
10.68927001685893
 21
28.74174261434234
 72
     1
 10
10.68927001685893
 20
28.74174261434234
 11
10.92560356714707
 21
28.90400661169761
 72
     1
 10
10.92560356714707
 20
28.90400661169761
 11
11.08063286398331
 21
29.14723035295625
 72
     1
 10
11.08063286398331
 20
29.14723035295625
 11
11.13368733445616
 21
29.44729816972151
 72
     1
 10
11.13368733445616
 20
29.44729816972151
 11
11.08063286398331
 21
29.74702147693825
 72
     1
 10
11.08063286398331
 20
29.74702147693825
 11
10.92560356714707
 21
29.98680012271164
 72
     1
 10
10.92560356714707
 20
29.98680012271164
 11
10.68927001685893
 21
30.1490641200669
 72
     1
 10
10.68927001685893
 20
30.1490641200669
 11
10.39299180512745
 21
30.20935329105878
 72
     1
 10
10.39299180512745
 20
30.20935329105878
 11
10.03642442240409
 21
30.11392414611735
 72
     1
 10
10.03642442240409
 20
30.11392414611735
 11
9.89552001705737
 21
29.99747991871591
 72
     1
 10
9.89552001705737
 20
29.99747991871591
 11
9.79320068114545
 21
29.84245062187967
 72
     1
 10
9.79320068114545
 20
29.84245062187967
 11
9.56031222634256
 21
30.06465928067828
 72
     1
 10
9.56031222634256
 20
30.06465928067828
 11
9.246464027636302
 21
30.14561902458165
 72
     1
 10
9.246464027636302
 20
30.14561902458165
 11
8.97120089836484
 21
30.08911945862355
 72
     1
 10
8.97120089836484
 20
30.08911945862355
 11
8.748992239566224
 21
29.94098035275781
 72
     1
 10
8.748992239566224
 20
29.94098035275781
 11
8.60085313370048
 21
29.7187716939592
 72
     1
 10
8.60085313370048
 20
29.7187716939592
 11
8.547798663227635
 21
29.44729816972151
 97
        0
 92
        1
 93
       16
 72
     1
 10
9.913090004032144
 20
29.44729816972151
 11
9.955464678500718
 21
29.63781195005583
 72
     1
 10
9.955464678500718
 20
29.63781195005583
 11
10.05778401441264
 21
29.78939615140682
 72
     1
 10
10.05778401441264
 20
29.78939615140682
 11
10.20936821576363
 21
29.89171548731874
 72
     1
 10
10.20936821576363
 20
29.89171548731874
 11
10.3964369006127
 21
29.93064506630206
 72
     1
 10
10.3964369006127
 20
29.93064506630206
 11
10.58350558546176
 21
29.89171548731874
 72
     1
 10
10.58350558546176
 20
29.89171548731874
 11
10.738534882298
 21
29.78939615140682
 72
     1
 10
10.738534882298
 20
29.78939615140682
 11
10.84085421820993
 21
29.63781195005583
 72
     1
 10
10.84085421820993
 20
29.63781195005583
 11
10.87599419215947
 21
29.44729816972151
 72
     1
 10
10.87599419215947
 20
29.44729816972151
 11
10.84085421820993
 21
29.25678438938719
 72
     1
 10
10.84085421820993
 20
29.25678438938719
 11
10.738534882298
 21
29.10141058300243
 72
     1
 10
10.738534882298
 20
29.10141058300243
 11
10.58350558546176
 21
28.99909124709051
 72
     1
 10
10.58350558546176
 20
28.99909124709051
 11
10.3964369006127
 21
28.96395127314096
 72
     1
 10
10.3964369006127
 20
28.96395127314096
 11
10.20936821576363
 21
28.99909124709051
 72
     1
 10
10.20936821576363
 20
28.99909124709051
 11
10.05778401441264
 21
29.10141058300243
 72
     1
 10
10.05778401441264
 20
29.10141058300243
 11
9.955464678500718
 21
29.25678438938719
 72
     1
 10
9.955464678500718
 20
29.25678438938719
 11
9.913090004032144
 21
29.44729816972151
 97
        0
 75
     0
 76
     1
 98
        0
  0
POLYLINE
  5
37F
330
1F7
100
AcDbEntity
  8
Vordergrund
 62
     7
370
     5
100
AcDb2dPolyline
 66
     1
 10
0.0
 20
0.0
 30
0.0
  0
VERTEX
  5
380
330
37F
100
AcDbEntity
  8
Vordergrund
 62
     7
370
     5
100
AcDbVertex
100
AcDb2dVertex
 10
11.71590847146338
 20
23.10246581453688
 30
0.0
  0
VERTEX
  5
381
330
37F
100
AcDbEntity
  8
Vordergrund
 62
     7
370
     5
100
AcDbVertex
100
AcDb2dVertex
 10
9.218214244657252
 20
24.51702202078047
 30
0.0
  0
VERTEX
  5
382
330
37F
100
AcDbEntity
  8
Vordergrund
 62
     7
370
     5
100
AcDbVertex
100
AcDb2dVertex
 10
7.965577526220412
 20
25.22602267164488
 30
0.0
  0
SEQEND
  5
383
330
37F
100
AcDbEntity
  8
Vordergrund
370
     5
  0
POLYLINE
  5
384
330
1F7
100
AcDbEntity
  8
Vordergrund
 62
     7
370
     5
100
AcDb2dPolyline
 66
     1
 10
0.0
 20
0.0
 30
0.0
  0
VERTEX
  5
385
330
384
100
AcDbEntity
  8
Vordergrund
 62
     7
370
     5
100
AcDbVertex
100
AcDb2dVertex
 10
8.593618433181456
 20
24.30893825347138
 30
0.0
  0
VERTEX
  5
386
330
384
100
AcDbEntity
  8
Vordergrund
 62
     7
370
     5
100
AcDbVertex
100
AcDb2dVertex
 10
8.593618433181456
 20
24.05847981169372
 30
0.0
  0
VERTEX
  5
387
330
384
100
AcDbEntity
  8
Vordergrund
 62
     7
370
     5
100
AcDbVertex
100
AcDb2dVertex
 10
8.63254801216478
 20
23.8500515348361
 30
0.0
  0
VERTEX
  5
388
330
384
100
AcDbEntity
  8
Vordergrund
 62
     7
370
     5
100
AcDbVertex
100
AcDb2dVertex
 10
8.717297361101926
 20
23.64196776752701
 30
0.0
  0
VERTEX
  5
389
330
384
100
AcDbEntity
  8
Vordergrund
 62
     7
370
     5
100
AcDbVertex
100
AcDb2dVertex
 10
8.84063177947387
 20
23.43388400021792
 30
0.0
  0
VERTEX
  5
38A
330
384
100
AcDbEntity
  8
Vordergrund
 62
     7
370
     5
100
AcDbVertex
100
AcDb2dVertex
 10
9.091090221251534
 20
23.18342555844026
 30
0.0
  0
VERTEX
  5
38B
330
384
100
AcDbEntity
  8
Vordergrund
 62
     7
370
     5
100
AcDbVertex
100
AcDb2dVertex
 10
9.299173988560623
 20
23.06009114006831
 30
0.0
  0
VERTEX
  5
38C
330
384
100
AcDbEntity
  8
Vordergrund
 62
     7
370
     5
100
AcDbVertex
100
AcDb2dVertex
 10
9.507257755869714
 20
22.97534179113116
 30
0.0
  0
VERTEX
  5
38D
330
384
100
AcDbEntity
  8
Vordergrund
 62
     7
370
     5
100
AcDbVertex
100
AcDb2dVertex
 10
9.715341523178804
 20
22.93296711666259
 30
0.0
  0
VERTEX
  5
38E
330
384
100
AcDbEntity
  8
Vordergrund
 62
     7
370
     5
100
AcDbVertex
100
AcDb2dVertex
 10
9.966144474504992
 20
22.93296711666259
 30
0.0
  0
VERTEX
  5
38F
330
384
100
AcDbEntity
  8
Vordergrund
 62
     7
370
     5
100
AcDbVertex
100
AcDb2dVertex
 10
10.17422824181408
 20
22.97534179113116
 30
0.0
  0
VERTEX
  5
390
330
384
100
AcDbEntity
  8
Vordergrund
 62
     7
370
     5
100
AcDbVertex
100
AcDb2dVertex
 10
10.38231200912317
 20
23.06009114006831
 30
0.0
  0
VERTEX
  5
391
330
384
100
AcDbEntity
  8
Vordergrund
 62
     7
370
     5
100
AcDbVertex
100
AcDb2dVertex
 10
10.59039577643226
 20
23.18342555844026
 30
0.0
  0
VERTEX
  5
392
330
384
100
AcDbEntity
  8
Vordergrund
 62
     7
370
     5
100
AcDbVertex
100
AcDb2dVertex
 10
10.84085421820993
 20
23.43388400021792
 30
0.0
  0
VERTEX
  5
393
330
384
100
AcDbEntity
  8
Vordergrund
 62
     7
370
     5
100
AcDbVertex
100
AcDb2dVertex
 10
10.96797824161565
 20
23.64196776752701
 30
0.0
  0
VERTEX
  5
394
330
384
100
AcDbEntity
  8
Vordergrund
 62
     7
370
     5
100
AcDbVertex
100
AcDb2dVertex
 10
11.04893798551902
 20
23.8500515348361
 30
0.0
  0
VERTEX
  5
395
330
384
100
AcDbEntity
  8
Vordergrund
 62
     7
370
     5
100
AcDbVertex
100
AcDb2dVertex
 10
11.09131265998759
 20
24.05847981169372
 30
0.0
  0
VERTEX
  5
396
330
384
100
AcDbEntity
  8
Vordergrund
 62
     7
370
     5
100
AcDbVertex
100
AcDb2dVertex
 10
11.09131265998759
 20
24.30893825347138
 30
0.0
  0
VERTEX
  5
397
330
384
100
AcDbEntity
  8
Vordergrund
 62
     7
370
     5
100
AcDbVertex
100
AcDb2dVertex
 10
11.04893798551902
 20
24.51702202078047
 30
0.0
  0
VERTEX
  5
398
330
384
100
AcDbEntity
  8
Vordergrund
 62
     7
370
     5
100
AcDbVertex
100
AcDb2dVertex
 10
10.96797824161565
 20
24.72510578808956
 30
0.0
  0
VERTEX
  5
399
330
384
100
AcDbEntity
  8
Vordergrund
 62
     7
370
     5
100
AcDbVertex
100
AcDb2dVertex
 10
10.84085421820993
 20
24.93318955539865
 30
0.0
  0
VERTEX
  5
39A
330
384
100
AcDbEntity
  8
Vordergrund
 62
     7
370
     5
100
AcDbVertex
100
AcDb2dVertex
 10
10.59039577643226
 20
25.18364799717631
 30
0.0
  0
VERTEX
  5
39B
330
384
100
AcDbEntity
  8
Vordergrund
 62
     7
370
     5
100
AcDbVertex
100
AcDb2dVertex
 10
10.38231200912317
 20
25.31077202058203
 30
0.0
  0
VERTEX
  5
39C
330
384
100
AcDbEntity
  8
Vordergrund
 62
     7
370
     5
100
AcDbVertex
100
AcDb2dVertex
 10
10.17422824181408
 20
25.3917317644854
 30
0.0
  0
VERTEX
  5
39D
330
384
100
AcDbEntity
  8
Vordergrund
 62
     7
370
     5
100
AcDbVertex
100
AcDb2dVertex
 10
9.966144474504992
 20
25.43410643895398
 30
0.0
  0
VERTEX
  5
39E
330
384
100
AcDbEntity
  8
Vordergrund
 62
     7
370
     5
100
AcDbVertex
100
AcDb2dVertex
 10
9.715341523178804
 20
25.43410643895398
 30
0.0
  0
VERTEX
  5
39F
330
384
100
AcDbEntity
  8
Vordergrund
 62
     7
370
     5
100
AcDbVertex
100
AcDb2dVertex
 10
9.507257755869714
 20
25.3917317644854
 30
0.0
  0
VERTEX
  5
3A0
330
384
100
AcDbEntity
  8
Vordergrund
 62
     7
370
     5
100
AcDbVertex
100
AcDb2dVertex
 10
9.299173988560623
 20
25.31077202058203
 30
0.0
  0
VERTEX
  5
3A1
330
384
100
AcDbEntity
  8
Vordergrund
 62
     7
370
     5
100
AcDbVertex
100
AcDb2dVertex
 10
9.091090221251534
 20
25.18364799717631
 30
0.0
  0
VERTEX
  5
3A2
330
384
100
AcDbEntity
  8
Vordergrund
 62
     7
370
     5
100
AcDbVertex
100
AcDb2dVertex
 10
8.84063177947387
 20
24.93318955539865
 30
0.0
  0
VERTEX
  5
3A3
330
384
100
AcDbEntity
  8
Vordergrund
 62
     7
370
     5
100
AcDbVertex
100
AcDb2dVertex
 10
8.717297361101926
 20
24.72510578808956
 30
0.0
  0
VERTEX
  5
3A4
330
384
100
AcDbEntity
  8
Vordergrund
 62
     7
370
     5
100
AcDbVertex
100
AcDb2dVertex
 10
8.63254801216478
 20
24.51702202078047
 30
0.0
  0
VERTEX
  5
3A5
330
384
100
AcDbEntity
  8
Vordergrund
 62
     7
370
     5
100
AcDbVertex
100
AcDb2dVertex
 10
8.593618433181456
 20
24.30893825347138
 30
0.0
  0
SEQEND
  5
3A6
330
384
100
AcDbEntity
  8
Vordergrund
370
     5
  0
POLYLINE
  5
3A7
330
1F7
100
AcDbEntity
  8
Vordergrund
 62
     7
370
     5
100
AcDb2dPolyline
 66
     1
 10
0.0
 20
0.0
 30
0.0
  0
VERTEX
  5
3A8
330
3A7
100
AcDbEntity
  8
Vordergrund
 62
     7
370
     5
100
AcDbVertex
100
AcDb2dVertex
 10
9.842465546584522
 20
22.29665798053695
 30
0.0
  0
VERTEX
  5
3A9
330
3A7
100
AcDbEntity
  8
Vordergrund
 62
     7
370
     5
100
AcDbVertex
100
AcDb2dVertex
 10
9.842465546584522
 20
19.6084499733965
 30
0.0
  0
SEQEND
  5
3AA
330
3A7
100
AcDbEntity
  8
Vordergrund
370
     5
  0
POLYLINE
  5
3AB
330
1F7
100
AcDbEntity
  8
Vordergrund
 62
     7
370
     5
100
AcDb2dPolyline
 66
     1
 10
0.0
 20
0.0
 30
0.0
  0
VERTEX
  5
3AC
330
3AB
100
AcDbEntity
  8
Vordergrund
 62
     7
370
     5
100
AcDbVertex
100
AcDb2dVertex
 10
9.842465546584522
 20
17.4421739322714
 30
0.0
  0
VERTEX
  5
3AD
330
3AB
100
AcDbEntity
  8
Vordergrund
 62
     7
370
     5
100
AcDbVertex
100
AcDb2dVertex
 10
9.842465546584522
 20
12.94081217124396
 30
0.0
  0
SEQEND
  5
3AE
330
3AB
100
AcDbEntity
  8
Vordergrund
370
     5
  0
POLYLINE
  5
3AF
330
1F7
100
AcDbEntity
  8
Vordergrund
 62
     7
370
     5
100
AcDb2dPolyline
 66
     1
 10
0.0
 20
0.0
 30
0.0
  0
VERTEX
  5
3B0
330
3AF
100
AcDbEntity
  8
Vordergrund
 62
     7
370
     5
100
AcDbVertex
100
AcDb2dVertex
 10
9.842465546584522
 20
10.77488063966739
 30
0.0
  0
VERTEX
  5
3B1
330
3AF
100
AcDbEntity
  8
Vordergrund
 62
     7
370
     5
100
AcDbVertex
100
AcDb2dVertex
 10
9.842465546584522
 20
7.941978622146451
 30
0.0
  0
SEQEND
  5
3B2
330
3AF
100
AcDbEntity
  8
Vordergrund
370
     5
  0
POLYLINE
  5
3B3
330
1F7
100
AcDbEntity
  8
Vordergrund
 62
     7
370
     5
100
AcDb2dPolyline
 66
     1
 10
0.0
 20
0.0
 30
0.0
  0
VERTEX
  5
3B4
330
3B3
100
AcDbEntity
  8
Vordergrund
 62
     7
370
     5
100
AcDbVertex
100
AcDb2dVertex
 10
8.593618433181456
 20
19.6084499733965
 30
0.0
  0
VERTEX
  5
3B5
330
3B3
100
AcDbEntity
  8
Vordergrund
 62
     7
370
     5
100
AcDbVertex
100
AcDb2dVertex
 10
9.842465546584522
 20
17.4421739322714
 30
0.0
  0
SEQEND
  5
3B6
330
3B3
100
AcDbEntity
  8
Vordergrund
370
     5
  0
POLYLINE
  5
3B7
330
1F7
100
AcDbEntity
  8
Vordergrund
 62
     7
370
     5
100
AcDb2dPolyline
 66
     1
 10
0.0
 20
0.0
 30
0.0
  0
VERTEX
  5
3B8
330
3B7
100
AcDbEntity
  8
Vordergrund
 62
     7
370
     5
100
AcDbVertex
100
AcDb2dVertex
 10
9.842465546584522
 20
17.4421739322714
 30
0.0
  0
VERTEX
  5
3B9
330
3B7
100
AcDbEntity
  8
Vordergrund
 62
     7
370
     5
100
AcDbVertex
100
AcDb2dVertex
 10
11.09131265998759
 20
19.6084499733965
 30
0.0
  0
SEQEND
  5
3BA
330
3B7
100
AcDbEntity
  8
Vordergrund
370
     5
  0
POLYLINE
  5
3BB
330
1F7
100
AcDbEntity
  8
Vordergrund
 62
     7
370
     5
100
AcDb2dPolyline
 66
     1
 10
0.0
 20
0.0
 30
0.0
  0
VERTEX
  5
3BC
330
3BB
100
AcDbEntity
  8
Vordergrund
 62
     7
370
     5
100
AcDbVertex
100
AcDb2dVertex
 10
11.09131265998759
 20
19.6084499733965
 30
0.0
  0
VERTEX
  5
3BD
330
3BB
100
AcDbEntity
  8
Vordergrund
 62
     7
370
     5
100
AcDbVertex
100
AcDb2dVertex
 10
8.593618433181456
 20
19.6084499733965
 30
0.0
  0
SEQEND
  5
3BE
330
3BB
100
AcDbEntity
  8
Vordergrund
370
     5
  0
POLYLINE
  5
3BF
330
1F7
100
AcDbEntity
  8
Vordergrund
 62
     7
370
     5
100
AcDb2dPolyline
 66
     1
 10
0.0
 20
0.0
 30
0.0
  0
VERTEX
  5
3C0
330
3BF
100
AcDbEntity
  8
Vordergrund
 62
     7
370
     5
100
AcDbVertex
100
AcDb2dVertex
 10
11.09131265998759
 20
10.77488063966739
 30
0.0
  0
VERTEX
  5
3C1
330
3BF
100
AcDbEntity
  8
Vordergrund
 62
     7
370
     5
100
AcDbVertex
100
AcDb2dVertex
 10
9.842465546584522
 20
12.94081217124396
 30
0.0
  0
SEQEND
  5
3C2
330
3BF
100
AcDbEntity
  8
Vordergrund
370
     5
  0
POLYLINE
  5
3C3
330
1F7
100
AcDbEntity
  8
Vordergrund
 62
     7
370
     5
100
AcDb2dPolyline
 66
     1
 10
0.0
 20
0.0
 30
0.0
  0
VERTEX
  5
3C4
330
3C3
100
AcDbEntity
  8
Vordergrund
 62
     7
370
     5
100
AcDbVertex
100
AcDb2dVertex
 10
9.842465546584522
 20
12.94081217124396
 30
0.0
  0
VERTEX
  5
3C5
330
3C3
100
AcDbEntity
  8
Vordergrund
 62
     7
370
     5
100
AcDbVertex
100
AcDb2dVertex
 10
8.593618433181456
 20
10.77488063966739
 30
0.0
  0
SEQEND
  5
3C6
330
3C3
100
AcDbEntity
  8
Vordergrund
370
     5
  0
POLYLINE
  5
3C7
330
1F7
100
AcDbEntity
  8
Vordergrund
 62
     7
370
     5
100
AcDb2dPolyline
 66
     1
 10
0.0
 20
0.0
 30
0.0
  0
VERTEX
  5
3C8
330
3C7
100
AcDbEntity
  8
Vordergrund
 62
     7
370
     5
100
AcDbVertex
100
AcDb2dVertex
 10
8.593618433181456
 20
10.77488063966739
 30
0.0
  0
VERTEX
  5
3C9
330
3C7
100
AcDbEntity
  8
Vordergrund
 62
     7
370
     5
100
AcDbVertex
100
AcDb2dVertex
 10
11.09131265998759
 20
10.77488063966739
 30
0.0
  0
SEQEND
  5
3CA
330
3C7
100
AcDbEntity
  8
Vordergrund
370
     5
  0
ENDBLK
  5
1FA
330
1F7
100
AcDbEntity
  8
0
100
AcDbBlockEnd
  0
ENDSEC
  0
SECTION
  2
ENTITIES
  0
INSERT
  5
3F
330
1F
100
AcDbEntity
  8
Vordergrund
100
AcDbBlockReference
  2
block 2
 10
0.0
 20
0.0
 30
0.0
  0
INSERT
  5
8B
330
1F
100
AcDbEntity
  8
Vordergrund
100
AcDbBlockReference
  2
block 3
 10
0.0
 20
0.0
 30
0.0
  0
INSERT
  5
1F8
330
1F
100
AcDbEntity
  8
Vordergrund
100
AcDbBlockReference
  2
block 4
 10
0.0
 20
0.0
 30
0.0
  0
ENDSEC
  0
SECTION
  2
OBJECTS
  0
DICTIONARY
  5
C
330
0
100
AcDbDictionary
281
     1
  3
ACAD_GROUP
350
D
  3
ACAD_LAYOUT
350
1A
  3
ACAD_MLINESTYLE
350
17
  3
ACAD_PLOTSETTINGS
350
19
  3
ACAD_PLOTSTYLENAME
350
E
  3
ACAD_TABLESTYLE
350
3CB
  3
ACAD_VISUALSTYLE
350
2A
  0
DICTIONARY
  5
D
102
{ACAD_REACTORS
330
C
102
}
330
C
100
AcDbDictionary
281
     1
  0
DICTIONARY
  5
1A
102
{ACAD_REACTORS
330
C
102
}
330
C
100
AcDbDictionary
281
     1
  3
Layout1
350
1E
  3
Layout2
350
26
  3
Model
350
22
  0
DICTIONARY
  5
17
102
{ACAD_REACTORS
330
C
102
}
330
C
100
AcDbDictionary
281
     1
  3
Standard
350
18
  0
DICTIONARY
  5
19
102
{ACAD_REACTORS
330
C
102
}
330
C
100
AcDbDictionary
281
     1
  0
ACDBDICTIONARYWDFLT
  5
E
102
{ACAD_REACTORS
330
C
102
}
330
C
100
AcDbDictionary
281
     1
  3
Normal
350
F
100
AcDbDictionaryWithDefault
340
F
  0
DICTIONARY
  5
3CB
102
{ACAD_REACTORS
330
C
102
}
330
C
100
AcDbDictionary
281
     1
  0
DICTIONARY
  5
2A
102
{ACAD_REACTORS
330
C
102
}
330
C
100
AcDbDictionary
281
     1
  3
2dWireframe
350
2F
  3
3D Hidden
350
31
  3
3dWireframe
350
30
  3
Basic
350
32
  3
Brighten
350
36
  3
ColorChange
350
3A
  3
Conceptual
350
34
  3
Dim
350
35
  3
Facepattern
350
39
  3
Flat
350
2B
  3
FlatWithEdges
350
2C
  3
Gouraud
350
2D
  3
GouraudWithEdges
350
2E
  3
Linepattern
350
38
  3
Realistic
350
33
  3
Thicken
350
37
  0
LAYOUT
  5
1E
102
{ACAD_REACTORS
330
1A
102
}
330
1A
100
AcDbPlotSettings
  1

  2
none_device
  4

  6

 40
0.0
 41
0.0
 42
0.0
 43
0.0
 44
0.0
 45
0.0
 46
0.0
 47
0.0
 48
0.0
 49
0.0
140
0.0
141
0.0
142
1.0
143
1.0
 70
   688
 72
     0
 73
     0
 74
     5
  7

 75
    16
 76
     0
 77
     2
 78
   300
147
1.0
148
0.0
149
0.0
100
AcDbLayout
  1
Layout1
 70
     1
 71
     1
 10
0.0
 20
0.0
 11
12.0
 21
9.0
 12
0.0
 22
0.0
 32
0.0
 14
1.000000000000000E+20
 24
1.000000000000000E+20
 34
1.000000000000000E+20
 15
-1.000000000000000E+20
 25
-1.000000000000000E+20
 35
-1.000000000000000E+20
146
0.0
 13
0.0
 23
0.0
 33
0.0
 16
1.0
 26
0.0
 36
0.0
 17
0.0
 27
1.0
 37
0.0
 76
     0
330
1B
  0
LAYOUT
  5
26
102
{ACAD_REACTORS
330
1A
102
}
330
1A
100
AcDbPlotSettings
  1

  2
none_device
  4

  6

 40
0.0
 41
0.0
 42
0.0
 43
0.0
 44
0.0
 45
0.0
 46
0.0
 47
0.0
 48
0.0
 49
0.0
140
0.0
141
0.0
142
1.0
143
1.0
 70
   688
 72
     0
 73
     0
 74
     5
  7

 75
    16
 76
     0
 77
     2
 78
   300
147
1.0
148
0.0
149
0.0
100
AcDbLayout
  1
Layout2
 70
     1
 71
     2
 10
0.0
 20
0.0
 11
0.0
 21
0.0
 12
0.0
 22
0.0
 32
0.0
 14
0.0
 24
0.0
 34
0.0
 15
0.0
 25
0.0
 35
0.0
146
0.0
 13
0.0
 23
0.0
 33
0.0
 16
1.0
 26
0.0
 36
0.0
 17
0.0
 27
1.0
 37
0.0
 76
     0
330
23
  0
LAYOUT
  5
22
102
{ACAD_REACTORS
330
1A
102
}
330
1A
100
AcDbPlotSettings
  1

  2
none_device
  4

  6

 40
0.0
 41
0.0
 42
0.0
 43
0.0
 44
0.0
 45
0.0
 46
0.0
 47
0.0
 48
0.0
 49
0.0
140
0.0
141
0.0
142
1.0
143
1.0
 70
  1712
 72
     0
 73
     0
 74
     0
  7

 75
     0
 76
     0
 77
     2
 78
   300
147
1.0
148
0.0
149
0.0
100
AcDbLayout
  1
Model
 70
     1
 71
     0
 10
0.0
 20
0.0
 11
12.0
 21
9.0
 12
0.0
 22
0.0
 32
0.0
 14
1.000000000000000E+20
 24
1.000000000000000E+20
 34
1.000000000000000E+20
 15
-1.000000000000000E+20
 25
-1.000000000000000E+20
 35
-1.000000000000000E+20
146
0.0
 13
0.0
 23
0.0
 33
0.0
 16
1.0
 26
0.0
 36
0.0
 17
0.0
 27
1.0
 37
0.0
 76
     0
330
1F
331
29
  0
MLINESTYLE
  5
18
102
{ACAD_REACTORS
330
17
102
}
330
17
100
AcDbMlineStyle
  2
Standard
 70
     0
  3

 62
   256
 51
90.0
 52
90.0
 71
     2
 49
0.5
 62
   256
  6
BYLAYER
 49
-0.5
 62
   256
  6
BYLAYER
  0
ACDBPLACEHOLDER
  5
F
102
{ACAD_REACTORS
330
E
102
}
330
E
  0
VISUALSTYLE
  5
2F
102
{ACAD_REACTORS
330
2A
102
}
330
2A
100
AcDbVisualStyle
  2
2dWireframe
 70
     4
 71
     0
 72
     2
 73
     0
 90
        0
 40
-0.6
 41
-30.0
 62
     5
 63
     7
421
 16777215
 74
     1
 91
        4
 64
     7
 65
   257
 75
     1
175
     1
 42
1.0
 92
        0
 66
   257
 43
1.0
 76
     1
 77
     6
 78
     2
 67
     7
 79
     5
170
     0
171
     0
290
     0
174
     0
 93
        1
 44
0.0
173
     0
291
     0
 45
0.0
1001
ACAD
1000
AcDbSavedByObjectVersion
1070
     0
  0
VISUALSTYLE
  5
31
102
{ACAD_REACTORS
330
2A
102
}
330
2A
100
AcDbVisualStyle
  2
3D Hidden
 70
     6
 71
     1
 72
     2
 73
     2
 90
        0
 40
-0.6
 41
-30.0
 62
     5
 63
     7
421
 16777215
 74
     2
 91
        2
 64
     7
 65
   257
 75
     2
175
     1
 42
40.0
 92
        0
 66
   257
 43
1.0
 76
     1
 77
     6
 78
     2
 67
     7
 79
     3
170
     0
171
     0
290
     0
174
     0
 93
        1
 44
0.0
173
     0
291
     0
 45
0.0
1001
ACAD
1000
AcDbSavedByObjectVersion
1070
     0
  0
VISUALSTYLE
  5
30
102
{ACAD_REACTORS
330
2A
102
}
330
2A
100
AcDbVisualStyle
  2
3dWireframe
 70
     5
 71
     0
 72
     2
 73
     0
 90
        0
 40
-0.6
 41
-30.0
 62
     5
 63
     7
421
 16777215
 74
     1
 91
        4
 64
     7
 65
   257
 75
     1
175
     1
 42
1.0
 92
        0
 66
   257
 43
1.0
 76
     1
 77
     6
 78
     2
 67
     7
 79
     5
170
     0
171
     0
290
     0
174
     0
 93
        1
 44
0.0
173
     0
291
     0
 45
0.0
1001
ACAD
1000
AcDbSavedByObjectVersion
1070
     0
  0
VISUALSTYLE
  5
32
102
{ACAD_REACTORS
330
2A
102
}
330
2A
100
AcDbVisualStyle
  2
Basic
 70
     7
 71
     1
 72
     0
 73
     1
 90
        0
 40
-0.6
 41
-30.0
 62
     5
 63
     7
421
 16777215
 74
     0
 91
        4
 64
     7
 65
   257
 75
     1
175
     1
 42
1.0
 92
        8
 66
     7
 43
1.0
 76
     1
 77
     6
 78
     2
 67
     7
 79
     5
170
     0
171
     0
290
     0
174
     0
 93
        1
 44
0.0
173
     0
291
     1
 45
0.0
1001
ACAD
1000
AcDbSavedByObjectVersion
1070
     0
  0
VISUALSTYLE
  5
36
102
{ACAD_REACTORS
330
2A
102
}
330
2A
100
AcDbVisualStyle
  2
Brighten
 70
    12
 71
     2
 72
     2
 73
     0
 90
        0
 40
-0.6
 41
-30.0
 62
     5
 63
     7
421
 16777215
 74
     1
 91
        4
 64
     7
 65
   257
 75
     1
175
     1
 42
1.0
 92
        8
 66
     7
 43
1.0
 76
     1
 77
     6
 78
     2
 67
     7
 79
     5
170
     0
171
     0
290
     0
174
     0
 93
        1
 44
50.0
173
     0
291
     1
 45
0.0
1001
ACAD
1000
AcDbSavedByObjectVersion
1070
     0
  0
VISUALSTYLE
  5
3A
102
{ACAD_REACTORS
330
2A
102
}
330
2A
100
AcDbVisualStyle
  2
ColorChange
 70
    16
 71
     2
 72
     2
 73
     3
 90
        0
 40
-0.6
 41
-30.0
 62
     5
 63
     8
421
  8421504
 74
     1
 91
        4
 64
     7
 65
   257
 75
     1
175
     1
 42
1.0
 92
        8
 66
     8
424
  8421504
 43
1.0
 76
     1
 77
     6
 78
     2
 67
     7
 79
     5
170
     0
171
     0
290
     0
174
     0
 93
        1
 44
0.0
173
     0
291
     1
 45
0.0
1001
ACAD
1000
AcDbSavedByObjectVersion
1070
     0
  0
VISUALSTYLE
  5
34
102
{ACAD_REACTORS
330
2A
102
}
330
2A
100
AcDbVisualStyle
  2
Conceptual
 70
     9
 71
     3
 72
     2
 73
     0
 90
        0
 40
-0.6
 41
-30.0
 62
     5
 63
     7
421
 16777215
 74
     2
 91
        2
 64
     7
 65
   257
 75
     1
175
     1
 42
40.0
 92
        8
 66
     7
 43
1.0
 76
     1
 77
     6
 78
     2
 67
     7
 79
     3
170
     0
171
     0
290
     0
174
     0
 93
        1
 44
0.0
173
     0
291
     0
 45
0.0
1001
ACAD
1000
AcDbSavedByObjectVersion
1070
     0
  0
VISUALSTYLE
  5
35
102
{ACAD_REACTORS
330
2A
102
}
330
2A
100
AcDbVisualStyle
  2
Dim
 70
    11
 71
     2
 72
     2
 73
     0
 90
        0
 40
-0.6
 41
-30.0
 62
     5
 63
     7
421
 16777215
 74
     1
 91
        4
 64
     7
 65
   257
 75
     1
175
     1
 42
1.0
 92
        8
 66
     7
 43
1.0
 76
     1
 77
     6
 78
     2
 67
     7
 79
     5
170
     0
171
     0
290
     0
174
     0
 93
        1
 44
-50.0
173
     0
291
     1
 45
0.0
1001
ACAD
1000
AcDbSavedByObjectVersion
1070
     0
  0
VISUALSTYLE
  5
39
102
{ACAD_REACTORS
330
2A
102
}
330
2A
100
AcDbVisualStyle
  2
Facepattern
 70
    15
 71
     2
 72
     2
 73
     0
 90
        0
 40
-0.6
 41
-30.0
 62
     5
 63
     7
421
 16777215
 74
     1
 91
        4
 64
     7
 65
   257
 75
     1
175
     1
 42
1.0
 92
        8
 66
     7
 43
1.0
 76
     1
 77
     6
 78
     2
 67
     7
 79
     5
170
     0
171
     0
290
     0
174
     0
 93
        1
 44
0.0
173
     0
291
     1
 45
0.0
1001
ACAD
1000
AcDbSavedByObjectVersion
1070
     0
  0
VISUALSTYLE
  5
2B
102
{ACAD_REACTORS
330
2A
102
}
330
2A
100
AcDbVisualStyle
  2
Flat
 70
     0
 71
     2
 72
     1
 73
     1
 90
        2
 40
-0.6
 41
30.0
 62
     5
 63
     7
421
 16777215
 74
     0
 91
        4
 64
     7
 65
   257
 75
     1
175
     1
 42
1.0
 92
        8
 66
     7
 43
1.0
 76
     1
 77
     6
 78
     2
 67
     7
 79
     5
170
     0
171
     0
290
     0
174
     0
 93
       13
 44
0.0
173
     0
291
     1
 45
0.0
1001
ACAD
1000
AcDbSavedByObjectVersion
1070
     0
  0
VISUALSTYLE
  5
2C
102
{ACAD_REACTORS
330
2A
102
}
330
2A
100
AcDbVisualStyle
  2
FlatWithEdges
 70
     1
 71
     2
 72
     1
 73
     1
 90
        2
 40
-0.6
 41
30.0
 62
     5
 63
     7
421
 16777215
 74
     1
 91
        4
 64
     7
 65
   257
 75
     1
175
     1
 42
1.0
 92
        0
 66
   257
 43
1.0
 76
     1
 77
     6
 78
     2
 67
     7
 79
     5
170
     0
171
     0
290
     0
174
     0
 93
       13
 44
0.0
173
     0
291
     1
 45
0.0
1001
ACAD
1000
AcDbSavedByObjectVersion
1070
     0
  0
VISUALSTYLE
  5
2D
102
{ACAD_REACTORS
330
2A
102
}
330
2A
100
AcDbVisualStyle
  2
Gouraud
 70
     2
 71
     2
 72
     2
 73
     1
 90
        2
 40
-0.6
 41
30.0
 62
     5
 63
     7
421
 16777215
 74
     0
 91
        4
 64
     7
 65
   257
 75
     1
175
     1
 42
1.0
 92
        0
 66
     7
 43
1.0
 76
     1
 77
     6
 78
     2
 67
     7
 79
     5
170
     0
171
     0
290
     0
174
     0
 93
       13
 44
0.0
173
     0
291
     1
 45
0.0
1001
ACAD
1000
AcDbSavedByObjectVersion
1070
     0
  0
VISUALSTYLE
  5
2E
102
{ACAD_REACTORS
330
2A
102
}
330
2A
100
AcDbVisualStyle
  2
GouraudWithEdges
 70
     3
 71
     2
 72
     2
 73
     1
 90
        2
 40
-0.6
 41
30.0
 62
     5
 63
     7
421
 16777215
 74
     1
 91
        4
 64
     7
 65
   257
 75
     1
175
     1
 42
1.0
 92
        0
 66
   257
 43
1.0
 76
     1
 77
     6
 78
     2
 67
     7
 79
     5
170
     0
171
     0
290
     0
174
     0
 93
       13
 44
0.0
173
     0
291
     1
 45
0.0
1001
ACAD
1000
AcDbSavedByObjectVersion
1070
     0
  0
VISUALSTYLE
  5
38
102
{ACAD_REACTORS
330
2A
102
}
330
2A
100
AcDbVisualStyle
  2
Linepattern
 70
    14
 71
     2
 72
     2
 73
     0
 90
        0
 40
-0.6
 41
-30.0
 62
     5
 63
     7
421
 16777215
 74
     1
 91
        4
 64
     7
 65
   257
 75
     7
175
     7
 42
1.0
 92
        8
 66
     7
 43
1.0
 76
     1
 77
     6
 78
     2
 67
     7
 79
     5
170
     0
171
     0
290
     0
174
     0
 93
        1
 44
0.0
173
     0
291
     1
 45
0.0
1001
ACAD
1000
AcDbSavedByObjectVersion
1070
     0
  0
VISUALSTYLE
  5
33
102
{ACAD_REACTORS
330
2A
102
}
330
2A
100
AcDbVisualStyle
  2
Realistic
 70
     8
 71
     2
 72
     2
 73
     0
 90
        0
 40
-0.6
 41
-30.0
 62
     5
 63
     7
421
 16777215
 74
     1
 91
        0
 64
     7
 65
   257
 75
     1
175
     1
 42
1.0
 92
        8
 66
     8
424
  7895160
 43
1.0
 76
     1
 77
     6
 78
     2
 67
     7
 79
     5
170
     0
171
     0
290
     0
174
     0
 93
       13
 44
0.0
173
     0
291
     0
 45
0.0
1001
ACAD
1000
AcDbSavedByObjectVersion
1070
     0
  0
VISUALSTYLE
  5
37
102
{ACAD_REACTORS
330
2A
102
}
330
2A
100
AcDbVisualStyle
  2
Thicken
 70
    13
 71
     2
 72
     2
 73
     0
 90
        0
 40
-0.6
 41
-30.0
 62
     5
 63
     7
421
 16777215
 74
     1
 91
        4
 64
     7
 65
   257
 75
     1
175
     1
 42
1.0
 92
       12
 66
     7
 43
1.0
 76
     1
 77
     6
 78
     2
 67
     7
 79
     5
170
     0
171
     0
290
     0
174
     0
 93
        1
 44
0.0
173
     0
291
     1
 45
0.0
1001
ACAD
1000
AcDbSavedByObjectVersion
1070
     0
  0
ENDSEC
  0
EOF
