  0
SECTION
  2
HEADER
  9
$ACADVER
  1
AC1018
  9
$ACADMAINTVER
 70
     2
  9
$DWGCODEPAGE
  3
ANSI_932
  9
$INSBASE
 10
0.0
 20
0.0
 30
0.0
  9
$EXTMIN
 10
93.85941707165891
 20
107.5965009551636
 30
0.0
  9
$EXTMAX
 10
147.0359173660597
 20
217.8103906034271
 30
0.0
  9
$LIMMIN
 10
10.93611111111111
 20
80.1008816189236
  9
$LIMMAX
 10
198.4895209418402
 20
216.2527777777778
  9
$ORTHOMODE
 70
     1
  9
$REGENMODE
 70
     1
  9
$FILLMODE
 70
     1
  9
$QTEXTMODE
 70
     0
  9
$MIRRTEXT
 70
     1
  9
$LTSCALE
 40
1.0
  9
$ATTMODE
 70
     1
  9
$TEXTSIZE
 40
20.0
  9
$TRACEWID
 40
0.05
  9
$TEXTSTYLE
  7
Standard
  9
$CLAYER
  8
0
  9
$CELTYPE
  6
ByLayer
  9
$CECOLOR
 62
   256
  9
$CELTSCALE
 40
1.0
  9
$DISPSILH
 70
     0
  9
$DIMSCALE
 40
1.0
  9
$DIMASZ
 40
6.0
  9
$DIMEXO
 40
6.0
  9
$DIMDLI
 40
20.0
  9
$DIMRND
 40
0.0
  9
$DIMDLE
 40
0.0
  9
$DIMEXE
 40
6.0
  9
$DIMTP
 40
0.0
  9
$DIMTM
 40
0.0
  9
$DIMTXT
 40
10.0
  9
$DIMCEN
 40
6.0
  9
$DIMTSZ
 40
0.0
  9
$DIMTOL
 70
     0
  9
$DIMLIM
 70
     0
  9
$DIMTIH
 70
     0
  9
$DIMTOH
 70
     0
  9
$DIMSE1
 70
     0
  9
$DIMSE2
 70
     0
  9
$DIMTAD
 70
     1
  9
$DIMZIN
 70
     0
  9
$DIMBLK
  1

  9
$DIMASO
 70
     1
  9
$DIMSHO
 70
     1
  9
$DIMPOST
  1

  9
$DIMAPOST
  1

  9
$DIMALT
 70
     0
  9
$DIMALTD
 70
     2
  9
$DIMALTF
 40
25.4
  9
$DIMLFAC
 40
1.0
  9
$DIMTOFL
 70
     0
  9
$DIMTVP
 40
0.0
  9
$DIMTIX
 70
     0
  9
$DIMSOXD
 70
     0
  9
$DIMSAH
 70
     0
  9
$DIMBLK1
  1

  9
$DIMBLK2
  1

  9
$DIMSTYLE
  2
Standard
  9
$DIMCLRD
 70
     0
  9
$DIMCLRE
 70
     0
  9
$DIMCLRT
 70
     0
  9
$DIMTFAC
 40
1.0
  9
$DIMGAP
 40
4.0
  9
$DIMJUST
 70
     0
  9
$DIMSD1
 70
     0
  9
$DIMSD2
 70
     0
  9
$DIMTOLJ
 70
     1
  9
$DIMTZIN
 70
     0
  9
$DIMALTZ
 70
     0
  9
$DIMALTTZ
 70
     0
  9
$DIMUPT
 70
     0
  9
$DIMDEC
 70
     0
  9
$DIMTDEC
 70
     0
  9
$DIMALTU
 70
     2
  9
$DIMALTTD
 70
     2
  9
$DIMTXSTY
  7
Standard
  9
$DIMAUNIT
 70
     0
  9
$DIMADEC
 70
     0
  9
$DIMALTRND
 40
0.0
  9
$DIMAZIN
 70
     0
  9
$DIMDSEP
 70
     0
  9
$DIMATFIT
 70
     3
  9
$DIMFRAC
 70
     0
  9
$DIMLDRBLK
  1

  9
$DIMLUNIT
 70
     2
  9
$DIMLWD
 70
     0
  9
$DIMLWE
 70
     0
  9
$DIMTMOVE
 70
     1
  9
$LUNITS
 70
     2
  9
$LUPREC
 70
     4
  9
$SKETCHINC
 40
0.1
  9
$FILLETRAD
 40
0.0
  9
$AUNITS
 70
     0
  9
$AUPREC
 70
     0
  9
$MENU
  1
acad
  9
$ELEVATION
 40
0.0
  9
$PELEVATION
 40
0.0
  9
$THICKNESS
 40
0.0
  9
$LIMCHECK
 70
     0
  9
$CHAMFERA
 40
0.0
  9
$CHAMFERB
 40
0.0
  9
$CHAMFERC
 40
0.0
  9
$CHAMFERD
 40
0.0
  9
$SKPOLY
 70
     0
  9
$TDCREATE
 40
2455488.924574931
  9
$TDUCREATE
 40
2455488.549574931
  9
$TDUPDATE
 40
2455569.671412674
  9
$TDUUPDATE
 40
2455569.296412674
  9
$TDINDWG
 40
0.1357176389
  9
$TDUSRTIMER
 40
0.1357171065
  9
$USRTIMER
 70
     1
  9
$ANGBASE
 50
0.0
  9
$ANGDIR
 70
     0
  9
$PDMODE
 70
     0
  9
$PDSIZE
 40
0.0
  9
$PLINEWID
 40
0.0
  9
$SPLFRAME
 70
     0
  9
$SPLINETYPE
 70
     6
  9
$SPLINESEGS
 70
     8
  9
$HANDSEED
  5
EF10
  9
$SURFTAB1
 70
     6
  9
$SURFTAB2
 70
     6
  9
$SURFTYPE
 70
     6
  9
$SURFU
 70
     6
  9
$SURFV
 70
     6
  9
$UCSBASE
  2

  9
$UCSNAME
  2

  9
$UCSORG
 10
0.0
 20
0.0
 30
0.0
  9
$UCSXDIR
 10
1.0
 20
0.0
 30
0.0
  9
$UCSYDIR
 10
0.0
 20
1.0
 30
0.0
  9
$UCSORTHOREF
  2

  9
$UCSORTHOVIEW
 70
     0
  9
$UCSORGTOP
 10
0.0
 20
0.0
 30
0.0
  9
$UCSORGBOTTOM
 10
0.0
 20
0.0
 30
0.0
  9
$UCSORGLEFT
 10
0.0
 20
0.0
 30
0.0
  9
$UCSORGRIGHT
 10
0.0
 20
0.0
 30
0.0
  9
$UCSORGFRONT
 10
0.0
 20
0.0
 30
0.0
  9
$UCSORGBACK
 10
0.0
 20
0.0
 30
0.0
  9
$PUCSBASE
  2

  9
$PUCSNAME
  2

  9
$PUCSORG
 10
0.0
 20
0.0
 30
0.0
  9
$PUCSXDIR
 10
1.0
 20
0.0
 30
0.0
  9
$PUCSYDIR
 10
0.0
 20
1.0
 30
0.0
  9
$PUCSORTHOREF
  2

  9
$PUCSORTHOVIEW
 70
     0
  9
$PUCSORGTOP
 10
0.0
 20
0.0
 30
0.0
  9
$PUCSORGBOTTOM
 10
0.0
 20
0.0
 30
0.0
  9
$PUCSORGLEFT
 10
0.0
 20
0.0
 30
0.0
  9
$PUCSORGRIGHT
 10
0.0
 20
0.0
 30
0.0
  9
$PUCSORGFRONT
 10
0.0
 20
0.0
 30
0.0
  9
$PUCSORGBACK
 10
0.0
 20
0.0
 30
0.0
  9
$USERI1
 70
     0
  9
$USERI2
 70
     0
  9
$USERI3
 70
     0
  9
$USERI4
 70
     0
  9
$USERI5
 70
     0
  9
$USERR1
 40
0.0
  9
$USERR2
 40
0.0
  9
$USERR3
 40
0.0
  9
$USERR4
 40
0.0
  9
$USERR5
 40
0.0
  9
$WORLDVIEW
 70
     1
  9
$SHADEDGE
 70
     3
  9
$SHADEDIF
 70
    70
  9
$TILEMODE
 70
     1
  9
$MAXACTVP
 70
    16
  9
$PINSBASE
 10
0.0
 20
0.0
 30
0.0
  9
$PLIMCHECK
 70
     0
  9
$PEXTMIN
 10
1.000000000000000E+20
 20
1.000000000000000E+20
 30
1.000000000000000E+20
  9
$PEXTMAX
 10
-1.000000000000000E+20
 20
-1.000000000000000E+20
 30
-1.000000000000000E+20
  9
$PLIMMIN
 10
0.0
 20
0.0
  9
$PLIMMAX
 10
12.0
 20
9.0
  9
$UNITMODE
 70
     0
  9
$VISRETAIN
 70
     0
  9
$PLINEGEN
 70
     1
  9
$PSLTSCALE
 70
     0
  9
$TREEDEPTH
 70
  3020
  9
$CMLSTYLE
  2
Standard
  9
$CMLJUST
 70
     0
  9
$CMLSCALE
 40
1.0
  9
$PROXYGRAPHICS
 70
     0
  9
$MEASUREMENT
 70
     1
  9
$CELWEIGHT
370
    -1
  9
$ENDCAPS
280
     0
  9
$JOINSTYLE
280
     0
  9
$LWDISPLAY
290
     0
  9
$INSUNITS
 70
     0
  9
$HYPERLINKBASE
  1

  9
$STYLESHEET
  1

  9
$XEDIT
290
     1
  9
$CEPSNTYPE
380
     0
  9
$PSTYLEMODE
290
     1
  9
$FINGERPRINTGUID
  2

  9
$VERSIONGUID
  2
{5EDA1F73-1F4D-45FD-A7C7-E98EC47EA7D1}
  9
$EXTNAMES
290
     1
  9
$PSVPSCALE
 40
0.0
  9
$OLESTARTUP
290
     0
  9
$SORTENTS
280
   127
  9
$INDEXCTL
280
     0
  9
$HIDETEXT
280
     0
  9
$XCLIPFRAME
290
     0
  9
$HALOGAP
280
     0
  9
$OBSCOLOR
 70
   257
  9
$OBSLTYPE
280
     0
  9
$INTERSECTIONDISPLAY
280
     0
  9
$INTERSECTIONCOLOR
 70
   257
  9
$DIMASSOC
280
     1
  9
$PROJECTNAME
  1

  0
ENDSEC
  0
SECTION
  2
CLASSES
  0
CLASS
  1
IMAGE
  2
AcDbRasterImage
  3
ISM
 90
      127
 91
        0
280
     0
281
     1
  0
CLASS
  1
DICTIONARYVAR
  2
AcDbDictionaryVar
  3
ObjectDBX Classes
 90
        0
 91
        2
280
     0
281
     0
  0
CLASS
  1
RASTERVARIABLES
  2
AcDbRasterVariables
  3
ISM
 90
        0
 91
        0
280
     0
281
     0
  0
CLASS
  1
IMAGEDEF
  2
AcDbRasterImageDef
  3
ISM
 90
        0
 91
        0
280
     0
281
     0
  0
CLASS
  1
IMAGEDEF_REACTOR
  2
AcDbRasterImageDefReactor
  3
ISM
 90
        1
 91
        0
280
     0
281
     0
  0
CLASS
  1
IDBUFFER
  2
AcDbIdBuffer
  3
ObjectDBX Classes
 90
        0
 91
        0
280
     0
281
     0
  0
CLASS
  1
SPATIAL_FILTER
  2
AcDbSpatialFilter
  3
ObjectDBX Classes
 90
        0
 91
        0
280
     0
281
     0
  0
CLASS
  1
SORTENTSTABLE
  2
AcDbSortentsTable
  3
ObjectDBX Classes
 90
        0
 91
        0
280
     0
281
     0
  0
CLASS
  1
LAYER_INDEX
  2
AcDbLayerIndex
  3
ObjectDBX Classes
 90
        0
 91
        0
280
     0
281
     0
  0
CLASS
  1
SPATIAL_INDEX
  2
AcDbSpatialIndex
  3
ObjectDBX Classes
 90
        0
 91
        0
280
     0
281
     0
  0
CLASS
  1
OBJECT_PTR
  2
CAseDLPNTableRecord
  3
"ASE-LPNTableRecord"
 90
        1
 91
        0
280
     0
281
     0
  0
CLASS
  1
PLOTSETTINGS
  2
AcDbPlotSettings
  3
ObjectDBX Classes
 90
        0
 91
        0
280
     0
281
     0
  0
CLASS
  1
ACDBDICTIONARYWDFLT
  2
AcDbDictionaryWithDefault
  3
ObjectDBX Classes
 90
        0
 91
        1
280
     0
281
     0
  0
CLASS
  1
WIPEOUT
  2
AcDbWipeout
  3
"WipeOut|Product Desc: Object Enabler for WipeOut entity^I^I^I^I^I^I|Company: Autodesk, Inc.^I^I^I^I^I^I|WEB Address: www.autodesk.com"
 90
      127
 91
        0
280
     0
281
     1
  0
CLASS
  1
WIPEOUTVARIABLES
  2
AcDbWipeoutVariables
  3
"WipeOut|Product Desc:     WipeOut Dbx Application|Company:          Autodesk, Inc.|WEB Address:      www.autodesk.com"
 90
        0
 91
        1
280
     0
281
     0
  0
CLASS
  1
RTEXT
  2
RText
  3
RText|AutoCAD Express Tool|expresstools@autodesk.com
 90
        0
 91
        0
280
     0
281
     1
  0
CLASS
  1
ARCALIGNEDTEXT
  2
AcDbArcAlignedText
  3
ATEXT|AutoCAD Express Tool|expresstools@autodesk.com
 90
        0
 91
        0
280
     0
281
     1
  0
ENDSEC
  0
SECTION
  2
TABLES
  0
TABLE
  2
VPORT
  5
7
330
0
100
AcDbSymbolTable
 70
     2
  0
VPORT
  5
EF0F
330
7
100
AcDbSymbolTableRecord
100
AcDbViewportTableRecord
  2
*Active
 70
     0
 10
0.0
 20
0.0
 11
1.0
 21
1.0
 12
120.445770438755
 22
162.704950211487
 13
0.0
 23
0.0
 14
1.0
 24
1.0
 15
0.0
 25
0.0
 16
0.0
 26
0.0
 36
1.0
 17
0.0
 27
0.0
 37
0.0
 40
111.1198367562596
 41
1.63550135501355
 42
50.0
 43
0.0
 44
0.0
 50
0.0
 51
0.0
 71
     0
 72
   100
 73
     1
 74
     1
 75
     0
 76
     0
 77
     0
 78
     0
281
     0
 65
     0
110
0.0
120
0.0
130
0.0
111
1.0
121
0.0
131
0.0
112
0.0
122
1.0
132
0.0
 79
     0
146
0.0
  0
ENDTAB
  0
TABLE
  2
LTYPE
  5
4
330
0
100
AcDbSymbolTable
 70
     2
  0
LTYPE
  5
11
330
4
100
AcDbSymbolTableRecord
100
AcDbLinetypeTableRecord
  2
ByBlock
 70
     0
  3

 72
    65
 73
     0
 40
0.0
  0
LTYPE
  5
12
330
4
100
AcDbSymbolTableRecord
100
AcDbLinetypeTableRecord
  2
ByLayer
 70
     0
  3

 72
    65
 73
     0
 40
0.0
  0
LTYPE
  5
13
330
4
100
AcDbSymbolTableRecord
100
AcDbLinetypeTableRecord
  2
Continuous
 70
     0
  3
Solid line
 72
    65
 73
     0
 40
0.0
  0
ENDTAB
  0
TABLE
  2
LAYER
  5
2
330
0
100
AcDbSymbolTable
 70
     4
  0
LAYER
  5
14
330
2
100
AcDbSymbolTableRecord
100
AcDbLayerTableRecord
  2
0
 70
     0
 62
     7
  6
Continuous
370
    -3
390
1D
  0
LAYER
  5
1DF4
330
2
100
AcDbSymbolTableRecord
100
AcDbLayerTableRecord
  2
Defpoints
 70
     0
 62
     7
  6
Continuous
290
     0
370
    -3
390
1D
  0
ENDTAB
  0
TABLE
  2
STYLE
  5
3
330
0
100
AcDbSymbolTable
 70
     6
  0
STYLE
  5
17
330
3
100
AcDbSymbolTableRecord
100
AcDbTextStyleTableRecord
  2
Standard
 70
     0
 40
0.0
 41
1.0
 50
0.0
 71
     0
 42
20.0
  3

  4

1001
ACAD
1000
MS Gothic
1071
    32817
  0
ENDTAB
  0
TABLE
  2
VIEW
  5
5
330
0
100
AcDbSymbolTable
 70
     0
  0
ENDTAB
  0
TABLE
  2
UCS
  5
6
330
0
100
AcDbSymbolTable
 70
     0
  0
ENDTAB
  0
TABLE
  2
APPID
  5
8
330
0
100
AcDbSymbolTable
 70
     1
  0
APPID
  5
16
330
8
100
AcDbSymbolTableRecord
100
AcDbRegAppTableRecord
  2
ACAD
 70
     0
  0
ENDTAB
  0
TABLE
  2
DIMSTYLE
  5
9
330
0
100
AcDbSymbolTable
 70
     1
100
AcDbDimStyleTable
 71
     1
340
18
  0
DIMSTYLE
105
18
330
9
100
AcDbSymbolTableRecord
100
AcDbDimStyleTableRecord
  2
Standard
 70
     0
289
     0
340
17
  0
ENDTAB
  0
TABLE
  2
BLOCK_RECORD
  5
1
330
0
100
AcDbSymbolTable
 70
     2
  0
BLOCK_RECORD
  5
A
330
1
100
AcDbSymbolTableRecord
100
AcDbBlockTableRecord
  2
*MODEL_SPACE
340
20
  0
BLOCK_RECORD
  5
B
330
1
100
AcDbSymbolTableRecord
100
AcDbBlockTableRecord
  2
*PAPER_SPACE
340
21
  0
ENDTAB
  0
ENDSEC
  0
SECTION
  2
BLOCKS
  0
BLOCK
  5
D
330
A
100
AcDbEntity
  8
0
100
AcDbBlockBegin
  2
*MODEL_SPACE
 70
     0
 10
0.0
 20
0.0
 30
0.0
  3
*MODEL_SPACE
  1

  0
ENDBLK
  5
E
330
A
100
AcDbEntity
  8
0
100
AcDbBlockEnd
  0
BLOCK
  5
F
330
B
100
AcDbEntity
 67
     1
  8
0
100
AcDbBlockBegin
  2
*PAPER_SPACE
 70
     0
 10
0.0
 20
0.0
 30
0.0
  3
*PAPER_SPACE
  1

  0
ENDBLK
  5
10
330
B
100
AcDbEntity
 67
     1
  8
0
100
AcDbBlockEnd
  0
ENDSEC
  0
SECTION
  2
ENTITIES
  0
TEXT
  5
EE1D
330
A
100
AcDbEntity
  8
0
100
AcDbText
 10
117.0176432543846
 20
124.772111396139
 30
0.0
 40
3.0
  1
水栓側に接続
 41
0.7
 11
117.0176432543846
 21
126.272111396139
 31
0.0
100
AcDbText
 73
     2
  0
TEXT
  5
EE1E
330
A
100
AcDbEntity
  8
0
100
AcDbText
 10
117.0176432543846
 20
175.0812639464598
 30
0.0
 40
3.0
  1
ハンドシャワー側に接続
 41
0.7
 11
117.0176432543846
 21
176.5812639464598
 31
0.0
100
AcDbText
 73
     2
  0
TEXT
  5
EE1F
330
A
100
AcDbEntity
  8
0
100
AcDbText
 10
111.1719782128113
 20
212.7001392005368
 30
0.0
 40
3.0
  1
R12
 50
35.7375948659651
 41
0.7
 11
110.2958673062454
 21
213.9176898891721
 31
0.0
100
AcDbText
 73
     2
  0
TEXT
  5
EE20
330
A
100
AcDbEntity
  8
0
100
AcDbText
 10
112.4454847799922
 20
158.4620664278132
 30
0.0
 40
3.0
  1
φ15
 41
0.7
 11
112.4454847799922
 21
159.9620664278132
 31
0.0
100
AcDbText
 73
     2
  0
TEXT
  5
EE21
330
A
100
AcDbEntity
  8
0
100
AcDbText
 10
117.0176432543846
 20
187.6974912325007
 30
0.0
 40
3.0
  1
G1/2"
 41
0.7
 11
117.0176432543846
 21
189.1974912325007
 31
0.0
100
AcDbText
 73
     2
  0
TEXT
  5
EE22
330
A
100
AcDbEntity
  8
0
100
AcDbText
 10
117.0176432543846
 20
108.1447243054174
 30
0.0
 40
3.0
  1
G1/2"
 41
0.7
 11
117.0176432543846
 21
109.6447243054174
 31
0.0
100
AcDbText
 73
     2
  0
TEXT
  5
EE23
330
A
100
AcDbEntity
  8
0
100
AcDbText
 10
128.5998820239158
 20
147.0574223305909
 30
0.0
 40
3.0
  1
L=1750
 41
0.7
 11
128.5998820239158
 21
148.557422330591
 31
0.0
100
AcDbText
 73
     2
  0
POLYLINE
  5
EE24
330
A
100
AcDbEntity
  8
0
100
AcDb2dPolyline
 66
     1
 10
0.0
 20
0.0
 30
0.0
  0
VERTEX
  5
EE25
330
EE24
100
AcDbEntity
  8
0
100
AcDbVertex
100
AcDb2dVertex
 10
106.5086019132388
 20
211.447984939098
 30
0.0
  0
VERTEX
  5
EE26
330
EE24
100
AcDbEntity
  8
0
100
AcDbVertex
100
AcDb2dVertex
 10
105.4163343893672
 20
210.4065325736466
 30
0.0
  0
VERTEX
  5
EE27
330
EE24
100
AcDbEntity
  8
0
100
AcDbVertex
100
AcDb2dVertex
 10
106.7626777053394
 20
211.1430939885771
 30
0.0
  0
SEQEND
  5
EE28
330
EE24
100
AcDbEntity
  8
0
  0
LINE
  5
EE29
330
A
100
AcDbEntity
  8
0
100
AcDbLine
 10
105.4163343893672
 20
210.4065325736466
 30
0.0
 11
108.6724663880652
 21
212.7495420137507
 31
0.0
  0
LINE
  5
EE2A
330
A
100
AcDbEntity
  8
0
100
AcDbLine
 10
100.6665812426658
 20
213.0227380857994
 30
0.0
 11
100.6665812426658
 21
213.5307174152264
 31
0.0
  0
LINE
  5
EE2B
330
A
100
AcDbEntity
  8
0
100
AcDbLine
 10
100.6665812426658
 20
202.8626347329347
 30
0.0
 11
100.6665812426658
 21
210.9906485133167
 31
0.0
  0
LINE
  5
EE2C
330
A
100
AcDbEntity
  8
0
100
AcDbLine
 10
100.6665812426658
 20
200.3227380857993
 30
0.0
 11
100.6665812426658
 21
200.8307174152264
 31
0.0
  0
LINE
  5
EE2D
330
A
100
AcDbEntity
  8
0
100
AcDbLine
 10
106.5594170716589
 20
206.9266416231257
 30
0.0
 11
107.067396401086
 21
206.9266416231257
 31
0.0
  0
LINE
  5
EE2E
330
A
100
AcDbEntity
  8
0
100
AcDbLine
 10
96.39948597356864
 20
206.9266416231257
 30
0.0
 11
104.5273274991763
 21
206.9266416231257
 31
0.0
  0
LINE
  5
EE2F
330
A
100
AcDbEntity
  8
0
100
AcDbLine
 10
93.85941707165891
 20
206.9266416231257
 30
0.0
 11
94.36739640108601
 21
206.9266416231257
 31
0.0
  0
SPLINE
  5
EE30
330
A
100
AcDbEntity
  8
0
100
AcDbSpline
210
0.0
220
0.0
230
1.0
 70
    11
 71
     3
 72
    41
 73
    37
 74
     0
 42
0.0000000001
 43
0.0000000001
 40
0.0
 40
0.0
 40
0.0
 40
0.0
 40
1.0
 40
1.0
 40
1.0
 40
2.0
 40
2.0
 40
2.0
 40
3.0
 40
3.0
 40
3.0
 40
4.0
 40
4.0
 40
4.0
 40
5.0
 40
5.0
 40
5.0
 40
6.0
 40
6.0
 40
6.0
 40
7.0
 40
7.0
 40
7.0
 40
8.0
 40
8.0
 40
8.0
 40
9.0
 40
9.0
 40
9.0
 40
10.0
 40
10.0
 40
10.0
 40
11.0
 40
11.0
 40
11.0
 40
12.0
 40
12.0
 40
12.0
 40
12.0
 10
102.6478556567283
 20
206.9266416231257
 30
0.0
 10
102.6478556567283
 20
207.613421408282
 30
0.0
 10
102.1366034865895
 20
208.4014870007299
 30
0.0
 10
101.5302666810339
 20
208.7046554035077
 30
0.0
 10
101.5302666810339
 20
208.7046554035077
 30
0.0
 10
101.0729302552526
 20
208.8402199108862
 30
0.0
 10
101.0729302552526
 20
208.8402199108862
 30
0.0
 10
100.9838745369367
 20
208.8665748913549
 30
0.0
 10
100.9373657478742
 20
208.9079160371882
 30
0.0
 10
100.8443481697492
 20
208.9079160371882
 30
0.0
 10
100.0585218893672
 20
208.9079160371882
 30
0.0
 10
99.16865372530475
 20
208.5186202472577
 30
0.0
 10
98.88012697834296
 20
207.7395119030736
 30
0.0
 10
98.88012697834296
 20
207.7395119030736
 30
0.0
 10
98.71080053520058
 20
207.2821754772924
 30
0.0
 10
98.71080053520058
 20
207.2821754772924
 30
0.0
 10
98.71080053520058
 20
207.2821754772924
 30
0.0
 10
98.71080053520058
 20
206.5711077689591
 30
0.0
 10
98.71080053520058
 20
206.5711077689591
 30
0.0
 10
98.71080053520058
 20
206.5711077689591
 30
0.0
 10
98.88012697834296
 20
206.1139435979521
 30
0.0
 10
98.88012697834296
 20
206.1139435979521
 30
0.0
 10
99.16865372530475
 20
205.3346629989938
 30
0.0
 10
100.0585218893672
 20
204.9455394638375
 30
0.0
 10
100.8443481697492
 20
204.9455394638375
 30
0.0
 10
100.9373657478742
 20
204.9455394638375
 30
0.0
 10
100.9838745369367
 20
204.9868806096709
 30
0.0
 10
101.0729302552526
 20
205.0132355901396
 30
0.0
 10
101.0729302552526
 20
205.0132355901396
 30
0.0
 10
101.5302666810339
 20
205.1486278427438
 30
0.0
 10
101.5302666810339
 20
205.1486278427438
 30
0.0
 10
102.1367757413637
 20
205.4519685002959
 30
0.0
 10
102.6478556567283
 20
206.2400340927438
 30
0.0
 10
102.6478556567283
 20
206.9266416231257
 30
0.0
 10
102.6478556567283
 20
206.9266416231257
 30
0.0
 10
102.6478556567283
 20
206.9266416231257
 30
0.0
 10
102.6478556567283
 20
206.9266416231257
 30
0.0
  0
SPLINE
  5
EE31
330
A
100
AcDbEntity
  8
0
100
AcDbSpline
210
0.0
220
0.0
230
1.0
 70
    11
 71
     3
 72
    44
 73
    40
 74
     0
 42
0.0000000001
 43
0.0000000001
 40
0.0
 40
0.0
 40
0.0
 40
0.0
 40
1.0
 40
1.0
 40
1.0
 40
2.0
 40
2.0
 40
2.0
 40
3.0
 40
3.0
 40
3.0
 40
4.0
 40
4.0
 40
4.0
 40
5.0
 40
5.0
 40
5.0
 40
6.0
 40
6.0
 40
6.0
 40
7.0
 40
7.0
 40
7.0
 40
8.0
 40
8.0
 40
8.0
 40
9.0
 40
9.0
 40
9.0
 40
10.0
 40
10.0
 40
10.0
 40
11.0
 40
11.0
 40
11.0
 40
12.0
 40
12.0
 40
12.0
 40
13.0
 40
13.0
 40
13.0
 40
13.0
 10
102.8001288772145
 20
206.9266416231257
 30
0.0
 10
102.8001288772145
 20
207.6242734590632
 30
0.0
 10
102.33986412027
 20
208.4290477646188
 30
0.0
 10
101.7333550599401
 20
208.7807920137507
 30
0.0
 10
101.7333550599401
 20
208.7807920137507
 30
0.0
 10
101.2593099210512
 20
208.9502907116674
 30
0.0
 10
101.2593099210512
 20
208.9502907116674
 30
0.0
 10
101.1668091072492
 20
208.9831913735598
 30
0.0
 10
101.1203003181867
 20
209.0348678058514
 30
0.0
 10
101.0222873516068
 20
209.0348678058514
 30
0.0
 10
101.0222873516068
 20
209.0348678058514
 30
0.0
 10
100.2855536819019
 20
209.0348678058514
 30
0.0
 10
100.2855536819019
 20
209.0348678058514
 30
0.0
 10
100.2855536819019
 20
209.0348678058514
 30
0.0
 10
99.82838951089505
 20
208.8655413627091
 30
0.0
 10
99.82838951089505
 20
208.8655413627091
 30
0.0
 10
99.06616213459294
 20
208.5832157876223
 30
0.0
 10
98.53303360811723
 20
207.7372725910077
 30
0.0
 10
98.53303360811723
 20
206.9266416231257
 30
0.0
 10
98.53303360811723
 20
206.1160106552438
 30
0.0
 10
99.06616213459294
 20
205.2700674586292
 30
0.0
 10
99.82838951089505
 20
204.9877418835424
 30
0.0
 10
99.82838951089505
 20
204.9877418835424
 30
0.0
 10
100.2855536819019
 20
204.8185876951744
 30
0.0
 10
100.2855536819019
 20
204.8185876951744
 30
0.0
 10
100.2855536819019
 20
204.8185876951744
 30
0.0
 10
101.0222873516068
 20
204.8185876951744
 30
0.0
 10
101.0222873516068
 20
204.8185876951744
 30
0.0
 10
101.1203003181867
 20
204.8185876951744
 30
0.0
 10
101.1668091072492
 20
204.8700918726917
 30
0.0
 10
101.2593099210512
 20
204.9029925345841
 30
0.0
 10
101.2593099210512
 20
204.9029925345841
 30
0.0
 10
101.7333550599401
 20
205.0724912325007
 30
0.0
 10
101.7333550599401
 20
205.0724912325007
 30
0.0
 10
102.33986412027
 20
205.4242354816327
 30
0.0
 10
102.8001288772145
 20
206.2291820419625
 30
0.0
 10
102.8001288772145
 20
206.9266416231257
 30
0.0
 10
102.8001288772145
 20
206.9266416231257
 30
0.0
 10
102.8001288772145
 20
206.9266416231257
 30
0.0
 10
102.8001288772145
 20
206.9266416231257
 30
0.0
  0
SPLINE
  5
EE32
330
A
100
AcDbEntity
  8
0
100
AcDbSpline
210
0.0
220
0.0
230
1.0
 70
    11
 71
     3
 72
    35
 73
    31
 74
     0
 42
0.0000000001
 43
0.0000000001
 40
0.0
 40
0.0
 40
0.0
 40
0.0
 40
1.0
 40
1.0
 40
1.0
 40
2.0
 40
2.0
 40
2.0
 40
3.0
 40
3.0
 40
3.0
 40
4.0
 40
4.0
 40
4.0
 40
5.0
 40
5.0
 40
5.0
 40
6.0
 40
6.0
 40
6.0
 40
7.0
 40
7.0
 40
7.0
 40
8.0
 40
8.0
 40
8.0
 40
9.0
 40
9.0
 40
9.0
 40
10.0
 40
10.0
 40
10.0
 40
10.0
 10
103.054204669315
 20
206.9266416231257
 30
0.0
 10
103.054204669315
 20
208.3715146700007
 30
0.0
 10
101.8287842049054
 20
209.314265049775
 30
0.0
 10
100.4633206089853
 20
209.314265049775
 30
0.0
 10
99.7963501228742
 20
209.314265049775
 30
0.0
 10
98.86582983207558
 20
208.6422991752091
 30
0.0
 10
98.55835505994015
 20
208.0697243054174
 30
0.0
 10
98.55835505994015
 20
208.0697243054174
 30
0.0
 10
98.38902861679779
 20
207.5617449759903
 30
0.0
 10
98.38902861679779
 20
207.5617449759903
 30
0.0
 10
98.35612795490543
 20
207.4626984807646
 30
0.0
 10
98.30445152261377
 20
207.4120555771188
 30
0.0
 10
98.30445152261377
 20
207.3076691838896
 30
0.0
 10
98.30445152261377
 20
207.3076691838896
 30
0.0
 10
98.30445152261377
 20
206.5202926105389
 30
0.0
 10
98.30445152261377
 20
206.5202926105389
 30
0.0
 10
98.30445152261377
 20
206.4190068032473
 30
0.0
 10
98.35612795490543
 20
206.3706032116674
 30
0.0
 10
98.38902861679779
 20
206.2748295571535
 30
0.0
 10
98.38902861679779
 20
206.2748295571535
 30
0.0
 10
98.55835505994015
 20
205.7835589408341
 30
0.0
 10
98.55835505994015
 20
205.7835589408341
 30
0.0
 10
98.87220325872489
 20
205.2102950519452
 30
0.0
 10
99.79083797009643
 20
204.5391904512507
 30
0.0
 10
100.4633206089853
 20
204.5391904512507
 30
0.0
 10
101.8339518481346
 20
204.5391904512507
 30
0.0
 10
103.054204669315
 20
205.4797015189591
 30
0.0
 10
103.054204669315
 20
206.9266416231257
 30
0.0
 10
103.054204669315
 20
206.9266416231257
 30
0.0
 10
103.054204669315
 20
206.9266416231257
 30
0.0
 10
103.054204669315
 20
206.9266416231257
 30
0.0
  0
SPLINE
  5
EE33
330
A
100
AcDbEntity
  8
0
100
AcDbSpline
210
0.0
220
0.0
230
1.0
 70
     8
 71
     3
 72
    29
 73
    25
 74
     0
 42
0.0000000001
 43
0.0000000001
 40
0.0
 40
0.0
 40
0.0
 40
0.0
 40
1.0
 40
1.0
 40
1.0
 40
2.0
 40
2.0
 40
2.0
 40
3.0
 40
3.0
 40
3.0
 40
4.0
 40
4.0
 40
4.0
 40
5.0
 40
5.0
 40
5.0
 40
6.0
 40
6.0
 40
6.0
 40
7.0
 40
7.0
 40
7.0
 40
8.0
 40
8.0
 40
8.0
 40
8.0
 10
103.2572930482214
 20
206.9266416231257
 30
0.0
 10
103.2600491246103
 20
208.2903826713028
 30
0.0
 10
102.0282552335513
 20
209.5175256834556
 30
0.0
 10
100.6665812426658
 20
209.5175256834556
 30
0.0
 10
99.28458118841241
 20
209.5175256834556
 30
0.0
 10
98.07586943711029
 20
208.3095029512508
 30
0.0
 10
98.07586943711029
 20
206.9266416231257
 30
0.0
 10
98.07586943711029
 20
205.5260380532473
 30
0.0
 10
99.26597767278741
 20
204.3359298175702
 30
0.0
 10
100.6665812426658
 20
204.3359298175702
 30
0.0
 10
102.0494425707908
 20
204.3359298175702
 30
0.0
 10
103.2572930482214
 20
205.5448138236465
 30
0.0
 10
103.2572930482214
 20
206.9266416231257
 30
0.0
 10
103.2572930482214
 20
208.2497305445667
 30
0.0
 10
101.9621094002179
 20
209.4667105250354
 30
0.0
 10
100.6665812426658
 20
209.4667105250354
 30
0.0
 10
99.30439048745753
 20
209.4667105250354
 30
0.0
 10
98.12668459553044
 20
208.2888323783341
 30
0.0
 10
98.12668459553044
 20
206.9266416231257
 30
0.0
 10
98.12668459553044
 20
205.5644508679174
 30
0.0
 10
99.30456274223185
 20
204.3867449759903
 30
0.0
 10
100.6665812426658
 20
204.3867449759903
 30
0.0
 10
102.0277384692283
 20
204.3867449759903
 30
0.0
 10
103.1952813294714
 20
205.5751306639244
 30
0.0
 10
103.2066501445755
 20
206.9266416231257
 30
0.0
  0
SPLINE
  5
EE34
330
A
100
AcDbEntity
  8
0
100
AcDbSpline
210
0.0
220
0.0
230
1.0
 70
    11
 71
     3
 72
    29
 73
    25
 74
     0
 42
0.0000000001
 43
0.0000000001
 40
0.0
 40
0.0
 40
0.0
 40
0.0
 40
1.0
 40
1.0
 40
1.0
 40
2.0
 40
2.0
 40
2.0
 40
3.0
 40
3.0
 40
3.0
 40
4.0
 40
4.0
 40
4.0
 40
5.0
 40
5.0
 40
5.0
 40
6.0
 40
6.0
 40
6.0
 40
7.0
 40
7.0
 40
7.0
 40
8.0
 40
8.0
 40
8.0
 40
8.0
 10
103.7146294740026
 20
206.9266416231257
 30
0.0
 10
103.7146294740026
 20
208.3496383136639
 30
0.0
 10
102.3901625143672
 20
209.9746898544625
 30
0.0
 10
100.8951633281693
 20
209.9746898544625
 30
0.0
 10
99.55278187200613
 20
209.9746898544625
 30
0.0
 10
98.2613878290374
 20
209.2925609482125
 30
0.0
 10
97.83023412895058
 20
207.959653504636
 30
0.0
 10
97.83023412895058
 20
207.959653504636
 30
0.0
 10
97.64402671792629
 20
207.383978048907
 30
0.0
 10
97.64402671792629
 20
207.383978048907
 30
0.0
 10
97.64402671792629
 20
207.383978048907
 30
0.0
 10
97.64402671792629
 20
206.4694774521188
 30
0.0
 10
97.64402671792629
 20
206.4694774521188
 30
0.0
 10
97.64402671792629
 20
206.4694774521188
 30
0.0
 10
97.83023412895058
 20
205.8938019963896
 30
0.0
 10
97.83023412895058
 20
205.8938019963896
 30
0.0
 10
98.2615600838117
 20
204.5607222980389
 30
0.0
 10
99.55295412678044
 20
203.8787656465632
 30
0.0
 10
100.8951633281693
 20
203.8787656465632
 30
0.0
 10
102.3903347691415
 20
203.8787656465632
 30
0.0
 10
103.7146294740026
 20
205.5039894421362
 30
0.0
 10
103.7146294740026
 20
206.9266416231257
 30
0.0
 10
103.7146294740026
 20
206.9266416231257
 30
0.0
 10
103.7146294740026
 20
206.9266416231257
 30
0.0
 10
103.7146294740026
 20
206.9266416231257
 30
0.0
  0
SPLINE
  5
EE35
330
A
100
AcDbEntity
  8
0
100
AcDbSpline
210
0.0
220
0.0
230
1.0
 70
    11
 71
     3
 72
    23
 73
    19
 74
     0
 42
0.0000000001
 43
0.0000000001
 40
0.0
 40
0.0
 40
0.0
 40
0.0
 40
1.0
 40
1.0
 40
1.0
 40
2.0
 40
2.0
 40
2.0
 40
3.0
 40
3.0
 40
3.0
 40
4.0
 40
4.0
 40
4.0
 40
5.0
 40
5.0
 40
5.0
 40
6.0
 40
6.0
 40
6.0
 40
6.0
 10
105.3656914857214
 20
206.9266416231257
 30
0.0
 10
105.3656914857214
 20
209.694775846216
 30
0.0
 10
103.0471422235686
 20
211.6257518661813
 30
0.0
 10
100.3871839987422
 20
211.6257518661813
 30
0.0
 10
98.41159399223185
 20
211.6257518661813
 30
0.0
 10
95.99296470620753
 20
209.4935822698271
 30
0.0
 10
95.99296470620753
 20
207.46011465915
 30
0.0
 10
95.99296470620753
 20
207.46011465915
 30
0.0
 10
95.99296470620753
 20
206.3678471352785
 30
0.0
 10
95.99296470620753
 20
206.3678471352785
 30
0.0
 10
95.99296470620753
 20
204.3500547090633
 30
0.0
 10
98.43381485811724
 20
202.2277036348445
 30
0.0
 10
100.3871839987422
 20
202.2277036348445
 30
0.0
 10
103.0474867331172
 20
202.2277036348445
 30
0.0
 10
105.3656914857214
 20
204.1588519095841
 30
0.0
 10
105.3656914857214
 20
206.9266416231257
 30
0.0
 10
105.3656914857214
 20
206.9266416231257
 30
0.0
 10
105.3656914857214
 20
206.9266416231257
 30
0.0
 10
105.3656914857214
 20
206.9266416231257
 30
0.0
  0
SPLINE
  5
EE36
330
A
100
AcDbEntity
  8
0
100
AcDbSpline
210
0.0
220
0.0
230
1.0
 70
    11
 71
     3
 72
    23
 73
    19
 74
     0
 42
0.0000000001
 43
0.0000000001
 40
0.0
 40
0.0
 40
0.0
 40
0.0
 40
1.0
 40
1.0
 40
1.0
 40
2.0
 40
2.0
 40
2.0
 40
3.0
 40
3.0
 40
3.0
 40
4.0
 40
4.0
 40
4.0
 40
5.0
 40
5.0
 40
5.0
 40
6.0
 40
6.0
 40
6.0
 40
6.0
 10
105.4926432543846
 20
206.9266416231257
 30
0.0
 10
105.4926432543846
 20
209.7524811956084
 30
0.0
 10
103.0981296367631
 20
211.7527036348445
 30
0.0
 10
100.3871839987422
 20
211.7527036348445
 30
0.0
 10
98.37783205646795
 20
211.7527036348445
 30
0.0
 10
95.86601293754432
 20
209.5599003579347
 30
0.0
 10
95.86601293754432
 20
207.4854361109729
 30
0.0
 10
95.86601293754432
 20
207.4854361109729
 30
0.0
 10
95.86601293754432
 20
206.3678471352785
 30
0.0
 10
95.86601293754432
 20
206.3678471352785
 30
0.0
 10
95.86601293754432
 20
204.2813250541153
 30
0.0
 10
98.36594647704089
 20
202.1007518661813
 30
0.0
 10
100.3871839987422
 20
202.1007518661813
 30
0.0
 10
103.0983018915374
 20
202.1007518661813
 30
0.0
 10
105.4926432543846
 20
204.1011465601917
 30
0.0
 10
105.4926432543846
 20
206.9266416231257
 30
0.0
 10
105.4926432543846
 20
206.9266416231257
 30
0.0
 10
105.4926432543846
 20
206.9266416231257
 30
0.0
 10
105.4926432543846
 20
206.9266416231257
 30
0.0
  0
SPLINE
  5
EE37
330
A
100
AcDbEntity
  8
0
100
AcDbSpline
210
0.0
220
0.0
230
1.0
 70
    11
 71
     3
 72
    20
 73
    16
 74
     0
 42
0.0000000001
 43
0.0000000001
 40
0.0
 40
0.0
 40
0.0
 40
0.0
 40
1.0
 40
1.0
 40
1.0
 40
2.0
 40
2.0
 40
2.0
 40
3.0
 40
3.0
 40
3.0
 40
4.0
 40
4.0
 40
4.0
 40
5.0
 40
5.0
 40
5.0
 40
5.0
 10
106.0006225838117
 20
206.9266416231257
 30
0.0
 10
106.0006225838117
 20
209.8079472329348
 30
0.0
 10
103.5409966615026
 20
212.2606829642716
 30
0.0
 10
100.6665812426658
 20
212.2606829642716
 30
0.0
 10
97.75685359509642
 20
212.2606829642716
 30
0.0
 10
95.33253990152003
 20
209.8332686847577
 30
0.0
 10
95.33253990152003
 20
206.9266416231257
 30
0.0
 10
95.33253990152003
 20
204.0200145614938
 30
0.0
 10
97.75719810464504
 20
201.5927725367542
 30
0.0
 10
100.6665812426658
 20
201.5927725367542
 30
0.0
 10
103.5413411710512
 20
201.5927725367542
 30
0.0
 10
106.0006225838117
 20
204.0456805228653
 30
0.0
 10
106.0006225838117
 20
206.9266416231257
 30
0.0
 10
106.0006225838117
 20
206.9266416231257
 30
0.0
 10
106.0006225838117
 20
206.9266416231257
 30
0.0
 10
106.0006225838117
 20
206.9266416231257
 30
0.0
  0
SPLINE
  5
EE38
330
A
100
AcDbEntity
  8
0
100
AcDbSpline
210
0.0
220
0.0
230
1.0
 70
    11
 71
     3
 72
    23
 73
    19
 74
     0
 42
0.0000000001
 43
0.0000000001
 40
0.0
 40
0.0
 40
0.0
 40
0.0
 40
1.0
 40
1.0
 40
1.0
 40
2.0
 40
2.0
 40
2.0
 40
3.0
 40
3.0
 40
3.0
 40
4.0
 40
4.0
 40
4.0
 40
5.0
 40
5.0
 40
5.0
 40
6.0
 40
6.0
 40
6.0
 40
6.0
 10
106.2800198277353
 20
206.9266416231257
 30
0.0
 10
106.2800198277353
 20
209.6909862411813
 30
0.0
 10
103.8476101597665
 20
212.5400802081952
 30
0.0
 10
100.9714721931867
 20
212.5400802081952
 30
0.0
 10
98.29928387938458
 20
212.5400802081952
 30
0.0
 10
95.07863636419365
 20
210.5188426864938
 30
0.0
 10
95.07863636419365
 20
207.5362512693931
 30
0.0
 10
95.07863636419365
 20
207.5362512693931
 30
0.0
 10
95.07863636419365
 20
206.3172042316327
 30
0.0
 10
95.07863636419365
 20
206.3172042316327
 30
0.0
 10
95.07863636419365
 20
203.3344405597577
 30
0.0
 10
98.29962838893322
 20
201.3132030380563
 30
0.0
 10
100.9714721931867
 20
201.3132030380563
 30
0.0
 10
103.8605292678394
 20
201.3132030380563
 30
0.0
 10
106.2800198277353
 20
204.1517894638375
 30
0.0
 10
106.2800198277353
 20
206.9266416231257
 30
0.0
 10
106.2800198277353
 20
206.9266416231257
 30
0.0
 10
106.2800198277353
 20
206.9266416231257
 30
0.0
 10
106.2800198277353
 20
206.9266416231257
 30
0.0
  0
SPLINE
  5
EE39
330
A
100
AcDbEntity
  8
0
100
AcDbSpline
210
0.0
220
0.0
230
1.0
 70
    11
 71
     3
 72
    26
 73
    22
 74
     0
 42
0.0000000001
 43
0.0000000001
 40
0.0
 40
0.0
 40
0.0
 40
0.0
 40
1.0
 40
1.0
 40
1.0
 40
2.0
 40
2.0
 40
2.0
 40
3.0
 40
3.0
 40
3.0
 40
4.0
 40
4.0
 40
4.0
 40
5.0
 40
5.0
 40
5.0
 40
6.0
 40
6.0
 40
6.0
 40
7.0
 40
7.0
 40
7.0
 40
7.0
 10
106.5594170716589
 20
206.9266416231257
 30
0.0
 10
106.5594170716589
 20
209.8313738822403
 30
0.0
 10
103.9836914314679
 20
212.8194774521188
 30
0.0
 10
100.9714721931867
 20
212.8194774521188
 30
0.0
 10
98.16595868407214
 20
212.8194774521188
 30
0.0
 10
94.79923912027002
 20
210.6535459200007
 30
0.0
 10
94.79923912027002
 20
207.5617449759903
 30
0.0
 10
94.79923912027002
 20
207.5617449759903
 30
0.0
 10
94.79923912027002
 20
206.2917105250355
 30
0.0
 10
94.79923912027002
 20
206.2917105250355
 30
0.0
 10
94.79923912027002
 20
205.9611536131431
 30
0.0
 10
95.11222604518321
 20
204.9732724825007
 30
0.0
 10
95.25640329127694
 20
204.657701735973
 30
0.0
 10
96.35452747747487
 20
202.2521638127959
 30
0.0
 10
98.32736140759642
 20
201.033978048907
 30
0.0
 10
100.9714721931867
 20
201.033978048907
 30
0.0
 10
103.9838636862422
 20
201.033978048907
 30
0.0
 10
106.5594170716589
 20
204.0148469182646
 30
0.0
 10
106.5594170716589
 20
206.9266416231257
 30
0.0
 10
106.5594170716589
 20
206.9266416231257
 30
0.0
 10
106.5594170716589
 20
206.9266416231257
 30
0.0
 10
106.5594170716589
 20
206.9266416231257
 30
0.0
  0
SPLINE
  5
EE3A
330
A
100
AcDbEntity
  8
0
100
AcDbSpline
210
0.0
220
0.0
230
1.0
 70
    11
 71
     3
 72
    20
 73
    16
 74
     0
 42
0.0000000001
 43
0.0000000001
 40
0.0
 40
0.0
 40
0.0
 40
0.0
 40
1.0
 40
1.0
 40
1.0
 40
2.0
 40
2.0
 40
2.0
 40
3.0
 40
3.0
 40
3.0
 40
4.0
 40
4.0
 40
4.0
 40
5.0
 40
5.0
 40
5.0
 40
5.0
 10
102.3684584128047
 20
206.9266416231257
 30
0.0
 10
102.3684584128047
 20
207.8049687173098
 30
0.0
 10
101.5481811775617
 20
208.6285187932646
 30
0.0
 10
100.6665812426658
 20
208.6285187932646
 30
0.0
 10
99.76241593233602
 20
208.6285187932646
 30
0.0
 10
98.96487632730128
 20
207.8309791882299
 30
0.0
 10
98.96487632730128
 20
206.9266416231257
 30
0.0
 10
98.96487632730128
 20
206.0223040580216
 30
0.0
 10
99.76241593233602
 20
205.2249367077612
 30
0.0
 10
100.6665812426658
 20
205.2249367077612
 30
0.0
 10
101.548353432336
 20
205.2249367077612
 30
0.0
 10
102.3684584128047
 20
206.048486783716
 30
0.0
 10
102.3684584128047
 20
206.9266416231257
 30
0.0
 10
102.3684584128047
 20
206.9266416231257
 30
0.0
 10
102.3684584128047
 20
206.9266416231257
 30
0.0
 10
102.3684584128047
 20
206.9266416231257
 30
0.0
  0
LINE
  5
EE3B
330
A
100
AcDbEntity
  8
0
100
AcDbLine
 10
99.70143774223185
 20
205.6567794269452
 30
0.0
 11
99.72675919405475
 21
205.6312857203479
 31
0.0
  0
LINE
  5
EE3C
330
A
100
AcDbEntity
  8
0
100
AcDbLine
 10
100.1332804614158
 20
205.4280250866674
 30
0.0
 11
100.1839233650617
 21
205.4027036348445
 31
0.0
  0
LINE
  5
EE3D
330
A
100
AcDbEntity
  8
0
100
AcDbLine
 10
100.6157660842457
 20
205.3263947698271
 30
0.0
 11
100.6920749492631
 21
205.3263947698271
 31
0.0
  0
LINE
  5
EE3E
330
A
100
AcDbEntity
  8
0
100
AcDbLine
 10
101.1237454136728
 20
205.4027036348445
 30
0.0
 11
101.1745605720929
 21
205.4280250866674
 31
0.0
  0
LINE
  5
EE3F
330
A
100
AcDbEntity
  8
0
100
AcDbLine
 10
101.5809095846797
 20
205.6312857203479
 30
0.0
 11
101.6064032912769
 21
205.6312857203479
 31
0.0
  0
LINE
  5
EE40
330
A
100
AcDbEntity
  8
0
100
AcDbLine
 10
99.70143774223185
 20
208.1966760740806
 30
0.0
 11
99.72675919405475
 21
208.2221697806778
 31
0.0
  0
LINE
  5
EE41
330
A
100
AcDbEntity
  8
0
100
AcDbLine
 10
100.6157660842457
 20
208.5268884764243
 30
0.0
 11
100.6920749492631
 21
208.5268884764243
 31
0.0
  0
LINE
  5
EE42
330
A
100
AcDbEntity
  8
0
100
AcDbLine
 10
101.1237454136728
 20
208.4507518661813
 30
0.0
 11
101.1745605720929
 21
208.4252581595841
 31
0.0
  0
LINE
  5
EE43
330
A
100
AcDbEntity
  8
0
100
AcDbLine
 10
101.5809095846797
 20
208.2221697806778
 30
0.0
 11
101.6064032912769
 21
208.1966760740806
 31
0.0
  0
LINE
  5
EE44
330
A
100
AcDbEntity
  8
0
100
AcDbLine
 10
100.1332804614158
 20
208.4252581595841
 30
0.0
 11
100.1839233650617
 21
208.4507518661813
 31
0.0
  0
SPLINE
  5
EE45
330
A
100
AcDbEntity
  8
0
100
AcDbSpline
210
0.0
220
0.0
230
1.0
 70
    11
 71
     3
 72
    50
 73
    46
 74
     0
 42
0.0000000001
 43
0.0000000001
 40
0.0
 40
0.0
 40
0.0
 40
0.0
 40
1.0
 40
1.0
 40
1.0
 40
2.0
 40
2.0
 40
2.0
 40
3.0
 40
3.0
 40
3.0
 40
4.0
 40
4.0
 40
4.0
 40
5.0
 40
5.0
 40
5.0
 40
6.0
 40
6.0
 40
6.0
 40
7.0
 40
7.0
 40
7.0
 40
8.0
 40
8.0
 40
8.0
 40
9.0
 40
9.0
 40
9.0
 40
10.0
 40
10.0
 40
10.0
 40
11.0
 40
11.0
 40
11.0
 40
12.0
 40
12.0
 40
12.0
 40
13.0
 40
13.0
 40
13.0
 40
14.0
 40
14.0
 40
14.0
 40
15.0
 40
15.0
 40
15.0
 40
15.0
 10
102.2668280959645
 20
206.9266416231257
 30
0.0
 10
102.2668280959645
 20
207.2775245983862
 30
0.0
 10
101.9292087383256
 20
207.9510407659209
 30
0.0
 10
101.6572184496971
 20
208.1713546222577
 30
0.0
 10
101.6572184496971
 20
208.1713546222577
 30
0.0
 10
101.233816214454
 20
208.3744430011639
 30
0.0
 10
101.233816214454
 20
208.3744430011639
 30
0.0
 10
101.1513061775617
 20
208.4140615992542
 30
0.0
 10
101.1137546367631
 20
208.4760733180042
 30
0.0
 10
101.0222873516068
 20
208.4760733180042
 30
0.0
 10
101.0222873516068
 20
208.4760733180042
 30
0.0
 10
100.3110473884992
 20
208.4760733180042
 30
0.0
 10
100.3110473884992
 20
208.4760733180042
 30
0.0
 10
100.2164795174054
 20
208.4760733180042
 30
0.0
 10
100.1766886645408
 20
208.4140615992542
 30
0.0
 10
100.0909057869367
 20
208.3744430011639
 30
0.0
 10
100.0909057869367
 20
208.3744430011639
 30
0.0
 10
99.6506225838117
 20
208.1713546222577
 30
0.0
 10
99.6506225838117
 20
208.1713546222577
 30
0.0
 10
99.34883221922836
 20
207.9327817598445
 30
0.0
 10
99.06633438936726
 20
207.3093917316327
 30
0.0
 10
99.06633438936726
 20
206.9266416231257
 30
0.0
 10
99.06633438936726
 20
206.5438915146188
 30
0.0
 10
99.34883221922836
 20
205.9206737411813
 30
0.0
 10
99.6506225838117
 20
205.6819286239938
 30
0.0
 10
99.6506225838117
 20
205.6819286239938
 30
0.0
 10
100.0909057869367
 20
205.4788402450876
 30
0.0
 10
100.0909057869367
 20
205.4788402450876
 30
0.0
 10
100.1766886645408
 20
205.4392216469973
 30
0.0
 10
100.2164795174054
 20
205.3773821830216
 30
0.0
 10
100.3110473884992
 20
205.3773821830216
 30
0.0
 10
100.3110473884992
 20
205.3773821830216
 30
0.0
 10
101.0222873516068
 20
205.3773821830216
 30
0.0
 10
101.0222873516068
 20
205.3773821830216
 30
0.0
 10
101.1137546367631
 20
205.3773821830216
 30
0.0
 10
101.1513061775617
 20
205.4392216469973
 30
0.0
 10
101.233816214454
 20
205.4788402450876
 30
0.0
 10
101.233816214454
 20
205.4788402450876
 30
0.0
 10
101.6572184496971
 20
205.6819286239938
 30
0.0
 10
101.6572184496971
 20
205.6819286239938
 30
0.0
 10
101.9292087383256
 20
205.9024147351049
 30
0.0
 10
102.2668280959645
 20
206.5761031574139
 30
0.0
 10
102.2668280959645
 20
206.9266416231257
 30
0.0
 10
102.2668280959645
 20
206.9266416231257
 30
0.0
 10
102.2668280959645
 20
206.9266416231257
 30
0.0
 10
102.2668280959645
 20
206.9266416231257
 30
0.0
  0
POLYLINE
  5
EE46
330
A
100
AcDbEntity
  8
0
100
AcDb2dPolyline
 66
     1
 10
0.0
 20
0.0
 30
0.0
  0
VERTEX
  5
EE47
330
EE46
100
AcDbEntity
  8
0
100
AcDbVertex
100
AcDb2dVertex
 10
102.9525743524749
 20
159.7588057941327
 30
0.0
  0
VERTEX
  5
EE48
330
EE46
100
AcDbEntity
  8
0
100
AcDbVertex
100
AcDb2dVertex
 10
104.4766845955304
 20
159.9620664278132
 30
0.0
  0
VERTEX
  5
EE49
330
EE46
100
AcDbEntity
  8
0
100
AcDbVertex
100
AcDb2dVertex
 10
102.9525743524749
 20
160.1653270614938
 30
0.0
  0
SEQEND
  5
EE4A
330
EE46
100
AcDbEntity
  8
0
  0
POLYLINE
  5
EE4B
330
A
100
AcDbEntity
  8
0
100
AcDb2dPolyline
 66
     1
 10
0.0
 20
0.0
 30
0.0
  0
VERTEX
  5
EE4C
330
EE4B
100
AcDbEntity
  8
0
100
AcDbVertex
100
AcDb2dVertex
 10
98.35526668103391
 20
160.1653270614938
 30
0.0
  0
VERTEX
  5
EE4D
330
EE4B
100
AcDbEntity
  8
0
100
AcDbVertex
100
AcDb2dVertex
 10
96.85665014457558
 20
159.9620664278132
 30
0.0
  0
VERTEX
  5
EE4E
330
EE4B
100
AcDbEntity
  8
0
100
AcDbVertex
100
AcDb2dVertex
 10
98.35526668103391
 20
159.7588057941327
 30
0.0
  0
SEQEND
  5
EE4F
330
EE4B
100
AcDbEntity
  8
0
  0
LINE
  5
EE50
330
A
100
AcDbEntity
  8
0
100
AcDbLine
 10
96.85665014457558
 20
159.9620664278132
 30
0.0
 11
110.4454847799922
 21
159.9620664278132
 31
0.0
  0
POLYLINE
  5
EE51
330
A
100
AcDbEntity
  8
0
100
AcDb2dPolyline
 66
     1
 10
0.0
 20
0.0
 30
0.0
  0
VERTEX
  5
EE52
330
EE51
100
AcDbEntity
  8
0
100
AcDbVertex
100
AcDb2dVertex
 10
105.9498074253915
 20
147.1604361109729
 30
0.0
  0
VERTEX
  5
EE53
330
EE51
100
AcDbEntity
  8
0
100
AcDbVertex
100
AcDb2dVertex
 10
104.4766845955304
 20
146.7794085502091
 30
0.0
  0
VERTEX
  5
EE54
330
EE51
100
AcDbEntity
  8
0
100
AcDbVertex
100
AcDb2dVertex
 10
106.0006225838117
 20
146.7794085502091
 30
0.0
  0
SEQEND
  5
EE55
330
EE51
100
AcDbEntity
  8
0
  0
LINE
  5
EE56
330
A
100
AcDbEntity
  8
0
100
AcDbLine
 10
104.4766845955304
 20
146.7794085502091
 30
0.0
 11
118.0148763273012
 21
148.557422330591
 31
0.0
  0
LINE
  5
EE57
330
A
100
AcDbEntity
  8
0
100
AcDbLine
 10
118.0148763273012
 20
148.557422330591
 30
0.0
 11
126.5998820239158
 21
148.557422330591
 31
0.0
  0
POLYLINE
  5
EE58
330
A
100
AcDbEntity
  8
0
100
AcDb2dPolyline
 66
     1
 10
0.0
 20
0.0
 30
0.0
  0
VERTEX
  5
EE59
330
EE58
100
AcDbEntity
  8
0
100
AcDbVertex
100
AcDb2dVertex
 10
102.9525743524749
 20
118.1027782333688
 30
0.0
  0
VERTEX
  5
EE5A
330
EE58
100
AcDbEntity
  8
0
100
AcDbVertex
100
AcDb2dVertex
 10
102.0127523038637
 20
119.2968483288549
 30
0.0
  0
VERTEX
  5
EE5B
330
EE58
100
AcDbEntity
  8
0
100
AcDbVertex
100
AcDb2dVertex
 10
102.6223619501311
 20
117.8995175996882
 30
0.0
  0
SEQEND
  5
EE5C
330
EE58
100
AcDbEntity
  8
0
  0
LINE
  5
EE5D
330
A
100
AcDbEntity
  8
0
100
AcDbLine
 10
102.0127523038637
 20
119.2968483288549
 30
0.0
 11
107.7786363641936
 21
109.6447243054174
 31
0.0
  0
LINE
  5
EE5E
330
A
100
AcDbEntity
  8
0
100
AcDbLine
 10
107.7786363641936
 20
109.6447243054174
 30
0.0
 11
115.0176432543846
 21
109.6447243054174
 31
0.0
  0
POLYLINE
  5
EE5F
330
A
100
AcDbEntity
  8
0
100
AcDb2dPolyline
 66
     1
 10
0.0
 20
0.0
 30
0.0
  0
VERTEX
  5
EE60
330
EE5F
100
AcDbEntity
  8
0
100
AcDbVertex
100
AcDb2dVertex
 10
102.6986708151485
 20
184.6255050128825
 30
0.0
  0
VERTEX
  5
EE61
330
EE5F
100
AcDbEntity
  8
0
100
AcDbVertex
100
AcDb2dVertex
 10
101.7333550599401
 20
183.4569286239938
 30
0.0
  0
VERTEX
  5
EE62
330
EE5F
100
AcDbEntity
  8
0
100
AcDbVertex
100
AcDb2dVertex
 10
102.9780680590721
 20
184.3461077689591
 30
0.0
  0
SEQEND
  5
EE63
330
EE5F
100
AcDbEntity
  8
0
  0
LINE
  5
EE64
330
A
100
AcDbEntity
  8
0
100
AcDbLine
 10
101.7333550599401
 20
183.4569286239938
 30
0.0
 11
107.8547729744367
 21
189.1974912325007
 31
0.0
  0
LINE
  5
EE65
330
A
100
AcDbEntity
  8
0
100
AcDbLine
 10
107.8547729744367
 20
189.1974912325007
 30
0.0
 11
115.0937798646276
 21
189.1974912325007
 31
0.0
  0
LINE
  5
EE66
330
A
100
AcDbEntity
  8
0
100
AcDbLine
 10
96.85665014457558
 20
153.7646841578479
 30
0.0
 11
104.4766845955304
 21
153.7646841578479
 31
0.0
  0
LINE
  5
EE67
330
A
100
AcDbEntity
  8
0
100
AcDbLine
 10
100.6665812426658
 20
185.158978048907
 30
0.0
 11
100.6665812426658
 21
187.2163890732125
 31
0.0
  0
LINE
  5
EE68
330
A
100
AcDbEntity
  8
0
100
AcDbLine
 10
100.6665812426658
 20
182.6189091469973
 30
0.0
 11
100.6665812426658
 21
183.1268884764243
 31
0.0
  0
LINE
  5
EE69
330
A
100
AcDbEntity
  8
0
100
AcDbLine
 10
100.6665812426658
 20
172.458978048907
 30
0.0
 11
100.6665812426658
 21
180.5868195745146
 31
0.0
  0
LINE
  5
EE6A
330
A
100
AcDbEntity
  8
0
100
AcDbLine
 10
100.6665812426658
 20
169.9189091469972
 30
0.0
 11
100.6665812426658
 21
170.4268884764243
 31
0.0
  0
LINE
  5
EE6B
330
A
100
AcDbEntity
  8
0
100
AcDbLine
 10
100.6665812426658
 20
159.7588057941327
 30
0.0
 11
100.6665812426658
 21
167.8868195745146
 31
0.0
  0
LINE
  5
EE6C
330
A
100
AcDbEntity
  8
0
100
AcDbLine
 10
100.6665812426658
 20
157.2190814017716
 30
0.0
 11
100.6665812426658
 21
157.7268884764244
 31
0.0
  0
LINE
  5
EE6D
330
A
100
AcDbEntity
  8
0
100
AcDbLine
 10
100.6665812426658
 20
147.0588057941327
 30
0.0
 11
100.6665812426658
 21
155.1868195745146
 31
0.0
  0
LINE
  5
EE6E
330
A
100
AcDbEntity
  8
0
100
AcDbLine
 10
100.6665812426658
 20
144.5190814017716
 30
0.0
 11
100.6665812426658
 21
145.0268884764243
 31
0.0
  0
LINE
  5
EE6F
330
A
100
AcDbEntity
  8
0
100
AcDbLine
 10
100.6665812426658
 20
134.3588057941327
 30
0.0
 11
100.6665812426658
 21
142.4868195745146
 31
0.0
  0
LINE
  5
EE70
330
A
100
AcDbEntity
  8
0
100
AcDbLine
 10
100.6665812426658
 20
131.8190814017716
 30
0.0
 11
100.6665812426658
 21
132.3268884764243
 31
0.0
  0
LINE
  5
EE71
330
A
100
AcDbEntity
  8
0
100
AcDbLine
 10
100.6665812426658
 20
121.6588057941327
 30
0.0
 11
100.6665812426658
 21
129.7868195745146
 31
0.0
  0
LINE
  5
EE72
330
A
100
AcDbEntity
  8
0
100
AcDbLine
 10
100.6665812426658
 20
119.1187368922229
 30
0.0
 11
100.6665812426658
 21
119.6268884764243
 31
0.0
  0
LINE
  5
EE73
330
A
100
AcDbEntity
  8
0
100
AcDbLine
 10
100.6665812426658
 20
115.0294085502091
 30
0.0
 11
100.6665812426658
 21
117.0868195745146
 31
0.0
  0
LINE
  5
EE74
330
A
100
AcDbEntity
  8
0
100
AcDbLine
 10
95.05314265759642
 20
183.4569286239938
 30
0.0
 11
106.2800198277353
 21
183.4569286239938
 31
0.0
  0
LINE
  5
EE75
330
A
100
AcDbEntity
  8
0
100
AcDbLine
 10
94.77374541367279
 20
182.6950457572403
 30
0.0
 11
106.5594170716589
 21
182.6950457572403
 31
0.0
  0
LINE
  5
EE76
330
A
100
AcDbEntity
  8
0
100
AcDbLine
 10
106.2800198277353
 20
183.4569286239938
 30
0.0
 11
106.5594170716589
 21
182.6950457572403
 31
0.0
  0
LINE
  5
EE77
330
A
100
AcDbEntity
  8
0
100
AcDbLine
 10
94.77374541367279
 20
182.6950457572403
 30
0.0
 11
95.05314265759642
 21
183.4569286239938
 31
0.0
  0
LINE
  5
EE78
330
A
100
AcDbEntity
  8
0
100
AcDbLine
 10
94.77374541367279
 20
182.6950457572403
 30
0.0
 11
94.79923912027002
 21
181.8568540254695
 31
0.0
  0
SPLINE
  5
EE79
330
A
100
AcDbEntity
  8
0
100
AcDbSpline
210
0.0
220
0.0
230
1.0
 70
     8
 71
     3
 72
     8
 73
     4
 74
     0
 42
0.0000000001
 43
0.0000000001
 40
0.0
 40
0.0
 40
0.0
 40
0.0
 40
1.0
 40
1.0
 40
1.0
 40
1.0
 10
106.4832804614158
 20
181.7553959634035
 30
0.0
 10
106.5371962057735
 20
181.821714051511
 30
0.0
 10
106.5521823711381
 20
182.5765344725181
 30
0.0
 10
106.5594170716589
 20
182.6950457572403
 30
0.0
  0
LINE
  5
EE7A
330
A
100
AcDbEntity
  8
0
100
AcDbLine
 10
94.79923912027002
 20
181.8568540254695
 30
0.0
 11
94.85005427869015
 21
181.7553959634035
 31
0.0
  0
POLYLINE
  5
EE7B
330
A
100
AcDbEntity
  8
0
100
AcDb2dPolyline
 66
     1
 10
0.0
 20
0.0
 30
0.0
  0
VERTEX
  5
EE7C
330
EE7B
100
AcDbEntity
  8
0
100
AcDbVertex
100
AcDb2dVertex
 10
94.85005427869015
 20
181.6027782333688
 30
0.0
  0
VERTEX
  5
EE7D
330
EE7B
100
AcDbEntity
  8
0
100
AcDbVertex
100
AcDb2dVertex
 10
94.87537573051307
 20
181.679087098386
 30
0.0
  0
VERTEX
  5
EE7E
330
EE7B
100
AcDbEntity
  8
0
100
AcDbVertex
100
AcDb2dVertex
 10
94.85005427869015
 20
181.7553959634035
 30
0.0
  0
SEQEND
  5
EE7F
330
EE7B
100
AcDbEntity
  8
0
  0
SPLINE
  5
EE80
330
A
100
AcDbEntity
  8
0
100
AcDbSpline
210
0.0
220
0.0
230
1.0
 70
     8
 71
     3
 72
    11
 73
     7
 74
     0
 42
0.0000000001
 43
0.0000000001
 40
0.0
 40
0.0
 40
0.0
 40
0.0
 40
1.0
 40
1.0
 40
1.0
 40
2.0
 40
2.0
 40
2.0
 40
2.0
 10
106.4832804614158
 20
181.7553959634035
 30
0.0
 10
106.4763902704436
 20
181.7347253904868
 30
0.0
 10
106.4612318503047
 20
181.6994131617542
 30
0.0
 10
106.4577867548186
 20
181.679087098386
 30
0.0
 10
106.4546861688811
 20
181.6604835827611
 30
0.0
 10
106.4577867548186
 20
181.6231042967368
 30
0.0
 10
106.4577867548186
 20
181.6027782333688
 30
0.0
  0
POLYLINE
  5
EE81
330
A
100
AcDbEntity
  8
0
100
AcDb2dPolyline
 66
     1
 10
0.0
 20
0.0
 30
0.0
  0
VERTEX
  5
EE82
330
EE81
100
AcDbEntity
  8
0
100
AcDbVertex
100
AcDb2dVertex
 10
106.4832804614158
 20
181.5013201713028
 30
0.0
  0
VERTEX
  5
EE83
330
EE81
100
AcDbEntity
  8
0
100
AcDbVertex
100
AcDb2dVertex
 10
106.4832804614158
 20
181.552135329723
 30
0.0
  0
VERTEX
  5
EE84
330
EE81
100
AcDbEntity
  8
0
100
AcDbVertex
100
AcDb2dVertex
 10
106.4577867548186
 20
181.6027782333688
 30
0.0
  0
SEQEND
  5
EE85
330
EE81
100
AcDbEntity
  8
0
  0
POLYLINE
  5
EE86
330
A
100
AcDbEntity
  8
0
100
AcDb2dPolyline
 66
     1
 10
0.0
 20
0.0
 30
0.0
  0
VERTEX
  5
EE87
330
EE86
100
AcDbEntity
  8
0
100
AcDbVertex
100
AcDb2dVertex
 10
94.85005427869015
 20
181.6027782333688
 30
0.0
  0
VERTEX
  5
EE88
330
EE86
100
AcDbEntity
  8
0
100
AcDbVertex
100
AcDb2dVertex
 10
94.82456057209295
 20
181.552135329723
 30
0.0
  0
VERTEX
  5
EE89
330
EE86
100
AcDbEntity
  8
0
100
AcDbVertex
100
AcDb2dVertex
 10
94.82456057209295
 20
181.5013201713028
 30
0.0
  0
SEQEND
  5
EE8A
330
EE86
100
AcDbEntity
  8
0
  0
LINE
  5
EE8B
330
A
100
AcDbEntity
  8
0
100
AcDbLine
 10
105.8228556567283
 20
168.5980595376222
 30
0.0
 11
106.4832804614158
 21
181.5013201713028
 31
0.0
  0
LINE
  5
EE8C
330
A
100
AcDbEntity
  8
0
100
AcDbLine
 10
94.82456057209295
 20
181.5013201713028
 30
0.0
 11
95.51047908337769
 21
168.5980595376222
 31
0.0
  0
LINE
  5
EE8D
330
A
100
AcDbEntity
  8
0
100
AcDbLine
 10
95.91682809596449
 20
168.2172042316327
 30
0.0
 11
105.4163343893672
 21
168.2172042316327
 31
0.0
  0
POLYLINE
  5
EE8E
330
A
100
AcDbEntity
  8
0
100
AcDb2dPolyline
 66
     1
 10
0.0
 20
0.0
 30
0.0
  0
VERTEX
  5
EE8F
330
EE8E
100
AcDbEntity
  8
0
100
AcDbVertex
100
AcDb2dVertex
 10
105.4163343893672
 20
168.2172042316327
 30
0.0
  0
VERTEX
  5
EE90
330
EE8E
100
AcDbEntity
  8
0
100
AcDbVertex
100
AcDb2dVertex
 10
105.6957316332908
 20
168.3186622936986
 30
0.0
  0
VERTEX
  5
EE91
330
EE8E
100
AcDbEntity
  8
0
100
AcDbVertex
100
AcDb2dVertex
 10
105.8228556567283
 20
168.5980595376222
 30
0.0
  0
SEQEND
  5
EE92
330
EE8E
100
AcDbEntity
  8
0
  0
POLYLINE
  5
EE93
330
A
100
AcDbEntity
  8
0
100
AcDb2dPolyline
 66
     1
 10
0.0
 20
0.0
 30
0.0
  0
VERTEX
  5
EE94
330
EE93
100
AcDbEntity
  8
0
100
AcDbVertex
100
AcDb2dVertex
 10
95.51047908337769
 20
168.5980595376222
 30
0.0
  0
VERTEX
  5
EE95
330
EE93
100
AcDbEntity
  8
0
100
AcDbVertex
100
AcDb2dVertex
 10
95.63743085204086
 20
168.3186622936986
 30
0.0
  0
VERTEX
  5
EE96
330
EE93
100
AcDbEntity
  8
0
100
AcDbVertex
100
AcDb2dVertex
 10
95.91682809596449
 20
168.2172042316327
 30
0.0
  0
SEQEND
  5
EE97
330
EE93
100
AcDbEntity
  8
0
  0
LINE
  5
EE98
330
A
100
AcDbEntity
  8
0
100
AcDbLine
 10
96.85665014457558
 20
153.7646841578479
 30
0.0
 11
96.85665014457558
 21
168.2172042316327
 31
0.0
  0
LINE
  5
EE99
330
A
100
AcDbEntity
  8
0
100
AcDbLine
 10
104.4766845955304
 20
153.7646841578479
 30
0.0
 11
104.4766845955304
 21
168.2172042316327
 31
0.0
  0
LINE
  5
EE9A
330
A
100
AcDbEntity
  8
0
100
AcDbLine
 10
96.85665014457558
 20
152.2405739147924
 30
0.0
 11
104.4766845955304
 21
152.2405739147924
 31
0.0
  0
LINE
  5
EE9B
330
A
100
AcDbEntity
  8
0
100
AcDbLine
 10
104.4766845955304
 20
130.9805451604521
 30
0.0
 11
104.4766845955304
 21
152.2405739147924
 31
0.0
  0
LINE
  5
EE9C
330
A
100
AcDbEntity
  8
0
100
AcDbLine
 10
96.85665014457558
 20
130.9805451604521
 30
0.0
 11
96.85665014457558
 21
152.2405739147924
 31
0.0
  0
LINE
  5
EE9D
330
A
100
AcDbEntity
  8
0
100
AcDbLine
 10
95.71356746228392
 20
130.9805451604521
 30
0.0
 11
105.5941013164505
 21
130.9805451604521
 31
0.0
  0
POLYLINE
  5
EE9E
330
A
100
AcDbEntity
  8
0
100
AcDb2dPolyline
 66
     1
 10
0.0
 20
0.0
 30
0.0
  0
VERTEX
  5
EE9F
330
EE9E
100
AcDbEntity
  8
0
100
AcDbVertex
100
AcDb2dVertex
 10
95.71356746228392
 20
130.9805451604521
 30
0.0
  0
VERTEX
  5
EEA0
330
EE9E
100
AcDbEntity
  8
0
100
AcDbVertex
100
AcDb2dVertex
 10
95.43417021836031
 20
130.8792593531604
 30
0.0
  0
VERTEX
  5
EEA1
330
EE9E
100
AcDbEntity
  8
0
100
AcDbVertex
100
AcDb2dVertex
 10
95.30721844969708
 20
130.5995175996882
 30
0.0
  0
SEQEND
  5
EEA2
330
EE9E
100
AcDbEntity
  8
0
  0
POLYLINE
  5
EEA3
330
A
100
AcDbEntity
  8
0
100
AcDb2dPolyline
 66
     1
 10
0.0
 20
0.0
 30
0.0
  0
VERTEX
  5
EEA4
330
EEA3
100
AcDbEntity
  8
0
100
AcDbVertex
100
AcDb2dVertex
 10
106.0006225838117
 20
130.5995175996882
 30
0.0
  0
VERTEX
  5
EEA5
330
EEA3
100
AcDbEntity
  8
0
100
AcDbVertex
100
AcDb2dVertex
 10
105.8736708151485
 20
130.8792593531604
 30
0.0
  0
VERTEX
  5
EEA6
330
EEA3
100
AcDbEntity
  8
0
100
AcDbVertex
100
AcDb2dVertex
 10
105.5941013164505
 20
130.9805451604521
 30
0.0
  0
SEQEND
  5
EEA7
330
EEA3
100
AcDbEntity
  8
0
  0
LINE
  5
EEA8
330
A
100
AcDbEntity
  8
0
100
AcDbLine
 10
106.0006225838117
 20
130.5995175996882
 30
0.0
 11
106.4832804614158
 21
121.2526290363202
 31
0.0
  0
LINE
  5
EEA9
330
A
100
AcDbEntity
  8
0
100
AcDbLine
 10
94.82456057209295
 20
121.2526290363202
 30
0.0
 11
95.30721844969708
 21
130.5995175996882
 31
0.0
  0
POLYLINE
  5
EEAA
330
A
100
AcDbEntity
  8
0
100
AcDb2dPolyline
 66
     1
 10
0.0
 20
0.0
 30
0.0
  0
VERTEX
  5
EEAB
330
EEAA
100
AcDbEntity
  8
0
100
AcDbVertex
100
AcDb2dVertex
 10
94.82456057209295
 20
121.2526290363202
 30
0.0
  0
VERTEX
  5
EEAC
330
EEAA
100
AcDbEntity
  8
0
100
AcDbVertex
100
AcDb2dVertex
 10
94.82456057209295
 20
121.2016416231257
 30
0.0
  0
VERTEX
  5
EEAD
330
EEAA
100
AcDbEntity
  8
0
100
AcDbVertex
100
AcDb2dVertex
 10
94.85005427869015
 20
121.1509987194799
 30
0.0
  0
SEQEND
  5
EEAE
330
EEAA
100
AcDbEntity
  8
0
  0
POLYLINE
  5
EEAF
330
A
100
AcDbEntity
  8
0
100
AcDb2dPolyline
 66
     1
 10
0.0
 20
0.0
 30
0.0
  0
VERTEX
  5
EEB0
330
EEAF
100
AcDbEntity
  8
0
100
AcDbVertex
100
AcDb2dVertex
 10
106.4577867548186
 20
121.1509987194799
 30
0.0
  0
VERTEX
  5
EEB1
330
EEAF
100
AcDbEntity
  8
0
100
AcDbVertex
100
AcDb2dVertex
 10
106.4832804614158
 20
121.2016416231257
 30
0.0
  0
VERTEX
  5
EEB2
330
EEAF
100
AcDbEntity
  8
0
100
AcDbVertex
100
AcDb2dVertex
 10
106.4832804614158
 20
121.2526290363202
 30
0.0
  0
SEQEND
  5
EEB3
330
EEAF
100
AcDbEntity
  8
0
  0
POLYLINE
  5
EEB4
330
A
100
AcDbEntity
  8
0
100
AcDb2dPolyline
 66
     1
 10
0.0
 20
0.0
 30
0.0
  0
VERTEX
  5
EEB5
330
EEB4
100
AcDbEntity
  8
0
100
AcDbVertex
100
AcDb2dVertex
 10
94.85005427869015
 20
120.9983809894452
 30
0.0
  0
VERTEX
  5
EEB6
330
EEB4
100
AcDbEntity
  8
0
100
AcDbVertex
100
AcDb2dVertex
 10
94.87537573051307
 20
121.0745175996882
 30
0.0
  0
VERTEX
  5
EEB7
330
EEB4
100
AcDbEntity
  8
0
100
AcDbVertex
100
AcDb2dVertex
 10
94.85005427869015
 20
121.1509987194799
 30
0.0
  0
SEQEND
  5
EEB8
330
EEB4
100
AcDbEntity
  8
0
  0
SPLINE
  5
EEB9
330
A
100
AcDbEntity
  8
0
100
AcDbSpline
210
0.0
220
0.0
230
1.0
 70
     8
 71
     3
 72
    11
 73
     7
 74
     0
 42
0.0000000001
 43
0.0000000001
 40
0.0
 40
0.0
 40
0.0
 40
0.0
 40
1.0
 40
1.0
 40
1.0
 40
2.0
 40
2.0
 40
2.0
 40
2.0
 10
106.4577867548186
 20
121.1509987194799
 30
0.0
 10
106.4577867548186
 20
121.1306726561119
 30
0.0
 10
106.4546861688811
 20
121.0934656248618
 30
0.0
 10
106.4577867548186
 20
121.0745175996882
 30
0.0
 10
106.4612318503047
 20
121.0545360458688
 30
0.0
 10
106.4763902704436
 20
121.0190515623618
 30
0.0
 10
106.4832804614158
 20
120.9983809894452
 30
0.0
  0
POLYLINE
  5
EEBA
330
A
100
AcDbEntity
  8
0
100
AcDb2dPolyline
 66
     1
 10
0.0
 20
0.0
 30
0.0
  0
VERTEX
  5
EEBB
330
EEBA
100
AcDbEntity
  8
0
100
AcDbVertex
100
AcDb2dVertex
 10
106.5086019132388
 20
120.9222443792021
 30
0.0
  0
VERTEX
  5
EEBC
330
EEBA
100
AcDbEntity
  8
0
100
AcDbVertex
100
AcDb2dVertex
 10
106.5086019132388
 20
120.9477380857993
 30
0.0
  0
VERTEX
  5
EEBD
330
EEBA
100
AcDbEntity
  8
0
100
AcDbVertex
100
AcDb2dVertex
 10
106.4832804614158
 20
120.9983809894452
 30
0.0
  0
SEQEND
  5
EEBE
330
EEBA
100
AcDbEntity
  8
0
  0
POLYLINE
  5
EEBF
330
A
100
AcDbEntity
  8
0
100
AcDb2dPolyline
 66
     1
 10
0.0
 20
0.0
 30
0.0
  0
VERTEX
  5
EEC0
330
EEBF
100
AcDbEntity
  8
0
100
AcDbVertex
100
AcDb2dVertex
 10
94.85005427869015
 20
120.9983809894452
 30
0.0
  0
VERTEX
  5
EEC1
330
EEBF
100
AcDbEntity
  8
0
100
AcDbVertex
100
AcDb2dVertex
 10
94.82456057209295
 20
120.9477380857993
 30
0.0
  0
VERTEX
  5
EEC2
330
EEBF
100
AcDbEntity
  8
0
100
AcDbVertex
100
AcDb2dVertex
 10
94.79923912027002
 20
120.9222443792021
 30
0.0
  0
SEQEND
  5
EEC3
330
EEBF
100
AcDbEntity
  8
0
  0
LINE
  5
EEC4
330
A
100
AcDbEntity
  8
0
100
AcDbLine
 10
94.77374541367279
 20
120.0585589408341
 30
0.0
 11
106.5594170716589
 21
120.0585589408341
 31
0.0
  0
LINE
  5
EEC5
330
A
100
AcDbEntity
  8
0
100
AcDbLine
 10
94.77374541367279
 20
120.0585589408341
 30
0.0
 11
94.79923912027002
 21
120.9222443792021
 31
0.0
  0
LINE
  5
EEC6
330
A
100
AcDbEntity
  8
0
100
AcDbLine
 10
106.5086019132388
 20
120.9222443792021
 30
0.0
 11
106.5594170716589
 21
120.0585589408341
 31
0.0
  0
LINE
  5
EEC7
330
A
100
AcDbEntity
  8
0
100
AcDbLine
 10
95.05314265759642
 20
119.2968483288549
 30
0.0
 11
106.2800198277353
 21
119.2968483288549
 31
0.0
  0
LINE
  5
EEC8
330
A
100
AcDbEntity
  8
0
100
AcDbLine
 10
106.2800198277353
 20
119.2968483288549
 30
0.0
 11
106.5594170716589
 21
120.0585589408341
 31
0.0
  0
LINE
  5
EEC9
330
A
100
AcDbEntity
  8
0
100
AcDbLine
 10
94.77374541367279
 20
120.0585589408341
 30
0.0
 11
95.05314265759642
 21
119.2968483288549
 31
0.0
  0
ENDSEC
  0
SECTION
  2
OBJECTS
  0
DICTIONARY
  5
19
330
0
100
AcDbDictionary
281
     1
  3
ACAD_COLOR
350
EFA
  3
ACAD_GROUP
350
1A
  3
ACAD_LAYOUT
350
1E
  3
ACAD_MATERIAL
350
EF9
  3
ACAD_MLINESTYLE
350
1B
  3
ACAD_PLOTSETTINGS
350
22
  3
ACAD_PLOTSTYLENAME
350
1F
  3
ACAD_WIPEOUT_VARS
350
23
  3
AcDbVariableDictionary
350
1DE9
  0
DICTIONARY
  5
EFA
102
{ACAD_REACTORS
330
19
102
}
330
19
100
AcDbDictionary
281
     1
  0
DICTIONARY
  5
1A
102
{ACAD_REACTORS
330
19
102
}
330
19
100
AcDbDictionary
281
     1
  3
*A1
350
E94B
  3
*A2
350
E94C
  0
DICTIONARY
  5
1E
102
{ACAD_REACTORS
330
19
102
}
330
19
100
AcDbDictionary
281
     1
  3
Layout1
350
21
  3
Model
350
20
  0
DICTIONARY
  5
EF9
102
{ACAD_REACTORS
330
19
102
}
330
19
100
AcDbDictionary
281
     1
  0
DICTIONARY
  5
1B
102
{ACAD_REACTORS
330
19
102
}
330
19
100
AcDbDictionary
281
     1
  3
Standard
350
1C
  0
DICTIONARY
  5
22
102
{ACAD_REACTORS
330
19
102
}
330
19
100
AcDbDictionary
281
     1
  0
ACDBDICTIONARYWDFLT
  5
1F
102
{ACAD_REACTORS
330
19
102
}
330
19
100
AcDbDictionary
281
     1
  3
Normal
350
1D
100
AcDbDictionaryWithDefault
340
1D
  0
WIPEOUTVARIABLES
  5
23
330
19
100
AcDbWipeoutVariables
 70
     1
  0
DICTIONARY
  5
1DE9
102
{ACAD_REACTORS
330
19
102
}
330
19
100
AcDbDictionary
281
     1
  3
DIMASSOC
350
1DEA
  3
PROJECTNAME
350
1DEB
  0
GROUP
  5
E94B
102
{ACAD_REACTORS
330
1A
102
}
330
1A
100
AcDbGroup
300

 70
     1
 71
     1
  0
GROUP
  5
E94C
102
{ACAD_REACTORS
330
1A
102
}
330
1A
100
AcDbGroup
300

 70
     1
 71
     1
  0
LAYOUT
  5
21
102
{ACAD_REACTORS
330
1E
102
}
330
1E
100
AcDbPlotSettings
  1

  2

  4

  6

 40
0.0
 41
0.0
 42
0.0
 43
0.0
 44
0.0
 45
0.0
 46
0.0
 47
0.0
 48
0.0
 49
0.0
140
0.0
141
0.0
142
1.0
143
1.0
 70
     0
 72
     0
 73
     0
 74
     0
  7

 75
     0
147
1.0
 76
     0
 77
     2
 78
   300
148
0.0
149
0.0
100
AcDbLayout
  1
Layout1
 70
     0
 71
     1
 10
0.0
 20
0.0
 11
12.0
 21
9.0
 12
0.0
 22
0.0
 32
0.0
 14
1.000000000000000E+20
 24
1.000000000000000E+20
 34
1.000000000000000E+20
 15
-1.000000000000000E+20
 25
-1.000000000000000E+20
 35
-1.000000000000000E+20
146
0.0
 13
0.0
 23
0.0
 33
0.0
 16
1.0
 26
0.0
 36
0.0
 17
0.0
 27
1.0
 37
0.0
 76
     0
330
B
  0
LAYOUT
  5
20
102
{ACAD_REACTORS
330
1E
102
}
330
1E
100
AcDbPlotSettings
  1

  2
Adobe PDF
  4
A4
  6

 40
3.174999952316283
 41
3.174999952316283
 42
3.175003051757812
 43
3.17498779296875
 44
209.9098358154297
 45
297.0318298339844
 46
0.0
 47
76.70999999999998
 48
73.54721766129523
 49
95.08507402387563
140
161.6711800876396
141
225.7654658935
142
1.0
143
0.6419753350393517
 70
 11412
 72
     1
 73
     1
 74
     4
  7

 75
     0
147
1.557692243641574
 76
     0
 77
     2
 78
   300
148
-73.54721766129523
149
-95.08507402387563
100
AcDbLayout
  1
Model
 70
     0
 71
     0
 10
0.0
 20
0.0
 11
0.0
 21
0.0
 12
0.0
 22
0.0
 32
0.0
 14
0.0
 24
0.0
 34
0.0
 15
0.0
 25
0.0
 35
0.0
146
0.0
 13
0.0
 23
0.0
 33
0.0
 16
0.0
 26
0.0
 36
0.0
 17
0.0
 27
0.0
 37
0.0
 76
     0
330
A
  0
MLINESTYLE
  5
1C
102
{ACAD_REACTORS
330
1B
102
}
330
1B
100
AcDbMlineStyle
  2
STANDARD
 70
     0
  3

 62
     0
 51
90.0
 52
90.0
 71
     2
 49
0.5
 62
   256
  6
BYLAYER
 49
-0.5
 62
   256
  6
BYLAYER
  0
ACDBPLACEHOLDER
  5
1D
102
{ACAD_REACTORS
330
1F
102
}
330
1F
  0
DICTIONARYVAR
  5
1DEA
102
{ACAD_REACTORS
330
1DE9
102
}
330
1DE9
100
DictionaryVariables
280
     0
  1
1
  0
DICTIONARYVAR
  5
1DEB
102
{ACAD_REACTORS
330
1DE9
102
}
330
1DE9
100
DictionaryVariables
280
     0
  1

  0
ENDSEC
  0
EOF
