999
Erzeugt mit innoplus bad 
0
SECTION
2
HEADER
9
$ACADVER
1
AC1009
9
$DWGCODEPAGE
3
ISO8859-1
0
ENDSEC
0
SECTION
2
TABLES
0
TABLE
2
LAYER
70
1
0
LAYER
2
0
70
0
62
7
6
CONTINUOUS
0
ENDTAB
0
ENDSEC
0
SECTION
2
ENTITIES
0
LINE
8
0
6
CONTINUOUS
10
-233.083685
20
830.755300
30
0.0
11
-234.955565
21
820.139300
31
0.0
0
LINE
8
0
6
CONTINUOUS
10
-227.001155
20
830.698230
30
0.0
11
-229.262395
21
831.096950
31
0.0
0
LINE
8
0
6
CONTINUOUS
10
-231.481595
20
818.511340
30
0.0
11
-229.220395
21
818.112630
31
0.0
0
LINE
8
0
6
CONTINUOUS
10
-229.262395
20
831.096950
30
0.0
11
-231.179355
21
831.434930
31
0.0
0
LINE
8
0
6
CONTINUOUS
10
-233.398555
20
818.849330
30
0.0
11
-231.481595
21
818.511340
31
0.0
0
LINE
8
0
6
CONTINUOUS
10
-231.179355
20
831.434930
30
0.0
11
-232.460255
21
831.660760
31
0.0
0
LINE
8
0
6
CONTINUOUS
10
-234.679455
20
819.075160
30
0.0
11
-233.398555
21
818.849330
31
0.0
0
LINE
8
0
6
CONTINUOUS
10
-232.460255
20
831.660760
30
0.0
11
-232.910045
21
831.740100
31
0.0
0
LINE
8
0
6
CONTINUOUS
10
-232.910045
20
831.740100
30
0.0
11
-233.083685
21
830.755300
31
0.0
0
LINE
8
0
6
CONTINUOUS
10
-235.129205
20
819.154500
30
0.0
11
-234.679455
21
819.075160
31
0.0
0
LINE
8
0
6
CONTINUOUS
10
-234.955565
20
820.139300
30
0.0
11
-235.129205
21
819.154500
31
0.0
0
LINE
8
0
6
CONTINUOUS
10
-0.863075
20
790.823580
30
0.0
11
-227.001155
21
830.698230
31
0.0
0
LINE
8
0
6
CONTINUOUS
10
-3.179265
20
778.255070
30
0.0
11
-3.082275
21
778.237980
31
0.0
0
LINE
8
0
6
CONTINUOUS
10
-3.082275
20
778.237980
30
0.0
11
-229.220395
21
818.112630
31
0.0
0
LINE
8
0
6
CONTINUOUS
10
3.000215
20
778.180840
30
0.0
11
4.872125
21
788.796840
31
0.0
0
LINE
8
0
6
CONTINUOUS
10
1.398145
20
790.424800
30
0.0
11
-0.863075
21
790.823580
31
0.0
0
LINE
8
0
6
CONTINUOUS
10
-3.082275
20
778.237980
30
0.0
11
-0.821055
21
777.839190
31
0.0
0
LINE
8
0
6
CONTINUOUS
10
3.315125
20
790.086810
30
0.0
11
1.398145
21
790.424800
31
0.0
0
LINE
8
0
6
CONTINUOUS
10
-0.821055
20
777.839190
30
0.0
11
1.095905
21
777.501210
31
0.0
0
LINE
8
0
6
CONTINUOUS
10
4.596005
20
789.860980
30
0.0
11
3.315125
21
790.086810
31
0.0
0
LINE
8
0
6
CONTINUOUS
10
1.095905
20
777.501210
30
0.0
11
2.376785
21
777.275380
31
0.0
0
LINE
8
0
6
CONTINUOUS
10
4.872125
20
788.796840
30
0.0
11
5.045795
21
789.781640
31
0.0
0
LINE
8
0
6
CONTINUOUS
10
5.045795
20
789.781640
30
0.0
11
4.596005
21
789.860980
31
0.0
0
LINE
8
0
6
CONTINUOUS
10
2.826575
20
777.196040
30
0.0
11
3.000215
21
778.180840
31
0.0
0
LINE
8
0
6
CONTINUOUS
10
2.376785
20
777.275380
30
0.0
11
2.826575
21
777.196040
31
0.0
0
LINE
8
0
6
CONTINUOUS
10
-125.343215
20
838.476930
30
0.0
11
-125.515975
21
837.497020
31
0.0
0
LINE
8
0
6
CONTINUOUS
10
-124.139975
20
838.264760
30
0.0
11
-125.343215
21
838.476930
31
0.0
0
LINE
8
0
6
CONTINUOUS
10
-120.713505
20
837.660590
30
0.0
11
-124.139975
21
838.264760
31
0.0
0
LINE
8
0
6
CONTINUOUS
10
-115.585405
20
836.756350
30
0.0
11
-120.713505
21
837.660590
31
0.0
0
LINE
8
0
6
CONTINUOUS
10
-109.536445
20
835.689760
30
0.0
11
-115.585405
21
836.756350
31
0.0
0
LINE
8
0
6
CONTINUOUS
10
-103.487435
20
834.623100
30
0.0
11
-109.536445
21
835.689760
31
0.0
0
LINE
8
0
6
CONTINUOUS
10
-98.359335
20
833.718860
30
0.0
11
-103.487435
21
834.623100
31
0.0
0
LINE
8
0
6
CONTINUOUS
10
-94.932865
20
833.114690
30
0.0
11
-98.359335
21
833.718860
31
0.0
0
LINE
8
0
6
CONTINUOUS
10
-93.729675
20
832.902520
30
0.0
11
-94.932865
21
833.114690
31
0.0
0
LINE
8
0
6
CONTINUOUS
10
-93.902435
20
831.922600
30
0.0
11
-93.729675
21
832.902520
31
0.0
0
LINE
8
0
6
CONTINUOUS
10
-93.671345
20
814.474550
30
0.0
11
-93.902435
21
831.922600
31
0.0
0
LINE
8
0
6
CONTINUOUS
10
-125.515975
20
837.497020
30
0.0
11
-131.700785
21
821.180260
31
0.0
0
LINE
8
0
6
CONTINUOUS
10
-100.379335
20
841.280580
30
0.0
11
-97.949865
21
840.852190
31
0.0
0
LINE
8
0
6
CONTINUOUS
10
-97.096755
20
840.701820
30
0.0
11
-94.907835
21
853.115680
31
0.0
0
LINE
8
0
6
CONTINUOUS
10
-97.949865
20
840.852190
30
0.0
11
-97.096755
21
840.701820
31
0.0
0
LINE
8
0
6
CONTINUOUS
10
-112.593085
20
843.434210
30
0.0
11
-108.304175
21
842.677980
31
0.0
0
LINE
8
0
6
CONTINUOUS
10
-108.304175
20
842.677980
30
0.0
11
-104.015315
21
841.921680
31
0.0
0
LINE
8
0
6
CONTINUOUS
10
-117.322695
20
857.068090
30
0.0
11
-119.511605
21
844.654150
31
0.0
0
LINE
8
0
6
CONTINUOUS
10
-119.511605
20
844.654150
30
0.0
11
-118.658525
21
844.503780
31
0.0
0
LINE
8
0
6
CONTINUOUS
10
-118.658525
20
844.503780
30
0.0
11
-116.229055
21
844.075380
31
0.0
0
LINE
8
0
6
CONTINUOUS
10
-104.015315
20
841.921680
30
0.0
11
-100.379335
21
841.280580
31
0.0
0
LINE
8
0
6
CONTINUOUS
10
-116.229055
20
844.075380
30
0.0
11
-112.593085
21
843.434210
31
0.0
0
LINE
8
0
6
CONTINUOUS
10
-94.907835
20
853.115680
30
0.0
11
-94.821435
21
853.605640
31
0.0
0
LINE
8
0
6
CONTINUOUS
10
-95.674555
20
853.756090
30
0.0
11
-94.821435
21
853.605640
31
0.0
0
LINE
8
0
6
CONTINUOUS
10
-95.674555
20
853.756090
30
0.0
11
-98.104025
21
854.184480
31
0.0
0
LINE
8
0
6
CONTINUOUS
10
-117.236295
20
857.558050
30
0.0
11
-117.322695
21
857.068090
31
0.0
0
LINE
8
0
6
CONTINUOUS
10
-116.383215
20
857.407600
30
0.0
11
-117.236295
21
857.558050
31
0.0
0
LINE
8
0
6
CONTINUOUS
10
-101.739965
20
854.825580
30
0.0
11
-106.028865
21
855.581880
31
0.0
0
LINE
8
0
6
CONTINUOUS
10
-110.317765
20
856.338110
30
0.0
11
-106.028865
21
855.581880
31
0.0
0
LINE
8
0
6
CONTINUOUS
10
-116.383215
20
857.407600
30
0.0
11
-113.953705
21
856.979210
31
0.0
0
LINE
8
0
6
CONTINUOUS
10
-98.104025
20
854.184480
30
0.0
11
-101.739965
21
854.825580
31
0.0
0
LINE
8
0
6
CONTINUOUS
10
-113.953705
20
856.979210
30
0.0
11
-110.317765
21
856.338110
31
0.0
0
LINE
8
0
6
CONTINUOUS
10
-112.593085
20
843.434210
30
0.0
11
-116.229055
21
844.075380
31
0.0
0
LINE
8
0
6
CONTINUOUS
10
-114.934235
20
842.202600
30
0.0
11
-112.021375
21
841.688910
31
0.0
0
LINE
8
0
6
CONTINUOUS
10
-100.379335
20
841.280580
30
0.0
11
-104.015315
21
841.921680
31
0.0
0
LINE
8
0
6
CONTINUOUS
10
-105.149465
20
840.477210
30
0.0
11
-102.236635
21
839.963600
31
0.0
0
LINE
8
0
6
CONTINUOUS
10
-116.229055
20
844.075380
30
0.0
11
-118.658525
21
844.503780
31
0.0
0
LINE
8
0
6
CONTINUOUS
10
-116.880535
20
842.545770
30
0.0
11
-114.934235
21
842.202600
31
0.0
0
LINE
8
0
6
CONTINUOUS
10
-119.511605
20
844.654150
30
0.0
11
-117.563975
21
842.666240
31
0.0
0
LINE
8
0
6
CONTINUOUS
10
-118.658525
20
844.503780
30
0.0
11
-119.511605
21
844.654150
31
0.0
0
LINE
8
0
6
CONTINUOUS
10
-117.563975
20
842.666240
30
0.0
11
-116.880535
21
842.545770
31
0.0
0
LINE
8
0
6
CONTINUOUS
10
-104.015315
20
841.921680
30
0.0
11
-108.304175
21
842.677980
31
0.0
0
LINE
8
0
6
CONTINUOUS
10
-108.585435
20
841.083060
30
0.0
11
-105.149465
21
840.477210
31
0.0
0
LINE
8
0
6
CONTINUOUS
10
-108.304175
20
842.677980
30
0.0
11
-112.593085
21
843.434210
31
0.0
0
LINE
8
0
6
CONTINUOUS
10
-112.021375
20
841.688910
30
0.0
11
-108.585435
21
841.083060
31
0.0
0
LINE
8
0
6
CONTINUOUS
10
-97.096755
20
840.701820
30
0.0
11
-97.949865
21
840.852190
31
0.0
0
LINE
8
0
6
CONTINUOUS
10
-99.606855
20
839.499880
30
0.0
11
-97.096755
21
840.701820
31
0.0
0
LINE
8
0
6
CONTINUOUS
10
-100.290305
20
839.620430
30
0.0
11
-99.606855
21
839.499880
31
0.0
0
LINE
8
0
6
CONTINUOUS
10
-97.949865
20
840.852190
30
0.0
11
-100.379335
21
841.280580
31
0.0
0
LINE
8
0
6
CONTINUOUS
10
-102.236635
20
839.963600
30
0.0
11
-100.290305
21
839.620430
31
0.0
0
LINE
8
0
6
CONTINUOUS
10
-100.907445
20
836.120600
30
0.0
11
-102.779965
21
836.882160
31
0.0
0
LINE
8
0
6
CONTINUOUS
10
-100.224005
20
836.000050
30
0.0
11
-100.907445
21
836.120600
31
0.0
0
LINE
8
0
6
CONTINUOUS
10
-98.329015
20
833.713520
30
0.0
11
-100.224005
21
836.000050
31
0.0
0
LINE
8
0
6
CONTINUOUS
10
-109.202545
20
837.583230
30
0.0
11
-112.638515
21
838.189080
31
0.0
0
LINE
8
0
6
CONTINUOUS
10
-105.766605
20
836.977380
30
0.0
11
-109.202545
21
837.583230
31
0.0
0
LINE
8
0
6
CONTINUOUS
10
-118.181115
20
839.166400
30
0.0
11
-120.743865
21
837.665930
31
0.0
0
LINE
8
0
6
CONTINUOUS
10
-117.497675
20
839.045860
30
0.0
11
-118.181115
21
839.166400
31
0.0
0
LINE
8
0
6
CONTINUOUS
10
-115.551345
20
838.702690
30
0.0
11
-117.497675
21
839.045860
31
0.0
0
LINE
8
0
6
CONTINUOUS
10
-102.779965
20
836.882160
30
0.0
11
-105.766605
21
836.977380
31
0.0
0
LINE
8
0
6
CONTINUOUS
10
-112.638515
20
838.189080
30
0.0
11
-115.551345
21
838.702690
31
0.0
0
LINE
8
0
6
CONTINUOUS
10
-100.290305
20
839.620430
30
0.0
11
-102.236635
21
839.963600
31
0.0
0
LINE
8
0
6
CONTINUOUS
10
-100.907445
20
836.120600
30
0.0
11
-100.224005
21
836.000050
31
0.0
0
LINE
8
0
6
CONTINUOUS
10
-99.606855
20
839.499880
30
0.0
11
-100.290305
21
839.620430
31
0.0
0
LINE
8
0
6
CONTINUOUS
10
-100.224005
20
836.000050
30
0.0
11
-99.606855
21
839.499880
31
0.0
0
LINE
8
0
6
CONTINUOUS
10
-112.638515
20
838.189080
30
0.0
11
-109.202545
21
837.583230
31
0.0
0
LINE
8
0
6
CONTINUOUS
10
-108.585435
20
841.083060
30
0.0
11
-112.021375
21
841.688910
31
0.0
0
LINE
8
0
6
CONTINUOUS
10
-109.202545
20
837.583230
30
0.0
11
-105.766605
21
836.977380
31
0.0
0
LINE
8
0
6
CONTINUOUS
10
-105.149465
20
840.477210
30
0.0
11
-108.585435
21
841.083060
31
0.0
0
LINE
8
0
6
CONTINUOUS
10
-118.181115
20
839.166400
30
0.0
11
-117.497675
21
839.045860
31
0.0
0
LINE
8
0
6
CONTINUOUS
10
-117.563975
20
842.666240
30
0.0
11
-118.181115
21
839.166400
31
0.0
0
LINE
8
0
6
CONTINUOUS
10
-116.880535
20
842.545770
30
0.0
11
-117.563975
21
842.666240
31
0.0
0
LINE
8
0
6
CONTINUOUS
10
-117.497675
20
839.045860
30
0.0
11
-115.551345
21
838.702690
31
0.0
0
LINE
8
0
6
CONTINUOUS
10
-114.934235
20
842.202600
30
0.0
11
-116.880535
21
842.545770
31
0.0
0
LINE
8
0
6
CONTINUOUS
10
-102.236635
20
839.963600
30
0.0
11
-105.149465
21
840.477210
31
0.0
0
LINE
8
0
6
CONTINUOUS
10
-115.551345
20
838.702690
30
0.0
11
-112.638515
21
838.189080
31
0.0
0
LINE
8
0
6
CONTINUOUS
10
-112.021375
20
841.688910
30
0.0
11
-114.934235
21
842.202600
31
0.0
0
LINE
8
0
6
CONTINUOUS
10
-131.700785
20
821.180260
30
0.0
11
-132.785155
21
819.284660
31
0.0
0
LINE
8
0
6
CONTINUOUS
10
-93.300705
20
812.322380
30
0.0
11
-93.671345
21
814.474550
31
0.0
0
LINE
8
0
6
CONTINUOUS
10
-132.785155
20
819.284660
30
0.0
11
-135.381925
21
818.055870
31
0.0
0
LINE
8
0
6
CONTINUOUS
10
-91.280825
20
810.279530
30
0.0
11
-93.300705
21
812.322380
31
0.0
0
LINE
8
0
6
CONTINUOUS
10
-82.148542
20
805.156547
30
0.0
11
-91.280825
21
810.279530
31
0.0
0
LINE
8
0
6
CONTINUOUS
10
-135.381925
20
818.055870
30
0.0
11
-145.715783
21
816.365287
31
0.0
0
LINE
8
0
6
CONTINUOUS
10
-201.681255
20
812.017580
30
0.0
11
-200.071835
21
811.733770
31
0.0
0
LINE
8
0
6
CONTINUOUS
10
-201.469364
20
813.219276
30
0.0
11
-201.681255
21
812.017580
31
0.0
0
LINE
8
0
6
CONTINUOUS
10
-200.071835
20
811.733770
30
0.0
11
-198.462415
21
811.450030
31
0.0
0
LINE
8
0
6
CONTINUOUS
10
-199.859945
20
812.935490
30
0.0
11
-200.071835
21
811.733770
31
0.0
0
LINE
8
0
6
CONTINUOUS
10
-198.462415
20
811.450030
30
0.0
11
-198.250528
21
812.651704
31
0.0
0
LINE
8
0
6
CONTINUOUS
10
-187.888455
20
809.585490
30
0.0
11
-186.279035
21
809.301750
31
0.0
0
LINE
8
0
6
CONTINUOUS
10
-187.676564
20
810.787212
30
0.0
11
-187.888455
21
809.585490
31
0.0
0
LINE
8
0
6
CONTINUOUS
10
-186.279035
20
809.301750
30
0.0
11
-184.669615
21
809.017940
31
0.0
0
LINE
8
0
6
CONTINUOUS
10
-186.067147
20
810.503426
30
0.0
11
-186.279035
21
809.301750
31
0.0
0
LINE
8
0
6
CONTINUOUS
10
-184.669615
20
809.017940
30
0.0
11
-184.457723
21
810.219638
31
0.0
0
LINE
8
0
6
CONTINUOUS
10
-174.095695
20
807.153460
30
0.0
11
-172.486265
21
806.869650
31
0.0
0
LINE
8
0
6
CONTINUOUS
10
-173.883804
20
808.355155
30
0.0
11
-174.095695
21
807.153460
31
0.0
0
LINE
8
0
6
CONTINUOUS
10
-172.486265
20
806.869650
30
0.0
11
-170.876845
21
806.585840
31
0.0
0
LINE
8
0
6
CONTINUOUS
10
-172.274359
20
808.071363
30
0.0
11
-172.486265
21
806.869650
31
0.0
0
LINE
8
0
6
CONTINUOUS
10
-170.876845
20
806.585840
30
0.0
11
-170.664940
21
807.787577
31
0.0
0
LINE
8
0
6
CONTINUOUS
10
-160.302925
20
804.721370
30
0.0
11
-158.693465
21
804.437630
31
0.0
0
LINE
8
0
6
CONTINUOUS
10
-160.091022
20
805.923093
30
0.0
11
-160.302925
21
804.721370
31
0.0
0
LINE
8
0
6
CONTINUOUS
10
-158.693465
20
804.437630
30
0.0
11
-157.084045
21
804.153810
31
0.0
0
LINE
8
0
6
CONTINUOUS
10
-158.481577
20
805.639302
30
0.0
11
-158.693465
21
804.437630
31
0.0
0
LINE
8
0
6
CONTINUOUS
10
-157.084045
20
804.153810
30
0.0
11
-156.872152
21
805.355515
31
0.0
0
LINE
8
0
6
CONTINUOUS
10
-146.510125
20
802.289340
30
0.0
11
-144.900705
21
802.005530
31
0.0
0
LINE
8
0
6
CONTINUOUS
10
-146.298235
20
803.491031
30
0.0
11
-146.510125
21
802.289340
31
0.0
0
LINE
8
0
6
CONTINUOUS
10
-144.900705
20
802.005530
30
0.0
11
-143.291285
21
801.721720
31
0.0
0
LINE
8
0
6
CONTINUOUS
10
-144.688810
20
803.207243
30
0.0
11
-144.900705
21
802.005530
31
0.0
0
LINE
8
0
6
CONTINUOUS
10
-143.291285
20
801.721720
30
0.0
11
-143.079392
21
802.923457
31
0.0
0
LINE
8
0
6
CONTINUOUS
10
-132.717365
20
799.857240
30
0.0
11
-131.107905
21
799.573510
31
0.0
0
LINE
8
0
6
CONTINUOUS
10
-132.505452
20
801.058970
30
0.0
11
-132.717365
21
799.857240
31
0.0
0
LINE
8
0
6
CONTINUOUS
10
-131.107905
20
799.573510
30
0.0
11
-129.498485
21
799.289690
31
0.0
0
LINE
8
0
6
CONTINUOUS
10
-130.896018
20
800.775180
30
0.0
11
-131.107905
21
799.573510
31
0.0
0
LINE
8
0
6
CONTINUOUS
10
-129.498485
20
799.289690
30
0.0
11
-129.286593
21
800.491393
31
0.0
0
LINE
8
0
6
CONTINUOUS
10
-118.924565
20
797.425220
30
0.0
11
-117.315145
21
797.141410
31
0.0
0
LINE
8
0
6
CONTINUOUS
10
-118.712675
20
798.626909
30
0.0
11
-118.924565
21
797.425220
31
0.0
0
LINE
8
0
6
CONTINUOUS
10
-117.315145
20
797.141410
30
0.0
11
-115.705725
21
796.857600
31
0.0
0
LINE
8
0
6
CONTINUOUS
10
-117.103250
20
798.343122
30
0.0
11
-117.315145
21
797.141410
31
0.0
0
LINE
8
0
6
CONTINUOUS
10
-115.705725
20
796.857600
30
0.0
11
-115.493832
21
798.059335
31
0.0
0
LINE
8
0
6
CONTINUOUS
10
-105.131805
20
794.993120
30
0.0
11
-103.522375
21
794.709310
31
0.0
0
LINE
8
0
6
CONTINUOUS
10
-104.919908
20
796.194850
30
0.0
11
-105.131805
21
794.993120
31
0.0
0
LINE
8
0
6
CONTINUOUS
10
-103.522375
20
794.709310
30
0.0
11
-101.912955
21
794.425570
31
0.0
0
LINE
8
0
6
CONTINUOUS
10
-103.310467
20
795.911060
30
0.0
11
-103.522375
21
794.709310
31
0.0
0
LINE
8
0
6
CONTINUOUS
10
-101.912955
20
794.425570
30
0.0
11
-101.701051
21
795.627274
31
0.0
0
LINE
8
0
6
CONTINUOUS
10
-91.338995
20
792.561100
30
0.0
11
-89.729575
21
792.277290
31
0.0
0
LINE
8
0
6
CONTINUOUS
10
-91.127110
20
793.762786
30
0.0
11
-91.338995
21
792.561100
31
0.0
0
LINE
8
0
6
CONTINUOUS
10
-89.729575
20
792.277290
30
0.0
11
-88.120155
21
791.993480
31
0.0
0
LINE
8
0
6
CONTINUOUS
10
-89.517681
20
793.478998
30
0.0
11
-89.729575
21
792.277290
31
0.0
0
LINE
8
0
6
CONTINUOUS
10
-88.120155
20
791.993480
30
0.0
11
-87.908257
21
793.195211
31
0.0
0
LINE
8
0
6
CONTINUOUS
10
-77.546235
20
790.129000
30
0.0
11
-75.936795
21
789.845190
31
0.0
0
LINE
8
0
6
CONTINUOUS
10
-77.334338
20
791.330727
30
0.0
11
-77.546235
21
790.129000
31
0.0
0
LINE
8
0
6
CONTINUOUS
10
-75.936795
20
789.845190
30
0.0
11
-74.327395
21
789.561450
31
0.0
0
LINE
8
0
6
CONTINUOUS
10
-75.724895
20
791.046936
30
0.0
11
-75.936795
21
789.845190
31
0.0
0
LINE
8
0
6
CONTINUOUS
10
-74.327395
20
789.561450
30
0.0
11
-74.115495
21
790.763153
31
0.0
0
LINE
8
0
6
CONTINUOUS
10
-63.753475
20
787.696910
30
0.0
11
-62.144035
21
787.413170
31
0.0
0
LINE
8
0
6
CONTINUOUS
10
-63.541570
20
788.898668
30
0.0
11
-63.753475
21
787.696910
31
0.0
0
LINE
8
0
6
CONTINUOUS
10
-62.144035
20
787.413170
30
0.0
11
-60.534615
21
787.129350
31
0.0
0
LINE
8
0
6
CONTINUOUS
10
-61.932133
20
788.614878
30
0.0
11
-62.144035
21
787.413170
31
0.0
0
LINE
8
0
6
CONTINUOUS
10
-60.534615
20
787.129350
30
0.0
11
-60.322708
21
788.331091
31
0.0
0
LINE
8
0
6
CONTINUOUS
10
-49.960675
20
785.264880
30
0.0
11
-48.351255
21
784.981070
31
0.0
0
LINE
8
0
6
CONTINUOUS
10
-49.748779
20
786.466605
30
0.0
11
-49.960675
21
785.264880
31
0.0
0
LINE
8
0
6
CONTINUOUS
10
-48.351255
20
784.981070
30
0.0
11
-46.741835
21
784.697260
31
0.0
0
LINE
8
0
6
CONTINUOUS
10
-48.139347
20
786.182816
30
0.0
11
-48.351255
21
784.981070
31
0.0
0
LINE
8
0
6
CONTINUOUS
10
-46.741835
20
784.697260
30
0.0
11
-46.529936
21
785.899031
31
0.0
0
LINE
8
0
6
CONTINUOUS
10
-36.167925
20
782.832790
30
0.0
11
-34.558485
21
782.549050
31
0.0
0
LINE
8
0
6
CONTINUOUS
10
-35.956024
20
784.034548
30
0.0
11
-36.167925
21
782.832790
31
0.0
0
LINE
8
0
6
CONTINUOUS
10
-34.558485
20
782.549050
30
0.0
11
-32.949065
21
782.265230
31
0.0
0
LINE
8
0
6
CONTINUOUS
10
-34.346587
20
783.750759
30
0.0
11
-34.558485
21
782.549050
31
0.0
0
LINE
8
0
6
CONTINUOUS
10
-32.949065
20
782.265230
30
0.0
11
-32.737166
21
783.466972
31
0.0
0
LINE
8
0
6
CONTINUOUS
10
-215.255604
20
815.650184
30
0.0
11
-215.467495
21
814.448460
31
0.0
0
LINE
8
0
6
CONTINUOUS
10
-213.858035
20
814.164720
30
0.0
11
-215.467495
21
814.448460
31
0.0
0
LINE
8
0
6
CONTINUOUS
10
-213.646148
20
815.366391
30
0.0
11
-213.858035
21
814.164720
31
0.0
0
LINE
8
0
6
CONTINUOUS
10
-212.248615
20
813.880910
30
0.0
11
-212.036724
21
815.082604
31
0.0
0
LINE
8
0
6
CONTINUOUS
10
-212.248615
20
813.880910
30
0.0
11
-213.858035
21
814.164720
31
0.0
0
LINE
8
0
6
CONTINUOUS
10
128.112731
20
303.482114
30
0.0
11
127.503872
21
302.760442
31
0.0
0
LINE
8
0
6
CONTINUOUS
10
124.070684
20
298.506780
30
0.0
11
124.276010
21
297.381376
31
0.0
0
LINE
8
0
6
CONTINUOUS
10
124.246297
20
299.582366
30
0.0
11
124.070684
21
298.506780
31
0.0
0
LINE
8
0
6
CONTINUOUS
10
128.214016
20
304.505073
30
0.0
11
128.104488
21
303.448995
31
0.0
0
LINE
8
0
6
CONTINUOUS
10
128.768248
20
304.018587
30
0.0
11
128.706698
21
303.106167
31
0.0
0
LINE
8
0
6
CONTINUOUS
10
127.996224
20
302.235609
30
0.0
11
128.706698
21
303.106167
31
0.0
0
LINE
8
0
6
CONTINUOUS
10
131.582742
20
283.535116
30
0.0
11
130.589855
21
282.980419
31
0.0
0
LINE
8
0
6
CONTINUOUS
10
128.457068
20
282.726512
30
0.0
11
129.523341
21
282.157962
31
0.0
0
LINE
8
0
6
CONTINUOUS
10
134.647245
20
287.154290
30
0.0
11
133.322316
21
285.187791
31
0.0
0
LINE
8
0
6
CONTINUOUS
10
124.852940
20
300.532376
30
0.0
11
124.246297
21
299.582366
31
0.0
0
LINE
8
0
6
CONTINUOUS
10
125.689659
20
301.334998
30
0.0
11
124.852940
21
300.532376
31
0.0
0
LINE
8
0
6
CONTINUOUS
10
127.671984
20
284.278281
30
0.0
11
127.779686
21
283.862733
31
0.0
0
LINE
8
0
6
CONTINUOUS
10
136.004926
20
291.693340
30
0.0
11
135.869416
21
294.074848
31
0.0
0
LINE
8
0
6
CONTINUOUS
10
127.779686
20
283.862733
30
0.0
11
128.457068
21
282.726512
31
0.0
0
LINE
8
0
6
CONTINUOUS
10
127.503360
20
302.760552
30
0.0
11
125.689659
21
301.334998
31
0.0
0
LINE
8
0
6
CONTINUOUS
10
127.996224
20
302.235609
30
0.0
11
126.185801
21
300.762043
31
0.0
0
LINE
8
0
6
CONTINUOUS
10
131.582742
20
283.535116
30
0.0
11
133.322316
21
285.187791
31
0.0
0
LINE
8
0
6
CONTINUOUS
10
134.647245
20
287.154290
30
0.0
11
135.637365
21
289.364198
31
0.0
0
LINE
8
0
6
CONTINUOUS
10
130.099769
20
284.150628
30
0.0
11
130.441047
21
284.316324
31
0.0
0
LINE
8
0
6
CONTINUOUS
10
136.004926
20
291.693340
30
0.0
11
135.637365
21
289.364198
31
0.0
0
LINE
8
0
6
CONTINUOUS
10
135.951787
20
294.910539
30
0.0
11
135.869416
21
294.074848
31
0.0
0
LINE
8
0
6
CONTINUOUS
10
127.162082
20
286.245699
30
0.0
11
127.671984
21
284.278281
31
0.0
0
LINE
8
0
6
CONTINUOUS
10
124.276010
20
297.381376
30
0.0
11
127.162082
21
286.245699
31
0.0
0
LINE
8
0
6
CONTINUOUS
10
99.279799
20
338.096799
30
0.0
11
102.993454
21
333.509978
31
0.0
0
LINE
8
0
6
CONTINUOUS
10
118.829240
20
313.959332
30
0.0
11
120.591186
21
311.786068
31
0.0
0
LINE
8
0
6
CONTINUOUS
10
120.052454
20
313.213332
30
0.0
11
119.456410
21
313.948526
31
0.0
0
LINE
8
0
6
CONTINUOUS
10
87.171708
20
353.057687
30
0.0
11
89.536818
21
350.134207
31
0.0
0
LINE
8
0
6
CONTINUOUS
10
89.696676
20
350.700489
30
0.0
11
88.918993
21
351.661769
31
0.0
0
LINE
8
0
6
CONTINUOUS
10
116.459337
20
316.883811
30
0.0
11
118.829240
21
313.959332
31
0.0
0
LINE
8
0
6
CONTINUOUS
10
119.456410
20
313.948526
30
0.0
11
117.048701
21
316.919637
31
0.0
0
LINE
8
0
6
CONTINUOUS
10
106.707701
20
328.923036
30
0.0
11
110.279829
21
324.512227
31
0.0
0
LINE
8
0
6
CONTINUOUS
10
102.993454
20
333.509978
30
0.0
11
106.707701
21
328.923036
31
0.0
0
LINE
8
0
6
CONTINUOUS
10
92.419671
20
346.571763
30
0.0
11
95.709466
21
342.507229
31
0.0
0
LINE
8
0
6
CONTINUOUS
10
120.591186
20
311.786068
30
0.0
11
121.677465
21
310.447507
31
0.0
0
LINE
8
0
6
CONTINUOUS
10
89.536818
20
350.134207
30
0.0
11
92.419671
21
346.571763
31
0.0
0
LINE
8
0
6
CONTINUOUS
10
84.334864
20
356.567135
30
0.0
11
85.415217
21
355.229812
31
0.0
0
LINE
8
0
6
CONTINUOUS
10
110.279829
20
324.512227
30
0.0
11
113.572553
21
320.447083
31
0.0
0
LINE
8
0
6
CONTINUOUS
10
83.972156
20
357.018260
30
0.0
11
84.334864
21
356.567135
31
0.0
0
LINE
8
0
6
CONTINUOUS
10
84.010797
20
357.385712
30
0.0
11
83.972156
21
357.018260
31
0.0
0
LINE
8
0
6
CONTINUOUS
10
95.709466
20
342.507229
30
0.0
11
99.279799
21
338.096799
31
0.0
0
LINE
8
0
6
CONTINUOUS
10
122.046351
20
309.995084
30
0.0
11
122.631905
21
309.931178
31
0.0
0
LINE
8
0
6
CONTINUOUS
10
121.677465
20
310.447507
30
0.0
11
122.046351
21
309.995084
31
0.0
0
LINE
8
0
6
CONTINUOUS
10
85.415217
20
355.229812
30
0.0
11
87.171708
21
353.057687
31
0.0
0
LINE
8
0
6
CONTINUOUS
10
113.572553
20
320.447083
30
0.0
11
116.459337
21
316.883811
31
0.0
0
LINE
8
0
6
CONTINUOUS
10
100.429717
20
334.717331
30
0.0
11
102.036708
21
332.732485
31
0.0
0
LINE
8
0
6
CONTINUOUS
10
102.198783
20
332.862775
30
0.0
11
100.566160
21
334.879272
31
0.0
0
LINE
8
0
6
CONTINUOUS
10
108.889265
20
324.272423
30
0.0
11
109.651696
21
323.332001
31
0.0
0
LINE
8
0
6
CONTINUOUS
10
103.643970
20
330.747609
30
0.0
11
105.189720
21
328.838930
31
0.0
0
LINE
8
0
6
CONTINUOUS
10
105.402086
20
328.907106
30
0.0
11
103.831677
21
330.846208
31
0.0
0
LINE
8
0
6
CONTINUOUS
10
102.036708
20
332.732485
30
0.0
11
103.643970
21
330.747609
31
0.0
0
LINE
8
0
6
CONTINUOUS
10
103.831677
20
330.846208
30
0.0
11
102.198783
21
332.862775
31
0.0
0
LINE
8
0
6
CONTINUOUS
10
97.461173
20
338.384645
30
0.0
11
98.884750
21
336.625821
31
0.0
0
LINE
8
0
6
CONTINUOUS
10
98.996544
20
336.818224
30
0.0
11
97.550233
21
338.605114
31
0.0
0
LINE
8
0
6
CONTINUOUS
10
109.651696
20
323.332001
30
0.0
11
110.121765
21
322.752764
31
0.0
0
LINE
8
0
6
CONTINUOUS
10
93.962672
20
342.709919
30
0.0
11
94.430165
21
342.131222
31
0.0
0
LINE
8
0
6
CONTINUOUS
10
105.189720
20
328.838930
30
0.0
11
106.614560
21
327.079836
31
0.0
0
LINE
8
0
6
CONTINUOUS
10
106.849660
20
327.119946
30
0.0
11
105.402086
21
328.907106
31
0.0
0
LINE
8
0
6
CONTINUOUS
10
98.884750
20
336.625821
30
0.0
11
100.429717
21
334.717331
31
0.0
0
LINE
8
0
6
CONTINUOUS
10
100.566160
20
334.879272
30
0.0
11
98.996544
21
336.818224
31
0.0
0
LINE
8
0
6
CONTINUOUS
10
94.430165
20
342.131222
30
0.0
11
95.190238
21
341.191289
31
0.0
0
LINE
8
0
6
CONTINUOUS
10
100.206230
20
332.866051
30
0.0
11
100.996709
21
331.889413
31
0.0
0
LINE
8
0
6
CONTINUOUS
10
100.996709
20
331.889413
30
0.0
11
101.787128
21
330.913595
31
0.0
0
LINE
8
0
6
CONTINUOUS
10
106.126710
20
325.749993
30
0.0
11
106.917189
21
324.773346
31
0.0
0
LINE
8
0
6
CONTINUOUS
10
106.917189
20
324.773346
30
0.0
11
107.707618
21
323.797528
31
0.0
0
LINE
8
0
6
CONTINUOUS
10
107.717404
20
325.416052
30
0.0
11
106.917189
21
324.773346
31
0.0
0
LINE
8
0
6
CONTINUOUS
10
107.707618
20
323.797528
30
0.0
11
108.527923
21
324.456374
31
0.0
0
LINE
8
0
6
CONTINUOUS
10
106.126710
20
325.749993
30
0.0
11
106.906446
21
326.376251
31
0.0
0
LINE
8
0
6
CONTINUOUS
10
104.417391
20
327.857558
30
0.0
11
105.207881
21
326.880901
31
0.0
0
LINE
8
0
6
CONTINUOUS
10
105.207881
20
326.880901
30
0.0
11
105.998290
21
325.905102
31
0.0
0
LINE
8
0
6
CONTINUOUS
10
105.965980
20
327.489790
30
0.0
11
105.207881
21
326.880901
31
0.0
0
LINE
8
0
6
CONTINUOUS
10
105.998290
20
325.905102
30
0.0
11
106.776488
21
326.530125
31
0.0
0
LINE
8
0
6
CONTINUOUS
10
104.417391
20
327.857558
30
0.0
11
105.400610
21
328.647253
31
0.0
0
LINE
8
0
6
CONTINUOUS
10
100.297576
20
332.944244
30
0.0
11
101.088055
21
331.967607
31
0.0
0
LINE
8
0
6
CONTINUOUS
10
101.088055
20
331.967607
30
0.0
11
101.878484
21
330.991789
31
0.0
0
LINE
8
0
6
CONTINUOUS
10
101.747690
20
332.497398
30
0.0
11
101.088055
21
331.967607
31
0.0
0
LINE
8
0
6
CONTINUOUS
10
101.878484
20
330.991789
30
0.0
11
102.551648
21
331.532459
31
0.0
0
LINE
8
0
6
CONTINUOUS
10
100.297576
20
332.944244
30
0.0
11
100.975743
21
333.488925
31
0.0
0
LINE
8
0
6
CONTINUOUS
10
96.180578
20
338.030371
30
0.0
11
96.971048
21
337.053724
31
0.0
0
LINE
8
0
6
CONTINUOUS
10
96.971048
20
337.053724
30
0.0
11
97.761466
21
336.077906
31
0.0
0
LINE
8
0
6
CONTINUOUS
10
97.727425
20
337.661221
30
0.0
11
96.971048
21
337.053724
31
0.0
0
LINE
8
0
6
CONTINUOUS
10
97.761466
20
336.077906
30
0.0
11
98.748920
21
336.871008
31
0.0
0
LINE
8
0
6
CONTINUOUS
10
96.180578
20
338.030371
30
0.0
11
96.955475
21
338.652752
31
0.0
0
LINE
8
0
6
CONTINUOUS
10
94.478099
20
340.136508
30
0.0
11
95.268578
21
339.159870
31
0.0
0
LINE
8
0
6
CONTINUOUS
10
95.268578
20
339.159870
30
0.0
11
96.058997
21
338.184052
31
0.0
0
LINE
8
0
6
CONTINUOUS
10
96.063555
20
339.798377
30
0.0
11
95.268578
21
339.159870
31
0.0
0
LINE
8
0
6
CONTINUOUS
10
96.058997
20
338.184052
30
0.0
11
96.835086
21
338.807385
31
0.0
0
LINE
8
0
6
CONTINUOUS
10
94.478099
20
340.136508
30
0.0
11
95.291612
21
340.789898
31
0.0
0
LINE
8
0
6
CONTINUOUS
10
112.025590
20
319.324376
30
0.0
11
112.816069
21
318.347718
31
0.0
0
LINE
8
0
6
CONTINUOUS
10
112.816069
20
318.347718
30
0.0
11
113.606498
21
317.371920
31
0.0
0
LINE
8
0
6
CONTINUOUS
10
113.621132
20
318.994323
30
0.0
11
112.816069
21
318.347718
31
0.0
0
LINE
8
0
6
CONTINUOUS
10
113.606498
20
317.371920
30
0.0
11
114.502248
21
318.091355
31
0.0
0
LINE
8
0
6
CONTINUOUS
10
110.506806
20
321.195312
30
0.0
11
111.297285
21
320.218664
31
0.0
0
LINE
8
0
6
CONTINUOUS
10
111.297285
20
320.218664
30
0.0
11
112.087714
21
319.242856
31
0.0
0
LINE
8
0
6
CONTINUOUS
10
111.930302
20
320.727086
30
0.0
11
111.297285
21
320.218664
31
0.0
0
LINE
8
0
6
CONTINUOUS
10
112.087714
20
319.242856
30
0.0
11
113.137507
21
320.086026
31
0.0
0
LINE
8
0
6
CONTINUOUS
10
110.506806
20
321.195312
30
0.0
11
111.408645
21
321.919639
31
0.0
0
LINE
8
0
6
CONTINUOUS
10
106.366784
20
326.304880
30
0.0
11
107.157263
21
325.328233
31
0.0
0
LINE
8
0
6
CONTINUOUS
10
107.157263
20
325.328233
30
0.0
11
107.947692
21
324.352424
31
0.0
0
LINE
8
0
6
CONTINUOUS
10
107.535202
20
325.631785
30
0.0
11
107.157263
21
325.328233
31
0.0
0
LINE
8
0
6
CONTINUOUS
10
107.947692
20
324.352424
30
0.0
11
108.345720
21
324.672108
31
0.0
0
LINE
8
0
6
CONTINUOUS
10
106.366784
20
326.304880
30
0.0
11
107.337934
21
327.084881
31
0.0
0
LINE
8
0
6
CONTINUOUS
10
100.714837
20
333.283986
30
0.0
11
101.505306
21
332.307329
31
0.0
0
LINE
8
0
6
CONTINUOUS
10
101.505306
20
332.307329
30
0.0
11
102.295735
21
331.331530
31
0.0
0
LINE
8
0
6
CONTINUOUS
10
101.745484
20
332.500231
30
0.0
11
101.505306
21
332.307329
31
0.0
0
LINE
8
0
6
CONTINUOUS
10
102.295735
20
331.331530
30
0.0
11
102.549327
21
331.535208
31
0.0
0
LINE
8
0
6
CONTINUOUS
10
100.714837
20
333.283986
30
0.0
11
100.973533
21
333.491763
31
0.0
0
LINE
8
0
6
CONTINUOUS
10
95.065398
20
340.262563
30
0.0
11
95.855877
21
339.285905
31
0.0
0
LINE
8
0
6
CONTINUOUS
10
95.855877
20
339.285905
30
0.0
11
96.646296
21
338.310107
31
0.0
0
LINE
8
0
6
CONTINUOUS
10
96.229135
20
339.585698
30
0.0
11
95.855877
21
339.285905
31
0.0
0
LINE
8
0
6
CONTINUOUS
10
96.646296
20
338.310107
30
0.0
11
97.595698
21
339.072635
31
0.0
0
LINE
8
0
6
CONTINUOUS
10
95.065398
20
340.262563
30
0.0
11
95.457182
21
340.577232
31
0.0
0
LINE
8
0
6
CONTINUOUS
10
90.932235
20
345.370712
30
0.0
11
91.722704
21
344.394075
31
0.0
0
LINE
8
0
6
CONTINUOUS
10
91.722704
20
344.394075
30
0.0
11
92.513133
21
343.418257
31
0.0
0
LINE
8
0
6
CONTINUOUS
10
92.314154
20
344.869111
30
0.0
11
91.722704
21
344.394075
31
0.0
0
LINE
8
0
6
CONTINUOUS
10
92.513133
20
343.418257
30
0.0
11
93.359048
21
344.097671
31
0.0
0
LINE
8
0
6
CONTINUOUS
10
90.932235
20
345.370712
30
0.0
11
91.897287
21
346.145820
31
0.0
0
LINE
8
0
6
CONTINUOUS
10
89.422828
20
347.239711
30
0.0
11
90.213297
21
346.263054
31
0.0
0
LINE
8
0
6
CONTINUOUS
10
90.213297
20
346.263054
30
0.0
11
91.003736
21
345.287255
31
0.0
0
LINE
8
0
6
CONTINUOUS
10
90.936516
20
346.843919
30
0.0
11
90.213297
21
346.263054
31
0.0
0
LINE
8
0
6
CONTINUOUS
10
89.422828
20
347.239711
30
0.0
11
90.215997
21
347.876762
31
0.0
0
LINE
8
0
6
CONTINUOUS
10
92.522519
20
343.416299
30
0.0
11
93.038527
21
343.830742
31
0.0
0
LINE
8
0
6
CONTINUOUS
10
114.531454
20
317.309097
30
0.0
11
114.943019
21
317.639652
31
0.0
0
LINE
8
0
6
CONTINUOUS
10
117.783785
20
313.282356
30
0.0
11
118.574264
21
312.305708
31
0.0
0
LINE
8
0
6
CONTINUOUS
10
118.574264
20
312.305708
30
0.0
11
119.364683
21
311.329890
31
0.0
0
LINE
8
0
6
CONTINUOUS
10
119.472787
20
313.027388
30
0.0
11
118.574264
21
312.305708
31
0.0
0
LINE
8
0
6
CONTINUOUS
10
119.364683
20
311.329890
30
0.0
11
120.376106
21
312.142243
31
0.0
0
LINE
8
0
6
CONTINUOUS
10
116.519897
20
314.837910
30
0.0
11
117.310376
21
313.861273
31
0.0
0
LINE
8
0
6
CONTINUOUS
10
117.310376
20
313.861273
30
0.0
11
118.100795
21
312.885455
31
0.0
0
LINE
8
0
6
CONTINUOUS
10
118.050167
20
314.455447
30
0.0
11
117.310376
21
313.861273
31
0.0
0
LINE
8
0
6
CONTINUOUS
10
118.100795
20
312.885455
30
0.0
11
119.098080
21
313.686446
31
0.0
0
LINE
8
0
6
CONTINUOUS
10
116.519897
20
314.837910
30
0.0
11
117.365695
21
315.517232
31
0.0
0
LINE
8
0
6
CONTINUOUS
10
112.931152
20
319.265588
30
0.0
11
113.721631
21
318.288941
31
0.0
0
LINE
8
0
6
CONTINUOUS
10
113.721631
20
318.288941
30
0.0
11
114.512050
21
317.313132
31
0.0
0
LINE
8
0
6
CONTINUOUS
10
115.195118
20
319.472403
30
0.0
11
113.721631
21
318.288941
31
0.0
0
LINE
8
0
6
CONTINUOUS
10
114.512050
20
317.313132
30
0.0
11
115.589920
21
318.178841
31
0.0
0
LINE
8
0
6
CONTINUOUS
10
112.931152
20
319.265588
30
0.0
11
113.838681
21
319.994490
31
0.0
0
LINE
8
0
6
CONTINUOUS
10
107.563905
20
325.891299
30
0.0
11
108.354384
21
324.914652
31
0.0
0
LINE
8
0
6
CONTINUOUS
10
108.354384
20
324.914652
30
0.0
11
109.144803
21
323.938843
31
0.0
0
LINE
8
0
6
CONTINUOUS
10
109.323534
20
325.693046
30
0.0
11
108.354384
21
324.914652
31
0.0
0
LINE
8
0
6
CONTINUOUS
10
109.144803
20
323.938843
30
0.0
11
110.023678
21
324.644732
31
0.0
0
LINE
8
0
6
CONTINUOUS
10
107.563905
20
325.891299
30
0.0
11
108.408205
21
326.569417
31
0.0
0
LINE
8
0
6
CONTINUOUS
10
101.235258
20
333.706366
30
0.0
11
102.025737
21
332.729708
31
0.0
0
LINE
8
0
6
CONTINUOUS
10
102.025737
20
332.729708
30
0.0
11
102.816166
21
331.753910
31
0.0
0
LINE
8
0
6
CONTINUOUS
10
102.994939
20
333.508144
30
0.0
11
102.025737
21
332.729708
31
0.0
0
LINE
8
0
6
CONTINUOUS
10
102.816166
20
331.753910
30
0.0
11
103.735955
21
332.492663
31
0.0
0
LINE
8
0
6
CONTINUOUS
10
101.235258
20
333.706366
30
0.0
11
102.151478
21
334.442242
31
0.0
0
LINE
8
0
6
CONTINUOUS
10
94.908698
20
341.520993
30
0.0
11
95.699187
21
340.544336
31
0.0
0
LINE
8
0
6
CONTINUOUS
10
95.699187
20
340.544336
30
0.0
11
96.489596
21
339.568537
31
0.0
0
LINE
8
0
6
CONTINUOUS
10
96.668331
20
341.322743
30
0.0
11
95.699187
21
340.544336
31
0.0
0
LINE
8
0
6
CONTINUOUS
10
96.489596
20
339.568537
30
0.0
11
97.336854
21
340.249027
31
0.0
0
LINE
8
0
6
CONTINUOUS
10
94.908698
20
341.520993
30
0.0
11
95.789318
21
342.228282
31
0.0
0
LINE
8
0
6
CONTINUOUS
10
89.547397
20
348.145486
30
0.0
11
90.337876
21
347.168828
31
0.0
0
LINE
8
0
6
CONTINUOUS
10
90.337876
20
347.168828
30
0.0
11
91.128295
21
346.193010
31
0.0
0
LINE
8
0
6
CONTINUOUS
10
91.811353
20
348.352291
30
0.0
11
90.337876
21
347.168828
31
0.0
0
LINE
8
0
6
CONTINUOUS
10
91.128295
20
346.193010
30
0.0
11
92.106078
21
346.978337
31
0.0
0
LINE
8
0
6
CONTINUOUS
10
89.547397
20
348.145486
30
0.0
11
90.675596
21
349.051623
31
0.0
0
LINE
8
0
6
CONTINUOUS
10
85.967568
20
352.571306
30
0.0
11
86.758037
21
351.594648
31
0.0
0
LINE
8
0
6
CONTINUOUS
10
86.758037
20
351.594648
30
0.0
11
87.548466
21
350.618830
31
0.0
0
LINE
8
0
6
CONTINUOUS
10
87.311994
20
352.039571
30
0.0
11
86.758037
21
351.594648
31
0.0
0
LINE
8
0
6
CONTINUOUS
10
87.548466
20
350.618830
30
0.0
11
88.321151
21
351.239448
31
0.0
0
LINE
8
0
6
CONTINUOUS
10
85.967568
20
352.571306
30
0.0
11
86.898104
21
353.318691
31
0.0
0
LINE
8
0
6
CONTINUOUS
10
84.714179
20
354.124663
30
0.0
11
85.504658
21
353.148026
31
0.0
0
LINE
8
0
6
CONTINUOUS
10
85.504658
20
353.148026
30
0.0
11
86.295077
21
352.172207
31
0.0
0
LINE
8
0
6
CONTINUOUS
10
86.221057
20
353.723416
30
0.0
11
85.504658
21
353.148026
31
0.0
0
LINE
8
0
6
CONTINUOUS
10
84.714179
20
354.124663
30
0.0
11
85.565997
21
354.808819
31
0.0
0
LINE
8
0
6
CONTINUOUS
10
87.558975
20
350.616633
30
0.0
11
88.036877
21
351.000472
31
0.0
0
LINE
8
0
6
CONTINUOUS
10
124.866337
20
306.577892
30
0.0
11
125.656766
21
305.602073
31
0.0
0
LINE
8
0
6
CONTINUOUS
10
125.519409
20
307.102417
30
0.0
11
124.866337
21
306.577892
31
0.0
0
LINE
8
0
6
CONTINUOUS
10
125.656766
20
305.602073
30
0.0
11
126.422728
21
306.217272
31
0.0
0
LINE
8
0
6
CONTINUOUS
10
123.002114
20
308.874913
30
0.0
11
123.792593
21
307.898266
31
0.0
0
LINE
8
0
6
CONTINUOUS
10
123.792593
20
307.898266
30
0.0
11
124.583012
21
306.922457
31
0.0
0
LINE
8
0
6
CONTINUOUS
10
124.295225
20
308.301972
30
0.0
11
123.792593
21
307.898266
31
0.0
0
LINE
8
0
6
CONTINUOUS
10
124.583012
20
306.922457
30
0.0
11
125.398337
21
307.577309
31
0.0
0
LINE
8
0
6
CONTINUOUS
10
123.002114
20
308.874913
30
0.0
11
123.578946
21
309.338219
31
0.0
0
LINE
8
0
6
CONTINUOUS
10
119.897127
20
312.704517
30
0.0
11
120.687596
21
311.727870
31
0.0
0
LINE
8
0
6
CONTINUOUS
10
120.687596
20
311.727870
30
0.0
11
121.478015
21
310.752052
31
0.0
0
LINE
8
0
6
CONTINUOUS
10
122.161083
20
312.911333
30
0.0
11
120.687596
21
311.727870
31
0.0
0
LINE
8
0
6
CONTINUOUS
10
121.478015
20
310.752052
30
0.0
11
122.355242
21
311.456617
31
0.0
0
LINE
8
0
6
CONTINUOUS
10
119.897127
20
312.704517
30
0.0
11
120.612202
21
313.278849
31
0.0
0
LINE
8
0
6
CONTINUOUS
10
115.064862
20
318.668443
30
0.0
11
115.855331
21
317.691796
31
0.0
0
LINE
8
0
6
CONTINUOUS
10
115.855331
20
317.691796
30
0.0
11
116.645760
21
316.715978
31
0.0
0
LINE
8
0
6
CONTINUOUS
10
117.328827
20
318.875259
30
0.0
11
115.855331
21
317.691796
31
0.0
0
LINE
8
0
6
CONTINUOUS
10
116.645760
20
316.715978
30
0.0
11
117.506182
21
317.407044
31
0.0
0
LINE
8
0
6
CONTINUOUS
10
115.064862
20
318.668443
30
0.0
11
115.838404
21
319.289726
31
0.0
0
LINE
8
0
6
CONTINUOUS
10
108.978325
20
326.182920
30
0.0
11
109.768804
21
325.206273
31
0.0
0
LINE
8
0
6
CONTINUOUS
10
109.768804
20
325.206273
30
0.0
11
110.559223
21
324.230454
31
0.0
0
LINE
8
0
6
CONTINUOUS
10
110.112526
20
325.482340
30
0.0
11
109.768804
21
325.206273
31
0.0
0
LINE
8
0
6
CONTINUOUS
10
110.559223
20
324.230454
30
0.0
11
111.348382
21
324.864284
31
0.0
0
LINE
8
0
6
CONTINUOUS
10
108.978325
20
326.182920
30
0.0
11
109.673989
21
326.741653
31
0.0
0
LINE
8
0
6
CONTINUOUS
10
102.233320
20
334.512373
30
0.0
11
103.023789
21
333.535716
31
0.0
0
LINE
8
0
6
CONTINUOUS
10
103.023789
20
333.535716
30
0.0
11
103.814208
21
332.559918
31
0.0
0
LINE
8
0
6
CONTINUOUS
10
103.367440
20
333.811731
30
0.0
11
103.023789
21
333.535716
31
0.0
0
LINE
8
0
6
CONTINUOUS
10
103.814208
20
332.559918
30
0.0
11
104.560702
21
333.159480
31
0.0
0
LINE
8
0
6
CONTINUOUS
10
102.233320
20
334.512373
30
0.0
11
102.977066
21
335.109733
31
0.0
0
LINE
8
0
6
CONTINUOUS
10
95.490060
20
342.841477
30
0.0
11
96.280539
21
341.864820
31
0.0
0
LINE
8
0
6
CONTINUOUS
10
96.280539
20
341.864820
30
0.0
11
97.070958
21
340.889001
31
0.0
0
LINE
8
0
6
CONTINUOUS
10
96.624265
20
342.140891
30
0.0
11
96.280539
21
341.864820
31
0.0
0
LINE
8
0
6
CONTINUOUS
10
97.070958
20
340.889001
30
0.0
11
97.766079
21
341.447309
31
0.0
0
LINE
8
0
6
CONTINUOUS
10
95.490060
20
342.841477
30
0.0
11
96.263599
21
343.462762
31
0.0
0
LINE
8
0
6
CONTINUOUS
10
89.408658
20
350.354885
30
0.0
11
90.199137
21
349.378248
31
0.0
0
LINE
8
0
6
CONTINUOUS
10
90.199137
20
349.378248
30
0.0
11
90.989556
21
348.402429
31
0.0
0
LINE
8
0
6
CONTINUOUS
10
91.672623
20
350.561710
30
0.0
11
90.199137
21
349.378248
31
0.0
0
LINE
8
0
6
CONTINUOUS
10
90.989556
20
348.402429
30
0.0
11
91.676031
21
348.953783
31
0.0
0
LINE
8
0
6
CONTINUOUS
10
89.408658
20
350.354885
30
0.0
11
90.261653
21
351.039986
31
0.0
0
LINE
8
0
6
CONTINUOUS
10
84.584405
20
356.317163
30
0.0
11
85.374874
21
355.340526
31
0.0
0
LINE
8
0
6
CONTINUOUS
10
85.374874
20
355.340526
30
0.0
11
86.165303
21
354.364707
31
0.0
0
LINE
8
0
6
CONTINUOUS
10
86.848370
20
356.523988
30
0.0
11
85.374874
21
355.340526
31
0.0
0
LINE
8
0
6
CONTINUOUS
10
86.165303
20
354.364707
30
0.0
11
86.825716
21
354.895132
31
0.0
0
LINE
8
0
6
CONTINUOUS
10
84.584405
20
356.317163
30
0.0
11
85.425861
21
356.992997
31
0.0
0
LINE
8
0
6
CONTINUOUS
10
81.489517
20
360.144660
30
0.0
11
82.279996
21
359.168023
31
0.0
0
LINE
8
0
6
CONTINUOUS
10
82.279996
20
359.168023
30
0.0
11
83.070415
21
358.192204
31
0.0
0
LINE
8
0
6
CONTINUOUS
10
82.721250
20
359.522428
30
0.0
11
82.279996
21
359.168023
31
0.0
0
LINE
8
0
6
CONTINUOUS
10
83.070415
20
358.192204
30
0.0
11
83.611393
21
358.626702
31
0.0
0
LINE
8
0
6
CONTINUOUS
10
81.489517
20
360.144660
30
0.0
11
82.273523
21
360.774347
31
0.0
0
LINE
8
0
6
CONTINUOUS
10
80.426944
20
361.462727
30
0.0
11
81.217423
21
360.486069
31
0.0
0
LINE
8
0
6
CONTINUOUS
10
81.838582
20
360.984968
30
0.0
11
81.217423
21
360.486069
31
0.0
0
LINE
8
0
6
CONTINUOUS
10
80.426944
20
361.462727
30
0.0
11
81.183516
21
362.070380
31
0.0
0
LINE
8
0
6
CONTINUOUS
10
83.081606
20
358.189877
30
0.0
11
83.380558
21
358.429987
31
0.0
0
LINE
8
0
6
CONTINUOUS
10
129.317453
20
302.730320
30
0.0
11
130.107942
21
301.753672
31
0.0
0
LINE
8
0
6
CONTINUOUS
10
130.107942
20
301.753672
30
0.0
11
130.898351
21
300.777864
31
0.0
0
LINE
8
0
6
CONTINUOUS
10
131.018482
20
302.484998
30
0.0
11
130.107942
21
301.753672
31
0.0
0
LINE
8
0
6
CONTINUOUS
10
130.898351
20
300.777864
30
0.0
11
131.751862
21
301.463375
31
0.0
0
LINE
8
0
6
CONTINUOUS
10
129.317453
20
302.730320
30
0.0
11
129.924302
21
303.217720
31
0.0
0
LINE
8
0
6
CONTINUOUS
10
126.596123
20
306.085698
30
0.0
11
127.386602
21
305.109050
31
0.0
0
LINE
8
0
6
CONTINUOUS
10
127.386602
20
305.109050
30
0.0
11
128.177021
21
304.133232
31
0.0
0
LINE
8
0
6
CONTINUOUS
10
128.860099
20
306.292513
30
0.0
11
127.386602
21
305.109050
31
0.0
0
LINE
8
0
6
CONTINUOUS
10
128.177021
20
304.133232
30
0.0
11
129.058231
21
304.840990
31
0.0
0
LINE
8
0
6
CONTINUOUS
10
126.596123
20
306.085698
30
0.0
11
127.242552
21
306.604895
31
0.0
0
LINE
8
0
6
CONTINUOUS
10
122.271082
20
311.422496
30
0.0
11
123.061561
21
310.445849
31
0.0
0
LINE
8
0
6
CONTINUOUS
10
123.061561
20
310.445849
30
0.0
11
123.851980
21
309.470040
31
0.0
0
LINE
8
0
6
CONTINUOUS
10
124.535047
20
311.629321
30
0.0
11
123.061561
21
310.445849
31
0.0
0
LINE
8
0
6
CONTINUOUS
10
123.851980
20
309.470040
30
0.0
11
124.715339
21
310.163466
31
0.0
0
LINE
8
0
6
CONTINUOUS
10
122.271082
20
311.422496
30
0.0
11
122.966733
21
311.981223
31
0.0
0
LINE
8
0
6
CONTINUOUS
10
116.637076
20
318.377042
30
0.0
11
117.427555
21
317.400385
31
0.0
0
LINE
8
0
6
CONTINUOUS
10
117.427555
20
317.400385
30
0.0
11
118.217974
21
316.424586
31
0.0
0
LINE
8
0
6
CONTINUOUS
10
118.901041
20
318.583858
30
0.0
11
117.427555
21
317.400385
31
0.0
0
LINE
8
0
6
CONTINUOUS
10
118.217974
20
316.424586
30
0.0
11
119.088493
21
317.123763
31
0.0
0
LINE
8
0
6
CONTINUOUS
10
116.637076
20
318.377042
30
0.0
11
117.332919
21
318.935924
31
0.0
0
LINE
8
0
6
CONTINUOUS
10
110.078063
20
326.475370
30
0.0
11
110.868542
21
325.498723
31
0.0
0
LINE
8
0
6
CONTINUOUS
10
110.868542
20
325.498723
30
0.0
11
111.658961
21
324.522904
31
0.0
0
LINE
8
0
6
CONTINUOUS
10
112.342038
20
326.682185
30
0.0
11
110.868542
21
325.498723
31
0.0
0
LINE
8
0
6
CONTINUOUS
10
111.658961
20
324.522904
30
0.0
11
112.481765
21
325.183758
31
0.0
0
LINE
8
0
6
CONTINUOUS
10
110.078063
20
326.475370
30
0.0
11
110.807774
21
327.061449
31
0.0
0
LINE
8
0
6
CONTINUOUS
10
103.041028
20
335.165609
30
0.0
11
103.831507
21
334.188962
31
0.0
0
LINE
8
0
6
CONTINUOUS
10
103.831507
20
334.188962
30
0.0
11
104.621926
21
333.213153
31
0.0
0
LINE
8
0
6
CONTINUOUS
10
105.304993
20
335.372424
30
0.0
11
103.831507
21
334.188962
31
0.0
0
LINE
8
0
6
CONTINUOUS
10
104.621926
20
333.213153
30
0.0
11
105.394376
21
333.833568
31
0.0
0
LINE
8
0
6
CONTINUOUS
10
103.041028
20
335.165609
30
0.0
11
103.808380
21
335.781926
31
0.0
0
LINE
8
0
6
CONTINUOUS
10
96.005517
20
343.855528
30
0.0
11
96.795996
21
342.878891
31
0.0
0
LINE
8
0
6
CONTINUOUS
10
96.795996
20
342.878891
30
0.0
11
97.586415
21
341.903072
31
0.0
0
LINE
8
0
6
CONTINUOUS
10
98.269483
20
344.062354
30
0.0
11
96.795996
21
342.878891
31
0.0
0
LINE
8
0
6
CONTINUOUS
10
97.586415
20
341.903072
30
0.0
11
98.319892
21
342.492176
31
0.0
0
LINE
8
0
6
CONTINUOUS
10
96.005517
20
343.855528
30
0.0
11
96.811609
21
344.502954
31
0.0
0
LINE
8
0
6
CONTINUOUS
10
89.451007
20
351.952937
30
0.0
11
90.241486
21
350.976300
31
0.0
0
LINE
8
0
6
CONTINUOUS
10
90.241486
20
350.976300
30
0.0
11
91.031895
21
350.000501
31
0.0
0
LINE
8
0
6
CONTINUOUS
10
91.714972
20
352.159762
30
0.0
11
90.241486
21
350.976300
31
0.0
0
LINE
8
0
6
CONTINUOUS
10
91.031895
20
350.000501
30
0.0
11
91.725108
21
350.557267
31
0.0
0
LINE
8
0
6
CONTINUOUS
10
89.451007
20
351.952937
30
0.0
11
90.264472
21
352.606305
31
0.0
0
LINE
8
0
6
CONTINUOUS
10
83.824161
20
358.906005
30
0.0
11
84.614640
21
357.929368
31
0.0
0
LINE
8
0
6
CONTINUOUS
10
84.614640
20
357.929368
30
0.0
11
85.405059
21
356.953549
31
0.0
0
LINE
8
0
6
CONTINUOUS
10
86.088136
20
359.112830
30
0.0
11
84.614640
21
357.929368
31
0.0
0
LINE
8
0
6
CONTINUOUS
10
85.405059
20
356.953549
30
0.0
11
86.063748
21
357.482587
31
0.0
0
LINE
8
0
6
CONTINUOUS
10
83.824161
20
358.906005
30
0.0
11
84.668916
21
359.584485
31
0.0
0
LINE
8
0
6
CONTINUOUS
10
79.508455
20
364.240876
30
0.0
11
80.298944
21
363.264238
31
0.0
0
LINE
8
0
6
CONTINUOUS
10
80.298944
20
363.264238
30
0.0
11
81.089353
21
362.288420
31
0.0
0
LINE
8
0
6
CONTINUOUS
10
80.409440
20
363.352988
30
0.0
11
80.298944
21
363.264238
31
0.0
0
LINE
8
0
6
CONTINUOUS
10
81.089353
20
362.288420
30
0.0
11
81.695291
21
362.775089
31
0.0
0
LINE
8
0
6
CONTINUOUS
10
79.508455
20
364.240876
30
0.0
11
80.341475
21
364.909929
31
0.0
0
LINE
8
0
6
CONTINUOUS
10
76.798016
20
367.593977
30
0.0
11
77.588485
21
366.617329
31
0.0
0
LINE
8
0
6
CONTINUOUS
10
77.588485
20
366.617329
30
0.0
11
78.378904
21
365.641541
31
0.0
0
LINE
8
0
6
CONTINUOUS
10
78.127980
20
367.050644
30
0.0
11
77.588485
21
366.617329
31
0.0
0
LINE
8
0
6
CONTINUOUS
10
78.378904
20
365.641541
30
0.0
11
78.966651
21
366.113603
31
0.0
0
LINE
8
0
6
CONTINUOUS
10
76.798016
20
367.593977
30
0.0
11
77.630864
21
368.262902
31
0.0
0
LINE
8
0
6
CONTINUOUS
10
75.877512
20
368.736830
30
0.0
11
76.667981
21
367.760192
31
0.0
0
LINE
8
0
6
CONTINUOUS
10
77.350980
20
368.308754
30
0.0
11
76.667981
21
367.760192
31
0.0
0
LINE
8
0
6
CONTINUOUS
10
75.877512
20
368.736830
30
0.0
11
76.685706
21
369.385959
31
0.0
0
LINE
8
0
6
CONTINUOUS
10
78.390607
20
365.639084
30
0.0
11
78.797776
21
365.966119
31
0.0
0
LINE
8
0
6
CONTINUOUS
10
140.851602
20
297.955679
30
0.0
11
140.347931
21
299.342576
31
0.0
0
LINE
8
0
6
CONTINUOUS
10
141.438831
20
295.237187
30
0.0
11
140.851602
21
297.955679
31
0.0
0
LINE
8
0
6
CONTINUOUS
10
141.441468
20
290.389196
30
0.0
11
141.564885
21
292.732800
31
0.0
0
LINE
8
0
6
CONTINUOUS
10
138.586704
20
281.271134
30
0.0
11
138.627990
21
281.343235
31
0.0
0
LINE
8
0
6
CONTINUOUS
10
140.158346
20
284.782271
30
0.0
11
141.190042
21
288.142663
31
0.0
0
LINE
8
0
6
CONTINUOUS
10
141.190293
20
288.142623
30
0.0
11
141.441468
21
290.389196
31
0.0
0
LINE
8
0
6
CONTINUOUS
10
138.627990
20
281.343235
30
0.0
11
140.158346
21
284.782271
31
0.0
0
LINE
8
0
6
CONTINUOUS
10
134.233714
20
275.057156
30
0.0
11
134.878885
21
276.029888
31
0.0
0
LINE
8
0
6
CONTINUOUS
10
132.900090
20
280.098888
30
0.0
11
132.952648
21
279.821579
31
0.0
0
LINE
8
0
6
CONTINUOUS
10
134.272864
20
299.459128
30
0.0
11
134.475523
21
299.139152
31
0.0
0
LINE
8
0
6
CONTINUOUS
10
134.532032
20
299.658842
30
0.0
11
134.272864
21
299.459128
31
0.0
0
LINE
8
0
6
CONTINUOUS
10
133.340787
20
277.773851
30
0.0
11
133.931115
21
275.487067
31
0.0
0
LINE
8
0
6
CONTINUOUS
10
138.561032
20
302.890632
30
0.0
11
136.445684
21
301.133456
31
0.0
0
LINE
8
0
6
CONTINUOUS
10
135.972756
20
295.171368
30
0.0
11
136.232144
21
293.526883
31
0.0
0
LINE
8
0
6
CONTINUOUS
10
135.543491
20
296.830614
30
0.0
11
135.972756
21
295.171368
31
0.0
0
LINE
8
0
6
CONTINUOUS
10
133.088810
20
281.429379
30
0.0
11
132.926334
21
280.283990
31
0.0
0
LINE
8
0
6
CONTINUOUS
10
136.232144
20
293.526883
30
0.0
11
136.351750
21
291.931297
31
0.0
0
LINE
8
0
6
CONTINUOUS
10
136.329568
20
290.410670
30
0.0
11
136.203534
21
288.956441
31
0.0
0
LINE
8
0
6
CONTINUOUS
10
133.371083
20
282.004221
30
0.0
11
133.088810
21
281.429379
31
0.0
0
LINE
8
0
6
CONTINUOUS
10
140.833231
20
297.959484
30
0.0
11
139.841968
21
300.685707
31
0.0
0
LINE
8
0
6
CONTINUOUS
10
133.931115
20
275.487067
30
0.0
11
134.091665
21
274.865103
31
0.0
0
LINE
8
0
6
CONTINUOUS
10
141.547406
20
292.736416
30
0.0
11
141.421061
21
295.240872
31
0.0
0
LINE
8
0
6
CONTINUOUS
10
141.421061
20
295.240872
30
0.0
11
140.833231
21
297.959484
31
0.0
0
LINE
8
0
6
CONTINUOUS
10
134.763361
20
275.882779
30
0.0
11
136.663575
21
278.419775
31
0.0
0
LINE
8
0
6
CONTINUOUS
10
136.663575
20
278.419775
30
0.0
11
138.572565
21
281.274061
31
0.0
0
LINE
8
0
6
CONTINUOUS
10
138.898640
20
303.171087
30
0.0
11
138.561032
21
302.890632
31
0.0
0
LINE
8
0
6
CONTINUOUS
10
139.075777
20
302.704391
30
0.0
11
138.898640
21
303.171087
31
0.0
0
LINE
8
0
6
CONTINUOUS
10
141.547406
20
292.736416
30
0.0
11
141.424220
21
290.392772
31
0.0
0
LINE
8
0
6
CONTINUOUS
10
134.763361
20
275.882779
30
0.0
11
134.091665
21
274.865103
31
0.0
0
LINE
8
0
6
CONTINUOUS
10
134.233714
20
275.057156
30
0.0
11
134.873209
21
276.031067
31
0.0
0
LINE
8
0
6
CONTINUOUS
10
140.125705
20
284.742220
30
0.0
11
138.572565
21
281.274061
31
0.0
0
LINE
8
0
6
CONTINUOUS
10
140.942788
20
297.611463
30
0.0
11
140.915391
21
297.697757
31
0.0
0
LINE
8
0
6
CONTINUOUS
10
140.915391
20
297.697757
30
0.0
11
140.888005
21
297.784060
31
0.0
0
LINE
8
0
6
CONTINUOUS
10
136.445684
20
301.133456
30
0.0
11
134.532032
21
299.658842
31
0.0
0
LINE
8
0
6
CONTINUOUS
10
132.952648
20
279.821579
30
0.0
11
133.340787
21
277.773851
31
0.0
0
LINE
8
0
6
CONTINUOUS
10
139.841968
20
300.685707
30
0.0
11
139.075777
21
302.704391
31
0.0
0
LINE
8
0
6
CONTINUOUS
10
134.559579
20
299.002280
30
0.0
11
135.543491
21
296.830614
31
0.0
0
LINE
8
0
6
CONTINUOUS
10
136.351750
20
291.931297
30
0.0
11
136.329568
21
290.410670
31
0.0
0
LINE
8
0
6
CONTINUOUS
10
135.961424
20
287.960087
30
0.0
11
135.395064
21
286.091419
31
0.0
0
LINE
8
0
6
CONTINUOUS
10
134.923390
20
284.936111
30
0.0
11
133.937663
21
283.036121
31
0.0
0
LINE
8
0
6
CONTINUOUS
10
133.601148
20
282.472775
30
0.0
11
133.371083
21
282.004221
31
0.0
0
LINE
8
0
6
CONTINUOUS
10
133.937663
20
283.036121
30
0.0
11
133.601148
21
282.472775
31
0.0
0
LINE
8
0
6
CONTINUOUS
10
136.286487
20
289.372808
30
0.0
11
135.961424
21
287.960087
31
0.0
0
LINE
8
0
6
CONTINUOUS
10
135.502265
20
286.417018
30
0.0
11
134.923390
21
284.936111
31
0.0
0
LINE
8
0
6
CONTINUOUS
10
140.888005
20
297.784060
30
0.0
11
140.861119
21
297.868816
31
0.0
0
LINE
8
0
6
CONTINUOUS
10
136.940483
20
290.107443
30
0.0
11
136.964310
21
291.911452
31
0.0
0
LINE
8
0
6
CONTINUOUS
10
134.475523
20
299.139152
30
0.0
11
135.378749
21
297.626494
31
0.0
0
LINE
8
0
6
CONTINUOUS
10
135.352124
20
297.755116
30
0.0
11
134.475523
21
299.139152
31
0.0
0
LINE
8
0
6
CONTINUOUS
10
136.964310
20
291.911452
30
0.0
11
136.751302
21
293.835183
31
0.0
0
LINE
8
0
6
CONTINUOUS
10
132.926334
20
280.283990
30
0.0
11
132.900090
21
280.098888
31
0.0
0
LINE
8
0
6
CONTINUOUS
10
136.255159
20
295.839385
30
0.0
11
135.352124
21
297.755116
31
0.0
0
LINE
8
0
6
CONTINUOUS
10
136.751302
20
293.835183
30
0.0
11
136.255159
21
295.839385
31
0.0
0
LINE
8
0
6
CONTINUOUS
10
141.173386
20
288.146128
30
0.0
11
140.125705
21
284.742220
31
0.0
0
LINE
8
0
6
CONTINUOUS
10
141.424220
20
290.392772
30
0.0
11
141.173386
21
288.146128
31
0.0
0
LINE
8
0
6
CONTINUOUS
10
88.032116
20
351.007296
30
0.0
11
89.855383
21
348.393694
31
0.0
0
LINE
8
0
6
CONTINUOUS
10
93.034282
20
343.836829
30
0.0
11
94.024095
21
342.417958
31
0.0
0
LINE
8
0
6
CONTINUOUS
10
83.375958
20
358.437608
30
0.0
11
85.565650
21
354.809395
31
0.0
0
LINE
8
0
6
CONTINUOUS
10
73.964030
20
373.792864
30
0.0
11
76.685355
21
369.386526
31
0.0
0
LINE
8
0
6
CONTINUOUS
10
78.792885
20
365.974039
30
0.0
11
79.745282
21
364.431928
31
0.0
0
LINE
8
0
6
CONTINUOUS
10
94.024095
20
342.417958
30
0.0
11
95.291200
21
340.790426
31
0.0
0
LINE
8
0
6
CONTINUOUS
10
98.498950
20
336.670237
30
0.0
11
100.973129
21
333.492282
31
0.0
0
LINE
8
0
6
CONTINUOUS
10
140.347931
20
299.342576
30
0.0
11
140.947329
21
299.823995
31
0.0
0
LINE
8
0
6
CONTINUOUS
10
78.327600
20
377.836404
30
0.0
11
73.913218
21
374.290890
31
0.0
0
LINE
8
0
6
CONTINUOUS
10
110.051067
20
322.652927
30
0.0
11
111.048244
21
321.631020
31
0.0
0
LINE
8
0
6
CONTINUOUS
10
114.932286
20
317.650652
30
0.0
11
117.168106
21
315.359383
31
0.0
0
LINE
8
0
6
CONTINUOUS
10
102.549327
20
331.535208
30
0.0
11
105.154588
21
328.450502
31
0.0
0
LINE
8
0
6
CONTINUOUS
10
127.483374
20
317.499912
30
0.0
11
122.044105
21
324.220097
31
0.0
0
LINE
8
0
6
CONTINUOUS
10
136.160202
20
306.776267
30
0.0
11
132.249795
21
311.609845
31
0.0
0
LINE
8
0
6
CONTINUOUS
10
80.905487
20
375.013451
30
0.0
11
79.109475
21
377.226575
31
0.0
0
LINE
8
0
6
CONTINUOUS
10
79.109475
20
377.226575
30
0.0
11
78.499603
21
377.974534
31
0.0
0
LINE
8
0
6
CONTINUOUS
10
116.141033
20
331.512158
30
0.0
11
110.000996
21
339.095859
31
0.0
0
LINE
8
0
6
CONTINUOUS
10
83.818635
20
371.420235
30
0.0
11
80.905487
21
375.013451
31
0.0
0
LINE
8
0
6
CONTINUOUS
10
87.736945
20
366.585039
30
0.0
11
83.818635
21
371.420235
31
0.0
0
LINE
8
0
6
CONTINUOUS
10
92.509854
20
360.693624
30
0.0
11
87.736945
21
366.585039
31
0.0
0
LINE
8
0
6
CONTINUOUS
10
97.953927
20
353.972450
30
0.0
11
92.509854
21
360.693624
31
0.0
0
LINE
8
0
6
CONTINUOUS
10
103.859967
20
346.679770
30
0.0
11
97.953927
21
353.972450
31
0.0
0
LINE
8
0
6
CONTINUOUS
10
110.000996
20
339.095859
30
0.0
11
103.859967
21
346.679770
31
0.0
0
LINE
8
0
6
CONTINUOUS
10
122.044105
20
324.220097
30
0.0
11
116.141033
21
331.512158
31
0.0
0
LINE
8
0
6
CONTINUOUS
10
132.249795
20
311.609845
30
0.0
11
127.483374
21
317.499912
31
0.0
0
LINE
8
0
6
CONTINUOUS
10
139.064325
20
303.184910
30
0.0
11
136.160202
21
306.776267
31
0.0
0
LINE
8
0
6
CONTINUOUS
10
140.850549
20
300.973812
30
0.0
11
139.064325
21
303.184910
31
0.0
0
LINE
8
0
6
CONTINUOUS
10
73.741225
20
374.152730
30
0.0
11
73.964030
21
373.792864
31
0.0
0
LINE
8
0
6
CONTINUOUS
10
82.941633
20
362.770876
30
0.0
11
87.708054
21
356.880819
31
0.0
0
LINE
8
0
6
CONTINUOUS
10
74.340908
20
373.406869
30
0.0
11
76.127113
21
371.195792
31
0.0
0
LINE
8
0
6
CONTINUOUS
10
73.741225
20
374.152730
30
0.0
11
74.340908
21
373.406869
31
0.0
0
LINE
8
0
6
CONTINUOUS
10
73.913218
20
374.290890
30
0.0
11
73.741225
21
374.152730
31
0.0
0
LINE
8
0
6
CONTINUOUS
10
121.995869
20
324.230095
30
0.0
11
116.089819
21
331.522775
31
0.0
0
LINE
8
0
6
CONTINUOUS
10
111.331441
20
327.700961
30
0.0
11
117.237471
21
320.408301
31
0.0
0
LINE
8
0
6
CONTINUOUS
10
103.808753
20
346.690387
30
0.0
11
97.905691
21
353.982448
31
0.0
0
LINE
8
0
6
CONTINUOUS
10
109.948780
20
339.106686
30
0.0
11
103.808753
21
346.690387
31
0.0
0
LINE
8
0
6
CONTINUOUS
10
136.131191
20
306.782280
30
0.0
11
132.212871
21
311.617496
31
0.0
0
LINE
8
0
6
CONTINUOUS
10
78.499603
20
377.974534
30
0.0
11
78.327600
21
377.836404
31
0.0
0
LINE
8
0
6
CONTINUOUS
10
79.099287
20
377.228663
30
0.0
11
78.499603
21
377.974534
31
0.0
0
LINE
8
0
6
CONTINUOUS
10
131.372803
20
302.960476
30
0.0
11
134.285951
21
299.367261
31
0.0
0
LINE
8
0
6
CONTINUOUS
10
127.454473
20
307.795692
30
0.0
11
131.372803
21
302.960476
31
0.0
0
LINE
8
0
6
CONTINUOUS
10
122.681564
20
313.687107
30
0.0
11
127.454473
21
307.795692
31
0.0
0
LINE
8
0
6
CONTINUOUS
10
117.237471
20
320.408301
30
0.0
11
122.681564
21
313.687107
31
0.0
0
LINE
8
0
6
CONTINUOUS
10
105.190402
20
335.284882
30
0.0
11
111.331441
21
327.700961
31
0.0
0
LINE
8
0
6
CONTINUOUS
10
99.050365
20
342.868584
30
0.0
11
105.190402
21
335.284882
31
0.0
0
LINE
8
0
6
CONTINUOUS
10
93.147293
20
350.160654
30
0.0
11
99.050365
21
342.868584
31
0.0
0
LINE
8
0
6
CONTINUOUS
10
87.708054
20
356.880819
30
0.0
11
93.147293
21
350.160654
31
0.0
0
LINE
8
0
6
CONTINUOUS
10
79.031236
20
367.604444
30
0.0
11
82.941633
21
362.770876
31
0.0
0
LINE
8
0
6
CONTINUOUS
10
76.127113
20
371.195792
30
0.0
11
79.031236
21
367.604444
31
0.0
0
LINE
8
0
6
CONTINUOUS
10
80.885511
20
375.017585
30
0.0
11
79.099287
21
377.228663
31
0.0
0
LINE
8
0
6
CONTINUOUS
10
83.789614
20
371.426238
30
0.0
11
80.885511
21
375.017585
31
0.0
0
LINE
8
0
6
CONTINUOUS
10
87.700021
20
366.592670
30
0.0
11
83.789614
21
371.426238
31
0.0
0
LINE
8
0
6
CONTINUOUS
10
92.466432
20
360.702633
30
0.0
11
87.700021
21
366.592670
31
0.0
0
LINE
8
0
6
CONTINUOUS
10
97.905691
20
353.982448
30
0.0
11
92.466432
21
360.702633
31
0.0
0
LINE
8
0
6
CONTINUOUS
10
116.089819
20
331.522775
30
0.0
11
109.948780
21
339.106686
31
0.0
0
LINE
8
0
6
CONTINUOUS
10
127.439952
20
317.508901
30
0.0
11
121.995869
21
324.230095
31
0.0
0
LINE
8
0
6
CONTINUOUS
10
132.212871
20
311.617496
30
0.0
11
127.439952
21
317.508901
31
0.0
0
LINE
8
0
6
CONTINUOUS
10
139.044339
20
303.189055
30
0.0
11
136.131191
21
306.782280
31
0.0
0
LINE
8
0
6
CONTINUOUS
10
140.840361
20
300.975930
30
0.0
11
139.044339
21
303.189055
31
0.0
0
LINE
8
0
6
CONTINUOUS
10
136.922021
20
305.830003
30
0.0
11
138.576696
21
303.781735
31
0.0
0
LINE
8
0
6
CONTINUOUS
10
134.231769
20
309.156856
30
0.0
11
136.922021
21
305.830003
31
0.0
0
LINE
8
0
6
CONTINUOUS
10
126.193944
20
319.090753
30
0.0
11
130.609340
21
313.634472
31
0.0
0
LINE
8
0
6
CONTINUOUS
10
115.686928
20
332.071070
30
0.0
11
121.155269
21
325.316028
31
0.0
0
LINE
8
0
6
CONTINUOUS
10
104.310311
20
346.121648
30
0.0
11
109.999081
21
339.096259
31
0.0
0
LINE
8
0
6
CONTINUOUS
10
98.839222
20
352.877259
30
0.0
11
104.310311
21
346.121648
31
0.0
0
LINE
8
0
6
CONTINUOUS
10
93.796075
20
359.103442
30
0.0
11
98.839222
21
352.877259
31
0.0
0
LINE
8
0
6
CONTINUOUS
10
89.374682
20
364.560972
30
0.0
11
93.796075
21
359.103442
31
0.0
0
LINE
8
0
6
CONTINUOUS
10
85.744933
20
369.040066
30
0.0
11
89.374682
21
364.560972
31
0.0
0
LINE
8
0
6
CONTINUOUS
10
83.046337
20
372.368657
30
0.0
11
85.744933
21
369.040066
31
0.0
0
LINE
8
0
6
CONTINUOUS
10
138.576696
20
303.781735
30
0.0
11
139.132236
21
303.090776
31
0.0
0
LINE
8
0
6
CONTINUOUS
10
139.132236
20
303.090776
30
0.0
11
138.567260
21
303.783692
31
0.0
0
LINE
8
0
6
CONTINUOUS
10
109.999081
20
339.096259
30
0.0
11
115.686928
21
332.071070
31
0.0
0
LINE
8
0
6
CONTINUOUS
10
80.817620
20
375.111690
30
0.0
11
81.382576
21
374.418803
31
0.0
0
LINE
8
0
6
CONTINUOUS
10
81.382576
20
374.418803
30
0.0
11
83.046337
21
372.368657
31
0.0
0
LINE
8
0
6
CONTINUOUS
10
81.373140
20
374.420750
30
0.0
11
80.817620
21
375.111690
31
0.0
0
LINE
8
0
6
CONTINUOUS
10
130.609340
20
313.634472
30
0.0
11
134.231769
21
309.156856
31
0.0
0
LINE
8
0
6
CONTINUOUS
10
121.155269
20
325.316028
30
0.0
11
126.193944
21
319.090753
31
0.0
0
LINE
8
0
6
CONTINUOUS
10
157.876997
20
190.343342
30
0.0
11
157.970846
21
189.964865
31
0.0
0
LINE
8
0
6
CONTINUOUS
10
163.466830
20
191.695108
30
0.0
11
168.127122
21
192.837061
31
0.0
0
LINE
8
0
6
CONTINUOUS
10
156.874834
20
190.093989
30
0.0
11
159.505078
21
190.731244
31
0.0
0
LINE
8
0
6
CONTINUOUS
10
168.127122
20
192.837061
30
0.0
11
171.868094
21
193.762741
31
0.0
0
LINE
8
0
6
CONTINUOUS
10
175.481819
20
194.660576
30
0.0
11
178.742834
21
195.478818
31
0.0
0
LINE
8
0
6
CONTINUOUS
10
171.868094
20
193.762741
30
0.0
11
175.481819
21
194.660576
31
0.0
0
LINE
8
0
6
CONTINUOUS
10
159.317351
20
191.441560
30
0.0
11
159.505078
21
190.731244
31
0.0
0
LINE
8
0
6
CONTINUOUS
10
159.505078
20
190.731244
30
0.0
11
163.466830
21
191.695108
31
0.0
0
LINE
8
0
6
CONTINUOUS
10
155.958562
20
189.871443
30
0.0
11
156.874834
21
190.093989
31
0.0
0
LINE
8
0
6
CONTINUOUS
10
155.775648
20
190.583107
30
0.0
11
155.958562
21
189.871443
31
0.0
0
LINE
8
0
6
CONTINUOUS
10
180.309883
20
195.844588
30
0.0
11
180.139244
21
196.559178
31
0.0
0
LINE
8
0
6
CONTINUOUS
10
178.742834
20
195.478818
30
0.0
11
180.309883
21
195.844588
31
0.0
0
LINE
8
0
6
CONTINUOUS
10
178.573839
20
196.193788
30
0.0
11
178.742834
21
195.478818
31
0.0
0
LINE
8
0
6
CONTINUOUS
10
179.106394
20
195.548572
30
0.0
11
179.570607
21
195.662752
31
0.0
0
LINE
8
0
6
CONTINUOUS
10
173.663344
20
216.969435
30
0.0
11
178.573839
21
196.193788
31
0.0
0
LINE
8
0
6
CONTINUOUS
10
180.139244
20
196.559178
30
0.0
11
175.180383
21
217.326575
31
0.0
0
LINE
8
0
6
CONTINUOUS
10
140.132002
20
301.858963
30
0.0
11
140.947329
21
299.823995
31
0.0
0
LINE
8
0
6
CONTINUOUS
10
137.723651
20
305.592585
30
0.0
11
139.227854
21
303.506314
31
0.0
0
LINE
8
0
6
CONTINUOUS
10
138.875695
20
304.067183
30
0.0
11
140.324432
21
301.464269
31
0.0
0
LINE
8
0
6
CONTINUOUS
10
134.482312
20
274.904874
30
0.0
11
134.178138
21
274.516312
31
0.0
0
LINE
8
0
6
CONTINUOUS
10
141.736025
20
288.286326
30
0.0
11
140.837784
21
285.009601
31
0.0
0
LINE
8
0
6
CONTINUOUS
10
136.972112
20
278.036907
30
0.0
11
134.482312
21
274.904874
31
0.0
0
LINE
8
0
6
CONTINUOUS
10
139.394502
20
281.818151
30
0.0
11
136.817488
21
277.841467
31
0.0
0
LINE
8
0
6
CONTINUOUS
10
78.877374
20
378.277961
30
0.0
11
79.477057
21
377.532079
31
0.0
0
LINE
8
0
6
CONTINUOUS
10
79.205414
20
378.541426
30
0.0
11
78.877374
21
378.277961
31
0.0
0
LINE
8
0
6
CONTINUOUS
10
140.324432
20
301.464269
30
0.0
11
141.241046
21
299.090911
31
0.0
0
LINE
8
0
6
CONTINUOUS
10
98.283452
20
354.285864
30
0.0
11
104.186523
21
346.993814
31
0.0
0
LINE
8
0
6
CONTINUOUS
10
153.918364
20
311.469498
30
0.0
11
152.132140
21
313.680605
31
0.0
0
LINE
8
0
6
CONTINUOUS
10
135.111920
20
334.715783
30
0.0
11
129.208848
21
342.007853
31
0.0
0
LINE
8
0
6
CONTINUOUS
10
154.518068
20
310.723607
30
0.0
11
153.918364
21
311.469498
31
0.0
0
LINE
8
0
6
CONTINUOUS
10
116.927772
20
357.175466
30
0.0
11
111.021742
21
364.468136
31
0.0
0
LINE
8
0
6
CONTINUOUS
10
149.228017
20
317.271953
30
0.0
11
145.317610
21
322.105531
31
0.0
0
LINE
8
0
6
CONTINUOUS
10
123.068811
20
349.591555
30
0.0
11
116.927772
21
357.175466
31
0.0
0
LINE
8
0
6
CONTINUOUS
10
105.577659
20
371.189310
30
0.0
11
100.804760
21
377.080725
31
0.0
0
LINE
8
0
6
CONTINUOUS
10
93.973302
20
385.509146
30
0.0
11
92.177290
21
387.722261
31
0.0
0
LINE
8
0
6
CONTINUOUS
10
152.132140
20
313.680605
30
0.0
11
149.228017
21
317.271953
31
0.0
0
LINE
8
0
6
CONTINUOUS
10
140.551179
20
327.995598
30
0.0
11
135.111920
21
334.715783
31
0.0
0
LINE
8
0
6
CONTINUOUS
10
111.021742
20
364.468136
30
0.0
11
105.577659
21
371.189310
31
0.0
0
LINE
8
0
6
CONTINUOUS
10
145.317610
20
322.105531
30
0.0
11
140.551179
21
327.995598
31
0.0
0
LINE
8
0
6
CONTINUOUS
10
96.886450
20
381.915931
30
0.0
11
93.973302
21
385.509146
31
0.0
0
LINE
8
0
6
CONTINUOUS
10
100.804760
20
377.080725
30
0.0
11
96.886450
21
381.915931
31
0.0
0
LINE
8
0
6
CONTINUOUS
10
92.177290
20
387.722261
30
0.0
11
91.567418
21
388.470220
31
0.0
0
LINE
8
0
6
CONTINUOUS
10
153.863551
20
212.077389
30
0.0
11
159.317351
21
191.441560
31
0.0
0
LINE
8
0
6
CONTINUOUS
10
163.277939
20
192.404854
30
0.0
11
157.791909
21
213.017611
31
0.0
0
LINE
8
0
6
CONTINUOUS
10
104.186523
20
346.993814
30
0.0
11
110.326550
21
339.410092
31
0.0
0
LINE
8
0
6
CONTINUOUS
10
140.837784
20
285.009601
30
0.0
11
139.394502
21
281.818151
31
0.0
0
LINE
8
0
6
CONTINUOUS
10
141.861417
20
290.728089
30
0.0
11
141.736025
21
288.286326
31
0.0
0
LINE
8
0
6
CONTINUOUS
10
88.077792
20
366.896086
30
0.0
11
92.844202
21
361.006039
31
0.0
0
LINE
8
0
6
CONTINUOUS
10
134.340574
20
273.887007
30
0.0
11
134.564824
21
273.018237
31
0.0
0
LINE
8
0
6
CONTINUOUS
10
84.167394
20
371.729664
30
0.0
11
88.077792
21
366.896086
31
0.0
0
LINE
8
0
6
CONTINUOUS
10
142.106826
20
293.786763
30
0.0
11
141.861417
21
290.728089
31
0.0
0
LINE
8
0
6
CONTINUOUS
10
81.263271
20
375.321002
30
0.0
11
84.167394
21
371.729664
31
0.0
0
LINE
8
0
6
CONTINUOUS
10
141.241046
20
299.090911
30
0.0
11
141.950939
21
296.495347
31
0.0
0
LINE
8
0
6
CONTINUOUS
10
153.885633
20
310.215672
30
0.0
11
154.518068
21
310.723607
31
0.0
0
LINE
8
0
6
CONTINUOUS
10
85.576169
20
383.658245
30
0.0
11
80.214437
21
379.351848
31
0.0
0
LINE
8
0
6
CONTINUOUS
10
91.567418
20
388.470220
30
0.0
11
90.937901
21
387.964613
31
0.0
0
LINE
8
0
6
CONTINUOUS
10
153.570879
20
309.962863
30
0.0
11
153.885633
21
310.215672
31
0.0
0
LINE
8
0
6
CONTINUOUS
10
138.167417
20
305.001862
30
0.0
11
139.227854
21
303.506314
31
0.0
0
LINE
8
0
6
CONTINUOUS
10
136.508951
20
307.085686
30
0.0
11
138.167417
21
305.001862
31
0.0
0
LINE
8
0
6
CONTINUOUS
10
132.590632
20
311.920912
30
0.0
11
136.508951
21
307.085686
31
0.0
0
LINE
8
0
6
CONTINUOUS
10
127.817723
20
317.812318
30
0.0
11
132.590632
21
311.920912
31
0.0
0
LINE
8
0
6
CONTINUOUS
10
122.373630
20
324.533511
30
0.0
11
127.817723
21
317.812318
31
0.0
0
LINE
8
0
6
CONTINUOUS
10
116.467600
20
331.826181
30
0.0
11
122.373630
21
324.533511
31
0.0
0
LINE
8
0
6
CONTINUOUS
10
110.326550
20
339.410092
30
0.0
11
116.467600
21
331.826181
31
0.0
0
LINE
8
0
6
CONTINUOUS
10
139.227854
20
303.506314
30
0.0
11
140.324432
21
301.464269
31
0.0
0
LINE
8
0
6
CONTINUOUS
10
152.112164
20
313.684740
30
0.0
11
153.908186
21
311.471606
31
0.0
0
LINE
8
0
6
CONTINUOUS
10
129.157634
20
342.018460
30
0.0
11
135.063674
21
334.725791
31
0.0
0
LINE
8
0
6
CONTINUOUS
10
153.908186
20
311.471606
30
0.0
11
154.518068
21
310.723607
31
0.0
0
LINE
8
0
6
CONTINUOUS
10
110.973496
20
364.478144
30
0.0
11
116.876558
21
357.186073
31
0.0
0
LINE
8
0
6
CONTINUOUS
10
145.280686
20
322.113182
30
0.0
11
149.199006
21
317.277966
31
0.0
0
LINE
8
0
6
CONTINUOUS
10
116.876558
20
357.186073
30
0.0
11
123.016595
21
349.602372
31
0.0
0
LINE
8
0
6
CONTINUOUS
10
100.767836
20
377.088366
30
0.0
11
105.534247
21
371.198319
31
0.0
0
LINE
8
0
6
CONTINUOUS
10
92.167102
20
387.724358
30
0.0
11
93.953316
21
385.513281
31
0.0
0
LINE
8
0
6
CONTINUOUS
10
149.199006
20
317.277966
30
0.0
11
152.112164
21
313.684740
31
0.0
0
LINE
8
0
6
CONTINUOUS
10
135.063674
20
334.725791
30
0.0
11
140.507767
21
328.004597
31
0.0
0
LINE
8
0
6
CONTINUOUS
10
105.534247
20
371.198319
30
0.0
11
110.973496
21
364.478144
31
0.0
0
LINE
8
0
6
CONTINUOUS
10
140.507767
20
328.004597
30
0.0
11
145.280686
21
322.113182
31
0.0
0
LINE
8
0
6
CONTINUOUS
10
123.016595
20
349.602372
30
0.0
11
129.157634
21
342.018460
31
0.0
0
LINE
8
0
6
CONTINUOUS
10
93.953316
20
385.513281
30
0.0
11
96.857429
21
381.921924
31
0.0
0
LINE
8
0
6
CONTINUOUS
10
96.857429
20
381.921924
30
0.0
11
100.767836
21
377.088366
31
0.0
0
LINE
8
0
6
CONTINUOUS
10
91.567418
20
388.470220
30
0.0
11
92.167102
21
387.724358
31
0.0
0
LINE
8
0
6
CONTINUOUS
10
141.950939
20
296.495347
30
0.0
11
142.106826
21
293.786763
31
0.0
0
LINE
8
0
6
CONTINUOUS
10
157.328267
20
292.073372
30
0.0
11
156.686114
21
294.758915
31
0.0
0
LINE
8
0
6
CONTINUOUS
10
90.937901
20
387.964613
30
0.0
11
85.576169
21
383.658245
31
0.0
0
LINE
8
0
6
CONTINUOUS
10
136.817488
20
277.841467
30
0.0
11
134.798921
21
275.245564
31
0.0
0
LINE
8
0
6
CONTINUOUS
10
152.757917
20
290.876127
30
0.0
11
152.037234
21
293.691680
31
0.0
0
LINE
8
0
6
CONTINUOUS
10
153.570879
20
309.962863
30
0.0
11
152.971185
21
310.710193
31
0.0
0
LINE
8
0
6
CONTINUOUS
10
154.181553
20
305.515849
30
0.0
11
153.570879
21
309.962863
31
0.0
0
LINE
8
0
6
CONTINUOUS
10
152.971185
20
310.710193
30
0.0
11
149.854957
21
310.718513
31
0.0
0
LINE
8
0
6
CONTINUOUS
10
92.844202
20
361.006039
30
0.0
11
98.283452
21
354.285864
31
0.0
0
LINE
8
0
6
CONTINUOUS
10
155.398108
20
300.129133
30
0.0
11
154.781116
21
302.820538
31
0.0
0
LINE
8
0
6
CONTINUOUS
10
156.047491
20
297.445307
30
0.0
11
155.398108
21
300.129133
31
0.0
0
LINE
8
0
6
CONTINUOUS
10
151.319689
20
296.508980
30
0.0
11
152.037234
21
293.691680
31
0.0
0
LINE
8
0
6
CONTINUOUS
10
156.686114
20
294.758915
30
0.0
11
156.047491
21
297.445307
31
0.0
0
LINE
8
0
6
CONTINUOUS
10
79.477057
20
377.532079
30
0.0
11
81.263271
21
375.321002
31
0.0
0
LINE
8
0
6
CONTINUOUS
10
134.798921
20
275.245564
30
0.0
11
134.178138
21
274.516312
31
0.0
0
LINE
8
0
6
CONTINUOUS
10
134.178138
20
274.516312
30
0.0
11
134.340574
21
273.887007
31
0.0
0
LINE
8
0
6
CONTINUOUS
10
146.871442
20
254.060132
30
0.0
11
141.349600
21
274.566750
31
0.0
0
LINE
8
0
6
CONTINUOUS
10
134.564824
20
273.018237
30
0.0
11
139.863488
21
252.433095
31
0.0
0
LINE
8
0
6
CONTINUOUS
10
147.751402
20
276.090803
30
0.0
11
152.795833
21
255.478935
31
0.0
0
LINE
8
0
6
CONTINUOUS
10
139.863488
20
252.433095
30
0.0
11
145.162163
21
231.847934
31
0.0
0
LINE
8
0
6
CONTINUOUS
10
157.839933
20
234.867056
30
0.0
11
152.795833
21
255.478935
31
0.0
0
LINE
8
0
6
CONTINUOUS
10
163.873983
20
258.331182
30
0.0
11
168.774871
21
237.651767
31
0.0
0
LINE
8
0
6
CONTINUOUS
10
170.242701
20
238.000677
30
0.0
11
165.305020
21
258.674779
31
0.0
0
LINE
8
0
6
CONTINUOUS
10
168.774871
20
237.651767
30
0.0
11
173.663344
21
216.969435
31
0.0
0
LINE
8
0
6
CONTINUOUS
10
175.180383
20
217.326575
30
0.0
11
170.242701
21
238.000677
31
0.0
0
LINE
8
0
6
CONTINUOUS
10
153.863551
20
212.077389
30
0.0
11
148.445230
21
232.623389
31
0.0
0
LINE
8
0
6
CONTINUOUS
10
152.331189
20
233.538682
30
0.0
11
157.791909
21
213.017611
31
0.0
0
LINE
8
0
6
CONTINUOUS
10
162.884013
20
214.255117
30
0.0
11
157.839933
21
234.867056
31
0.0
0
LINE
8
0
6
CONTINUOUS
10
143.059832
20
253.178058
30
0.0
11
148.445230
21
232.623389
31
0.0
0
LINE
8
0
6
CONTINUOUS
10
152.331189
20
233.538682
30
0.0
11
146.871442
21
254.060132
31
0.0
0
LINE
8
0
6
CONTINUOUS
10
150.460838
20
211.262792
30
0.0
11
155.775648
21
190.583107
31
0.0
0
LINE
8
0
6
CONTINUOUS
10
156.690858
20
190.805363
30
0.0
11
151.345060
21
211.475830
31
0.0
0
LINE
8
0
6
CONTINUOUS
10
80.214437
20
379.351848
30
0.0
11
79.205414
21
378.541426
31
0.0
0
LINE
8
0
6
CONTINUOUS
10
145.162163
20
231.847934
30
0.0
11
150.460838
21
211.262792
31
0.0
0
LINE
8
0
6
CONTINUOUS
10
160.367328
20
279.348871
30
0.0
11
157.328267
21
292.073372
31
0.0
0
LINE
8
0
6
CONTINUOUS
10
165.305020
20
258.674779
30
0.0
11
160.367328
21
279.348871
31
0.0
0
LINE
8
0
6
CONTINUOUS
10
129.208848
20
342.007853
30
0.0
11
123.068811
21
349.591555
31
0.0
0
LINE
8
0
6
CONTINUOUS
10
154.781116
20
302.820538
30
0.0
11
154.181553
21
305.515849
31
0.0
0
LINE
8
0
6
CONTINUOUS
10
183.058055
20
162.400660
30
0.0
11
182.439045
21
164.842954
31
0.0
0
LINE
8
0
6
CONTINUOUS
10
180.959965
20
161.932820
30
0.0
11
180.363368
21
164.286769
31
0.0
0
LINE
8
0
6
CONTINUOUS
10
176.123935
20
160.747210
30
0.0
11
175.553513
21
162.997971
31
0.0
0
LINE
8
0
6
CONTINUOUS
10
171.382835
20
159.538260
30
0.0
11
170.827003
21
161.731514
31
0.0
0
LINE
8
0
6
CONTINUOUS
10
168.952589
20
161.229297
30
0.0
11
169.513935
21
159.014270
31
0.0
0
LINE
8
0
6
CONTINUOUS
10
184.425425
20
156.845240
30
0.0
11
183.058055
21
162.400660
31
0.0
0
LINE
8
0
6
CONTINUOUS
10
182.324645
20
156.388310
30
0.0
11
180.959965
21
161.932820
31
0.0
0
LINE
8
0
6
CONTINUOUS
10
177.482545
20
155.227190
30
0.0
11
176.123935
21
160.747210
31
0.0
0
LINE
8
0
6
CONTINUOUS
10
172.735575
20
154.042040
30
0.0
11
171.382835
21
159.538260
31
0.0
0
LINE
8
0
6
CONTINUOUS
10
169.513935
20
159.014270
30
0.0
11
170.864435
21
153.527140
31
0.0
0
LINE
8
0
6
CONTINUOUS
10
185.844715
20
150.998220
30
0.0
11
184.425425
21
156.845240
31
0.0
0
LINE
8
0
6
CONTINUOUS
10
183.744565
20
150.538700
30
0.0
11
182.324645
21
156.388310
31
0.0
0
LINE
8
0
6
CONTINUOUS
10
178.901105
20
149.383150
30
0.0
11
177.482545
21
155.227190
31
0.0
0
LINE
8
0
6
CONTINUOUS
10
174.151575
20
148.208530
30
0.0
11
172.735575
21
154.042040
31
0.0
0
LINE
8
0
6
CONTINUOUS
10
170.864435
20
153.527140
30
0.0
11
172.278175
21
147.702860
31
0.0
0
LINE
8
0
6
CONTINUOUS
10
187.328955
20
144.880590
30
0.0
11
185.844715
21
150.998220
31
0.0
0
LINE
8
0
6
CONTINUOUS
10
185.232245
20
144.407030
30
0.0
11
183.744565
21
150.538700
31
0.0
0
LINE
8
0
6
CONTINUOUS
10
180.391345
20
143.240960
30
0.0
11
178.901105
21
149.383150
31
0.0
0
LINE
8
0
6
CONTINUOUS
10
175.641995
20
142.065570
30
0.0
11
174.151575
21
148.208530
31
0.0
0
LINE
8
0
6
CONTINUOUS
10
172.278175
20
147.702860
30
0.0
11
173.766285
21
141.569430
31
0.0
0
LINE
8
0
6
CONTINUOUS
10
188.890735
20
138.514620
30
0.0
11
187.328955
21
144.880590
31
0.0
0
LINE
8
0
6
CONTINUOUS
10
186.800015
20
138.016650
30
0.0
11
185.232245
21
144.407030
31
0.0
0
LINE
8
0
6
CONTINUOUS
10
181.965175
20
136.825930
30
0.0
11
180.391345
21
143.240960
31
0.0
0
LINE
8
0
6
CONTINUOUS
10
177.218405
20
135.640020
30
0.0
11
175.641995
21
142.065570
31
0.0
0
LINE
8
0
6
CONTINUOUS
10
173.766285
20
141.569430
30
0.0
11
175.340295
21
135.153650
31
0.0
0
LINE
8
0
6
CONTINUOUS
10
190.542375
20
131.922830
30
0.0
11
188.890735
21
138.514620
31
0.0
0
LINE
8
0
6
CONTINUOUS
10
188.460075
20
131.391210
30
0.0
11
186.800015
21
138.016650
31
0.0
0
LINE
8
0
6
CONTINUOUS
10
183.634615
20
130.163260
30
0.0
11
181.965175
21
136.825930
31
0.0
0
LINE
8
0
6
CONTINUOUS
10
178.892685
20
128.958050
30
0.0
11
177.218405
21
135.640020
31
0.0
0
LINE
8
0
6
CONTINUOUS
10
175.340295
20
135.153650
30
0.0
11
177.012035
21
128.481740
31
0.0
0
LINE
8
0
6
CONTINUOUS
10
192.295985
20
125.128390
30
0.0
11
190.542375
21
131.922830
31
0.0
0
LINE
8
0
6
CONTINUOUS
10
190.224565
20
124.554820
30
0.0
11
188.460075
21
131.391210
31
0.0
0
LINE
8
0
6
CONTINUOUS
10
185.411775
20
123.277810
30
0.0
11
183.634615
21
130.163260
31
0.0
0
LINE
8
0
6
CONTINUOUS
10
180.676875
20
122.045430
30
0.0
11
178.892685
21
128.958050
31
0.0
0
LINE
8
0
6
CONTINUOUS
10
177.012035
20
128.481740
30
0.0
11
178.793515
21
121.579580
31
0.0
0
LINE
8
0
6
CONTINUOUS
10
194.195925
20
118.032290
30
0.0
11
192.295985
21
125.128390
31
0.0
0
LINE
8
0
6
CONTINUOUS
10
192.097385
20
117.563620
30
0.0
11
190.224565
21
124.554820
31
0.0
0
LINE
8
0
6
CONTINUOUS
10
187.264895
20
116.362910
30
0.0
11
185.411775
21
123.277810
31
0.0
0
LINE
8
0
6
CONTINUOUS
10
182.529255
20
115.133430
30
0.0
11
180.676875
21
122.045430
31
0.0
0
LINE
8
0
6
CONTINUOUS
10
178.793515
20
121.579580
30
0.0
11
180.664545
21
114.595480
31
0.0
0
LINE
8
0
6
CONTINUOUS
10
209.464085
20
54.318000
30
0.0
11
194.195925
21
118.032290
31
0.0
0
LINE
8
0
6
CONTINUOUS
10
207.272425
20
54.254830
30
0.0
11
192.097385
21
117.563620
31
0.0
0
LINE
8
0
6
CONTINUOUS
10
202.361195
20
53.396830
30
0.0
11
187.264895
21
116.362910
31
0.0
0
LINE
8
0
6
CONTINUOUS
10
197.607345
20
52.246620
30
0.0
11
182.529255
21
115.133430
31
0.0
0
LINE
8
0
6
CONTINUOUS
10
180.664545
20
114.595480
30
0.0
11
195.795605
21
51.478030
31
0.0
0
LINE
8
0
6
CONTINUOUS
10
219.774755
20
-5.518200
30
0.0
11
209.464085
21
54.318000
31
0.0
0
LINE
8
0
6
CONTINUOUS
10
217.492355
20
-5.057150
30
0.0
11
207.272425
21
54.254830
31
0.0
0
LINE
8
0
6
CONTINUOUS
10
212.501315
20
-5.453880
30
0.0
11
202.361195
21
53.396830
31
0.0
0
LINE
8
0
6
CONTINUOUS
10
207.725315
20
-6.476140
30
0.0
11
197.607345
21
52.246620
31
0.0
0
LINE
8
0
6
CONTINUOUS
10
195.795605
20
51.478030
30
0.0
11
205.962075
21
-7.524960
31
0.0
0
LINE
8
0
6
CONTINUOUS
10
225.886345
20
-62.017600
30
0.0
11
219.774755
21
-5.518200
31
0.0
0
LINE
8
0
6
CONTINUOUS
10
223.555455
20
-61.115430
30
0.0
11
217.492355
21
-5.057150
31
0.0
0
LINE
8
0
6
CONTINUOUS
10
218.519505
20
-61.103600
30
0.0
11
212.501315
21
-5.453880
31
0.0
0
LINE
8
0
6
CONTINUOUS
10
213.728465
20
-61.989030
30
0.0
11
207.725315
21
-6.476140
31
0.0
0
LINE
8
0
6
CONTINUOUS
10
205.962075
20
-7.524960
30
0.0
11
211.988875
21
-63.253110
31
0.0
0
LINE
8
0
6
CONTINUOUS
10
228.595355
20
-115.847100
30
0.0
11
225.886345
21
-62.017600
31
0.0
0
LINE
8
0
6
CONTINUOUS
10
226.247295
20
-114.620480
30
0.0
11
223.555455
21
-61.115430
31
0.0
0
LINE
8
0
6
CONTINUOUS
10
221.193945
20
-114.280140
30
0.0
11
218.519505
21
-61.103600
31
0.0
0
LINE
8
0
6
CONTINUOUS
10
216.395495
20
-115.025450
30
0.0
11
213.728465
21
-61.989030
31
0.0
0
LINE
8
0
6
CONTINUOUS
10
211.988875
20
-63.253110
30
0.0
11
214.662815
21
-116.419880
31
0.0
0
LINE
8
0
6
CONTINUOUS
10
228.702155
20
-167.681550
30
0.0
11
228.595355
21
-115.847100
31
0.0
0
LINE
8
0
6
CONTINUOUS
10
226.353105
20
-166.268320
30
0.0
11
226.247295
21
-114.620480
31
0.0
0
LINE
8
0
6
CONTINUOUS
10
221.298525
20
-165.697450
30
0.0
11
221.193945
21
-114.280140
31
0.0
0
LINE
8
0
6
CONTINUOUS
10
216.499335
20
-166.303300
30
0.0
11
216.395495
21
-115.025450
31
0.0
0
LINE
8
0
6
CONTINUOUS
10
214.662815
20
-116.419880
30
0.0
11
214.766825
21
-167.731100
31
0.0
0
LINE
8
0
6
CONTINUOUS
10
227.007735
20
-218.201610
30
0.0
11
228.702155
21
-167.681550
31
0.0
0
LINE
8
0
6
CONTINUOUS
10
224.659745
20
-216.752590
30
0.0
11
226.353105
21
-166.268320
31
0.0
0
LINE
8
0
6
CONTINUOUS
10
219.608785
20
-216.060110
30
0.0
11
221.298525
21
-165.697450
31
0.0
0
LINE
8
0
6
CONTINUOUS
10
214.813655
20
-216.529820
30
0.0
11
216.499335
21
-166.303300
31
0.0
0
LINE
8
0
6
CONTINUOUS
10
214.766825
20
-167.731100
30
0.0
11
213.083255
21
-217.886590
31
0.0
0
LINE
8
0
6
CONTINUOUS
10
224.311185
20
-268.090790
30
0.0
11
227.007735
21
-218.201610
31
0.0
0
LINE
8
0
6
CONTINUOUS
10
221.956975
20
-266.766180
30
0.0
11
224.659745
21
-216.752590
31
0.0
0
LINE
8
0
6
CONTINUOUS
10
216.906255
20
-266.068960
30
0.0
11
219.608785
21
-216.060110
31
0.0
0
LINE
8
0
6
CONTINUOUS
10
212.117675
20
-266.407480
30
0.0
11
214.813655
21
-216.529820
31
0.0
0
LINE
8
0
6
CONTINUOUS
10
213.083255
20
-217.886590
30
0.0
11
210.396325
21
-267.583440
31
0.0
0
LINE
8
0
6
CONTINUOUS
10
221.408135
20
-318.033530
30
0.0
11
224.311185
21
-268.090790
31
0.0
0
LINE
8
0
6
CONTINUOUS
10
219.038215
20
-317.000020
30
0.0
11
221.956975
21
-266.766180
31
0.0
0
LINE
8
0
6
CONTINUOUS
10
213.981125
20
-316.420870
30
0.0
11
216.906255
21
-266.068960
31
0.0
0
LINE
8
0
6
CONTINUOUS
10
209.199245
20
-316.635290
30
0.0
11
212.117675
21
-266.407480
31
0.0
0
LINE
8
0
6
CONTINUOUS
10
210.396325
20
-267.583440
30
0.0
11
207.493735
21
-317.517750
31
0.0
0
LINE
8
0
6
CONTINUOUS
10
219.089675
20
-368.717260
30
0.0
11
221.408135
21
-318.033530
31
0.0
0
LINE
8
0
6
CONTINUOUS
10
216.700725
20
-368.138890
30
0.0
11
219.038215
21
-317.000020
31
0.0
0
LINE
8
0
6
CONTINUOUS
10
211.633535
20
-367.801350
30
0.0
11
213.981125
21
-316.420870
31
0.0
0
LINE
8
0
6
CONTINUOUS
10
206.856405
20
-367.902340
30
0.0
11
209.199245
21
-316.635290
31
0.0
0
LINE
8
0
6
CONTINUOUS
10
207.493735
20
-317.517750
30
0.0
11
205.167695
21
-368.382730
31
0.0
0
LINE
8
0
6
CONTINUOUS
10
218.142105
20
-420.899380
30
0.0
11
219.089675
21
-368.717260
31
0.0
0
LINE
8
0
6
CONTINUOUS
10
215.744505
20
-420.744160
30
0.0
11
216.700725
21
-368.138890
31
0.0
0
LINE
8
0
6
CONTINUOUS
10
210.672325
20
-420.651160
30
0.0
11
211.633535
21
-367.801350
31
0.0
0
LINE
8
0
6
CONTINUOUS
10
205.896765
20
-420.674890
30
0.0
11
206.856405
21
-367.902340
31
0.0
0
LINE
8
0
6
CONTINUOUS
10
205.167695
20
-368.382730
30
0.0
11
204.215295
21
-420.801420
31
0.0
0
LINE
8
0
6
CONTINUOUS
10
218.142335
20
-518.358770
30
0.0
11
218.142105
21
-420.899380
31
0.0
0
LINE
8
0
6
CONTINUOUS
10
215.744025
20
-518.358770
30
0.0
11
215.744505
21
-420.744160
31
0.0
0
LINE
8
0
6
CONTINUOUS
10
210.671415
20
-518.358770
30
0.0
11
210.672325
21
-420.651160
31
0.0
0
LINE
8
0
6
CONTINUOUS
10
205.895965
20
-518.358770
30
0.0
11
205.896765
21
-420.674890
31
0.0
0
LINE
8
0
6
CONTINUOUS
10
204.215295
20
-420.801420
30
0.0
11
204.215065
21
-518.358770
31
0.0
0
LINE
8
0
6
CONTINUOUS
10
218.142335
20
-596.087660
30
0.0
11
218.142335
21
-518.358770
31
0.0
0
LINE
8
0
6
CONTINUOUS
10
215.744025
20
-596.087660
30
0.0
11
215.744025
21
-518.358770
31
0.0
0
LINE
8
0
6
CONTINUOUS
10
210.671415
20
-596.087660
30
0.0
11
210.671415
21
-518.358770
31
0.0
0
LINE
8
0
6
CONTINUOUS
10
205.895965
20
-596.087660
30
0.0
11
205.895965
21
-518.358770
31
0.0
0
LINE
8
0
6
CONTINUOUS
10
204.215065
20
-518.358770
30
0.0
11
204.215065
21
-596.087660
31
0.0
0
LINE
8
0
6
CONTINUOUS
10
218.142335
20
-656.494490
30
0.0
11
218.142335
21
-596.087660
31
0.0
0
LINE
8
0
6
CONTINUOUS
10
215.744025
20
-656.494490
30
0.0
11
215.744025
21
-596.087660
31
0.0
0
LINE
8
0
6
CONTINUOUS
10
210.671415
20
-656.494490
30
0.0
11
210.671415
21
-596.087660
31
0.0
0
LINE
8
0
6
CONTINUOUS
10
205.895965
20
-656.494490
30
0.0
11
205.895965
21
-596.087660
31
0.0
0
LINE
8
0
6
CONTINUOUS
10
204.215065
20
-596.087660
30
0.0
11
204.215065
21
-656.494490
31
0.0
0
LINE
8
0
6
CONTINUOUS
10
218.142335
20
-702.036730
30
0.0
11
218.142335
21
-656.494490
31
0.0
0
LINE
8
0
6
CONTINUOUS
10
215.744025
20
-702.036730
30
0.0
11
215.744025
21
-656.494490
31
0.0
0
LINE
8
0
6
CONTINUOUS
10
210.671415
20
-702.036730
30
0.0
11
210.671415
21
-656.494490
31
0.0
0
LINE
8
0
6
CONTINUOUS
10
205.895965
20
-702.036730
30
0.0
11
205.895965
21
-656.494490
31
0.0
0
LINE
8
0
6
CONTINUOUS
10
204.215065
20
-656.494490
30
0.0
11
204.215065
21
-702.036730
31
0.0
0
LINE
8
0
6
CONTINUOUS
10
218.142335
20
-735.171800
30
0.0
11
218.142335
21
-702.036730
31
0.0
0
LINE
8
0
6
CONTINUOUS
10
215.744025
20
-735.171800
30
0.0
11
215.744025
21
-702.036730
31
0.0
0
LINE
8
0
6
CONTINUOUS
10
210.671415
20
-735.171800
30
0.0
11
210.671415
21
-702.036730
31
0.0
0
LINE
8
0
6
CONTINUOUS
10
205.895965
20
-735.171800
30
0.0
11
205.895965
21
-702.036730
31
0.0
0
LINE
8
0
6
CONTINUOUS
10
204.215065
20
-702.036730
30
0.0
11
204.215065
21
-735.171800
31
0.0
0
LINE
8
0
6
CONTINUOUS
10
218.142335
20
-758.357160
30
0.0
11
218.142335
21
-735.171800
31
0.0
0
LINE
8
0
6
CONTINUOUS
10
215.744025
20
-758.357160
30
0.0
11
215.744025
21
-735.171800
31
0.0
0
LINE
8
0
6
CONTINUOUS
10
210.671415
20
-758.357160
30
0.0
11
210.671415
21
-735.171800
31
0.0
0
LINE
8
0
6
CONTINUOUS
10
205.895965
20
-758.357160
30
0.0
11
205.895965
21
-735.171800
31
0.0
0
LINE
8
0
6
CONTINUOUS
10
204.215065
20
-735.171800
30
0.0
11
204.215065
21
-758.357160
31
0.0
0
LINE
8
0
6
CONTINUOUS
10
218.142335
20
-774.050260
30
0.0
11
218.142335
21
-758.357160
31
0.0
0
LINE
8
0
6
CONTINUOUS
10
215.744025
20
-774.050260
30
0.0
11
215.744025
21
-758.357160
31
0.0
0
LINE
8
0
6
CONTINUOUS
10
210.671415
20
-774.050260
30
0.0
11
210.671415
21
-758.357160
31
0.0
0
LINE
8
0
6
CONTINUOUS
10
205.895965
20
-774.050260
30
0.0
11
205.895965
21
-758.357160
31
0.0
0
LINE
8
0
6
CONTINUOUS
10
204.215065
20
-758.357160
30
0.0
11
204.215065
21
-774.050260
31
0.0
0
LINE
8
0
6
CONTINUOUS
10
218.142335
20
-784.708550
30
0.0
11
218.142335
21
-774.050260
31
0.0
0
LINE
8
0
6
CONTINUOUS
10
215.744025
20
-784.708550
30
0.0
11
215.744025
21
-774.050260
31
0.0
0
LINE
8
0
6
CONTINUOUS
10
210.671415
20
-784.708550
30
0.0
11
210.671415
21
-774.050260
31
0.0
0
LINE
8
0
6
CONTINUOUS
10
205.895965
20
-784.708550
30
0.0
11
205.895965
21
-774.050260
31
0.0
0
LINE
8
0
6
CONTINUOUS
10
204.215065
20
-774.050260
30
0.0
11
204.215065
21
-784.708550
31
0.0
0
LINE
8
0
6
CONTINUOUS
10
218.142335
20
-792.789470
30
0.0
11
218.142335
21
-784.708550
31
0.0
0
LINE
8
0
6
CONTINUOUS
10
215.744025
20
-792.789470
30
0.0
11
215.744025
21
-784.708550
31
0.0
0
LINE
8
0
6
CONTINUOUS
10
210.671415
20
-792.789470
30
0.0
11
210.671415
21
-784.708550
31
0.0
0
LINE
8
0
6
CONTINUOUS
10
205.895965
20
-792.789470
30
0.0
11
205.895965
21
-784.708550
31
0.0
0
LINE
8
0
6
CONTINUOUS
10
204.215065
20
-784.708550
30
0.0
11
204.215065
21
-792.789470
31
0.0
0
LINE
8
0
6
CONTINUOUS
10
218.137885
20
-801.010720
30
0.0
11
218.142335
21
-792.789470
31
0.0
0
LINE
8
0
6
CONTINUOUS
10
215.737445
20
-801.134910
30
0.0
11
215.744025
21
-792.789470
31
0.0
0
LINE
8
0
6
CONTINUOUS
10
210.666565
20
-801.033920
30
0.0
11
210.671415
21
-792.789470
31
0.0
0
LINE
8
0
6
CONTINUOUS
10
205.895685
20
-800.766900
30
0.0
11
205.895965
21
-792.789470
31
0.0
0
LINE
8
0
6
CONTINUOUS
10
204.215065
20
-792.789470
30
0.0
11
204.219525
21
-800.490260
31
0.0
0
LINE
8
0
6
CONTINUOUS
10
216.764485
20
-820.734040
30
0.0
11
218.137885
21
-801.010720
31
0.0
0
LINE
8
0
6
CONTINUOUS
10
214.328755
20
-821.251910
30
0.0
11
215.737445
21
-801.134910
31
0.0
0
LINE
8
0
6
CONTINUOUS
10
209.286525
20
-820.831370
30
0.0
11
210.666565
21
-801.033920
31
0.0
0
LINE
8
0
6
CONTINUOUS
10
204.591455
20
-819.718770
30
0.0
11
205.895685
21
-800.766900
31
0.0
0
LINE
8
0
6
CONTINUOUS
10
204.219525
20
-800.490260
30
0.0
11
202.993865
21
-818.565850
31
0.0
0
LINE
8
0
6
CONTINUOUS
10
212.934155
20
-837.471690
30
0.0
11
216.764485
21
-820.734040
31
0.0
0
LINE
8
0
6
CONTINUOUS
10
210.379715
20
-838.506970
30
0.0
11
214.328755
21
-821.251910
31
0.0
0
LINE
8
0
6
CONTINUOUS
10
205.433495
20
-837.667920
30
0.0
11
209.286525
21
-820.831370
31
0.0
0
LINE
8
0
6
CONTINUOUS
10
200.992925
20
-835.446050
30
0.0
11
204.591455
21
-819.718770
31
0.0
0
LINE
8
0
6
CONTINUOUS
10
202.993865
20
-818.565850
30
0.0
11
199.659235
21
-833.142910
31
0.0
0
LINE
8
0
6
CONTINUOUS
10
207.158925
20
-851.095190
30
0.0
11
212.934155
21
-837.471690
31
0.0
0
LINE
8
0
6
CONTINUOUS
10
204.419865
20
-852.571100
30
0.0
11
210.379715
21
-838.506970
31
0.0
0
LINE
8
0
6
CONTINUOUS
10
199.622085
20
-851.377760
30
0.0
11
205.433495
21
-837.667920
31
0.0
0
LINE
8
0
6
CONTINUOUS
10
195.576085
20
-848.214290
30
0.0
11
200.992925
21
-835.446050
31
0.0
0
LINE
8
0
6
CONTINUOUS
10
199.659235
20
-833.142910
30
0.0
11
194.651935
21
-844.933760
31
0.0
0
LINE
8
0
6
CONTINUOUS
10
199.998445
20
-861.805680
30
0.0
11
207.158925
21
-851.095190
31
0.0
0
LINE
8
0
6
CONTINUOUS
10
197.049195
20
-863.601500
30
0.0
11
204.419865
21
-852.571100
31
0.0
0
LINE
8
0
6
CONTINUOUS
10
192.418945
20
-862.153200
30
0.0
11
199.622085
21
-851.377760
31
0.0
0
LINE
8
0
6
CONTINUOUS
10
188.820035
20
-858.309120
30
0.0
11
195.576085
21
-848.214290
31
0.0
0
LINE
8
0
6
CONTINUOUS
10
194.651935
20
-844.933760
30
0.0
11
188.360645
21
-854.321130
31
0.0
0
LINE
8
0
6
CONTINUOUS
10
192.001145
20
-869.913150
30
0.0
11
199.998445
21
-861.805680
31
0.0
0
LINE
8
0
6
CONTINUOUS
10
188.851335
20
-871.916340
30
0.0
11
197.049195
21
-863.601500
31
0.0
0
LINE
8
0
6
CONTINUOUS
10
184.378745
20
-870.305010
30
0.0
11
192.418945
21
-862.153200
31
0.0
0
LINE
8
0
6
CONTINUOUS
10
181.203355
20
-866.023070
30
0.0
11
188.820035
21
-858.309120
31
0.0
0
LINE
8
0
6
CONTINUOUS
10
188.360645
20
-854.321130
30
0.0
11
181.185275
21
-861.578820
31
0.0
0
LINE
8
0
6
CONTINUOUS
10
183.674395
20
-875.775690
30
0.0
11
192.001145
21
-869.913150
31
0.0
0
LINE
8
0
6
CONTINUOUS
10
180.349095
20
-877.904920
30
0.0
11
183.674395
21
-875.775690
31
0.0
0
LINE
8
0
6
CONTINUOUS
10
180.349095
20
-877.904920
30
0.0
11
188.851335
21
-871.916340
31
0.0
0
LINE
8
0
6
CONTINUOUS
10
176.011255
20
-876.196810
30
0.0
11
184.378745
21
-870.305010
31
0.0
0
LINE
8
0
6
CONTINUOUS
10
173.201925
20
-871.651960
30
0.0
11
181.203355
21
-866.023070
31
0.0
0
LINE
8
0
6
CONTINUOUS
10
181.185275
20
-861.578820
30
0.0
11
173.566775
21
-866.932650
31
0.0
0
LINE
8
0
6
CONTINUOUS
10
172.019555
20
-881.950860
30
0.0
11
180.349095
21
-877.904920
31
0.0
0
LINE
8
0
6
CONTINUOUS
10
167.792165
20
-880.188070
30
0.0
11
176.011255
21
-876.196810
31
0.0
0
LINE
8
0
6
CONTINUOUS
10
165.289135
20
-875.491550
30
0.0
11
173.201925
21
-871.651960
31
0.0
0
LINE
8
0
6
CONTINUOUS
10
165.976715
20
-870.612440
30
0.0
11
173.566775
21
-866.932650
31
0.0
0
LINE
8
0
6
CONTINUOUS
10
175.940389
20
-865.264615
30
0.0
11
169.452125
21
-868.408880
31
0.0
0
LINE
8
0
6
CONTINUOUS
10
164.317765
20
-884.409150
30
0.0
11
172.019555
21
-881.950860
31
0.0
0
LINE
8
0
6
CONTINUOUS
10
160.180035
20
-882.617230
30
0.0
11
167.792165
21
-880.188070
31
0.0
0
LINE
8
0
6
CONTINUOUS
10
157.936215
20
-877.836500
30
0.0
11
165.289135
21
-875.491550
31
0.0
0
LINE
8
0
6
CONTINUOUS
10
158.900705
20
-872.867440
30
0.0
11
165.976715
21
-870.612440
31
0.0
0
LINE
8
0
6
CONTINUOUS
10
169.452125
20
-868.408880
30
0.0
11
162.508515
21
-870.620870
31
0.0
0
LINE
8
0
6
CONTINUOUS
10
157.683815
20
-885.608910
30
0.0
11
164.317765
21
-884.409150
31
0.0
0
LINE
8
0
6
CONTINUOUS
10
153.619815
20
-883.803570
30
0.0
11
160.180035
21
-882.617230
31
0.0
0
LINE
8
0
6
CONTINUOUS
10
151.610055
20
-878.980240
30
0.0
11
157.936215
21
-877.836500
31
0.0
0
LINE
8
0
6
CONTINUOUS
10
152.831845
20
-873.964360
30
0.0
11
158.900705
21
-872.867440
31
0.0
0
LINE
8
0
6
CONTINUOUS
10
162.508515
20
-870.620870
30
0.0
11
156.569475
21
-871.694130
31
0.0
0
LINE
8
0
6
CONTINUOUS
10
152.490545
20
-885.852730
30
0.0
11
157.683815
21
-885.608910
31
0.0
0
LINE
8
0
6
CONTINUOUS
10
148.526735
20
-884.044010
30
0.0
11
153.619815
21
-883.803570
31
0.0
0
LINE
8
0
6
CONTINUOUS
10
146.802845
20
-879.211070
30
0.0
11
151.610055
21
-878.980240
31
0.0
0
LINE
8
0
6
CONTINUOUS
10
148.328725
20
-874.184980
30
0.0
11
152.831845
21
-873.964360
31
0.0
0
LINE
8
0
6
CONTINUOUS
10
156.569475
20
-871.694130
30
0.0
11
152.210525
21
-871.909930
31
0.0
0
LINE
8
0
6
CONTINUOUS
10
147.556465
20
-885.145920
30
0.0
11
152.490545
21
-885.852730
31
0.0
0
LINE
8
0
6
CONTINUOUS
10
143.739945
20
-883.358320
30
0.0
11
148.526735
21
-884.044010
31
0.0
0
LINE
8
0
6
CONTINUOUS
10
142.366685
20
-878.575580
30
0.0
11
146.802845
21
-879.211070
31
0.0
0
LINE
8
0
6
CONTINUOUS
10
144.241125
20
-873.599420
30
0.0
11
148.328725
21
-874.184980
31
0.0
0
LINE
8
0
6
CONTINUOUS
10
152.210525
20
-871.909930
30
0.0
11
148.265225
21
-871.344750
31
0.0
0
LINE
8
0
6
CONTINUOUS
10
141.691695
20
-883.179860
30
0.0
11
147.556465
21
-885.145920
31
0.0
0
LINE
8
0
6
CONTINUOUS
10
138.027805
20
-881.443450
30
0.0
11
141.691695
21
-883.179860
31
0.0
0
LINE
8
0
6
CONTINUOUS
10
138.027805
20
-881.443450
30
0.0
11
143.739945
21
-883.358320
31
0.0
0
LINE
8
0
6
CONTINUOUS
10
137.005645
20
-876.778500
30
0.0
11
142.366685
21
-878.575580
31
0.0
0
LINE
8
0
6
CONTINUOUS
10
139.223975
20
-871.917660
30
0.0
11
144.241125
21
-873.599420
31
0.0
0
LINE
8
0
6
CONTINUOUS
10
148.265225
20
-871.344750
30
0.0
11
143.383345
21
-869.708360
31
0.0
0
LINE
8
0
6
CONTINUOUS
10
131.694975
20
-878.066890
30
0.0
11
138.027805
21
-881.443450
31
0.0
0
LINE
8
0
6
CONTINUOUS
10
131.024845
20
-873.591360
30
0.0
11
137.005645
21
-876.778500
31
0.0
0
LINE
8
0
6
CONTINUOUS
10
133.597445
20
-868.921120
30
0.0
11
139.223975
21
-871.917660
31
0.0
0
LINE
8
0
6
CONTINUOUS
10
137.905785
20
-866.791980
30
0.0
11
143.383345
21
-869.708360
31
0.0
0
LINE
8
0
6
CONTINUOUS
10
147.047235
20
-871.444770
30
0.0
11
141.426095
21
-868.451130
31
0.0
0
LINE
8
0
6
CONTINUOUS
10
125.059485
20
-872.981210
30
0.0
11
131.694975
21
-878.066890
31
0.0
0
LINE
8
0
6
CONTINUOUS
10
124.759805
20
-868.792620
30
0.0
11
131.024845
21
-873.591360
31
0.0
0
LINE
8
0
6
CONTINUOUS
10
127.711275
20
-864.415880
30
0.0
11
133.597445
21
-868.921120
31
0.0
0
LINE
8
0
6
CONTINUOUS
10
132.184975
20
-862.414830
30
0.0
11
137.905785
21
-866.791980
31
0.0
0
LINE
8
0
6
CONTINUOUS
10
141.426095
20
-868.451130
30
0.0
11
135.560255
21
-863.961650
31
0.0
0
LINE
8
0
6
CONTINUOUS
10
118.457435
20
-865.932740
30
0.0
11
125.059485
21
-872.981210
31
0.0
0
LINE
8
0
6
CONTINUOUS
10
118.543795
20
-862.160560
30
0.0
11
124.759805
21
-868.792620
31
0.0
0
LINE
8
0
6
CONTINUOUS
10
121.894005
20
-858.213910
30
0.0
11
127.711275
21
-864.415880
31
0.0
0
LINE
8
0
6
CONTINUOUS
10
126.545535
20
-856.404690
30
0.0
11
132.184975
21
-862.414830
31
0.0
0
LINE
8
0
6
CONTINUOUS
10
135.560255
20
-863.961650
30
0.0
11
129.773595
21
-857.792710
31
0.0
0
LINE
8
0
6
CONTINUOUS
10
112.244385
20
-856.675650
30
0.0
11
118.457435
21
-865.932740
31
0.0
0
LINE
8
0
6
CONTINUOUS
10
112.710285
20
-853.473860
30
0.0
11
118.543795
21
-862.160560
31
0.0
0
LINE
8
0
6
CONTINUOUS
10
116.454915
20
-850.119980
30
0.0
11
121.894005
21
-858.213910
31
0.0
0
LINE
8
0
6
CONTINUOUS
10
121.284745
20
-848.578710
30
0.0
11
126.545535
21
-856.404690
31
0.0
0
LINE
8
0
6
CONTINUOUS
10
129.773595
20
-857.792710
30
0.0
11
124.370495
21
-849.752870
31
0.0
0
LINE
8
0
6
CONTINUOUS
10
106.792965
20
-844.994070
30
0.0
11
112.244385
21
-856.675650
31
0.0
0
LINE
8
0
6
CONTINUOUS
10
107.593585
20
-842.513380
30
0.0
11
112.710285
21
-853.473860
31
0.0
0
LINE
8
0
6
CONTINUOUS
10
111.687525
20
-839.912040
30
0.0
11
116.454915
21
-850.119980
31
0.0
0
LINE
8
0
6
CONTINUOUS
10
116.676615
20
-838.713880
30
0.0
11
121.284745
21
-848.578710
31
0.0
0
LINE
8
0
6
CONTINUOUS
10
124.370495
20
-849.752870
30
0.0
11
119.638315
21
-839.620790
31
0.0
0
LINE
8
0
6
CONTINUOUS
10
102.477895
20
-830.718970
30
0.0
11
106.792965
21
-844.994070
31
0.0
0
LINE
8
0
6
CONTINUOUS
10
103.528165
20
-829.063850
30
0.0
11
107.593585
21
-842.513380
31
0.0
0
LINE
8
0
6
CONTINUOUS
10
107.883405
20
-827.326570
30
0.0
11
111.687525
21
-839.912040
31
0.0
0
LINE
8
0
6
CONTINUOUS
10
112.992375
20
-826.524790
30
0.0
11
116.676615
21
-838.713880
31
0.0
0
LINE
8
0
6
CONTINUOUS
10
119.638315
20
-839.620790
30
0.0
11
115.862295
21
-827.128200
31
0.0
0
LINE
8
0
6
CONTINUOUS
10
99.653695
20
-813.718160
30
0.0
11
102.477895
21
-830.718970
31
0.0
0
LINE
8
0
6
CONTINUOUS
10
100.846915
20
-812.913430
30
0.0
11
103.528165
21
-829.063850
31
0.0
0
LINE
8
0
6
CONTINUOUS
10
105.352115
20
-812.068100
30
0.0
11
107.883405
21
-827.326570
31
0.0
0
LINE
8
0
6
CONTINUOUS
10
110.530165
20
-811.677350
30
0.0
11
112.992375
21
-826.524790
31
0.0
0
LINE
8
0
6
CONTINUOUS
10
115.862295
20
-827.128200
30
0.0
11
113.347865
21
-811.970080
31
0.0
0
LINE
8
0
6
CONTINUOUS
10
98.646595
20
-794.058970
30
0.0
11
99.653695
21
-813.718160
31
0.0
0
LINE
8
0
6
CONTINUOUS
10
99.880345
20
-793.866990
30
0.0
11
100.846915
21
-812.913430
31
0.0
0
LINE
8
0
6
CONTINUOUS
10
104.428095
20
-793.665270
30
0.0
11
105.352115
21
-812.068100
31
0.0
0
LINE
8
0
6
CONTINUOUS
10
109.625815
20
-793.572000
30
0.0
11
110.530165
21
-811.677350
31
0.0
0
LINE
8
0
6
CONTINUOUS
10
113.347865
20
-811.970080
30
0.0
11
112.428765
21
-793.641800
31
0.0
0
LINE
8
0
6
CONTINUOUS
10
98.643955
20
-784.690500
30
0.0
11
98.646595
21
-794.058970
31
0.0
0
LINE
8
0
6
CONTINUOUS
10
99.880135
20
-784.689820
30
0.0
11
99.880345
21
-793.866990
31
0.0
0
LINE
8
0
6
CONTINUOUS
10
104.430415
20
-784.689440
30
0.0
11
104.428095
21
-793.665270
31
0.0
0
LINE
8
0
6
CONTINUOUS
10
109.629335
20
-784.689610
30
0.0
11
109.625815
21
-793.572000
31
0.0
0
LINE
8
0
6
CONTINUOUS
10
112.428765
20
-793.641800
30
0.0
11
112.431415
21
-784.690220
31
0.0
0
LINE
8
0
6
CONTINUOUS
10
98.643955
20
-777.880090
30
0.0
11
98.643955
21
-784.690500
31
0.0
0
LINE
8
0
6
CONTINUOUS
10
99.880135
20
-777.878490
30
0.0
11
99.880135
21
-784.689820
31
0.0
0
LINE
8
0
6
CONTINUOUS
10
104.430415
20
-777.877630
30
0.0
11
104.430415
21
-784.689440
31
0.0
0
LINE
8
0
6
CONTINUOUS
10
109.629335
20
-777.878010
30
0.0
11
109.629335
21
-784.689610
31
0.0
0
LINE
8
0
6
CONTINUOUS
10
112.431415
20
-784.690220
30
0.0
11
112.431415
21
-777.879410
31
0.0
0
LINE
8
0
6
CONTINUOUS
10
98.643955
20
-772.734430
30
0.0
11
98.643955
21
-777.880090
31
0.0
0
LINE
8
0
6
CONTINUOUS
10
99.880135
20
-772.731790
30
0.0
11
99.880135
21
-777.878490
31
0.0
0
LINE
8
0
6
CONTINUOUS
10
104.430415
20
-772.730360
30
0.0
11
104.430415
21
-777.877630
31
0.0
0
LINE
8
0
6
CONTINUOUS
10
109.629335
20
-772.730990
30
0.0
11
109.629335
21
-777.878010
31
0.0
0
LINE
8
0
6
CONTINUOUS
10
112.431415
20
-777.879410
30
0.0
11
112.431415
21
-772.733310
31
0.0
0
LINE
8
0
6
CONTINUOUS
10
98.643955
20
-768.568770
30
0.0
11
98.643955
21
-772.734430
31
0.0
0
LINE
8
0
6
CONTINUOUS
10
99.880135
20
-768.565330
30
0.0
11
99.880135
21
-772.731790
31
0.0
0
LINE
8
0
6
CONTINUOUS
10
104.430415
20
-768.563470
30
0.0
11
104.430415
21
-772.730360
31
0.0
0
LINE
8
0
6
CONTINUOUS
10
109.629335
20
-768.564290
30
0.0
11
109.629335
21
-772.730990
31
0.0
0
LINE
8
0
6
CONTINUOUS
10
112.431415
20
-772.733310
30
0.0
11
112.431415
21
-768.567300
31
0.0
0
LINE
8
0
6
CONTINUOUS
10
98.643955
20
-764.698320
30
0.0
11
98.643955
21
-768.568770
31
0.0
0
LINE
8
0
6
CONTINUOUS
10
99.880135
20
-764.694780
30
0.0
11
99.880135
21
-768.565330
31
0.0
0
LINE
8
0
6
CONTINUOUS
10
104.430415
20
-764.692860
30
0.0
11
104.430415
21
-768.563470
31
0.0
0
LINE
8
0
6
CONTINUOUS
10
109.629335
20
-764.693710
30
0.0
11
109.629335
21
-768.564290
31
0.0
0
LINE
8
0
6
CONTINUOUS
10
112.431415
20
-768.567300
30
0.0
11
112.431415
21
-764.696810
31
0.0
0
LINE
8
0
6
CONTINUOUS
10
98.643955
20
-760.438390
30
0.0
11
98.643955
21
-764.698320
31
0.0
0
LINE
8
0
6
CONTINUOUS
10
99.880135
20
-760.435470
30
0.0
11
99.880135
21
-764.694780
31
0.0
0
LINE
8
0
6
CONTINUOUS
10
104.430415
20
-760.433890
30
0.0
11
104.430415
21
-764.692860
31
0.0
0
LINE
8
0
6
CONTINUOUS
10
109.629335
20
-760.434580
30
0.0
11
109.629335
21
-764.693710
31
0.0
0
LINE
8
0
6
CONTINUOUS
10
112.431415
20
-764.696810
30
0.0
11
112.431415
21
-760.437150
31
0.0
0
LINE
8
0
6
CONTINUOUS
10
98.643955
20
-755.104390
30
0.0
11
98.643955
21
-760.438390
31
0.0
0
LINE
8
0
6
CONTINUOUS
10
99.880135
20
-755.102390
30
0.0
11
99.880135
21
-760.435470
31
0.0
0
LINE
8
0
6
CONTINUOUS
10
104.430415
20
-755.101310
30
0.0
11
104.430415
21
-760.433890
31
0.0
0
LINE
8
0
6
CONTINUOUS
10
109.629335
20
-755.101780
30
0.0
11
109.629335
21
-760.434580
31
0.0
0
LINE
8
0
6
CONTINUOUS
10
112.431415
20
-760.437150
30
0.0
11
112.431415
21
-755.103540
31
0.0
0
LINE
8
0
6
CONTINUOUS
10
98.643955
20
-748.011720
30
0.0
11
98.643955
21
-755.104390
31
0.0
0
LINE
8
0
6
CONTINUOUS
10
99.880135
20
-748.010560
30
0.0
11
99.880135
21
-755.102390
31
0.0
0
LINE
8
0
6
CONTINUOUS
10
104.430415
20
-748.009940
30
0.0
11
104.430415
21
-755.101310
31
0.0
0
LINE
8
0
6
CONTINUOUS
10
109.629335
20
-748.010210
30
0.0
11
109.629335
21
-755.101780
31
0.0
0
LINE
8
0
6
CONTINUOUS
10
112.431415
20
-755.103540
30
0.0
11
112.431415
21
-748.011230
31
0.0
0
LINE
8
0
6
CONTINUOUS
10
98.643955
20
-738.475710
30
0.0
11
98.643955
21
-748.011720
31
0.0
0
LINE
8
0
6
CONTINUOUS
10
99.880135
20
-738.475210
30
0.0
11
99.880135
21
-748.010560
31
0.0
0
LINE
8
0
6
CONTINUOUS
10
104.430415
20
-738.474950
30
0.0
11
104.430415
21
-748.009940
31
0.0
0
LINE
8
0
6
CONTINUOUS
10
109.629335
20
-738.475060
30
0.0
11
109.629335
21
-748.010210
31
0.0
0
LINE
8
0
6
CONTINUOUS
10
112.431415
20
-748.011230
30
0.0
11
112.431415
21
-738.475500
31
0.0
0
LINE
8
0
6
CONTINUOUS
10
98.643955
20
-725.811670
30
0.0
11
98.643955
21
-738.475710
31
0.0
0
LINE
8
0
6
CONTINUOUS
10
99.880135
20
-725.811670
30
0.0
11
99.880135
21
-738.475210
31
0.0
0
LINE
8
0
6
CONTINUOUS
10
104.430415
20
-725.811670
30
0.0
11
104.430415
21
-738.474950
31
0.0
0
LINE
8
0
6
CONTINUOUS
10
109.629335
20
-725.811670
30
0.0
11
109.629335
21
-738.475060
31
0.0
0
LINE
8
0
6
CONTINUOUS
10
112.431415
20
-738.475500
30
0.0
11
112.431415
21
-725.811670
31
0.0
0
LINE
8
0
6
CONTINUOUS
10
116.244205
20
-725.068940
30
0.0
11
117.264529
21
-707.150436
31
0.0
0
LINE
8
0
6
CONTINUOUS
10
115.326965
20
-725.811660
30
0.0
11
116.201905
21
-725.811660
31
0.0
0
LINE
8
0
6
CONTINUOUS
10
116.201905
20
-725.811660
30
0.0
11
116.244205
21
-725.068940
31
0.0
0
LINE
8
0
6
CONTINUOUS
10
95.551285
20
-725.811660
30
0.0
11
96.338205
21
-725.811660
31
0.0
0
LINE
8
0
6
CONTINUOUS
10
95.509095
20
-725.068940
30
0.0
11
95.551285
21
-725.811660
31
0.0
0
LINE
8
0
6
CONTINUOUS
10
96.338205
20
-725.811660
30
0.0
11
98.575715
21
-725.811660
31
0.0
0
LINE
8
0
6
CONTINUOUS
10
98.575715
20
-725.811660
30
0.0
11
101.920845
21
-725.811660
31
0.0
0
LINE
8
0
6
CONTINUOUS
10
101.920845
20
-725.811660
30
0.0
11
105.872155
21
-725.811660
31
0.0
0
LINE
8
0
6
CONTINUOUS
10
105.872155
20
-725.811660
30
0.0
11
109.804305
21
-725.811660
31
0.0
0
LINE
8
0
6
CONTINUOUS
10
109.804305
20
-725.811660
30
0.0
11
113.187475
21
-725.811660
31
0.0
0
LINE
8
0
6
CONTINUOUS
10
113.187475
20
-725.811660
30
0.0
11
115.326965
21
-725.811660
31
0.0
0
LINE
8
0
6
CONTINUOUS
10
94.491355
20
-707.150430
30
0.0
11
95.509095
21
-725.068940
31
0.0
0
LINE
8
0
6
CONTINUOUS
10
179.716585
20
193.619680
30
0.0
11
179.197715
21
195.556100
31
0.0
0
LINE
8
0
6
CONTINUOUS
10
156.579785
20
189.495610
30
0.0
11
157.098655
21
187.559200
31
0.0
0
LINE
8
0
6
CONTINUOUS
10
159.491555
20
190.372380
30
0.0
11
157.804595
21
189.920340
31
0.0
0
LINE
8
0
6
CONTINUOUS
10
170.277405
20
193.262400
30
0.0
11
167.332275
21
192.473290
31
0.0
0
LINE
8
0
6
CONTINUOUS
10
157.804595
20
189.920340
30
0.0
11
156.803225
21
189.652010
31
0.0
0
LINE
8
0
6
CONTINUOUS
10
167.332275
20
192.473290
30
0.0
11
164.423465
21
191.693870
31
0.0
0
LINE
8
0
6
CONTINUOUS
10
156.555665
20
189.585720
30
0.0
11
156.579785
21
189.495610
31
0.0
0
LINE
8
0
6
CONTINUOUS
10
156.803225
20
189.652010
30
0.0
11
156.555665
21
189.585720
31
0.0
0
LINE
8
0
6
CONTINUOUS
10
164.423465
20
191.693870
30
0.0
11
161.749125
21
190.977320
31
0.0
0
LINE
8
0
6
CONTINUOUS
10
175.484855
20
194.657740
30
0.0
11
173.058085
21
194.007560
31
0.0
0
LINE
8
0
6
CONTINUOUS
10
161.749125
20
190.977320
30
0.0
11
159.491555
21
190.372380
31
0.0
0
LINE
8
0
6
CONTINUOUS
10
173.058085
20
194.007560
30
0.0
11
170.277405
21
193.262400
31
0.0
0
LINE
8
0
6
CONTINUOUS
10
157.098655
20
187.559200
30
0.0
11
158.011302
21
184.767251
31
0.0
0
LINE
8
0
6
CONTINUOUS
10
180.312126
20
190.793244
30
0.0
11
179.716585
21
193.619680
31
0.0
0
LINE
8
0
6
CONTINUOUS
10
177.878725
20
163.621050
30
0.0
11
175.322095
21
162.936010
31
0.0
0
LINE
8
0
6
CONTINUOUS
10
175.322095
20
162.936010
30
0.0
11
172.796965
21
162.259440
31
0.0
0
LINE
8
0
6
CONTINUOUS
10
184.055095
20
165.276020
30
0.0
11
182.399255
21
164.832370
31
0.0
0
LINE
8
0
6
CONTINUOUS
10
172.796965
20
162.259440
30
0.0
11
170.475415
21
161.637340
31
0.0
0
LINE
8
0
6
CONTINUOUS
10
182.399255
20
164.832370
30
0.0
11
180.292605
21
164.267870
31
0.0
0
LINE
8
0
6
CONTINUOUS
10
170.475415
20
161.637340
30
0.0
11
168.515655
21
161.112280
31
0.0
0
LINE
8
0
6
CONTINUOUS
10
180.292605
20
164.267870
30
0.0
11
177.878725
21
163.621050
31
0.0
0
LINE
8
0
6
CONTINUOUS
10
194.235505
20
-671.046730
30
0.0
11
193.873755
21
-671.046730
31
0.0
0
LINE
8
0
6
CONTINUOUS
10
193.128975
20
-677.412840
30
0.0
11
193.128975
21
-679.810070
31
0.0
0
LINE
8
0
6
CONTINUOUS
10
193.873755
20
-671.046730
30
0.0
11
193.801735
21
-671.046730
31
0.0
0
LINE
8
0
6
CONTINUOUS
10
193.950925
20
-673.714260
30
0.0
11
193.873755
21
-671.046730
31
0.0
0
LINE
8
0
6
CONTINUOUS
10
193.950925
20
-673.714260
30
0.0
11
193.871465
21
-674.071780
31
0.0
0
LINE
8
0
6
CONTINUOUS
10
193.128985
20
-671.046730
30
0.0
11
193.128975
21
-677.412840
31
0.0
0
LINE
8
0
6
CONTINUOUS
10
193.801735
20
-671.046730
30
0.0
11
193.128985
21
-671.046730
31
0.0
0
LINE
8
0
6
CONTINUOUS
10
193.128975
20
-677.412840
30
0.0
11
193.871465
21
-674.071780
31
0.0
0
LINE
8
0
6
CONTINUOUS
10
200.668575
20
-671.046730
30
0.0
11
194.235505
21
-671.046730
31
0.0
0
LINE
8
0
6
CONTINUOUS
10
193.950925
20
-701.314290
30
0.0
11
194.305045
21
-701.314290
31
0.0
0
LINE
8
0
6
CONTINUOUS
10
193.950925
20
-701.314290
30
0.0
11
193.873755
21
-698.476610
31
0.0
0
LINE
8
0
6
CONTINUOUS
10
193.871475
20
-701.314290
30
0.0
11
193.950925
21
-701.314290
31
0.0
0
LINE
8
0
6
CONTINUOUS
10
193.801735
20
-698.135500
30
0.0
11
193.873755
21
-698.476610
31
0.0
0
LINE
8
0
6
CONTINUOUS
10
193.128975
20
-694.948090
30
0.0
11
193.128985
21
-701.314290
31
0.0
0
LINE
8
0
6
CONTINUOUS
10
193.801735
20
-698.135500
30
0.0
11
193.128975
21
-694.948090
31
0.0
0
LINE
8
0
6
CONTINUOUS
10
193.128985
20
-701.314290
30
0.0
11
193.871475
21
-701.314290
31
0.0
0
LINE
8
0
6
CONTINUOUS
10
194.305045
20
-701.314290
30
0.0
11
200.668575
21
-701.314290
31
0.0
0
LINE
8
0
6
CONTINUOUS
10
193.950925
20
-688.849450
30
0.0
11
193.873755
21
-683.344230
31
0.0
0
LINE
8
0
6
CONTINUOUS
10
193.801735
20
-683.003120
30
0.0
11
193.873755
21
-683.344230
31
0.0
0
LINE
8
0
6
CONTINUOUS
10
193.950925
20
-688.849450
30
0.0
11
193.871465
21
-689.206960
31
0.0
0
LINE
8
0
6
CONTINUOUS
10
193.564395
20
-671.043870
30
0.0
11
193.128985
21
-671.043870
31
0.0
0
LINE
8
0
6
CONTINUOUS
10
193.128985
20
-671.046730
30
0.0
11
193.564395
21
-671.046730
31
0.0
0
LINE
8
0
6
CONTINUOUS
10
200.668575
20
-671.043870
30
0.0
11
193.564395
21
-671.043870
31
0.0
0
LINE
8
0
6
CONTINUOUS
10
193.564395
20
-671.046730
30
0.0
11
200.668575
21
-671.046730
31
0.0
0
LINE
8
0
6
CONTINUOUS
10
193.128975
20
-692.548030
30
0.0
11
193.128975
21
-694.948090
31
0.0
0
LINE
8
0
6
CONTINUOUS
10
193.128975
20
-679.810070
30
0.0
11
193.128975
21
-692.548030
31
0.0
0
LINE
8
0
6
CONTINUOUS
10
193.801735
20
-683.003120
30
0.0
11
193.128975
21
-679.810070
31
0.0
0
LINE
8
0
6
CONTINUOUS
10
193.128975
20
-692.548030
30
0.0
11
193.871465
21
-689.206960
31
0.0
0
LINE
8
0
6
CONTINUOUS
10
204.215065
20
-671.046730
30
0.0
11
200.668575
21
-671.046730
31
0.0
0
LINE
8
0
6
CONTINUOUS
10
200.668575
20
-701.314290
30
0.0
11
204.215065
21
-701.314290
31
0.0
0
LINE
8
0
6
CONTINUOUS
10
200.668575
20
-671.046730
30
0.0
11
204.215065
21
-671.046730
31
0.0
0
LINE
8
0
6
CONTINUOUS
10
204.215065
20
-671.043870
30
0.0
11
200.668575
21
-671.043870
31
0.0
0
LINE
8
0
6
CONTINUOUS
10
190.629205
20
-681.350680
30
0.0
11
190.629205
21
-686.355180
31
0.0
0
LINE
8
0
6
CONTINUOUS
10
190.629205
20
-691.359680
30
0.0
11
190.629205
21
-695.602310
31
0.0
0
LINE
8
0
6
CONTINUOUS
10
190.629175
20
-699.432580
30
0.0
11
193.128982
21
-699.466975
31
0.0
0
LINE
8
0
6
CONTINUOUS
10
190.629175
20
-698.437090
30
0.0
11
190.629175
21
-699.432580
31
0.0
0
LINE
8
0
6
CONTINUOUS
10
193.128995
20
-673.196004
30
0.0
11
190.629175
21
-673.277830
31
0.0
0
LINE
8
0
6
CONTINUOUS
10
190.629205
20
-686.355180
30
0.0
11
190.629205
21
-691.359680
31
0.0
0
LINE
8
0
6
CONTINUOUS
10
190.629205
20
-695.602310
30
0.0
11
190.629175
21
-698.437090
31
0.0
0
LINE
8
0
6
CONTINUOUS
10
218.142335
20
-720.100475
30
0.0
11
234.062255
21
-720.100530
31
0.0
0
LINE
8
0
6
CONTINUOUS
10
234.062175
20
-652.195790
30
0.0
11
218.142335
21
-652.195790
31
0.0
0
LINE
8
0
6
CONTINUOUS
10
234.062255
20
-720.100530
30
0.0
11
235.129175
21
-720.100530
31
0.0
0
LINE
8
0
6
CONTINUOUS
10
235.129175
20
-720.100530
30
0.0
11
235.129175
21
-719.440970
31
0.0
0
LINE
8
0
6
CONTINUOUS
10
235.129175
20
-719.440970
30
0.0
11
235.129175
21
-717.579460
31
0.0
0
LINE
8
0
6
CONTINUOUS
10
235.129175
20
-717.579460
30
0.0
11
235.129175
21
-714.404560
31
0.0
0
LINE
8
0
6
CONTINUOUS
10
235.129175
20
-714.404560
30
0.0
11
235.129175
21
-710.231660
31
0.0
0
LINE
8
0
6
CONTINUOUS
10
235.129135
20
-705.180240
30
0.0
11
235.129135
21
-699.269050
31
0.0
0
LINE
8
0
6
CONTINUOUS
10
235.129135
20
-699.269050
30
0.0
11
235.129135
21
-692.957640
31
0.0
0
LINE
8
0
6
CONTINUOUS
10
235.129135
20
-692.957640
30
0.0
11
235.129135
21
-686.385670
31
0.0
0
LINE
8
0
6
CONTINUOUS
10
235.129135
20
-686.385670
30
0.0
11
235.129135
21
-679.691800
31
0.0
0
LINE
8
0
6
CONTINUOUS
10
235.129135
20
-679.691800
30
0.0
11
235.129135
21
-673.346200
31
0.0
0
LINE
8
0
6
CONTINUOUS
10
235.129135
20
-673.346200
30
0.0
11
235.129135
21
-667.463790
31
0.0
0
LINE
8
0
6
CONTINUOUS
10
235.129135
20
-667.463790
30
0.0
11
235.129135
21
-662.220260
31
0.0
0
LINE
8
0
6
CONTINUOUS
10
235.129135
20
-662.220260
30
0.0
11
235.129095
21
-658.003650
31
0.0
0
LINE
8
0
6
CONTINUOUS
10
235.129105
20
-652.195790
30
0.0
11
234.062175
21
-652.195790
31
0.0
0
LINE
8
0
6
CONTINUOUS
10
235.129105
20
-652.811790
30
0.0
11
235.129105
21
-652.195790
31
0.0
0
LINE
8
0
6
CONTINUOUS
10
235.129135
20
-654.832960
30
0.0
11
235.129105
21
-652.811790
31
0.0
0
LINE
8
0
6
CONTINUOUS
10
235.129135
20
-705.180240
30
0.0
11
235.129175
21
-710.231660
31
0.0
0
LINE
8
0
6
CONTINUOUS
10
235.129135
20
-654.832960
30
0.0
11
235.129095
21
-658.003650
31
0.0
0
LINE
8
0
6
CONTINUOUS
10
99.050656
20
-658.650543
30
0.0
11
99.050666
21
-664.826986
31
0.0
0
LINE
8
0
6
CONTINUOUS
10
111.167966
20
-658.650607
30
0.0
11
111.167976
21
-664.659857
31
0.0
0
LINE
8
0
6
CONTINUOUS
10
100.098816
20
-658.650571
30
0.0
11
100.098826
21
-664.812529
31
0.0
0
LINE
8
0
6
CONTINUOUS
10
112.853796
20
-658.650572
30
0.0
11
112.853806
21
-664.636606
31
0.0
0
LINE
8
0
6
CONTINUOUS
10
113.207516
20
-664.631727
30
0.0
11
113.207506
21
-658.650561
31
0.0
0
LINE
8
0
6
CONTINUOUS
10
102.341366
20
-658.650606
30
0.0
11
102.341376
21
-664.781598
31
0.0
0
LINE
8
0
6
CONTINUOUS
10
105.334056
20
-658.650630
30
0.0
11
105.334066
21
-664.740322
31
0.0
0
LINE
8
0
6
CONTINUOUS
10
108.484366
20
-664.696871
30
0.0
11
108.484356
21
-658.650628
31
0.0
0
LINE
8
0
6
CONTINUOUS
10
100.420905
20
-658.127430
30
0.0
11
100.420922
21
-650.361004
31
0.0
0
LINE
8
0
6
CONTINUOUS
10
114.519974
20
-650.360953
30
0.0
11
114.519965
21
-658.127360
31
0.0
0
LINE
8
0
6
CONTINUOUS
10
115.398215
20
-658.127280
30
0.0
11
115.398235
21
-649.161070
31
0.0
0
LINE
8
0
6
CONTINUOUS
10
111.979705
20
-658.127440
30
0.0
11
111.979722
21
-650.361013
31
0.0
0
LINE
8
0
6
CONTINUOUS
10
104.154452
20
-650.361050
30
0.0
11
104.154435
21
-658.127470
31
0.0
0
LINE
8
0
6
CONTINUOUS
10
108.279705
20
-658.127480
30
0.0
11
108.279722
21
-650.361050
31
0.0
0
LINE
8
0
6
CONTINUOUS
10
96.859885
20
-649.161060
30
0.0
11
96.859865
21
-658.127260
31
0.0
0
LINE
8
0
6
CONTINUOUS
10
97.816725
20
-658.127350
30
0.0
11
97.816742
21
-650.360934
31
0.0
0
LINE
8
0
6
CONTINUOUS
10
115.932755
20
-643.421490
30
0.0
11
115.932755
21
-642.650440
31
0.0
0
LINE
8
0
6
CONTINUOUS
10
108.403825
20
-643.421690
30
0.0
11
108.403825
21
-642.650650
31
0.0
0
LINE
8
0
6
CONTINUOUS
10
96.325375
20
-642.650420
30
0.0
11
96.325375
21
-643.421460
31
0.0
0
LINE
8
0
6
CONTINUOUS
10
112.317025
20
-642.650610
30
0.0
11
112.317025
21
-643.421650
31
0.0
0
LINE
8
0
6
CONTINUOUS
10
115.003915
20
-643.421570
30
0.0
11
115.003915
21
-642.650530
31
0.0
0
LINE
8
0
6
CONTINUOUS
10
104.040565
20
-643.421680
30
0.0
11
104.040565
21
-642.650640
31
0.0
0
LINE
8
0
6
CONTINUOUS
10
97.337425
20
-642.650530
30
0.0
11
97.337425
21
-643.421570
31
0.0
0
LINE
8
0
6
CONTINUOUS
10
100.091745
20
-643.421640
30
0.0
11
100.091745
21
-642.650590
31
0.0
0
LINE
8
0
6
CONTINUOUS
10
115.932745
20
-650.013870
30
0.0
11
115.932755
21
-643.421490
31
0.0
0
LINE
8
0
6
CONTINUOUS
10
108.403825
20
-650.014080
30
0.0
11
108.403825
21
-643.421690
31
0.0
0
LINE
8
0
6
CONTINUOUS
10
96.325375
20
-643.421460
30
0.0
11
96.325365
21
-650.013860
31
0.0
0
LINE
8
0
6
CONTINUOUS
10
112.317025
20
-643.421650
30
0.0
11
112.317025
21
-650.014040
31
0.0
0
LINE
8
0
6
CONTINUOUS
10
115.003915
20
-650.013970
30
0.0
11
115.003915
21
-643.421570
31
0.0
0
LINE
8
0
6
CONTINUOUS
10
104.040545
20
-650.014070
30
0.0
11
104.040565
21
-643.421680
31
0.0
0
LINE
8
0
6
CONTINUOUS
10
97.337425
20
-643.421570
30
0.0
11
97.337425
21
-650.013950
31
0.0
0
LINE
8
0
6
CONTINUOUS
10
100.091745
20
-650.014030
30
0.0
11
100.091745
21
-643.421640
31
0.0
0
LINE
8
0
6
CONTINUOUS
10
111.979705
20
-658.650600
30
0.0
11
114.519965
21
-658.650520
31
0.0
0
LINE
8
0
6
CONTINUOUS
10
100.420905
20
-658.650580
30
0.0
11
104.154435
21
-658.650630
31
0.0
0
LINE
8
0
6
CONTINUOUS
10
100.420905
20
-658.650580
30
0.0
11
100.420905
21
-658.127430
31
0.0
0
LINE
8
0
6
CONTINUOUS
10
97.816725
20
-658.650510
30
0.0
11
100.420905
21
-658.650580
31
0.0
0
LINE
8
0
6
CONTINUOUS
10
114.519965
20
-658.127360
30
0.0
11
114.519965
21
-658.650520
31
0.0
0
LINE
8
0
6
CONTINUOUS
10
115.398215
20
-658.650440
30
0.0
11
115.398215
21
-658.127280
31
0.0
0
LINE
8
0
6
CONTINUOUS
10
114.519965
20
-658.650520
30
0.0
11
115.398215
21
-658.650440
31
0.0
0
LINE
8
0
6
CONTINUOUS
10
111.979705
20
-658.650600
30
0.0
11
111.979705
21
-658.127440
31
0.0
0
LINE
8
0
6
CONTINUOUS
10
108.279705
20
-658.650630
30
0.0
11
111.979705
21
-658.650600
31
0.0
0
LINE
8
0
6
CONTINUOUS
10
104.154435
20
-658.127470
30
0.0
11
104.154435
21
-658.650630
31
0.0
0
LINE
8
0
6
CONTINUOUS
10
108.279705
20
-658.650630
30
0.0
11
108.279705
21
-658.127480
31
0.0
0
LINE
8
0
6
CONTINUOUS
10
104.154435
20
-658.650630
30
0.0
11
108.279705
21
-658.650630
31
0.0
0
LINE
8
0
6
CONTINUOUS
10
96.859865
20
-658.127260
30
0.0
11
96.859865
21
-658.650420
31
0.0
0
LINE
8
0
6
CONTINUOUS
10
97.816725
20
-658.650510
30
0.0
11
97.816725
21
-658.127350
31
0.0
0
LINE
8
0
6
CONTINUOUS
10
96.859865
20
-658.650420
30
0.0
11
97.816725
21
-658.650510
31
0.0
0
LINE
8
0
6
CONTINUOUS
10
115.932745
20
-650.360840
30
0.0
11
115.932745
21
-650.013870
31
0.0
0
LINE
8
0
6
CONTINUOUS
10
115.003915
20
-650.360940
30
0.0
11
115.932745
21
-650.360840
31
0.0
0
LINE
8
0
6
CONTINUOUS
10
108.403825
20
-650.361050
30
0.0
11
112.317025
21
-650.361010
31
0.0
0
LINE
8
0
6
CONTINUOUS
10
108.403825
20
-650.361050
30
0.0
11
108.403825
21
-650.014080
31
0.0
0
LINE
8
0
6
CONTINUOUS
10
104.040545
20
-650.361050
30
0.0
11
108.403825
21
-650.361050
31
0.0
0
LINE
8
0
6
CONTINUOUS
10
96.325365
20
-650.013860
30
0.0
11
96.325365
21
-650.360830
31
0.0
0
LINE
8
0
6
CONTINUOUS
10
96.325365
20
-650.360830
30
0.0
11
97.337425
21
-650.360920
31
0.0
0
LINE
8
0
6
CONTINUOUS
10
112.317025
20
-650.014040
30
0.0
11
112.317025
21
-650.361010
31
0.0
0
LINE
8
0
6
CONTINUOUS
10
115.003915
20
-650.360940
30
0.0
11
115.003915
21
-650.013970
31
0.0
0
LINE
8
0
6
CONTINUOUS
10
112.317025
20
-650.361010
30
0.0
11
115.003915
21
-650.360940
31
0.0
0
LINE
8
0
6
CONTINUOUS
10
104.040545
20
-650.361050
30
0.0
11
104.040545
21
-650.014070
31
0.0
0
LINE
8
0
6
CONTINUOUS
10
100.091745
20
-650.361000
30
0.0
11
104.040545
21
-650.361050
31
0.0
0
LINE
8
0
6
CONTINUOUS
10
97.337425
20
-650.013950
30
0.0
11
97.337425
21
-650.360920
31
0.0
0
LINE
8
0
6
CONTINUOUS
10
100.091745
20
-650.361000
30
0.0
11
100.091745
21
-650.014030
31
0.0
0
LINE
8
0
6
CONTINUOUS
10
97.337425
20
-650.360920
30
0.0
11
100.091745
21
-650.361000
31
0.0
0
LINE
8
0
6
CONTINUOUS
10
104.040565
20
-642.650640
30
0.0
11
108.403825
21
-642.650650
31
0.0
0
LINE
8
0
6
CONTINUOUS
10
97.254155
20
-642.650330
30
0.0
11
96.325375
21
-642.650420
31
0.0
0
LINE
8
0
6
CONTINUOUS
10
97.337425
20
-642.650530
30
0.0
11
100.091745
21
-642.650590
31
0.0
0
LINE
8
0
6
CONTINUOUS
10
112.166355
20
-642.650260
30
0.0
11
108.217545
21
-642.650230
31
0.0
0
LINE
8
0
6
CONTINUOUS
10
103.854265
20
-642.650220
30
0.0
11
99.941095
21
-642.650250
31
0.0
0
LINE
8
0
6
CONTINUOUS
10
108.403825
20
-642.650650
30
0.0
11
112.317025
21
-642.650610
31
0.0
0
LINE
8
0
6
CONTINUOUS
10
114.920695
20
-642.650340
30
0.0
11
112.166355
21
-642.650260
31
0.0
0
LINE
8
0
6
CONTINUOUS
10
100.091745
20
-642.650590
30
0.0
11
104.040565
21
-642.650640
31
0.0
0
LINE
8
0
6
CONTINUOUS
10
96.325375
20
-642.650420
30
0.0
11
97.337425
21
-642.650530
31
0.0
0
LINE
8
0
6
CONTINUOUS
10
115.932755
20
-642.650440
30
0.0
11
114.920695
21
-642.650340
31
0.0
0
LINE
8
0
6
CONTINUOUS
10
115.003915
20
-642.650530
30
0.0
11
115.932755
21
-642.650440
31
0.0
0
LINE
8
0
6
CONTINUOUS
10
108.217545
20
-642.650230
30
0.0
11
103.854265
21
-642.650220
31
0.0
0
LINE
8
0
6
CONTINUOUS
10
112.317025
20
-642.650610
30
0.0
11
115.003915
21
-642.650530
31
0.0
0
LINE
8
0
6
CONTINUOUS
10
99.941095
20
-642.650250
30
0.0
11
97.254155
21
-642.650330
31
0.0
0
LINE
8
0
6
CONTINUOUS
10
91.840785
20
-701.118307
30
0.0
11
91.840785
21
-706.276020
31
0.0
0
LINE
8
0
6
CONTINUOUS
10
92.790655
20
-706.276020
30
0.0
11
92.790655
21
-701.115885
31
0.0
0
LINE
8
0
6
CONTINUOUS
10
120.178625
20
-706.276020
30
0.0
11
120.178625
21
-701.046026
31
0.0
0
LINE
8
0
6
CONTINUOUS
10
100.518495
20
-691.029110
30
0.0
11
100.518495
21
-706.276010
31
0.0
0
LINE
8
0
6
CONTINUOUS
10
105.964745
20
-706.276010
30
0.0
11
105.964745
21
-691.029110
31
0.0
0
LINE
8
0
6
CONTINUOUS
10
100.518495
20
-707.150420
30
0.0
11
105.964745
21
-707.150420
31
0.0
0
LINE
8
0
6
CONTINUOUS
10
91.840785
20
-706.276020
30
0.0
11
91.840785
21
-707.150430
31
0.0
0
LINE
8
0
6
CONTINUOUS
10
91.840785
20
-707.150430
30
0.0
11
92.790655
21
-707.150430
31
0.0
0
LINE
8
0
6
CONTINUOUS
10
111.402475
20
-707.150420
30
0.0
11
116.014755
21
-707.150420
31
0.0
0
LINE
8
0
6
CONTINUOUS
10
120.178625
20
-707.150430
30
0.0
11
120.178625
21
-706.276020
31
0.0
0
LINE
8
0
6
CONTINUOUS
10
119.096185
20
-707.150430
30
0.0
11
120.178625
21
-707.150430
31
0.0
0
LINE
8
0
6
CONTINUOUS
10
116.014755
20
-706.276010
30
0.0
11
116.014755
21
-707.150420
31
0.0
0
LINE
8
0
6
CONTINUOUS
10
116.014755
20
-707.150420
30
0.0
11
119.096185
21
-707.150430
31
0.0
0
LINE
8
0
6
CONTINUOUS
10
105.964745
20
-706.276010
30
0.0
11
105.964745
21
-707.150420
31
0.0
0
LINE
8
0
6
CONTINUOUS
10
105.964745
20
-707.150420
30
0.0
11
111.402475
21
-707.150420
31
0.0
0
LINE
8
0
6
CONTINUOUS
10
100.518495
20
-707.150420
30
0.0
11
100.518495
21
-706.276010
31
0.0
0
LINE
8
0
6
CONTINUOUS
10
95.926175
20
-707.150420
30
0.0
11
100.518495
21
-707.150420
31
0.0
0
LINE
8
0
6
CONTINUOUS
10
92.790655
20
-706.276020
30
0.0
11
92.790655
21
-707.150430
31
0.0
0
LINE
8
0
6
CONTINUOUS
10
92.790655
20
-707.150430
30
0.0
11
95.926175
21
-707.150420
31
0.0
0
LINE
8
0
6
CONTINUOUS
10
116.014755
20
-701.056647
30
0.0
11
116.014755
21
-706.276010
31
0.0
0
LINE
8
0
6
CONTINUOUS
10
68.199805
20
-704.992250
30
0.0
11
69.618182
21
-700.471421
31
0.0
0
LINE
8
0
6
CONTINUOUS
10
67.684955
20
-704.849830
30
0.0
11
68.199805
21
-704.992250
31
0.0
0
LINE
8
0
6
CONTINUOUS
10
66.312445
20
-704.470000
30
0.0
11
67.684955
21
-704.849830
31
0.0
0
LINE
8
0
6
CONTINUOUS
10
53.793985
20
-701.359970
30
0.0
11
57.398875
21
-702.356920
31
0.0
0
LINE
8
0
6
CONTINUOUS
10
57.558175
20
-702.048960
30
0.0
11
53.895625
21
-701.036260
31
0.0
0
LINE
8
0
6
CONTINUOUS
10
64.023475
20
-703.837070
30
0.0
11
66.312445
21
-704.470000
31
0.0
0
LINE
8
0
6
CONTINUOUS
10
60.991115
20
-702.998380
30
0.0
11
64.023475
21
-703.837070
31
0.0
0
LINE
8
0
6
CONTINUOUS
10
57.558175
20
-702.048960
30
0.0
11
60.991115
21
-702.998380
31
0.0
0
LINE
8
0
6
CONTINUOUS
10
53.895625
20
-701.036260
30
0.0
11
57.558175
21
-702.048960
31
0.0
0
LINE
8
0
6
CONTINUOUS
10
41.013525
20
-692.547740
30
0.0
11
39.591445
21
-697.080270
31
0.0
0
LINE
8
0
6
CONTINUOUS
10
40.106295
20
-697.222680
30
0.0
11
41.479875
21
-697.602450
31
0.0
0
LINE
8
0
6
CONTINUOUS
10
41.479875
20
-697.602450
30
0.0
11
43.768845
21
-698.235380
31
0.0
0
LINE
8
0
6
CONTINUOUS
10
43.768845
20
-698.235380
30
0.0
11
46.801245
21
-699.074060
31
0.0
0
LINE
8
0
6
CONTINUOUS
10
46.801245
20
-699.074060
30
0.0
11
50.234145
21
-700.023490
31
0.0
0
LINE
8
0
6
CONTINUOUS
10
50.234145
20
-700.023490
30
0.0
11
53.895625
21
-701.036260
31
0.0
0
LINE
8
0
6
CONTINUOUS
10
41.722185
20
-698.021100
30
0.0
11
40.348565
21
-697.641440
31
0.0
0
LINE
8
0
6
CONTINUOUS
10
46.871525
20
-699.445300
30
0.0
11
43.953435
21
-698.638280
31
0.0
0
LINE
8
0
6
CONTINUOUS
10
50.190165
20
-700.363060
30
0.0
11
46.871525
21
-699.445300
31
0.0
0
LINE
8
0
6
CONTINUOUS
10
67.755275
20
-705.220960
30
0.0
11
67.240425
21
-705.078540
31
0.0
0
LINE
8
0
6
CONTINUOUS
10
50.234145
20
-700.023490
30
0.0
11
46.801245
21
-699.074060
31
0.0
0
LINE
8
0
6
CONTINUOUS
10
46.871525
20
-699.445300
30
0.0
11
50.190165
21
-700.363060
31
0.0
0
LINE
8
0
6
CONTINUOUS
10
53.895625
20
-701.036260
30
0.0
11
50.234145
21
-700.023490
31
0.0
0
LINE
8
0
6
CONTINUOUS
10
50.190165
20
-700.363060
30
0.0
11
53.793985
21
-701.359970
31
0.0
0
LINE
8
0
6
CONTINUOUS
10
67.755275
20
-705.220960
30
0.0
11
68.199805
21
-704.992250
31
0.0
0
LINE
8
0
6
CONTINUOUS
10
67.240425
20
-705.078540
30
0.0
11
67.755275
21
-705.220960
31
0.0
0
LINE
8
0
6
CONTINUOUS
10
68.199805
20
-704.992250
30
0.0
11
67.684955
21
-704.849830
31
0.0
0
LINE
8
0
6
CONTINUOUS
10
65.866855
20
-704.698780
30
0.0
11
67.240425
21
-705.078540
31
0.0
0
LINE
8
0
6
CONTINUOUS
10
67.684955
20
-704.849830
30
0.0
11
66.312445
21
-704.470000
31
0.0
0
LINE
8
0
6
CONTINUOUS
10
63.635555
20
-704.081700
30
0.0
11
65.866855
21
-704.698780
31
0.0
0
LINE
8
0
6
CONTINUOUS
10
66.312445
20
-704.470000
30
0.0
11
64.023475
21
-703.837070
31
0.0
0
LINE
8
0
6
CONTINUOUS
10
60.717465
20
-703.274680
30
0.0
11
63.635555
21
-704.081700
31
0.0
0
LINE
8
0
6
CONTINUOUS
10
64.023475
20
-703.837070
30
0.0
11
60.991115
21
-702.998380
31
0.0
0
LINE
8
0
6
CONTINUOUS
10
57.398875
20
-702.356920
30
0.0
11
60.717465
21
-703.274680
31
0.0
0
LINE
8
0
6
CONTINUOUS
10
60.991115
20
-702.998380
30
0.0
11
57.558175
21
-702.048960
31
0.0
0
LINE
8
0
6
CONTINUOUS
10
39.591445
20
-697.080270
30
0.0
11
39.833755
21
-697.498910
31
0.0
0
LINE
8
0
6
CONTINUOUS
10
40.106295
20
-697.222680
30
0.0
11
39.591445
21
-697.080270
31
0.0
0
LINE
8
0
6
CONTINUOUS
10
39.833755
20
-697.498910
30
0.0
11
40.348565
21
-697.641440
31
0.0
0
LINE
8
0
6
CONTINUOUS
10
41.479875
20
-697.602450
30
0.0
11
40.106295
21
-697.222680
31
0.0
0
LINE
8
0
6
CONTINUOUS
10
40.348565
20
-697.641440
30
0.0
11
41.722185
21
-698.021100
31
0.0
0
LINE
8
0
6
CONTINUOUS
10
43.768845
20
-698.235380
30
0.0
11
41.479875
21
-697.602450
31
0.0
0
LINE
8
0
6
CONTINUOUS
10
41.722185
20
-698.021100
30
0.0
11
43.953435
21
-698.638280
31
0.0
0
LINE
8
0
6
CONTINUOUS
10
46.801245
20
-699.074060
30
0.0
11
43.768845
21
-698.235380
31
0.0
0
LINE
8
0
6
CONTINUOUS
10
43.953435
20
-698.638280
30
0.0
11
46.871525
21
-699.445300
31
0.0
0
LINE
8
0
6
CONTINUOUS
10
190.084525
20
-670.391040
30
0.0
11
187.611085
21
-670.362907
31
0.0
0
LINE
8
0
6
CONTINUOUS
10
165.766125
20
-702.354720
30
0.0
11
161.257535
21
-702.373490
31
0.0
0
LINE
8
0
6
CONTINUOUS
10
161.257535
20
-702.373490
30
0.0
11
165.766125
21
-702.354730
31
0.0
0
LINE
8
0
6
CONTINUOUS
10
165.766125
20
-702.354710
30
0.0
11
161.257535
21
-702.373480
31
0.0
0
LINE
8
0
6
CONTINUOUS
10
161.257535
20
-702.373490
30
0.0
11
165.766125
21
-702.354720
31
0.0
0
LINE
8
0
6
CONTINUOUS
10
161.257535
20
-702.373490
30
0.0
11
156.420125
21
-702.392790
31
0.0
0
LINE
8
0
6
CONTINUOUS
10
156.420125
20
-702.392800
30
0.0
11
161.257535
21
-702.373490
31
0.0
0
LINE
8
0
6
CONTINUOUS
10
161.257535
20
-702.373480
30
0.0
11
156.420125
21
-702.392780
31
0.0
0
LINE
8
0
6
CONTINUOUS
10
156.420125
20
-702.392790
30
0.0
11
161.257535
21
-702.373490
31
0.0
0
LINE
8
0
6
CONTINUOUS
10
165.766125
20
-702.354690
30
0.0
11
172.214605
21
-702.312730
31
0.0
0
LINE
8
0
6
CONTINUOUS
10
161.257535
20
-702.373460
30
0.0
11
165.766125
21
-702.354690
31
0.0
0
LINE
8
0
6
CONTINUOUS
10
156.420115
20
-702.392760
30
0.0
11
161.257535
21
-702.373460
31
0.0
0
LINE
8
0
6
CONTINUOUS
10
151.386925
20
-701.782790
30
0.0
11
156.420115
21
-702.392760
31
0.0
0
LINE
8
0
6
CONTINUOUS
10
166.047645
20
-666.229200
30
0.0
11
161.419635
21
-664.268520
31
0.0
0
LINE
8
0
6
CONTINUOUS
10
140.534265
20
-674.562860
30
0.0
11
143.531835
21
-670.527750
31
0.0
0
LINE
8
0
6
CONTINUOUS
10
169.477585
20
-696.086390
30
0.0
11
172.379275
21
-692.288780
31
0.0
0
LINE
8
0
6
CONTINUOUS
10
161.351025
20
-701.276900
30
0.0
11
165.666855
21
-699.371000
31
0.0
0
LINE
8
0
6
CONTINUOUS
10
176.248945
20
-702.009710
30
0.0
11
190.080505
21
-701.903590
31
0.0
0
LINE
8
0
6
CONTINUOUS
10
168.259255
20
-668.025910
30
0.0
11
165.867515
21
-666.507050
31
0.0
0
LINE
8
0
6
CONTINUOUS
10
190.084505
20
-670.390790
30
0.0
11
173.456055
21
-670.201660
31
0.0
0
LINE
8
0
6
CONTINUOUS
10
178.147325
20
-686.397900
30
0.0
11
178.342335
21
-682.259710
31
0.0
0
LINE
8
0
6
CONTINUOUS
10
176.962895
20
-690.506560
30
0.0
11
178.147325
21
-686.397900
31
0.0
0
LINE
8
0
6
CONTINUOUS
10
174.908265
20
-694.234580
30
0.0
11
176.962895
21
-690.506560
31
0.0
0
LINE
8
0
6
CONTINUOUS
10
173.258175
20
-674.639020
30
0.0
11
172.575275
21
-673.443410
31
0.0
0
LINE
8
0
6
CONTINUOUS
10
172.575275
20
-673.443410
30
0.0
11
171.339885
21
-671.442530
31
0.0
0
LINE
8
0
6
CONTINUOUS
10
171.339885
20
-671.442530
30
0.0
11
169.616665
21
-669.549910
31
0.0
0
LINE
8
0
6
CONTINUOUS
10
169.616665
20
-669.549910
30
0.0
11
168.675585
21
-668.535890
31
0.0
0
LINE
8
0
6
CONTINUOUS
10
178.658955
20
-702.060690
30
0.0
11
179.331835
21
-702.031080
31
0.0
0
LINE
8
0
6
CONTINUOUS
10
173.456055
20
-670.201660
30
0.0
11
170.739955
21
-669.394240
31
0.0
0
LINE
8
0
6
CONTINUOUS
10
170.739955
20
-669.394240
30
0.0
11
168.259255
21
-668.025910
31
0.0
0
LINE
8
0
6
CONTINUOUS
10
175.858125
20
-686.546290
30
0.0
11
176.090445
21
-682.679560
31
0.0
0
LINE
8
0
6
CONTINUOUS
10
172.379275
20
-692.288780
30
0.0
11
173.202215
21
-691.193960
31
0.0
0
LINE
8
0
6
CONTINUOUS
10
174.321225
20
-690.365940
30
0.0
11
175.858125
21
-686.546290
31
0.0
0
LINE
8
0
6
CONTINUOUS
10
172.393465
20
-693.904990
30
0.0
11
174.321225
21
-690.365940
31
0.0
0
LINE
8
0
6
CONTINUOUS
10
165.666855
20
-699.371000
30
0.0
11
167.667975
21
-698.036460
31
0.0
0
LINE
8
0
6
CONTINUOUS
10
169.676485
20
-696.924940
30
0.0
11
172.393465
21
-693.904990
31
0.0
0
LINE
8
0
6
CONTINUOUS
10
169.676485
20
-696.924940
30
0.0
11
164.161045
21
-700.260060
31
0.0
0
LINE
8
0
6
CONTINUOUS
10
178.342335
20
-682.259710
30
0.0
11
177.947625
21
-678.364300
31
0.0
0
LINE
8
0
6
CONTINUOUS
10
176.090445
20
-682.679560
30
0.0
11
175.653925
21
-678.858530
31
0.0
0
LINE
8
0
6
CONTINUOUS
10
175.653925
20
-678.858530
30
0.0
11
174.696855
21
-675.527160
31
0.0
0
LINE
8
0
6
CONTINUOUS
10
174.696855
20
-675.527160
30
0.0
11
173.644685
21
-672.837040
31
0.0
0
LINE
8
0
6
CONTINUOUS
10
173.644685
20
-672.837040
30
0.0
11
171.588185
21
-670.370070
31
0.0
0
LINE
8
0
6
CONTINUOUS
10
168.555505
20
-668.270820
30
0.0
11
165.894905
21
-666.457540
31
0.0
0
LINE
8
0
6
CONTINUOUS
10
175.227105
20
-702.035350
30
0.0
11
176.248945
21
-702.009710
31
0.0
0
LINE
8
0
6
CONTINUOUS
10
164.161045
20
-700.260060
30
0.0
11
161.261765
21
-702.108970
31
0.0
0
LINE
8
0
6
CONTINUOUS
10
190.080505
20
-701.903590
30
0.0
11
190.617495
21
-701.899240
31
0.0
0
LINE
8
0
6
CONTINUOUS
10
190.616995
20
-697.328610
30
0.0
11
190.617795
21
-694.141890
31
0.0
0
LINE
8
0
6
CONTINUOUS
10
190.619215
20
-682.276650
30
0.0
11
190.619325
21
-678.472640
31
0.0
0
LINE
8
0
6
CONTINUOUS
10
190.620045
20
-675.157130
30
0.0
11
190.619825
21
-672.611890
31
0.0
0
LINE
8
0
6
CONTINUOUS
10
190.621505
20
-670.395680
30
0.0
11
190.084505
21
-670.390790
31
0.0
0
LINE
8
0
6
CONTINUOUS
10
153.872165
20
-663.641180
30
0.0
11
151.388535
21
-664.105120
31
0.0
0
LINE
8
0
6
CONTINUOUS
10
178.660985
20
-702.306110
30
0.0
11
179.517001
21
-701.984927
31
0.0
0
LINE
8
0
6
CONTINUOUS
10
187.611085
20
-670.362907
30
0.0
11
187.611595
21
-668.533300
31
0.0
0
LINE
8
0
6
CONTINUOUS
10
173.109265
20
-669.161490
30
0.0
11
173.600608
21
-670.203304
31
0.0
0
LINE
8
0
6
CONTINUOUS
10
187.598815
20
-664.907500
30
0.0
11
187.581535
21
-664.391830
31
0.0
0
LINE
8
0
6
CONTINUOUS
10
185.020995
20
-664.334150
30
0.0
11
186.903285
21
-664.316300
31
0.0
0
LINE
8
0
6
CONTINUOUS
10
185.991835
20
-663.447010
30
0.0
11
184.188975
21
-663.447010
31
0.0
0
LINE
8
0
6
CONTINUOUS
10
161.419635
20
-664.268520
30
0.0
11
161.096075
21
-664.166370
31
0.0
0
LINE
8
0
6
CONTINUOUS
10
182.097605
20
-664.424170
30
0.0
11
185.020995
21
-664.334150
31
0.0
0
LINE
8
0
6
CONTINUOUS
10
184.188975
20
-663.447010
30
0.0
11
181.599405
21
-663.447010
31
0.0
0
LINE
8
0
6
CONTINUOUS
10
178.318155
20
-664.452400
30
0.0
11
182.097605
21
-664.424170
31
0.0
0
LINE
8
0
6
CONTINUOUS
10
181.599405
20
-663.447010
30
0.0
11
177.996195
21
-663.447010
31
0.0
0
LINE
8
0
6
CONTINUOUS
10
173.292865
20
-663.447010
30
0.0
11
167.269915
21
-663.447010
31
0.0
0
LINE
8
0
6
CONTINUOUS
10
186.903285
20
-664.316300
30
0.0
11
187.581535
21
-664.391830
31
0.0
0
LINE
8
0
6
CONTINUOUS
10
186.797315
20
-663.447010
30
0.0
11
185.991835
21
-663.447010
31
0.0
0
LINE
8
0
6
CONTINUOUS
10
187.581535
20
-664.391830
30
0.0
11
186.797315
21
-663.447010
31
0.0
0
LINE
8
0
6
CONTINUOUS
10
173.346155
20
-664.330320
30
0.0
11
178.318155
21
-664.452400
31
0.0
0
LINE
8
0
6
CONTINUOUS
10
177.996195
20
-663.447010
30
0.0
11
173.292865
21
-663.447010
31
0.0
0
LINE
8
0
6
CONTINUOUS
10
160.730975
20
-663.447010
30
0.0
11
156.378995
21
-663.447000
31
0.0
0
LINE
8
0
6
CONTINUOUS
10
187.611595
20
-668.533300
30
0.0
11
187.598815
21
-664.907500
31
0.0
0
LINE
8
0
6
CONTINUOUS
10
173.346155
20
-664.330320
30
0.0
11
167.318095
21
-664.071000
31
0.0
0
LINE
8
0
6
CONTINUOUS
10
173.276385
20
-664.886200
30
0.0
11
167.318095
21
-664.071000
31
0.0
0
LINE
8
0
6
CONTINUOUS
10
160.757565
20
-663.607290
30
0.0
11
167.319275
21
-664.414780
31
0.0
0
LINE
8
0
6
CONTINUOUS
10
156.378995
20
-663.447010
30
0.0
11
153.872165
21
-663.641180
31
0.0
0
LINE
8
0
6
CONTINUOUS
10
173.276385
20
-664.886200
30
0.0
11
167.319275
21
-664.414780
31
0.0
0
LINE
8
0
6
CONTINUOUS
10
173.109265
20
-669.161490
30
0.0
11
167.319275
21
-664.414780
31
0.0
0
LINE
8
0
6
CONTINUOUS
10
160.853275
20
-663.766210
30
0.0
11
167.355825
21
-665.798450
31
0.0
0
LINE
8
0
6
CONTINUOUS
10
167.319275
20
-664.414780
30
0.0
11
160.853275
21
-663.766210
31
0.0
0
LINE
8
0
6
CONTINUOUS
10
167.355825
20
-665.798450
30
0.0
11
167.319275
21
-664.414780
31
0.0
0
LINE
8
0
6
CONTINUOUS
10
166.071915
20
-666.125210
30
0.0
11
167.355825
21
-665.798450
31
0.0
0
LINE
8
0
6
CONTINUOUS
10
160.757565
20
-663.607290
30
0.0
11
167.318095
21
-664.071000
31
0.0
0
LINE
8
0
6
CONTINUOUS
10
160.730975
20
-663.447010
30
0.0
11
167.318095
21
-664.071000
31
0.0
0
LINE
8
0
6
CONTINUOUS
10
167.269915
20
-663.447010
30
0.0
11
160.730975
21
-663.447010
31
0.0
0
LINE
8
0
6
CONTINUOUS
10
165.766125
20
-702.354700
30
0.0
11
161.257535
21
-702.373470
31
0.0
0
LINE
8
0
6
CONTINUOUS
10
161.257535
20
-702.373480
30
0.0
11
165.766125
21
-702.354710
31
0.0
0
LINE
8
0
6
CONTINUOUS
10
161.257535
20
-702.373470
30
0.0
11
156.420125
21
-702.392770
31
0.0
0
LINE
8
0
6
CONTINUOUS
10
156.420125
20
-702.392780
30
0.0
11
161.257535
21
-702.373480
31
0.0
0
LINE
8
0
6
CONTINUOUS
10
165.766125
20
-702.354690
30
0.0
11
161.257535
21
-702.373460
31
0.0
0
LINE
8
0
6
CONTINUOUS
10
161.257535
20
-702.373470
30
0.0
11
165.766125
21
-702.354700
31
0.0
0
LINE
8
0
6
CONTINUOUS
10
161.257535
20
-702.373460
30
0.0
11
156.420115
21
-702.392760
31
0.0
0
LINE
8
0
6
CONTINUOUS
10
156.420125
20
-702.392770
30
0.0
11
161.257535
21
-702.373470
31
0.0
0
LINE
8
0
6
CONTINUOUS
10
146.617625
20
-699.862020
30
0.0
11
151.386925
21
-701.782790
31
0.0
0
LINE
8
0
6
CONTINUOUS
10
146.595475
20
-699.900630
30
0.0
11
151.386925
21
-701.782800
31
0.0
0
LINE
8
0
6
CONTINUOUS
10
146.584395
20
-699.919930
30
0.0
11
151.386925
21
-701.782800
31
0.0
0
LINE
8
0
6
CONTINUOUS
10
149.271964
20
-700.971818
30
0.0
11
151.386925
21
-701.782810
31
0.0
0
LINE
8
0
6
CONTINUOUS
10
172.214605
20
-702.312750
30
0.0
11
178.660985
21
-702.306110
31
0.0
0
LINE
8
0
6
CONTINUOUS
10
172.317435
20
-692.197140
30
0.0
11
174.159135
21
-687.688700
31
0.0
0
LINE
8
0
6
CONTINUOUS
10
172.318205
20
-692.198280
30
0.0
11
174.160315
21
-687.689240
31
0.0
0
LINE
8
0
6
CONTINUOUS
10
169.432035
20
-696.004820
30
0.0
11
172.317435
21
-692.197140
31
0.0
0
LINE
8
0
6
CONTINUOUS
10
169.432615
20
-696.005810
30
0.0
11
172.318205
21
-692.198280
31
0.0
0
LINE
8
0
6
CONTINUOUS
10
165.648815
20
-699.173080
30
0.0
11
169.432035
21
-696.004820
31
0.0
0
LINE
8
0
6
CONTINUOUS
10
165.649045
20
-699.175590
30
0.0
11
169.432615
21
-696.005810
31
0.0
0
LINE
8
0
6
CONTINUOUS
10
161.294645
20
-701.067300
30
0.0
11
165.648815
21
-699.173080
31
0.0
0
LINE
8
0
6
CONTINUOUS
10
161.295345
20
-701.069970
30
0.0
11
165.649045
21
-699.175590
31
0.0
0
LINE
8
0
6
CONTINUOUS
10
156.445285
20
-701.788280
30
0.0
11
161.294645
21
-701.067300
31
0.0
0
LINE
8
0
6
CONTINUOUS
10
156.445475
20
-701.791260
30
0.0
11
161.295345
21
-701.069970
31
0.0
0
LINE
8
0
6
CONTINUOUS
10
151.527965
20
-701.198530
30
0.0
11
156.445285
21
-701.788280
31
0.0
0
LINE
8
0
6
CONTINUOUS
10
151.527295
20
-701.201580
30
0.0
11
156.445475
21
-701.791260
31
0.0
0
LINE
8
0
6
CONTINUOUS
10
146.919355
20
-699.343670
30
0.0
11
150.946849
21
-700.967546
31
0.0
0
LINE
8
0
6
CONTINUOUS
10
142.941925
20
-696.349210
30
0.0
11
146.919355
21
-699.343670
31
0.0
0
LINE
8
0
6
CONTINUOUS
10
139.876815
20
-692.411830
30
0.0
11
142.944215
21
-696.346920
31
0.0
0
LINE
8
0
6
CONTINUOUS
10
139.873785
20
-692.413360
30
0.0
11
142.941925
21
-696.349210
31
0.0
0
LINE
8
0
6
CONTINUOUS
10
137.966735
20
-687.854790
30
0.0
11
139.873785
21
-692.413360
31
0.0
0
LINE
8
0
6
CONTINUOUS
10
137.338515
20
-682.891260
30
0.0
11
137.970095
21
-687.853800
31
0.0
0
LINE
8
0
6
CONTINUOUS
10
137.335095
20
-682.891340
30
0.0
11
137.966735
21
-687.854790
31
0.0
0
LINE
8
0
6
CONTINUOUS
10
138.016405
20
-677.945660
30
0.0
11
137.338515
21
-682.891260
31
0.0
0
LINE
8
0
6
CONTINUOUS
10
138.013235
20
-677.944740
30
0.0
11
137.335095
21
-682.891340
31
0.0
0
LINE
8
0
6
CONTINUOUS
10
139.544692
20
-674.204148
30
0.0
11
138.016405
21
-677.945660
31
0.0
0
LINE
8
0
6
CONTINUOUS
10
139.542490
20
-674.202576
30
0.0
11
138.013235
21
-677.944740
31
0.0
0
LINE
8
0
6
CONTINUOUS
10
142.965845
20
-669.460860
30
0.0
11
142.859758
21
-669.594761
31
0.0
0
LINE
8
0
6
CONTINUOUS
10
142.963995
20
-669.458800
30
0.0
11
142.857540
21
-669.593178
31
0.0
0
LINE
8
0
6
CONTINUOUS
10
151.548285
20
-664.700800
30
0.0
11
146.954035
21
-666.512020
31
0.0
0
LINE
8
0
6
CONTINUOUS
10
151.547635
20
-664.698210
30
0.0
11
146.952565
21
-666.509500
31
0.0
0
LINE
8
0
6
CONTINUOUS
10
156.429565
20
-664.099150
30
0.0
11
151.548285
21
-664.700800
31
0.0
0
LINE
8
0
6
CONTINUOUS
10
156.429625
20
-664.096550
30
0.0
11
151.547635
21
-664.698210
31
0.0
0
LINE
8
0
6
CONTINUOUS
10
161.276635
20
-664.797690
30
0.0
11
156.429565
21
-664.099150
31
0.0
0
LINE
8
0
6
CONTINUOUS
10
161.277325
20
-664.795180
30
0.0
11
156.429625
21
-664.096550
31
0.0
0
LINE
8
0
6
CONTINUOUS
10
165.728995
20
-666.732430
30
0.0
11
161.276635
21
-664.797690
31
0.0
0
LINE
8
0
6
CONTINUOUS
10
165.730295
20
-666.730450
30
0.0
11
161.277325
21
-664.795180
31
0.0
0
LINE
8
0
6
CONTINUOUS
10
169.500135
20
-669.701260
30
0.0
11
165.728995
21
-666.732430
31
0.0
0
LINE
8
0
6
CONTINUOUS
10
169.501585
20
-669.699350
30
0.0
11
165.730295
21
-666.730450
31
0.0
0
LINE
8
0
6
CONTINUOUS
10
172.429055
20
-673.559600
30
0.0
11
170.165084
21
-670.574260
31
0.0
0
LINE
8
0
6
CONTINUOUS
10
174.115875
20
-678.034080
30
0.0
11
172.427225
21
-673.561050
31
0.0
0
LINE
8
0
6
CONTINUOUS
10
174.116985
20
-678.033090
30
0.0
11
172.429055
21
-673.559600
31
0.0
0
LINE
8
0
6
CONTINUOUS
10
190.619215
20
-682.276650
30
0.0
11
190.618405
21
-686.355100
31
0.0
0
LINE
8
0
6
CONTINUOUS
10
190.617985
20
-690.390360
30
0.0
11
190.617795
21
-694.141890
31
0.0
0
LINE
8
0
6
CONTINUOUS
10
190.616995
20
-697.328610
30
0.0
11
190.616995
21
-699.808170
31
0.0
0
LINE
8
0
6
CONTINUOUS
10
190.616885
20
-701.315050
30
0.0
11
190.617495
21
-701.899240
31
0.0
0
LINE
8
0
6
CONTINUOUS
10
190.616995
20
-699.808170
30
0.0
11
190.616885
21
-701.315050
31
0.0
0
LINE
8
0
6
CONTINUOUS
10
190.618405
20
-686.355100
30
0.0
11
190.617985
21
-690.390360
31
0.0
0
LINE
8
0
6
CONTINUOUS
10
190.620045
20
-675.157130
30
0.0
11
190.619325
21
-678.472640
31
0.0
0
LINE
8
0
6
CONTINUOUS
10
190.620735
20
-671.003700
30
0.0
11
190.619825
21
-672.611890
31
0.0
0
LINE
8
0
6
CONTINUOUS
10
190.621505
20
-670.395680
30
0.0
11
190.620735
21
-671.003700
31
0.0
0
LINE
8
0
6
CONTINUOUS
10
173.976595
20
-687.604010
30
0.0
11
174.570245
21
-682.889120
31
0.0
0
LINE
8
0
6
CONTINUOUS
10
172.197955
20
-692.020130
30
0.0
11
173.976595
21
-687.604010
31
0.0
0
LINE
8
0
6
CONTINUOUS
10
169.344025
20
-695.847150
30
0.0
11
172.197955
21
-692.020130
31
0.0
0
LINE
8
0
6
CONTINUOUS
10
165.613905
20
-698.790650
30
0.0
11
169.344025
21
-695.847150
31
0.0
0
LINE
8
0
6
CONTINUOUS
10
161.185705
20
-700.662450
30
0.0
11
165.613905
21
-698.790650
31
0.0
0
LINE
8
0
6
CONTINUOUS
10
156.416475
20
-701.325520
30
0.0
11
161.185705
21
-700.662450
31
0.0
0
LINE
8
0
6
CONTINUOUS
10
151.630385
20
-700.730800
30
0.0
11
156.416475
21
-701.325520
31
0.0
0
LINE
8
0
6
CONTINUOUS
10
147.154345
20
-698.913250
30
0.0
11
151.630385
21
-700.730800
31
0.0
0
LINE
8
0
6
CONTINUOUS
10
143.296715
20
-695.992340
30
0.0
11
147.154345
21
-698.913250
31
0.0
0
LINE
8
0
6
CONTINUOUS
10
140.343685
20
-692.170510
30
0.0
11
143.296715
21
-695.992340
31
0.0
0
LINE
8
0
6
CONTINUOUS
10
138.488275
20
-687.691440
30
0.0
11
140.343685
21
-692.170510
31
0.0
0
LINE
8
0
6
CONTINUOUS
10
137.861655
20
-682.885080
30
0.0
11
138.488275
21
-687.691440
31
0.0
0
LINE
8
0
6
CONTINUOUS
10
138.505475
20
-678.082910
30
0.0
11
137.861655
21
-682.885080
31
0.0
0
LINE
8
0
6
CONTINUOUS
10
139.883498
20
-674.445980
30
0.0
11
138.505475
21
-678.082910
31
0.0
0
LINE
8
0
6
CONTINUOUS
10
143.248295
20
-669.784720
30
0.0
11
143.154747
21
-669.900926
31
0.0
0
LINE
8
0
6
CONTINUOUS
10
147.180385
20
-666.900120
30
0.0
11
143.248295
21
-669.784720
31
0.0
0
LINE
8
0
6
CONTINUOUS
10
151.649795
20
-665.095090
30
0.0
11
147.180385
21
-666.900120
31
0.0
0
LINE
8
0
6
CONTINUOUS
10
156.422215
20
-664.501520
30
0.0
11
151.649795
21
-665.095090
31
0.0
0
LINE
8
0
6
CONTINUOUS
10
161.173095
20
-665.184270
30
0.0
11
156.422215
21
-664.501520
31
0.0
0
LINE
8
0
6
CONTINUOUS
10
165.528035
20
-667.047290
30
0.0
11
161.173095
21
-665.184270
31
0.0
0
LINE
8
0
6
CONTINUOUS
10
169.274985
20
-669.993460
30
0.0
11
165.528035
21
-667.047290
31
0.0
0
LINE
8
0
6
CONTINUOUS
10
172.141195
20
-673.788320
30
0.0
11
169.274985
21
-669.993460
31
0.0
0
LINE
8
0
6
CONTINUOUS
10
173.944515
20
-678.182170
30
0.0
11
172.141195
21
-673.788320
31
0.0
0
LINE
8
0
6
CONTINUOUS
10
174.570245
20
-682.889120
30
0.0
11
173.944515
21
-678.182170
31
0.0
0
LINE
8
0
6
CONTINUOUS
10
132.105795
20
-668.938950
30
0.0
11
139.530609
21
-674.238627
31
0.0
0
LINE
8
0
6
CONTINUOUS
10
131.214575
20
-667.822310
30
0.0
11
132.105795
21
-668.938950
31
0.0
0
LINE
8
0
6
CONTINUOUS
10
130.998885
20
-666.408890
30
0.0
11
131.214575
21
-667.822310
31
0.0
0
LINE
8
0
6
CONTINUOUS
10
131.516525
20
-665.077400
30
0.0
11
130.998885
21
-666.408890
31
0.0
0
LINE
8
0
6
CONTINUOUS
10
134.155335
20
-663.809020
30
0.0
11
132.746455
21
-664.023940
31
0.0
0
LINE
8
0
6
CONTINUOUS
10
135.483335
20
-664.329650
30
0.0
11
134.155335
21
-663.809020
31
0.0
0
LINE
8
0
6
CONTINUOUS
10
132.746455
20
-664.023940
30
0.0
11
131.516525
21
-665.077400
31
0.0
0
LINE
8
0
6
CONTINUOUS
10
131.223425
20
-667.827570
30
0.0
11
131.538125
21
-668.008830
31
0.0
0
LINE
8
0
6
CONTINUOUS
10
131.007875
20
-666.414300
30
0.0
11
131.327515
21
-666.599140
31
0.0
0
LINE
8
0
6
CONTINUOUS
10
134.163065
20
-663.817260
30
0.0
11
134.439415
21
-664.100970
31
0.0
0
LINE
8
0
6
CONTINUOUS
10
131.525695
20
-665.082900
30
0.0
11
131.852115
21
-665.272770
31
0.0
0
LINE
8
0
6
CONTINUOUS
10
133.025435
20
-664.312160
30
0.0
11
132.754045
21
-664.032100
31
0.0
0
LINE
8
0
6
CONTINUOUS
10
143.046634
20
-669.728148
30
0.0
11
135.483335
21
-664.329650
31
0.0
0
LINE
8
0
6
CONTINUOUS
10
131.542265
20
-668.016990
30
0.0
11
132.431525
21
-669.132180
31
0.0
0
LINE
8
0
6
CONTINUOUS
10
131.331885
20
-666.607540
30
0.0
11
131.542265
21
-668.016990
31
0.0
0
LINE
8
0
6
CONTINUOUS
10
131.856785
20
-665.281320
30
0.0
11
131.331885
21
-666.607540
31
0.0
0
LINE
8
0
6
CONTINUOUS
10
134.441795
20
-664.113870
30
0.0
11
133.027615
21
-664.324820
31
0.0
0
LINE
8
0
6
CONTINUOUS
10
135.771715
20
-664.635870
30
0.0
11
134.441795
21
-664.113870
31
0.0
0
LINE
8
0
6
CONTINUOUS
10
140.362985
20
-674.793420
30
0.0
11
140.534265
21
-674.562860
31
0.0
0
LINE
8
0
6
CONTINUOUS
10
132.431525
20
-669.132180
30
0.0
11
140.362985
21
-674.793420
31
0.0
0
LINE
8
0
6
CONTINUOUS
10
143.703135
20
-670.297110
30
0.0
11
135.771715
21
-664.635870
31
0.0
0
LINE
8
0
6
CONTINUOUS
10
143.531835
20
-670.527750
30
0.0
11
143.703135
21
-670.297110
31
0.0
0
LINE
8
0
6
CONTINUOUS
10
133.027615
20
-664.324820
30
0.0
11
131.856785
21
-665.281320
31
0.0
0
LINE
8
0
6
CONTINUOUS
10
88.421095
20
-701.127030
30
0.0
11
91.840785
21
-701.118307
31
0.0
0
LINE
8
0
6
CONTINUOUS
10
120.178625
20
-701.046026
30
0.0
11
149.271964
21
-700.971818
31
0.0
0
LINE
8
0
6
CONTINUOUS
10
151.388145
20
-664.105120
30
0.0
11
135.470614
21
-664.324663
31
0.0
0
LINE
8
0
6
CONTINUOUS
10
132.345653
20
-664.367764
30
0.0
11
113.207516
21
-664.631727
31
0.0
0
LINE
8
0
6
CONTINUOUS
10
99.050666
20
-664.826986
30
0.0
11
88.422125
21
-664.973580
31
0.0
0
LINE
8
0
6
CONTINUOUS
10
71.725655
20
-700.966420
30
0.0
11
71.765685
21
-700.963800
31
0.0
0
LINE
8
0
6
CONTINUOUS
10
71.155495
20
-700.791280
30
0.0
11
71.765685
21
-700.963800
31
0.0
0
LINE
8
0
6
CONTINUOUS
10
51.473335
20
-675.886440
30
0.0
11
48.281445
21
-678.697010
31
0.0
0
LINE
8
0
6
CONTINUOUS
10
71.203055
20
-700.761930
30
0.0
11
71.765685
21
-700.963800
31
0.0
0
LINE
8
0
6
CONTINUOUS
10
42.675645
20
-685.034360
30
0.0
11
40.235785
21
-688.580330
31
0.0
0
LINE
8
0
6
CONTINUOUS
10
45.361075
20
-681.752890
30
0.0
11
42.675645
21
-685.034360
31
0.0
0
LINE
8
0
6
CONTINUOUS
10
48.281445
20
-678.697010
30
0.0
11
45.361075
21
-681.752890
31
0.0
0
LINE
8
0
6
CONTINUOUS
10
71.908305
20
-699.178310
30
0.0
11
71.722735
21
-700.690460
31
0.0
0
LINE
8
0
6
CONTINUOUS
10
71.722735
20
-700.690460
30
0.0
11
71.805665
21
-700.663900
31
0.0
0
LINE
8
0
6
CONTINUOUS
10
71.626455
20
-699.345340
30
0.0
11
71.908305
21
-699.178310
31
0.0
0
LINE
8
0
6
CONTINUOUS
10
71.764835
20
-666.289320
30
0.0
11
67.129635
21
-667.494680
31
0.0
0
LINE
8
0
6
CONTINUOUS
10
71.626455
20
-699.345340
30
0.0
11
71.643585
21
-700.715610
31
0.0
0
LINE
8
0
6
CONTINUOUS
10
71.722735
20
-700.690460
30
0.0
11
71.626455
21
-699.345340
31
0.0
0
LINE
8
0
6
CONTINUOUS
10
71.310695
20
-699.527090
30
0.0
11
71.626455
21
-699.345340
31
0.0
0
LINE
8
0
6
CONTINUOUS
10
70.668045
20
-696.821690
30
0.0
11
71.225145
21
-696.485200
31
0.0
0
LINE
8
0
6
CONTINUOUS
10
67.129635
20
-667.494680
30
0.0
11
62.768005
21
-669.103550
31
0.0
0
LINE
8
0
6
CONTINUOUS
10
54.942415
20
-673.332220
30
0.0
11
51.473335
21
-675.886440
31
0.0
0
LINE
8
0
6
CONTINUOUS
10
70.827345
20
-699.823490
30
0.0
11
71.478175
21
-700.746010
31
0.0
0
LINE
8
0
6
CONTINUOUS
10
71.125945
20
-699.647340
30
0.0
11
71.478175
21
-700.746010
31
0.0
0
LINE
8
0
6
CONTINUOUS
10
58.705505
20
-671.065160
30
0.0
11
54.942415
21
-673.332220
31
0.0
0
LINE
8
0
6
CONTINUOUS
10
71.125945
20
-699.647340
30
0.0
11
71.548365
21
-700.735800
31
0.0
0
LINE
8
0
6
CONTINUOUS
10
71.310695
20
-699.527090
30
0.0
11
71.548365
21
-700.735800
31
0.0
0
LINE
8
0
6
CONTINUOUS
10
71.643585
20
-700.715610
30
0.0
11
71.310695
21
-699.527090
31
0.0
0
LINE
8
0
6
CONTINUOUS
10
71.125945
20
-699.647340
30
0.0
11
71.310695
21
-699.527090
31
0.0
0
LINE
8
0
6
CONTINUOUS
10
62.768005
20
-669.103550
30
0.0
11
58.705505
21
-671.065160
31
0.0
0
LINE
8
0
6
CONTINUOUS
10
71.203055
20
-700.761930
30
0.0
11
69.705465
21
-700.217890
31
0.0
0
LINE
8
0
6
CONTINUOUS
10
40.235785
20
-688.580330
30
0.0
11
38.799895
21
-691.164850
31
0.0
0
LINE
8
0
6
CONTINUOUS
10
41.308865
20
-692.642140
30
0.0
11
43.853305
21
-693.345880
31
0.0
0
LINE
8
0
6
CONTINUOUS
10
68.992975
20
-700.298700
30
0.0
11
70.520665
21
-700.721150
31
0.0
0
LINE
8
0
6
CONTINUOUS
10
38.915705
20
-691.652610
30
0.0
11
39.209095
21
-692.061630
31
0.0
0
LINE
8
0
6
CONTINUOUS
10
71.092715
20
-700.879210
30
0.0
11
71.490635
21
-700.951290
31
0.0
0
LINE
8
0
6
CONTINUOUS
10
70.520665
20
-700.721150
30
0.0
11
71.092715
21
-700.879210
31
0.0
0
LINE
8
0
6
CONTINUOUS
10
55.151445
20
-696.470380
30
0.0
11
59.239135
21
-697.600880
31
0.0
0
LINE
8
0
6
CONTINUOUS
10
47.229785
20
-694.279740
30
0.0
11
51.062655
21
-695.339950
31
0.0
0
LINE
8
0
6
CONTINUOUS
10
66.448515
20
-699.594960
30
0.0
11
68.992975
21
-700.298700
31
0.0
0
LINE
8
0
6
CONTINUOUS
10
43.853305
20
-693.345880
30
0.0
11
47.229785
21
-694.279740
31
0.0
0
LINE
8
0
6
CONTINUOUS
10
88.422125
20
-664.973580
30
0.0
11
82.871565
21
-665.120150
31
0.0
0
LINE
8
0
6
CONTINUOUS
10
82.869575
20
-701.068840
30
0.0
11
88.421095
21
-701.127030
31
0.0
0
LINE
8
0
6
CONTINUOUS
10
71.765685
20
-700.963800
30
0.0
11
77.317635
21
-701.017650
31
0.0
0
LINE
8
0
6
CONTINUOUS
10
77.317635
20
-701.017650
30
0.0
11
82.869575
21
-701.068840
31
0.0
0
LINE
8
0
6
CONTINUOUS
10
77.319655
20
-665.459160
30
0.0
11
71.764835
21
-666.289320
31
0.0
0
LINE
8
0
6
CONTINUOUS
10
82.871565
20
-665.120150
30
0.0
11
77.319655
21
-665.459160
31
0.0
0
LINE
8
0
6
CONTINUOUS
10
63.445545
20
-698.497360
30
0.0
11
59.492395
21
-697.321030
31
0.0
0
LINE
8
0
6
CONTINUOUS
10
51.056385
20
-694.811510
30
0.0
11
47.103235
21
-693.635170
31
0.0
0
LINE
8
0
6
CONTINUOUS
10
66.938015
20
-699.536500
30
0.0
11
63.445545
21
-698.497360
31
0.0
0
LINE
8
0
6
CONTINUOUS
10
40.974975
20
-691.811790
30
0.0
11
39.393295
21
-691.341250
31
0.0
0
LINE
8
0
6
CONTINUOUS
10
38.799895
20
-691.164850
30
0.0
11
38.915705
21
-691.652610
31
0.0
0
LINE
8
0
6
CONTINUOUS
10
39.393295
20
-691.341250
30
0.0
11
38.799895
21
-691.164850
31
0.0
0
LINE
8
0
6
CONTINUOUS
10
47.103235
20
-693.635170
30
0.0
11
43.610765
21
-692.596030
31
0.0
0
LINE
8
0
6
CONTINUOUS
10
71.155495
20
-700.791280
30
0.0
11
69.573825
21
-700.320750
31
0.0
0
LINE
8
0
6
CONTINUOUS
10
55.274925
20
-696.066240
30
0.0
11
51.056385
21
-694.811510
31
0.0
0
LINE
8
0
6
CONTINUOUS
10
43.610765
20
-692.596030
30
0.0
11
40.974975
21
-691.811790
31
0.0
0
LINE
8
0
6
CONTINUOUS
10
59.492395
20
-697.321030
30
0.0
11
55.274925
21
-696.066240
31
0.0
0
LINE
8
0
6
CONTINUOUS
10
71.490635
20
-700.951290
30
0.0
11
71.725655
21
-700.966420
31
0.0
0
LINE
8
0
6
CONTINUOUS
10
69.573825
20
-700.320750
30
0.0
11
66.938015
21
-699.536500
31
0.0
0
LINE
8
0
6
CONTINUOUS
10
39.781165
20
-692.219690
30
0.0
11
39.209095
21
-692.061630
31
0.0
0
LINE
8
0
6
CONTINUOUS
10
55.151445
20
-696.470380
30
0.0
11
51.062655
21
-695.339950
31
0.0
0
LINE
8
0
6
CONTINUOUS
10
41.308865
20
-692.642140
30
0.0
11
39.781165
21
-692.219690
31
0.0
0
LINE
8
0
6
CONTINUOUS
10
184.142222
20
707.095560
30
0.0
11
222.797775
21
707.095560
31
0.0
0
LINE
8
0
6
CONTINUOUS
10
222.797755
20
728.056560
30
0.0
11
184.142225
21
728.056560
31
0.0
0
LINE
8
0
6
CONTINUOUS
10
222.797755
20
748.051980
30
0.0
11
222.797755
21
747.305820
31
0.0
0
LINE
8
0
6
CONTINUOUS
10
223.274845
20
748.083110
30
0.0
11
222.797755
21
748.051980
31
0.0
0
LINE
8
0
6
CONTINUOUS
10
222.797755
20
747.305820
30
0.0
11
222.797755
21
745.104590
31
0.0
0
LINE
8
0
6
CONTINUOUS
10
222.797755
20
745.104590
30
0.0
11
222.797755
21
741.558750
31
0.0
0
LINE
8
0
6
CONTINUOUS
10
222.797755
20
741.558750
30
0.0
11
222.797755
21
736.845920
31
0.0
0
LINE
8
0
6
CONTINUOUS
10
222.797755
20
736.845920
30
0.0
11
222.797755
21
731.202610
31
0.0
0
LINE
8
0
6
CONTINUOUS
10
222.797755
20
731.202610
30
0.0
11
222.797755
21
724.911720
31
0.0
0
LINE
8
0
6
CONTINUOUS
10
222.797755
20
724.911720
30
0.0
11
222.797755
21
718.288790
31
0.0
0
LINE
8
0
6
CONTINUOUS
10
222.797755
20
718.288790
30
0.0
11
222.797775
21
711.665560
31
0.0
0
LINE
8
0
6
CONTINUOUS
10
222.797775
20
711.665560
30
0.0
11
222.797775
21
705.374670
31
0.0
0
LINE
8
0
6
CONTINUOUS
10
222.797775
20
705.374670
30
0.0
11
222.797775
21
699.731360
31
0.0
0
LINE
8
0
6
CONTINUOUS
10
222.797775
20
699.731360
30
0.0
11
222.797775
21
695.018530
31
0.0
0
LINE
8
0
6
CONTINUOUS
10
222.797775
20
695.018530
30
0.0
11
222.797775
21
691.472690
31
0.0
0
LINE
8
0
6
CONTINUOUS
10
222.797775
20
691.472690
30
0.0
11
222.797775
21
689.271460
31
0.0
0
LINE
8
0
6
CONTINUOUS
10
222.797775
20
688.525310
30
0.0
11
223.274875
21
688.494180
31
0.0
0
LINE
8
0
6
CONTINUOUS
10
222.797775
20
689.271460
30
0.0
11
222.797775
21
688.525310
31
0.0
0
LINE
8
0
6
CONTINUOUS
10
235.129185
20
711.579510
30
0.0
11
235.129185
21
718.288790
31
0.0
0
LINE
8
0
6
CONTINUOUS
10
235.129185
20
718.288790
30
0.0
11
235.129165
21
724.998080
31
0.0
0
LINE
8
0
6
CONTINUOUS
10
235.129165
20
737.087930
30
0.0
11
235.129165
21
741.862100
31
0.0
0
LINE
8
0
6
CONTINUOUS
10
235.129165
20
741.862100
30
0.0
11
235.129165
21
745.454320
31
0.0
0
LINE
8
0
6
CONTINUOUS
10
235.129165
20
745.454320
30
0.0
11
235.129165
21
747.684240
31
0.0
0
LINE
8
0
6
CONTINUOUS
10
228.527735
20
748.426120
30
0.0
11
223.274845
21
748.083110
31
0.0
0
LINE
8
0
6
CONTINUOUS
10
223.274875
20
688.494180
30
0.0
11
228.527755
21
688.151470
31
0.0
0
LINE
8
0
6
CONTINUOUS
10
235.129205
20
688.137120
30
0.0
11
235.129205
21
688.893040
31
0.0
0
LINE
8
0
6
CONTINUOUS
10
228.527755
20
688.151470
30
0.0
11
235.129205
21
688.137120
31
0.0
0
LINE
8
0
6
CONTINUOUS
10
235.129205
20
688.893040
30
0.0
11
235.129205
21
691.122960
31
0.0
0
LINE
8
0
6
CONTINUOUS
10
235.129205
20
691.122960
30
0.0
11
235.129205
21
694.715190
31
0.0
0
LINE
8
0
6
CONTINUOUS
10
235.129205
20
694.715190
30
0.0
11
235.129205
21
699.489660
31
0.0
0
LINE
8
0
6
CONTINUOUS
10
235.129205
20
699.489660
30
0.0
11
235.129185
21
705.206520
31
0.0
0
LINE
8
0
6
CONTINUOUS
10
235.129185
20
705.206520
30
0.0
11
235.129185
21
711.579510
31
0.0
0
LINE
8
0
6
CONTINUOUS
10
235.129165
20
724.998080
30
0.0
11
235.129165
21
731.371070
31
0.0
0
LINE
8
0
6
CONTINUOUS
10
235.129165
20
731.371070
30
0.0
11
235.129165
21
737.087930
31
0.0
0
LINE
8
0
6
CONTINUOUS
10
235.129165
20
747.684240
30
0.0
11
235.129165
21
748.440160
31
0.0
0
LINE
8
0
6
CONTINUOUS
10
235.129165
20
748.440160
30
0.0
11
228.527735
21
748.426120
31
0.0
0
LINE
8
0
6
CONTINUOUS
10
-109.905205
20
884.971530
30
0.0
11
-114.149515
21
885.719820
31
0.0
0
LINE
8
0
6
CONTINUOUS
10
-103.306885
20
883.807900
30
0.0
11
-109.905205
21
884.971530
31
0.0
0
LINE
8
0
6
CONTINUOUS
10
-87.476425
20
880.200110
30
0.0
11
-87.336765
21
880.992350
31
0.0
0
LINE
8
0
6
CONTINUOUS
10
-96.122205
20
882.541420
30
0.0
11
-103.306885
21
883.807900
31
0.0
0
LINE
8
0
6
CONTINUOUS
10
-90.276985
20
881.510540
30
0.0
11
-96.122205
21
882.541420
31
0.0
0
LINE
8
0
6
CONTINUOUS
10
-114.902765
20
885.852730
30
0.0
11
-115.042425
21
885.060490
31
0.0
0
LINE
8
0
6
CONTINUOUS
10
-114.149515
20
885.719820
30
0.0
11
-114.902765
21
885.852730
31
0.0
0
LINE
8
0
6
CONTINUOUS
10
-114.599995
20
858.345860
30
0.0
11
-108.001675
21
857.182230
31
0.0
0
LINE
8
0
6
CONTINUOUS
10
-92.031595
20
854.366680
30
0.0
11
-91.881375
21
855.218730
31
0.0
0
LINE
8
0
6
CONTINUOUS
10
-108.001675
20
857.182230
30
0.0
11
-100.817035
21
855.915750
31
0.0
0
LINE
8
0
6
CONTINUOUS
10
-119.447325
20
860.079110
30
0.0
11
-119.597585
21
859.227060
31
0.0
0
LINE
8
0
6
CONTINUOUS
10
-90.276985
20
881.510540
30
0.0
11
-87.336765
21
880.992350
31
0.0
0
LINE
8
0
6
CONTINUOUS
10
-114.599995
20
858.345860
30
0.0
11
-118.844375
21
859.094460
31
0.0
0
LINE
8
0
6
CONTINUOUS
10
-92.031595
20
854.366680
30
0.0
11
-94.971845
21
854.884860
31
0.0
0
LINE
8
0
6
CONTINUOUS
10
-94.971845
20
854.884860
30
0.0
11
-100.817035
21
855.915750
31
0.0
0
LINE
8
0
6
CONTINUOUS
10
-118.844375
20
859.094460
30
0.0
11
-119.597585
21
859.227060
31
0.0
0
LINE
8
0
6
CONTINUOUS
10
-91.881375
20
855.218730
30
0.0
11
-91.428780
21
857.785491
31
0.0
0
LINE
8
0
6
CONTINUOUS
10
-87.867434
20
877.982616
30
0.0
11
-87.476425
21
880.200110
31
0.0
0
LINE
8
0
6
CONTINUOUS
10
-115.042425
20
885.060490
30
0.0
11
-119.447325
21
860.079110
31
0.0
0
LINE
8
0
6
CONTINUOUS
10
-96.183762
20
853.845879
30
0.0
11
-95.977607
21
855.062094
31
0.0
0
LINE
8
0
6
CONTINUOUS
10
184.142225
20
-663.447010
30
0.0
11
184.142225
21
100.088744
31
0.0
0
LINE
8
0
6
CONTINUOUS
10
184.142225
20
188.620060
30
0.0
11
184.142225
21
707.095558
31
0.0
0
LINE
8
0
6
CONTINUOUS
10
184.142225
20
728.056561
30
0.0
11
184.142225
21
758.492350
31
0.0
0
LINE
8
0
6
CONTINUOUS
10
162.443445
20
758.492350
30
0.0
11
162.443445
21
270.656181
31
0.0
0
LINE
8
0
6
CONTINUOUS
10
162.443445
20
157.765881
30
0.0
11
162.443445
21
-663.447010
31
0.0
0
LINE
8
0
6
CONTINUOUS
10
162.253365
20
764.384380
30
0.0
11
162.443445
21
758.492350
31
0.0
0
LINE
8
0
6
CONTINUOUS
10
184.142225
20
758.492350
30
0.0
11
183.879505
21
766.158060
31
0.0
0
LINE
8
0
6
CONTINUOUS
10
161.891615
20
770.316080
30
0.0
11
162.253365
21
764.384380
31
0.0
0
LINE
8
0
6
CONTINUOUS
10
183.879505
20
766.158060
30
0.0
11
183.450775
21
772.773350
31
0.0
0
LINE
8
0
6
CONTINUOUS
10
158.855835
20
783.395000
30
0.0
11
160.799815
21
776.905430
31
0.0
0
LINE
8
0
6
CONTINUOUS
10
181.802875
20
781.955790
30
0.0
11
179.274595
21
790.737530
31
0.0
0
LINE
8
0
6
CONTINUOUS
10
152.713855
20
795.336220
30
0.0
11
156.171455
21
789.599520
31
0.0
0
LINE
8
0
6
CONTINUOUS
10
175.471785
20
799.192110
30
0.0
11
170.895745
21
807.179180
31
0.0
0
LINE
8
0
6
CONTINUOUS
10
143.934495
20
805.732030
30
0.0
11
148.812845
21
800.808330
31
0.0
0
LINE
8
0
6
CONTINUOUS
10
165.182575
20
814.846720
30
0.0
11
158.737545
21
821.597510
31
0.0
0
LINE
8
0
6
CONTINUOUS
10
130.307985
20
815.302040
30
0.0
11
137.121235
21
811.381750
31
0.0
0
LINE
8
0
6
CONTINUOUS
10
149.416275
20
828.997720
30
0.0
11
140.095025
21
834.668190
31
0.0
0
LINE
8
0
6
CONTINUOUS
10
114.433465
20
820.678020
30
0.0
11
122.370725
21
818.702310
31
0.0
0
LINE
8
0
6
CONTINUOUS
10
129.043755
20
839.087740
30
0.0
11
117.992475
21
842.082740
31
0.0
0
LINE
8
0
6
CONTINUOUS
10
-91.532053
20
857.199806
30
0.0
11
114.433465
21
820.678020
31
0.0
0
LINE
8
0
6
CONTINUOUS
10
117.992475
20
842.082740
30
0.0
11
-87.764139
21
878.568426
31
0.0
0
LINE
8
0
6
CONTINUOUS
10
122.370725
20
818.702310
30
0.0
11
130.307985
21
815.302040
31
0.0
0
LINE
8
0
6
CONTINUOUS
10
140.095025
20
834.668190
30
0.0
11
129.043755
21
839.087740
31
0.0
0
LINE
8
0
6
CONTINUOUS
10
137.121235
20
811.381750
30
0.0
11
143.934495
21
805.732030
31
0.0
0
LINE
8
0
6
CONTINUOUS
10
158.737545
20
821.597510
30
0.0
11
149.416275
21
828.997720
31
0.0
0
LINE
8
0
6
CONTINUOUS
10
148.812845
20
800.808330
30
0.0
11
152.713855
21
795.336220
31
0.0
0
LINE
8
0
6
CONTINUOUS
10
170.895745
20
807.179180
30
0.0
11
165.182575
21
814.846720
31
0.0
0
LINE
8
0
6
CONTINUOUS
10
156.171455
20
789.599520
30
0.0
11
158.855835
21
783.395000
31
0.0
0
LINE
8
0
6
CONTINUOUS
10
179.274595
20
790.737530
30
0.0
11
175.471785
21
799.192110
31
0.0
0
LINE
8
0
6
CONTINUOUS
10
160.799815
20
776.905430
30
0.0
11
161.891615
21
770.316080
31
0.0
0
LINE
8
0
6
CONTINUOUS
10
183.450775
20
772.773350
30
0.0
11
181.802875
21
781.955790
31
0.0
0
LINE
8
0
6
CONTINUOUS
10
155.066125
20
178.807585
30
0.0
11
154.333195
21
175.166345
31
0.0
0
LINE
8
0
6
CONTINUOUS
10
154.333195
20
175.166345
30
0.0
11
154.324695
21
171.452055
31
0.0
0
LINE
8
0
6
CONTINUOUS
10
154.324695
20
171.452055
30
0.0
11
155.041015
21
167.807415
31
0.0
0
LINE
8
0
6
CONTINUOUS
10
161.673865
20
183.836165
30
0.0
11
160.999975
21
186.075995
31
0.0
0
LINE
8
0
6
CONTINUOUS
10
160.261515
20
187.007015
30
0.0
11
160.698360
21
186.896895
31
0.0
0
LINE
8
0
6
CONTINUOUS
10
161.673865
20
183.836165
30
0.0
11
162.494955
21
181.106895
31
0.0
0
LINE
8
0
6
CONTINUOUS
10
163.431765
20
177.993185
30
0.0
11
164.448215
21
174.614515
31
0.0
0
LINE
8
0
6
CONTINUOUS
10
162.494955
20
181.106895
30
0.0
11
163.431765
21
177.993185
31
0.0
0
LINE
8
0
6
CONTINUOUS
10
164.448215
20
174.614515
30
0.0
11
165.545555
21
170.967165
31
0.0
0
LINE
8
0
6
CONTINUOUS
10
155.066125
20
178.807585
30
0.0
11
156.495395
21
182.235855
31
0.0
0
LINE
8
0
6
CONTINUOUS
10
156.495395
20
182.235855
30
0.0
11
158.566025
21
185.319355
31
0.0
0
LINE
8
0
6
CONTINUOUS
10
158.566025
20
185.319355
30
0.0
11
160.261515
21
187.007015
31
0.0
0
LINE
8
0
6
CONTINUOUS
10
182.155205
20
189.954365
30
0.0
11
178.726815
21
191.383765
31
0.0
0
LINE
8
0
6
CONTINUOUS
10
185.238895
20
187.883635
30
0.0
11
182.155205
21
189.954365
31
0.0
0
LINE
8
0
6
CONTINUOUS
10
187.859355
20
185.251035
30
0.0
11
185.238895
21
187.883635
31
0.0
0
LINE
8
0
6
CONTINUOUS
10
189.915885
20
182.157925
30
0.0
11
187.859355
21
185.251035
31
0.0
0
LINE
8
0
6
CONTINUOUS
10
191.329505
20
178.723055
30
0.0
11
189.915885
21
182.157925
31
0.0
0
LINE
8
0
6
CONTINUOUS
10
182.155205
20
189.954405
30
0.0
11
180.148557
21
190.867688
31
0.0
0
LINE
8
0
6
CONTINUOUS
10
179.727605
20
179.210615
30
0.0
11
178.711115
21
182.589215
31
0.0
0
LINE
8
0
6
CONTINUOUS
10
178.711115
20
182.589215
30
0.0
11
178.246516
21
184.133468
31
0.0
0
LINE
8
0
6
CONTINUOUS
10
180.824935
20
175.563225
30
0.0
11
179.727605
21
179.210615
31
0.0
0
LINE
8
0
6
CONTINUOUS
10
176.764185
20
191.778919
30
0.0
11
178.726815
21
191.383765
31
0.0
0
LINE
8
0
6
CONTINUOUS
10
170.326435
20
155.044425
30
0.0
11
170.091135
21
155.858335
31
0.0
0
LINE
8
0
6
CONTINUOUS
10
156.454605
20
164.372465
30
0.0
11
158.511145
21
161.279325
31
0.0
0
LINE
8
0
6
CONTINUOUS
10
155.041015
20
167.807415
30
0.0
11
156.454605
21
164.372465
31
0.0
0
LINE
8
0
6
CONTINUOUS
10
166.642905
20
167.319815
30
0.0
11
165.545555
21
170.967165
31
0.0
0
LINE
8
0
6
CONTINUOUS
10
170.006105
20
154.670965
30
0.0
11
170.326435
21
155.044425
31
0.0
0
LINE
8
0
6
CONTINUOUS
10
170.326435
20
155.044425
30
0.0
11
169.988925
21
154.674445
31
0.0
0
LINE
8
0
6
CONTINUOUS
10
164.215275
20
156.576025
30
0.0
11
166.986825
21
155.278845
31
0.0
0
LINE
8
0
6
CONTINUOUS
10
166.986825
20
155.278845
30
0.0
11
167.643665
21
155.146585
31
0.0
0
LINE
8
0
6
CONTINUOUS
10
168.596175
20
160.827435
30
0.0
11
169.417275
21
158.098175
31
0.0
0
LINE
8
0
6
CONTINUOUS
10
166.642905
20
167.319815
30
0.0
11
167.659375
21
163.941185
31
0.0
0
LINE
8
0
6
CONTINUOUS
10
167.659375
20
163.941185
30
0.0
11
168.596175
21
160.827435
31
0.0
0
LINE
8
0
6
CONTINUOUS
10
169.417275
20
158.098175
30
0.0
11
170.091135
21
155.858335
31
0.0
0
LINE
8
0
6
CONTINUOUS
10
164.215285
20
156.576025
30
0.0
11
161.131615
21
158.646805
31
0.0
0
LINE
8
0
6
CONTINUOUS
10
161.131615
20
158.646805
30
0.0
11
158.511145
21
161.279325
31
0.0
0
LINE
8
0
6
CONTINUOUS
10
167.643685
20
155.146665
30
0.0
11
164.215285
21
156.576025
31
0.0
0
LINE
8
0
6
CONTINUOUS
10
169.988925
20
154.674445
30
0.0
11
167.643685
21
155.146665
31
0.0
0
LINE
8
0
6
CONTINUOUS
10
184.142225
20
157.906170
30
0.0
11
185.171965
21
158.590765
31
0.0
0
LINE
8
0
6
CONTINUOUS
10
186.109005
20
159.523415
30
0.0
11
187.804465
21
161.211035
31
0.0
0
LINE
8
0
6
CONTINUOUS
10
185.370505
20
160.454435
30
0.0
11
185.623375
21
159.645755
31
0.0
0
LINE
8
0
6
CONTINUOUS
10
187.804465
20
161.211035
30
0.0
11
189.875125
21
164.294575
31
0.0
0
LINE
8
0
6
CONTINUOUS
10
189.875125
20
164.294575
30
0.0
11
191.304365
21
167.722845
31
0.0
0
LINE
8
0
6
CONTINUOUS
10
191.304365
20
167.722845
30
0.0
11
192.037355
21
171.364085
31
0.0
0
LINE
8
0
6
CONTINUOUS
10
192.037355
20
171.364085
30
0.0
11
192.045825
21
175.078375
31
0.0
0
LINE
8
0
6
CONTINUOUS
10
192.045825
20
175.078375
30
0.0
11
191.329505
21
178.723055
31
0.0
0
LINE
8
0
6
CONTINUOUS
10
185.623375
20
159.645755
30
0.0
11
186.109005
21
159.523415
31
0.0
0
LINE
8
0
6
CONTINUOUS
10
181.922255
20
171.915885
30
0.0
11
182.938745
21
168.537245
31
0.0
0
LINE
8
0
6
CONTINUOUS
10
182.938745
20
168.537245
30
0.0
11
183.875525
21
165.423495
31
0.0
0
LINE
8
0
6
CONTINUOUS
10
188.338705
20
161.742845
30
0.0
11
189.875115
21
164.294575
31
0.0
0
LINE
8
0
6
CONTINUOUS
10
188.248365
20
161.652895
30
0.0
11
188.338705
21
161.742845
31
0.0
0
LINE
8
0
6
CONTINUOUS
10
188.248365
20
161.652895
30
0.0
11
189.875125
21
164.294575
31
0.0
0
LINE
8
0
6
CONTINUOUS
10
187.804465
20
161.211035
30
0.0
11
188.248365
21
161.652895
31
0.0
0
LINE
8
0
6
CONTINUOUS
10
184.696645
20
162.694235
30
0.0
11
183.875525
21
165.423495
31
0.0
0
LINE
8
0
6
CONTINUOUS
10
184.047356
20
158.381278
30
0.0
11
185.037015
21
159.039215
31
0.0
0
LINE
8
0
6
CONTINUOUS
10
181.922255
20
171.915885
30
0.0
11
180.824935
21
175.563225
31
0.0
0
LINE
8
0
6
CONTINUOUS
10
185.370505
20
160.454435
30
0.0
11
184.696645
21
162.694235
31
0.0
0
LINE
8
0
6
CONTINUOUS
10
111.005378
20
326.854458
30
0.0
11
110.807774
21
327.061449
31
0.0
0
LINE
8
0
6
CONTINUOUS
10
117.418339
20
318.848903
30
0.0
11
117.332919
21
318.935924
31
0.0
0
LINE
8
0
6
CONTINUOUS
10
86.199983
20
354.713764
30
0.0
11
87.278503
21
353.593675
31
0.0
0
LINE
8
0
6
CONTINUOUS
10
87.278503
20
353.593675
30
0.0
11
88.439505
21
352.204782
31
0.0
0
LINE
8
0
6
CONTINUOUS
10
95.881936
20
342.804049
30
0.0
11
94.714254
21
344.173744
31
0.0
0
LINE
8
0
6
CONTINUOUS
10
88.439505
20
352.204782
30
0.0
11
88.918993
21
351.661769
31
0.0
0
LINE
8
0
6
CONTINUOUS
10
103.800997
20
334.198786
30
0.0
11
102.977066
21
335.109733
31
0.0
0
LINE
8
0
6
CONTINUOUS
10
103.257044
20
333.783322
30
0.0
11
100.776679
21
336.886038
31
0.0
0
LINE
8
0
6
CONTINUOUS
10
99.554922
20
338.423367
30
0.0
11
96.240913
21
342.351888
31
0.0
0
LINE
8
0
6
CONTINUOUS
10
100.776679
20
336.886038
30
0.0
11
99.554922
21
338.423367
31
0.0
0
LINE
8
0
6
CONTINUOUS
10
110.408974
20
324.840083
30
0.0
11
107.913957
21
328.071693
31
0.0
0
LINE
8
0
6
CONTINUOUS
10
107.095826
20
329.126937
30
0.0
11
104.104765
21
332.756719
31
0.0
0
LINE
8
0
6
CONTINUOUS
10
107.913957
20
328.071693
30
0.0
11
107.095826
21
329.126937
31
0.0
0
LINE
8
0
6
CONTINUOUS
10
111.408645
20
321.919639
30
0.0
11
111.882803
21
321.459457
31
0.0
0
LINE
8
0
6
CONTINUOUS
10
122.631905
20
309.931178
30
0.0
11
122.350073
21
310.380669
31
0.0
0
LINE
8
0
6
CONTINUOUS
10
133.964178
20
299.084197
30
0.0
11
135.022202
21
298.062029
31
0.0
0
LINE
8
0
6
CONTINUOUS
10
131.595988
20
301.338182
30
0.0
11
133.964178
21
299.084197
31
0.0
0
LINE
8
0
6
CONTINUOUS
10
128.768248
20
304.018587
30
0.0
11
129.080755
21
303.725385
31
0.0
0
LINE
8
0
6
CONTINUOUS
10
94.446716
20
342.245116
30
0.0
11
95.232977
21
341.405783
31
0.0
0
LINE
8
0
6
CONTINUOUS
10
87.223595
20
352.819915
30
0.0
11
86.898104
21
353.318691
31
0.0
0
LINE
8
0
6
CONTINUOUS
10
-92.685669
20
858.880203
30
0.0
11
-93.612346
21
862.594937
31
0.0
0
LINE
8
0
6
CONTINUOUS
10
-87.867434
20
877.982616
30
0.0
11
-89.422475
21
877.386383
31
0.0
0
LINE
8
0
6
CONTINUOUS
10
-91.428780
20
857.785491
30
0.0
11
-92.685669
21
858.880203
31
0.0
0
LINE
8
0
6
CONTINUOUS
10
-89.422475
20
877.386383
30
0.0
11
-91.563232
21
874.215812
31
0.0
0
LINE
8
0
6
CONTINUOUS
10
178.717535
20
721.624349
30
0.0
11
179.036944
21
722.816380
31
0.0
0
LINE
8
0
6
CONTINUOUS
10
179.036954
20
712.336040
30
0.0
11
178.717535
21
713.528081
31
0.0
0
LINE
8
0
6
CONTINUOUS
10
182.688695
20
726.468332
30
0.0
11
182.738107
21
726.652750
31
0.0
0
LINE
8
0
6
CONTINUOUS
10
182.738107
20
708.499670
30
0.0
11
182.688695
21
708.684089
31
0.0
0
LINE
8
0
6
CONTINUOUS
10
-93.612346
20
862.594937
30
0.0
11
-94.174466
21
863.177479
31
0.0
0
LINE
8
0
6
CONTINUOUS
10
-92.290476
20
873.861937
30
0.0
11
-91.563232
21
874.215812
31
0.0
0
LINE
8
0
6
CONTINUOUS
10
-95.203423
20
868.869347
30
0.0
11
-92.290476
21
873.861937
31
0.0
0
LINE
8
0
6
CONTINUOUS
10
-94.174466
20
863.177479
30
0.0
11
-95.203423
21
868.869347
31
0.0
0
LINE
8
0
6
CONTINUOUS
10
179.142692
20
191.272525
30
0.0
11
178.985874
21
191.331633
31
0.0
0
ENDSEC
0
EOF
