999
Erzeugt mit innoplus bad 
0
SECTION
2
HEADER
9
$ACADVER
1
AC1009
9
$DWGCODEPAGE
3
ISO8859-1
0
ENDSEC
0
SECTION
2
TABLES
0
TABLE
2
LAYER
70
1
0
LAYER
2
0
70
0
62
7
6
CONTINUOUS
0
ENDTAB
0
ENDSEC
0
SECTION
2
ENTITIES
0
LINE
8
0
6
CONTINUOUS
10
-53.426015
20
-0.007045
30
0.0
11
-52.751715
21
-4.264405
31
0.0
0
LINE
8
0
6
CONTINUOUS
10
-30.043265
20
9.631165
30
0.0
11
-31.550945
21
11.138845
31
0.0
0
LINE
8
0
6
CONTINUOUS
10
-35.391575
20
-13.109855
30
0.0
11
-31.550945
21
-11.152965
31
0.0
0
LINE
8
0
6
CONTINUOUS
10
-52.751715
20
-4.264405
30
0.0
11
-50.794835
21
-8.105025
31
0.0
0
LINE
8
0
6
CONTINUOUS
10
-39.648915
20
13.770035
30
0.0
11
-43.906265
21
13.095745
31
0.0
0
LINE
8
0
6
CONTINUOUS
10
-43.906265
20
13.095745
30
0.0
11
-47.746885
21
11.138855
31
0.0
0
LINE
8
0
6
CONTINUOUS
10
-31.550945
20
11.138845
30
0.0
11
-35.391565
21
13.095735
31
0.0
0
LINE
8
0
6
CONTINUOUS
10
-31.550945
20
-11.152965
30
0.0
11
-29.936645
21
-9.538665
31
0.0
0
LINE
8
0
6
CONTINUOUS
10
-50.794835
20
-8.105025
30
0.0
11
-47.746905
21
-11.152955
31
0.0
0
LINE
8
0
6
CONTINUOUS
10
-47.746885
20
11.138855
30
0.0
11
-50.794815
21
8.090925
31
0.0
0
LINE
8
0
6
CONTINUOUS
10
-35.391565
20
13.095735
30
0.0
11
-39.648915
21
13.770035
31
0.0
0
LINE
8
0
6
CONTINUOUS
10
-47.746905
20
-11.152955
30
0.0
11
-43.906285
21
-13.109855
31
0.0
0
LINE
8
0
6
CONTINUOUS
10
-43.906285
20
-13.109855
30
0.0
11
-39.648915
21
-13.784155
31
0.0
0
LINE
8
0
6
CONTINUOUS
10
-50.794815
20
8.090925
30
0.0
11
-52.751715
21
4.250315
31
0.0
0
LINE
8
0
6
CONTINUOUS
10
-39.648915
20
-13.784155
30
0.0
11
-35.391575
21
-13.109855
31
0.0
0
LINE
8
0
6
CONTINUOUS
10
-52.751715
20
4.250315
30
0.0
11
-53.426015
21
-0.007045
31
0.0
0
LINE
8
0
6
CONTINUOUS
10
37.354465
20
-30.254165
30
0.0
11
38.313305
21
-30.700245
31
0.0
0
LINE
8
0
6
CONTINUOUS
10
38.313305
20
-30.700245
30
0.0
11
38.955235
21
-30.700245
31
0.0
0
LINE
8
0
6
CONTINUOUS
10
38.955225
20
30.700255
30
0.0
11
38.313285
21
30.700255
31
0.0
0
LINE
8
0
6
CONTINUOUS
10
38.313255
20
-5.977655
30
0.0
11
38.313255
21
0.024975
31
0.0
0
LINE
8
0
6
CONTINUOUS
10
37.354465
20
0.040455
30
0.0
11
37.354465
21
-5.875215
31
0.0
0
LINE
8
0
6
CONTINUOUS
10
38.313255
20
-11.764475
30
0.0
11
38.313255
21
-5.977655
31
0.0
0
LINE
8
0
6
CONTINUOUS
10
37.354465
20
-5.875215
30
0.0
11
37.354465
21
-11.564895
31
0.0
0
LINE
8
0
6
CONTINUOUS
10
38.313255
20
-17.132325
30
0.0
11
38.313255
21
-11.764475
31
0.0
0
LINE
8
0
6
CONTINUOUS
10
37.354465
20
-11.564895
30
0.0
11
37.354465
21
-16.799065
31
0.0
0
LINE
8
0
6
CONTINUOUS
10
38.313295
20
-21.770245
30
0.0
11
38.313255
21
-17.132325
31
0.0
0
LINE
8
0
6
CONTINUOUS
10
37.354465
20
-16.799065
30
0.0
11
37.354465
21
-21.391255
31
0.0
0
LINE
8
0
6
CONTINUOUS
10
38.313305
20
-25.594115
30
0.0
11
38.313295
21
-21.770245
31
0.0
0
LINE
8
0
6
CONTINUOUS
10
37.354465
20
-21.391255
30
0.0
11
37.354465
21
-25.161215
31
0.0
0
LINE
8
0
6
CONTINUOUS
10
38.313305
20
-28.448315
30
0.0
11
38.313305
21
-25.594115
31
0.0
0
LINE
8
0
6
CONTINUOUS
10
37.354465
20
-25.161215
30
0.0
11
37.354465
21
-27.957045
31
0.0
0
LINE
8
0
6
CONTINUOUS
10
38.313305
20
-30.132875
30
0.0
11
38.313305
21
-28.448315
31
0.0
0
LINE
8
0
6
CONTINUOUS
10
37.354465
20
-27.957045
30
0.0
11
37.354465
21
-29.675125
31
0.0
0
LINE
8
0
6
CONTINUOUS
10
38.313305
20
-30.700245
30
0.0
11
38.313305
21
-30.132875
31
0.0
0
LINE
8
0
6
CONTINUOUS
10
37.354465
20
-30.254165
30
0.0
11
38.313305
21
-30.700245
31
0.0
0
LINE
8
0
6
CONTINUOUS
10
37.354465
20
-29.675125
30
0.0
11
37.354465
21
-30.254165
31
0.0
0
LINE
8
0
6
CONTINUOUS
10
38.313285
20
30.700255
30
0.0
11
37.354465
21
30.350385
31
0.0
0
LINE
8
0
6
CONTINUOUS
10
37.354465
20
30.350385
30
0.0
11
37.354465
21
29.788335
31
0.0
0
LINE
8
0
6
CONTINUOUS
10
37.354465
20
29.788335
30
0.0
11
37.354465
21
28.070145
31
0.0
0
LINE
8
0
6
CONTINUOUS
10
37.354465
20
28.070145
30
0.0
11
37.354465
21
25.228475
31
0.0
0
LINE
8
0
6
CONTINUOUS
10
38.313285
20
21.806235
30
0.0
11
38.313285
21
25.629445
31
0.0
0
LINE
8
0
6
CONTINUOUS
10
37.354465
20
25.228475
30
0.0
11
37.354465
21
21.468125
31
0.0
0
LINE
8
0
6
CONTINUOUS
10
38.313245
20
17.149435
30
0.0
11
38.313285
21
21.806235
31
0.0
0
LINE
8
0
6
CONTINUOUS
10
37.354465
20
21.468125
30
0.0
11
37.354465
21
16.874795
31
0.0
0
LINE
8
0
6
CONTINUOUS
10
38.313255
20
11.854545
30
0.0
11
38.313245
21
17.149435
31
0.0
0
LINE
8
0
6
CONTINUOUS
10
37.354465
20
16.874795
30
0.0
11
37.354465
21
11.635445
31
0.0
0
LINE
8
0
6
CONTINUOUS
10
38.313255
20
6.042505
30
0.0
11
38.313255
21
11.854545
31
0.0
0
LINE
8
0
6
CONTINUOUS
10
37.354465
20
11.635445
30
0.0
11
37.354465
21
5.956815
31
0.0
0
LINE
8
0
6
CONTINUOUS
10
38.313255
20
0.024975
30
0.0
11
38.313255
21
6.042505
31
0.0
0
LINE
8
0
6
CONTINUOUS
10
37.354465
20
5.956815
30
0.0
11
37.354465
21
0.040455
31
0.0
0
LINE
8
0
6
CONTINUOUS
10
38.955235
20
-30.700245
30
0.0
11
52.359055
21
-30.700255
31
0.0
0
LINE
8
0
6
CONTINUOUS
10
52.359035
20
30.700245
30
0.0
11
38.955225
21
30.700255
31
0.0
0
LINE
8
0
6
CONTINUOUS
10
53.425975
20
-5.977665
30
0.0
11
53.425935
21
0.024985
31
0.0
0
LINE
8
0
6
CONTINUOUS
10
53.425935
20
-11.764455
30
0.0
11
53.425975
21
-5.977665
31
0.0
0
LINE
8
0
6
CONTINUOUS
10
53.425935
20
-17.132305
30
0.0
11
53.425935
21
-11.764455
31
0.0
0
LINE
8
0
6
CONTINUOUS
10
53.425975
20
-25.594115
30
0.0
11
53.425975
21
-21.770225
31
0.0
0
LINE
8
0
6
CONTINUOUS
10
53.425975
20
-28.448305
30
0.0
11
53.425975
21
-25.594115
31
0.0
0
LINE
8
0
6
CONTINUOUS
10
53.425975
20
-30.132875
30
0.0
11
53.425975
21
-28.448305
31
0.0
0
LINE
8
0
6
CONTINUOUS
10
53.425975
20
-30.700255
30
0.0
11
53.425975
21
-30.132875
31
0.0
0
LINE
8
0
6
CONTINUOUS
10
52.359055
20
-30.700255
30
0.0
11
53.425975
21
-30.700255
31
0.0
0
LINE
8
0
6
CONTINUOUS
10
53.425965
20
30.139805
30
0.0
11
53.425965
21
30.700245
31
0.0
0
LINE
8
0
6
CONTINUOUS
10
53.425965
20
30.700245
30
0.0
11
52.359035
21
30.700245
31
0.0
0
LINE
8
0
6
CONTINUOUS
10
53.425965
20
28.409125
30
0.0
11
53.425965
21
30.139805
31
0.0
0
LINE
8
0
6
CONTINUOUS
10
53.425965
20
25.629425
30
0.0
11
53.425965
21
28.409125
31
0.0
0
LINE
8
0
6
CONTINUOUS
10
53.425965
20
21.806205
30
0.0
11
53.425965
21
25.629425
31
0.0
0
LINE
8
0
6
CONTINUOUS
10
53.425965
20
11.854485
30
0.0
11
53.425925
21
17.149415
31
0.0
0
LINE
8
0
6
CONTINUOUS
10
53.425935
20
0.024985
30
0.0
11
53.425935
21
6.042495
31
0.0
0
LINE
8
0
6
CONTINUOUS
10
53.425935
20
-17.132305
30
0.0
11
53.425975
21
-21.770225
31
0.0
0
LINE
8
0
6
CONTINUOUS
10
53.425965
20
21.806205
30
0.0
11
53.425925
21
17.149415
31
0.0
0
LINE
8
0
6
CONTINUOUS
10
53.425965
20
11.854485
30
0.0
11
53.425935
21
6.042495
31
0.0
0
LINE
8
0
6
CONTINUOUS
10
37.354465
20
9.631165
30
0.0
11
-31.826955
21
9.631165
31
0.0
0
LINE
8
0
6
CONTINUOUS
10
-31.720345
20
-9.538665
30
0.0
11
37.354465
21
-9.538665
31
0.0
0
LINE
8
0
6
CONTINUOUS
10
-30.992635
20
-8.810955
30
0.0
11
37.354465
21
-8.810955
31
0.0
0
LINE
8
0
6
CONTINUOUS
10
37.354465
20
8.940845
30
0.0
11
-31.136635
21
8.940845
31
0.0
0
LINE
8
0
6
CONTINUOUS
10
37.354465
20
-3.634645
30
0.0
11
-27.723369
21
-3.634645
31
0.0
0
LINE
8
0
6
CONTINUOUS
10
-35.786175
20
11.881255
30
0.0
11
-39.648915
21
12.493045
31
0.0
0
LINE
8
0
6
CONTINUOUS
10
-32.301535
20
10.105745
30
0.0
11
-35.786175
21
11.881255
31
0.0
0
LINE
8
0
6
CONTINUOUS
10
-29.536115
20
7.340325
30
0.0
11
-32.301535
21
10.105745
31
0.0
0
LINE
8
0
6
CONTINUOUS
10
-27.760605
20
3.855685
30
0.0
11
-29.536115
21
7.340325
31
0.0
0
LINE
8
0
6
CONTINUOUS
10
-27.148815
20
-0.007055
30
0.0
11
-27.760605
21
3.855685
31
0.0
0
LINE
8
0
6
CONTINUOUS
10
-27.760615
20
-3.869805
30
0.0
11
-27.148815
21
-0.007055
31
0.0
0
LINE
8
0
6
CONTINUOUS
10
-29.536115
20
-7.354435
30
0.0
11
-27.760615
21
-3.869805
31
0.0
0
LINE
8
0
6
CONTINUOUS
10
-32.301535
20
-10.119855
30
0.0
11
-29.536115
21
-7.354435
31
0.0
0
LINE
8
0
6
CONTINUOUS
10
-35.786175
20
-11.895365
30
0.0
11
-32.301535
21
-10.119855
31
0.0
0
LINE
8
0
6
CONTINUOUS
10
-39.648915
20
-12.507165
30
0.0
11
-35.786175
21
-11.895365
31
0.0
0
LINE
8
0
6
CONTINUOUS
10
-43.511675
20
-11.895365
30
0.0
11
-39.648915
21
-12.507165
31
0.0
0
LINE
8
0
6
CONTINUOUS
10
-46.996305
20
-10.119855
30
0.0
11
-43.511675
21
-11.895365
31
0.0
0
LINE
8
0
6
CONTINUOUS
10
-49.761725
20
-7.354435
30
0.0
11
-46.996305
21
-10.119855
31
0.0
0
LINE
8
0
6
CONTINUOUS
10
-51.537235
20
-3.869795
30
0.0
11
-49.761725
21
-7.354435
31
0.0
0
LINE
8
0
6
CONTINUOUS
10
-52.149025
20
-0.007045
30
0.0
11
-51.537235
21
-3.869795
31
0.0
0
LINE
8
0
6
CONTINUOUS
10
-51.537225
20
3.855705
30
0.0
11
-52.149025
21
-0.007045
31
0.0
0
LINE
8
0
6
CONTINUOUS
10
-49.761715
20
7.340335
30
0.0
11
-51.537225
21
3.855705
31
0.0
0
LINE
8
0
6
CONTINUOUS
10
-46.996285
20
10.105755
30
0.0
11
-49.761715
21
7.340335
31
0.0
0
LINE
8
0
6
CONTINUOUS
10
-43.511645
20
11.881255
30
0.0
11
-46.996285
21
10.105755
31
0.0
0
LINE
8
0
6
CONTINUOUS
10
-39.648915
20
12.493045
30
0.0
11
-43.511645
21
11.881255
31
0.0
0
ENDSEC
0
EOF
