999
Erzeugt mit innoplus bad 
0
SECTION
2
HEADER
9
$ACADVER
1
AC1009
9
$DWGCODEPAGE
3
ISO8859-1
0
ENDSEC
0
SECTION
2
TABLES
0
TABLE
2
LAYER
70
1
0
LAYER
2
0
70
0
62
7
6
CONTINUOUS
0
ENDTAB
0
ENDSEC
0
SECTION
2
ENTITIES
0
LINE
8
0
6
CONTINUOUS
10
84.045165
20
726.488040
30
0.0
11
84.687095
21
726.488040
31
0.0
0
LINE
8
0
6
CONTINUOUS
10
84.687085
20
787.888560
30
0.0
11
84.045145
21
787.888560
31
0.0
0
LINE
8
0
6
CONTINUOUS
10
83.086335
20
727.516940
30
0.0
11
83.086335
21
726.934130
31
0.0
0
LINE
8
0
6
CONTINUOUS
10
84.045165
20
726.488040
30
0.0
11
84.045165
21
727.093430
31
0.0
0
LINE
8
0
6
CONTINUOUS
10
83.086335
20
726.934130
30
0.0
11
84.045165
21
726.488040
31
0.0
0
LINE
8
0
6
CONTINUOUS
10
83.086335
20
729.225620
30
0.0
11
83.086335
21
727.516940
31
0.0
0
LINE
8
0
6
CONTINUOUS
10
84.045165
20
727.093430
30
0.0
11
84.045205
21
728.909450
31
0.0
0
LINE
8
0
6
CONTINUOUS
10
83.086335
20
732.043300
30
0.0
11
83.086335
21
729.225620
31
0.0
0
LINE
8
0
6
CONTINUOUS
10
83.086335
20
735.807950
30
0.0
11
83.086335
21
732.043300
31
0.0
0
LINE
8
0
6
CONTINUOUS
10
83.086335
20
740.419540
30
0.0
11
83.086335
21
735.807950
31
0.0
0
LINE
8
0
6
CONTINUOUS
10
83.086335
20
745.655820
30
0.0
11
83.086335
21
740.419540
31
0.0
0
LINE
8
0
6
CONTINUOUS
10
83.086335
20
751.326290
30
0.0
11
83.086335
21
745.655820
31
0.0
0
LINE
8
0
6
CONTINUOUS
10
83.086335
20
757.227710
30
0.0
11
83.086335
21
751.326290
31
0.0
0
LINE
8
0
6
CONTINUOUS
10
83.086335
20
763.121570
30
0.0
11
83.086335
21
757.227710
31
0.0
0
LINE
8
0
6
CONTINUOUS
10
83.086335
20
768.797910
30
0.0
11
83.086335
21
763.121570
31
0.0
0
LINE
8
0
6
CONTINUOUS
10
83.086335
20
774.021150
30
0.0
11
83.086335
21
768.797910
31
0.0
0
LINE
8
0
6
CONTINUOUS
10
83.086335
20
778.603520
30
0.0
11
83.086335
21
774.021150
31
0.0
0
LINE
8
0
6
CONTINUOUS
10
83.086335
20
782.388690
30
0.0
11
83.086335
21
778.603520
31
0.0
0
LINE
8
0
6
CONTINUOUS
10
83.086335
20
785.190810
30
0.0
11
83.086335
21
782.388690
31
0.0
0
LINE
8
0
6
CONTINUOUS
10
83.086335
20
786.922910
30
0.0
11
83.086335
21
785.190810
31
0.0
0
LINE
8
0
6
CONTINUOUS
10
83.086335
20
787.538680
30
0.0
11
83.086335
21
786.922910
31
0.0
0
LINE
8
0
6
CONTINUOUS
10
84.045145
20
787.888560
30
0.0
11
83.086335
21
787.538680
31
0.0
0
LINE
8
0
6
CONTINUOUS
10
84.687095
20
726.488040
30
0.0
11
98.090915
21
726.488040
31
0.0
0
LINE
8
0
6
CONTINUOUS
10
98.090905
20
787.888560
30
0.0
11
84.687085
21
787.888560
31
0.0
0
LINE
8
0
6
CONTINUOUS
10
98.090915
20
726.488040
30
0.0
11
99.157835
21
726.488040
31
0.0
0
LINE
8
0
6
CONTINUOUS
10
99.157835
20
726.488040
30
0.0
11
99.157875
21
727.093430
31
0.0
0
LINE
8
0
6
CONTINUOUS
10
99.157835
20
728.909450
30
0.0
11
99.157875
21
731.753690
31
0.0
0
LINE
8
0
6
CONTINUOUS
10
99.157875
20
731.753690
30
0.0
11
99.157875
21
735.569840
31
0.0
0
LINE
8
0
6
CONTINUOUS
10
99.157875
20
735.569840
30
0.0
11
99.157875
21
740.263370
31
0.0
0
LINE
8
0
6
CONTINUOUS
10
99.157875
20
740.263370
30
0.0
11
99.157875
21
745.527040
31
0.0
0
LINE
8
0
6
CONTINUOUS
10
99.157875
20
745.527040
30
0.0
11
99.157875
21
751.216130
31
0.0
0
LINE
8
0
6
CONTINUOUS
10
99.157875
20
751.216130
30
0.0
11
99.157875
21
757.249910
31
0.0
0
LINE
8
0
6
CONTINUOUS
10
99.157875
20
757.249910
30
0.0
11
99.157875
21
763.163220
31
0.0
0
LINE
8
0
6
CONTINUOUS
10
99.157875
20
763.163220
30
0.0
11
99.157865
21
768.868410
31
0.0
0
LINE
8
0
6
CONTINUOUS
10
99.157865
20
768.868410
30
0.0
11
99.157865
21
774.203720
31
0.0
0
LINE
8
0
6
CONTINUOUS
10
99.157865
20
774.203720
30
0.0
11
99.157865
21
778.802110
31
0.0
0
LINE
8
0
6
CONTINUOUS
10
99.157865
20
778.802110
30
0.0
11
99.157825
21
782.626650
31
0.0
0
LINE
8
0
6
CONTINUOUS
10
99.157825
20
782.626650
30
0.0
11
99.157825
21
785.496440
31
0.0
0
LINE
8
0
6
CONTINUOUS
10
99.157825
20
785.496440
30
0.0
11
99.157825
21
787.239000
31
0.0
0
LINE
8
0
6
CONTINUOUS
10
99.157825
20
787.888560
30
0.0
11
98.090905
21
787.888560
31
0.0
0
LINE
8
0
6
CONTINUOUS
10
99.157825
20
787.239000
30
0.0
11
99.157825
21
787.888560
31
0.0
0
LINE
8
0
6
CONTINUOUS
10
99.157835
20
728.909450
30
0.0
11
99.157875
21
727.093430
31
0.0
0
LINE
8
0
6
CONTINUOUS
10
83.086335
20
766.819460
30
0.0
11
15.083045
21
766.819460
31
0.0
0
LINE
8
0
6
CONTINUOUS
10
15.083045
20
747.649610
30
0.0
11
83.086325
21
747.649610
31
0.0
0
LINE
8
0
6
CONTINUOUS
10
83.086335
20
748.369450
30
0.0
11
15.083045
21
748.369450
31
0.0
0
LINE
8
0
6
CONTINUOUS
10
15.083045
20
750.420000
30
0.0
11
83.086325
21
750.420000
31
0.0
0
LINE
8
0
6
CONTINUOUS
10
83.086335
20
760.887830
30
0.0
11
15.083045
21
760.887830
31
0.0
0
LINE
8
0
6
CONTINUOUS
10
-9.917165
20
-342.059100
30
0.0
11
-9.917165
21
-342.818590
31
0.0
0
LINE
8
0
6
CONTINUOUS
10
-9.917165
20
-339.803490
30
0.0
11
-9.917165
21
-342.059100
31
0.0
0
LINE
8
0
6
CONTINUOUS
10
-9.917165
20
-336.120300
30
0.0
11
-9.917165
21
-339.803490
31
0.0
0
LINE
8
0
6
CONTINUOUS
10
-9.917165
20
-331.121430
30
0.0
11
-9.917165
21
-336.120300
31
0.0
0
LINE
8
0
6
CONTINUOUS
10
15.083045
20
-333.180380
30
0.0
11
15.083045
21
-331.121440
31
0.0
0
LINE
8
0
6
CONTINUOUS
10
-9.917165
20
-324.958780
30
0.0
11
-9.917165
21
-331.121430
31
0.0
0
LINE
8
0
6
CONTINUOUS
10
15.083045
20
-331.121440
30
0.0
11
15.083045
21
-324.958790
31
0.0
0
LINE
8
0
6
CONTINUOUS
10
-9.917165
20
-317.819600
30
0.0
11
-9.917165
21
-324.958780
31
0.0
0
LINE
8
0
6
CONTINUOUS
10
15.083045
20
-324.958790
30
0.0
11
15.083045
21
-317.819600
31
0.0
0
LINE
8
0
6
CONTINUOUS
10
-9.917165
20
-309.920800
30
0.0
11
-9.917165
21
-317.819600
31
0.0
0
LINE
8
0
6
CONTINUOUS
10
15.083045
20
-317.819600
30
0.0
11
15.083045
21
-309.920790
31
0.0
0
LINE
8
0
6
CONTINUOUS
10
-9.917165
20
-301.502390
30
0.0
11
-9.917165
21
-309.920800
31
0.0
0
LINE
8
0
6
CONTINUOUS
10
15.083045
20
-309.920790
30
0.0
11
15.083045
21
-301.502370
31
0.0
0
LINE
8
0
6
CONTINUOUS
10
-9.917165
20
-292.820150
30
0.0
11
-9.917165
21
-301.502390
31
0.0
0
LINE
8
0
6
CONTINUOUS
10
15.083045
20
-301.502370
30
0.0
11
15.083045
21
-292.820130
31
0.0
0
LINE
8
0
6
CONTINUOUS
10
6.445685
20
792.929690
30
0.0
11
9.930325
21
792.929690
31
0.0
0
LINE
8
0
6
CONTINUOUS
10
-7.529855
20
792.929690
30
0.0
11
-4.764425
21
792.929690
31
0.0
0
LINE
8
0
6
CONTINUOUS
10
-9.305365
20
792.929690
30
0.0
11
-7.529855
21
792.929690
31
0.0
0
LINE
8
0
6
CONTINUOUS
10
9.930325
20
792.929690
30
0.0
11
12.695745
21
792.929690
31
0.0
0
LINE
8
0
6
CONTINUOUS
10
15.083045
20
792.929690
30
0.0
11
15.083055
21
793.681260
31
0.0
0
LINE
8
0
6
CONTINUOUS
10
14.471255
20
792.929690
30
0.0
11
15.083045
21
792.929690
31
0.0
0
LINE
8
0
6
CONTINUOUS
10
-9.917165
20
792.929690
30
0.0
11
-9.305365
21
792.929690
31
0.0
0
LINE
8
0
6
CONTINUOUS
10
-9.917175
20
793.681260
30
0.0
11
-9.917165
21
792.929690
31
0.0
0
LINE
8
0
6
CONTINUOUS
10
9.930335
20
794.861600
30
0.0
11
6.445695
21
794.861600
31
0.0
0
LINE
8
0
6
CONTINUOUS
10
-4.764425
20
792.929690
30
0.0
11
-1.279785
21
792.929690
31
0.0
0
LINE
8
0
6
CONTINUOUS
10
12.695745
20
792.929690
30
0.0
11
14.471255
21
792.929690
31
0.0
0
LINE
8
0
6
CONTINUOUS
10
2.582945
20
792.432860
30
0.0
11
-1.279785
21
792.432860
31
0.0
0
LINE
8
0
6
CONTINUOUS
10
-4.764425
20
792.432860
30
0.0
11
-7.529855
21
792.432860
31
0.0
0
LINE
8
0
6
CONTINUOUS
10
-1.279815
20
794.861680
30
0.0
11
-4.764445
21
794.861600
31
0.0
0
LINE
8
0
6
CONTINUOUS
10
9.930325
20
794.861600
30
0.0
11
6.445685
21
794.861680
31
0.0
0
LINE
8
0
6
CONTINUOUS
10
12.695745
20
792.432860
30
0.0
11
9.930325
21
792.432860
31
0.0
0
LINE
8
0
6
CONTINUOUS
10
6.445685
20
792.432860
30
0.0
11
2.582945
21
792.432860
31
0.0
0
LINE
8
0
6
CONTINUOUS
10
-1.279785
20
792.929690
30
0.0
11
2.582945
21
792.929690
31
0.0
0
LINE
8
0
6
CONTINUOUS
10
-1.279785
20
792.432860
30
0.0
11
-4.764425
21
792.432860
31
0.0
0
LINE
8
0
6
CONTINUOUS
10
6.445685
20
794.861680
30
0.0
11
2.582945
21
794.861680
31
0.0
0
LINE
8
0
6
CONTINUOUS
10
14.471255
20
792.432860
30
0.0
11
12.695745
21
792.432860
31
0.0
0
LINE
8
0
6
CONTINUOUS
10
-9.917165
20
792.432860
30
0.0
11
-9.917165
21
207.181280
31
0.0
0
LINE
8
0
6
CONTINUOUS
10
-9.917165
20
155.181310
30
0.0
11
-9.917165
21
-292.820150
31
0.0
0
LINE
8
0
6
CONTINUOUS
10
-9.305365
20
792.432860
30
0.0
11
-9.917165
21
792.432860
31
0.0
0
LINE
8
0
6
CONTINUOUS
10
-7.529855
20
792.432860
30
0.0
11
-9.305365
21
792.432860
31
0.0
0
LINE
8
0
6
CONTINUOUS
10
2.582945
20
794.861680
30
0.0
11
-1.279815
21
794.861680
31
0.0
0
LINE
8
0
6
CONTINUOUS
10
15.083045
20
792.432860
30
0.0
11
14.471255
21
792.432860
31
0.0
0
LINE
8
0
6
CONTINUOUS
10
15.083045
20
-292.820130
30
0.0
11
15.083045
21
155.181310
31
0.0
0
LINE
8
0
6
CONTINUOUS
10
15.083045
20
207.181280
30
0.0
11
15.083045
21
747.649610
31
0.0
0
LINE
8
0
6
CONTINUOUS
10
15.083045
20
766.819460
30
0.0
11
15.083045
21
792.432860
31
0.0
0
LINE
8
0
6
CONTINUOUS
10
9.930325
20
792.432860
30
0.0
11
6.445685
21
792.432860
31
0.0
0
LINE
8
0
6
CONTINUOUS
10
15.083055
20
794.861600
30
0.0
11
14.471255
21
794.861600
31
0.0
0
LINE
8
0
6
CONTINUOUS
10
15.083055
20
793.681260
30
0.0
11
15.083055
21
794.861600
31
0.0
0
LINE
8
0
6
CONTINUOUS
10
-7.529855
20
794.861600
30
0.0
11
-9.305375
21
794.861600
31
0.0
0
LINE
8
0
6
CONTINUOUS
10
-9.305375
20
794.861600
30
0.0
11
-9.917175
21
794.861600
31
0.0
0
LINE
8
0
6
CONTINUOUS
10
-9.917175
20
794.861600
30
0.0
11
-9.917175
21
793.681260
31
0.0
0
LINE
8
0
6
CONTINUOUS
10
14.471255
20
794.861600
30
0.0
11
12.695745
21
794.861600
31
0.0
0
LINE
8
0
6
CONTINUOUS
10
-1.279785
20
794.861600
30
0.0
11
-4.764425
21
794.861600
31
0.0
0
LINE
8
0
6
CONTINUOUS
10
6.445695
20
794.861600
30
0.0
11
2.582945
21
794.861600
31
0.0
0
LINE
8
0
6
CONTINUOUS
10
2.582945
20
794.861600
30
0.0
11
-1.279785
21
794.861600
31
0.0
0
LINE
8
0
6
CONTINUOUS
10
12.695745
20
794.861600
30
0.0
11
9.930335
21
794.861600
31
0.0
0
LINE
8
0
6
CONTINUOUS
10
-4.764425
20
794.861600
30
0.0
11
-7.529855
21
794.861600
31
0.0
0
LINE
8
0
6
CONTINUOUS
10
-7.529855
20
792.432860
30
0.0
11
-4.764425
21
792.432860
31
0.0
0
LINE
8
0
6
CONTINUOUS
10
-7.336375
20
792.681270
30
0.0
11
-4.623855
21
792.681270
31
0.0
0
LINE
8
0
6
CONTINUOUS
10
-4.764425
20
792.929690
30
0.0
11
-7.529855
21
792.929690
31
0.0
0
LINE
8
0
6
CONTINUOUS
10
9.930325
20
792.432860
30
0.0
11
12.695745
21
792.432860
31
0.0
0
LINE
8
0
6
CONTINUOUS
10
9.789755
20
792.681270
30
0.0
11
12.502265
21
792.681270
31
0.0
0
LINE
8
0
6
CONTINUOUS
10
12.695745
20
792.929690
30
0.0
11
9.930325
21
792.929690
31
0.0
0
LINE
8
0
6
CONTINUOUS
10
-1.279785
20
792.432860
30
0.0
11
2.582945
21
792.432860
31
0.0
0
LINE
8
0
6
CONTINUOUS
10
-1.205885
20
792.681270
30
0.0
11
2.582945
21
792.681270
31
0.0
0
LINE
8
0
6
CONTINUOUS
10
2.582945
20
792.929690
30
0.0
11
-1.279785
21
792.929690
31
0.0
0
LINE
8
0
6
CONTINUOUS
10
2.582945
20
792.432860
30
0.0
11
6.445685
21
792.432860
31
0.0
0
LINE
8
0
6
CONTINUOUS
10
2.582945
20
792.681270
30
0.0
11
6.371785
21
792.681270
31
0.0
0
LINE
8
0
6
CONTINUOUS
10
6.445685
20
792.929690
30
0.0
11
2.582945
21
792.929690
31
0.0
0
LINE
8
0
6
CONTINUOUS
10
-4.764425
20
792.432860
30
0.0
11
-1.279785
21
792.432860
31
0.0
0
LINE
8
0
6
CONTINUOUS
10
-4.623855
20
792.681270
30
0.0
11
-1.205885
21
792.681270
31
0.0
0
LINE
8
0
6
CONTINUOUS
10
-1.279785
20
792.929690
30
0.0
11
-4.764425
21
792.929690
31
0.0
0
LINE
8
0
6
CONTINUOUS
10
12.695745
20
792.432860
30
0.0
11
14.471255
21
792.432860
31
0.0
0
LINE
8
0
6
CONTINUOUS
10
12.502265
20
792.681270
30
0.0
11
14.243815
21
792.681270
31
0.0
0
LINE
8
0
6
CONTINUOUS
10
14.471255
20
792.929690
30
0.0
11
12.695745
21
792.929690
31
0.0
0
LINE
8
0
6
CONTINUOUS
10
-9.917165
20
792.432860
30
0.0
11
-9.305365
21
792.432860
31
0.0
0
LINE
8
0
6
CONTINUOUS
10
-9.678025
20
792.681270
30
0.0
11
-9.917165
21
792.432860
31
0.0
0
LINE
8
0
6
CONTINUOUS
10
-9.678025
20
792.681270
30
0.0
11
-9.077925
21
792.681270
31
0.0
0
LINE
8
0
6
CONTINUOUS
10
-9.917165
20
792.929690
30
0.0
11
-9.678025
21
792.681270
31
0.0
0
LINE
8
0
6
CONTINUOUS
10
-9.305365
20
792.929690
30
0.0
11
-9.917165
21
792.929690
31
0.0
0
LINE
8
0
6
CONTINUOUS
10
-9.305365
20
792.432860
30
0.0
11
-7.529855
21
792.432860
31
0.0
0
LINE
8
0
6
CONTINUOUS
10
-9.077925
20
792.681270
30
0.0
11
-7.336375
21
792.681270
31
0.0
0
LINE
8
0
6
CONTINUOUS
10
-7.529855
20
792.929690
30
0.0
11
-9.305365
21
792.929690
31
0.0
0
LINE
8
0
6
CONTINUOUS
10
14.471255
20
792.432860
30
0.0
11
15.083045
21
792.432860
31
0.0
0
LINE
8
0
6
CONTINUOUS
10
15.083045
20
792.432860
30
0.0
11
14.843905
21
792.681270
31
0.0
0
LINE
8
0
6
CONTINUOUS
10
14.243815
20
792.681270
30
0.0
11
14.843905
21
792.681270
31
0.0
0
LINE
8
0
6
CONTINUOUS
10
15.083045
20
792.929690
30
0.0
11
14.471255
21
792.929690
31
0.0
0
LINE
8
0
6
CONTINUOUS
10
14.843905
20
792.681270
30
0.0
11
15.083045
21
792.929690
31
0.0
0
LINE
8
0
6
CONTINUOUS
10
6.445685
20
792.432860
30
0.0
11
9.930325
21
792.432860
31
0.0
0
LINE
8
0
6
CONTINUOUS
10
6.371785
20
792.681270
30
0.0
11
9.789755
21
792.681270
31
0.0
0
LINE
8
0
6
CONTINUOUS
10
9.930325
20
792.929690
30
0.0
11
6.445685
21
792.929690
31
0.0
0
LINE
8
0
6
CONTINUOUS
10
2.582945
20
792.929690
30
0.0
11
6.445685
21
792.929690
31
0.0
0
LINE
8
0
6
CONTINUOUS
10
6.445705
20
-330.930270
30
0.0
11
2.582965
21
-330.318470
31
0.0
0
LINE
8
0
6
CONTINUOUS
10
9.930345
20
-332.705780
30
0.0
11
6.445705
21
-330.930270
31
0.0
0
LINE
8
0
6
CONTINUOUS
10
12.695765
20
-335.471200
30
0.0
11
9.930345
21
-332.705780
31
0.0
0
LINE
8
0
6
CONTINUOUS
10
14.471275
20
-338.955840
30
0.0
11
12.695765
21
-335.471200
31
0.0
0
LINE
8
0
6
CONTINUOUS
10
15.083065
20
-342.818580
30
0.0
11
14.471275
21
-338.955840
31
0.0
0
LINE
8
0
6
CONTINUOUS
10
14.471265
20
-346.681330
30
0.0
11
15.083065
21
-342.818580
31
0.0
0
LINE
8
0
6
CONTINUOUS
10
12.695765
20
-350.165960
30
0.0
11
14.471265
21
-346.681330
31
0.0
0
LINE
8
0
6
CONTINUOUS
10
9.930345
20
-352.931380
30
0.0
11
12.695765
21
-350.165960
31
0.0
0
LINE
8
0
6
CONTINUOUS
10
6.445705
20
-354.706890
30
0.0
11
9.930345
21
-352.931380
31
0.0
0
LINE
8
0
6
CONTINUOUS
10
2.582965
20
-355.318690
30
0.0
11
6.445705
21
-354.706890
31
0.0
0
LINE
8
0
6
CONTINUOUS
10
-1.279795
20
-354.706890
30
0.0
11
2.582965
21
-355.318690
31
0.0
0
LINE
8
0
6
CONTINUOUS
10
-4.764425
20
-352.931380
30
0.0
11
-1.279795
21
-354.706890
31
0.0
0
LINE
8
0
6
CONTINUOUS
10
-7.529845
20
-350.165960
30
0.0
11
-4.764425
21
-352.931380
31
0.0
0
LINE
8
0
6
CONTINUOUS
10
-9.305355
20
-346.681320
30
0.0
11
-7.529845
21
-350.165960
31
0.0
0
LINE
8
0
6
CONTINUOUS
10
-9.917155
20
-342.818570
30
0.0
11
-9.305355
21
-346.681320
31
0.0
0
LINE
8
0
6
CONTINUOUS
10
-9.305355
20
-338.955820
30
0.0
11
-9.917155
21
-342.818570
31
0.0
0
LINE
8
0
6
CONTINUOUS
10
-7.529835
20
-335.471190
30
0.0
11
-9.305355
21
-338.955820
31
0.0
0
LINE
8
0
6
CONTINUOUS
10
-4.764405
20
-332.705770
30
0.0
11
-7.529835
21
-335.471190
31
0.0
0
LINE
8
0
6
CONTINUOUS
10
-1.279765
20
-330.930270
30
0.0
11
-4.764405
21
-332.705770
31
0.0
0
LINE
8
0
6
CONTINUOUS
10
2.582965
20
-330.318470
30
0.0
11
-1.279765
21
-330.930270
31
0.0
0
LINE
8
0
6
CONTINUOUS
10
80.545165
20
-373.511790
30
0.0
11
81.187105
21
-373.511790
31
0.0
0
LINE
8
0
6
CONTINUOUS
10
81.187085
20
-312.111280
30
0.0
11
80.545155
21
-312.111280
31
0.0
0
LINE
8
0
6
CONTINUOUS
10
80.545115
20
-348.789200
30
0.0
11
80.545115
21
-342.786560
31
0.0
0
LINE
8
0
6
CONTINUOUS
10
79.586335
20
-342.771090
30
0.0
11
79.586335
21
-348.686750
31
0.0
0
LINE
8
0
6
CONTINUOUS
10
80.545115
20
-354.576020
30
0.0
11
80.545115
21
-348.789200
31
0.0
0
LINE
8
0
6
CONTINUOUS
10
79.586335
20
-348.686750
30
0.0
11
79.586335
21
-354.376440
31
0.0
0
LINE
8
0
6
CONTINUOUS
10
80.545125
20
-359.943870
30
0.0
11
80.545115
21
-354.576020
31
0.0
0
LINE
8
0
6
CONTINUOUS
10
79.586335
20
-354.376440
30
0.0
11
79.586335
21
-359.610610
31
0.0
0
LINE
8
0
6
CONTINUOUS
10
80.545165
20
-364.581790
30
0.0
11
80.545125
21
-359.943870
31
0.0
0
LINE
8
0
6
CONTINUOUS
10
79.586335
20
-359.610610
30
0.0
11
79.586335
21
-364.202800
31
0.0
0
LINE
8
0
6
CONTINUOUS
10
80.545165
20
-368.405660
30
0.0
11
80.545165
21
-364.581790
31
0.0
0
LINE
8
0
6
CONTINUOUS
10
79.586335
20
-364.202800
30
0.0
11
79.586335
21
-367.972760
31
0.0
0
LINE
8
0
6
CONTINUOUS
10
80.545165
20
-371.259860
30
0.0
11
80.545165
21
-368.405660
31
0.0
0
LINE
8
0
6
CONTINUOUS
10
79.586335
20
-367.972760
30
0.0
11
79.586335
21
-370.768590
31
0.0
0
LINE
8
0
6
CONTINUOUS
10
80.545165
20
-372.944420
30
0.0
11
80.545165
21
-371.259860
31
0.0
0
LINE
8
0
6
CONTINUOUS
10
79.586335
20
-370.768590
30
0.0
11
79.586335
21
-372.486670
31
0.0
0
LINE
8
0
6
CONTINUOUS
10
80.545165
20
-373.511790
30
0.0
11
80.545165
21
-372.944420
31
0.0
0
LINE
8
0
6
CONTINUOUS
10
79.586335
20
-373.065710
30
0.0
11
80.545165
21
-373.511790
31
0.0
0
LINE
8
0
6
CONTINUOUS
10
79.586335
20
-372.486670
30
0.0
11
79.586335
21
-373.065710
31
0.0
0
LINE
8
0
6
CONTINUOUS
10
80.545155
20
-312.111280
30
0.0
11
79.586335
21
-312.461150
31
0.0
0
LINE
8
0
6
CONTINUOUS
10
79.586335
20
-312.461150
30
0.0
11
79.586335
21
-313.023200
31
0.0
0
LINE
8
0
6
CONTINUOUS
10
79.586335
20
-313.023200
30
0.0
11
79.586335
21
-314.741400
31
0.0
0
LINE
8
0
6
CONTINUOUS
10
79.586335
20
-314.741400
30
0.0
11
79.586335
21
-317.583070
31
0.0
0
LINE
8
0
6
CONTINUOUS
10
80.545155
20
-321.005310
30
0.0
11
80.545155
21
-317.182090
31
0.0
0
LINE
8
0
6
CONTINUOUS
10
79.586335
20
-317.583070
30
0.0
11
79.586335
21
-321.343420
31
0.0
0
LINE
8
0
6
CONTINUOUS
10
80.545115
20
-325.662110
30
0.0
11
80.545155
21
-321.005310
31
0.0
0
LINE
8
0
6
CONTINUOUS
10
79.586335
20
-321.343420
30
0.0
11
79.586335
21
-325.936750
31
0.0
0
LINE
8
0
6
CONTINUOUS
10
80.545115
20
-330.957000
30
0.0
11
80.545115
21
-325.662110
31
0.0
0
LINE
8
0
6
CONTINUOUS
10
79.586335
20
-325.936750
30
0.0
11
79.586335
21
-331.176100
31
0.0
0
LINE
8
0
6
CONTINUOUS
10
80.545115
20
-336.769040
30
0.0
11
80.545115
21
-330.957000
31
0.0
0
LINE
8
0
6
CONTINUOUS
10
79.586335
20
-331.176100
30
0.0
11
79.586335
21
-336.854730
31
0.0
0
LINE
8
0
6
CONTINUOUS
10
80.545115
20
-342.786560
30
0.0
11
80.545115
21
-336.769040
31
0.0
0
LINE
8
0
6
CONTINUOUS
10
79.586335
20
-336.854730
30
0.0
11
79.586335
21
-342.771090
31
0.0
0
LINE
8
0
6
CONTINUOUS
10
81.187105
20
-373.511790
30
0.0
11
94.590915
21
-373.511800
31
0.0
0
LINE
8
0
6
CONTINUOUS
10
94.590905
20
-312.111300
30
0.0
11
81.187085
21
-312.111280
31
0.0
0
LINE
8
0
6
CONTINUOUS
10
95.657835
20
-348.789210
30
0.0
11
95.657795
21
-342.786560
31
0.0
0
LINE
8
0
6
CONTINUOUS
10
95.657795
20
-354.576000
30
0.0
11
95.657835
21
-348.789210
31
0.0
0
LINE
8
0
6
CONTINUOUS
10
95.657795
20
-359.943850
30
0.0
11
95.657795
21
-354.576000
31
0.0
0
LINE
8
0
6
CONTINUOUS
10
95.657845
20
-371.259850
30
0.0
11
95.657845
21
-368.405660
31
0.0
0
LINE
8
0
6
CONTINUOUS
10
95.657845
20
-372.944420
30
0.0
11
95.657845
21
-371.259850
31
0.0
0
LINE
8
0
6
CONTINUOUS
10
95.657845
20
-373.511800
30
0.0
11
95.657845
21
-372.944420
31
0.0
0
LINE
8
0
6
CONTINUOUS
10
94.590915
20
-373.511800
30
0.0
11
95.657845
21
-373.511800
31
0.0
0
LINE
8
0
6
CONTINUOUS
10
95.657825
20
-312.671740
30
0.0
11
95.657825
21
-312.111300
31
0.0
0
LINE
8
0
6
CONTINUOUS
10
95.657825
20
-312.111300
30
0.0
11
94.590905
21
-312.111300
31
0.0
0
LINE
8
0
6
CONTINUOUS
10
95.657825
20
-314.402420
30
0.0
11
95.657825
21
-312.671740
31
0.0
0
LINE
8
0
6
CONTINUOUS
10
95.657825
20
-317.182120
30
0.0
11
95.657825
21
-314.402420
31
0.0
0
LINE
8
0
6
CONTINUOUS
10
95.657825
20
-321.005340
30
0.0
11
95.657825
21
-317.182120
31
0.0
0
LINE
8
0
6
CONTINUOUS
10
95.657825
20
-330.957060
30
0.0
11
95.657795
21
-325.662130
31
0.0
0
LINE
8
0
6
CONTINUOUS
10
95.657795
20
-342.786560
30
0.0
11
95.657795
21
-336.769050
31
0.0
0
LINE
8
0
6
CONTINUOUS
10
95.657795
20
-359.943850
30
0.0
11
95.657835
21
-364.581770
31
0.0
0
LINE
8
0
6
CONTINUOUS
10
95.657835
20
-364.581770
30
0.0
11
95.657845
21
-368.405660
31
0.0
0
LINE
8
0
6
CONTINUOUS
10
95.657825
20
-321.005340
30
0.0
11
95.657795
21
-325.662130
31
0.0
0
LINE
8
0
6
CONTINUOUS
10
95.657825
20
-330.957060
30
0.0
11
95.657795
21
-336.769050
31
0.0
0
LINE
8
0
6
CONTINUOUS
10
79.586335
20
-333.180380
30
0.0
11
75.115785
21
-333.180380
31
0.0
0
LINE
8
0
6
CONTINUOUS
10
16.115785
20
-333.180380
30
0.0
11
10.404945
21
-333.180380
31
0.0
0
LINE
8
0
6
CONTINUOUS
10
10.511515
20
-352.350210
30
0.0
11
79.586335
21
-352.350210
31
0.0
0
LINE
8
0
6
CONTINUOUS
10
11.239235
20
-351.622490
30
0.0
11
79.586335
21
-351.622490
31
0.0
0
LINE
8
0
6
CONTINUOUS
10
79.586335
20
-333.870700
30
0.0
11
75.115785
21
-333.870700
31
0.0
0
LINE
8
0
6
CONTINUOUS
10
16.115785
20
-333.870700
30
0.0
11
11.095265
21
-333.870700
31
0.0
0
LINE
8
0
6
CONTINUOUS
10
79.586335
20
-346.446190
30
0.0
11
75.115785
21
-346.446190
31
0.0
0
LINE
8
0
6
CONTINUOUS
10
16.115785
20
-346.446190
30
0.0
11
14.508508
21
-346.446190
31
0.0
0
LINE
8
0
6
CONTINUOUS
10
81.187085
20
-312.111280
30
0.0
11
80.545155
21
-312.111280
31
0.0
0
LINE
8
0
6
CONTINUOUS
10
79.586335
20
-373.065710
30
0.0
11
80.545165
21
-373.511790
31
0.0
0
LINE
8
0
6
CONTINUOUS
10
75.115785
20
-331.330860
30
0.0
11
74.694655
21
-331.330860
31
0.0
0
LINE
8
0
6
CONTINUOUS
10
16.536935
20
-331.330860
30
0.0
11
16.115785
21
-331.330860
31
0.0
0
LINE
8
0
6
CONTINUOUS
10
74.694655
20
-331.330860
30
0.0
11
16.536935
21
-331.330860
31
0.0
0
LINE
8
0
6
CONTINUOUS
10
75.115785
20
-338.224720
30
0.0
11
75.115785
21
-335.301550
31
0.0
0
LINE
8
0
6
CONTINUOUS
10
75.115785
20
-335.301550
30
0.0
11
75.115785
21
-333.056390
31
0.0
0
LINE
8
0
6
CONTINUOUS
10
75.115785
20
-404.128790
30
0.0
11
75.115785
21
-403.542490
31
0.0
0
LINE
8
0
6
CONTINUOUS
10
75.115785
20
-349.921130
30
0.0
11
75.115785
21
-349.403360
31
0.0
0
LINE
8
0
6
CONTINUOUS
10
74.694645
20
-349.921120
30
0.0
11
75.115785
21
-349.921130
31
0.0
0
LINE
8
0
6
CONTINUOUS
10
75.115785
20
-345.012990
30
0.0
11
75.115785
21
-341.562180
31
0.0
0
LINE
8
0
6
CONTINUOUS
10
75.115785
20
-415.318680
30
0.0
11
75.115785
21
-414.759190
31
0.0
0
LINE
8
0
6
CONTINUOUS
10
74.694655
20
-415.318680
30
0.0
11
75.115785
21
-415.318680
31
0.0
0
LINE
8
0
6
CONTINUOUS
10
75.115785
20
-341.562180
30
0.0
11
75.115785
21
-338.224720
31
0.0
0
LINE
8
0
6
CONTINUOUS
10
75.115785
20
-331.330860
30
0.0
11
74.694655
21
-331.330860
31
0.0
0
LINE
8
0
6
CONTINUOUS
10
75.115785
20
-331.691820
30
0.0
11
75.115785
21
-331.330860
31
0.0
0
LINE
8
0
6
CONTINUOUS
10
75.115785
20
-333.056390
30
0.0
11
75.115785
21
-331.691820
31
0.0
0
LINE
8
0
6
CONTINUOUS
10
16.115785
20
-331.691820
30
0.0
11
16.115785
21
-333.056390
31
0.0
0
LINE
8
0
6
CONTINUOUS
10
16.536935
20
-331.330860
30
0.0
11
16.115785
21
-331.330860
31
0.0
0
LINE
8
0
6
CONTINUOUS
10
16.115785
20
-331.330860
30
0.0
11
16.115785
21
-331.691820
31
0.0
0
LINE
8
0
6
CONTINUOUS
10
74.694655
20
-331.330860
30
0.0
11
16.536935
21
-331.330860
31
0.0
0
LINE
8
0
6
CONTINUOUS
10
16.115785
20
-338.224720
30
0.0
11
16.115785
21
-341.562170
31
0.0
0
LINE
8
0
6
CONTINUOUS
10
16.115785
20
-415.318680
30
0.0
11
16.536935
21
-415.318680
31
0.0
0
LINE
8
0
6
CONTINUOUS
10
16.115785
20
-414.759180
30
0.0
11
16.115785
21
-415.318680
31
0.0
0
LINE
8
0
6
CONTINUOUS
10
16.536935
20
-415.318680
30
0.0
11
74.694655
21
-415.318680
31
0.0
0
LINE
8
0
6
CONTINUOUS
10
16.115785
20
-341.562170
30
0.0
11
16.115785
21
-345.012980
31
0.0
0
LINE
8
0
6
CONTINUOUS
10
16.115785
20
-349.921120
30
0.0
11
16.536925
21
-349.921120
31
0.0
0
LINE
8
0
6
CONTINUOUS
10
16.115785
20
-349.403350
30
0.0
11
16.115785
21
-349.921120
31
0.0
0
LINE
8
0
6
CONTINUOUS
10
16.536925
20
-349.921120
30
0.0
11
74.694645
21
-349.921120
31
0.0
0
LINE
8
0
6
CONTINUOUS
10
16.115785
20
-403.542480
30
0.0
11
16.115785
21
-404.128780
31
0.0
0
LINE
8
0
6
CONTINUOUS
10
16.115785
20
-333.056390
30
0.0
11
16.115785
21
-335.301540
31
0.0
0
LINE
8
0
6
CONTINUOUS
10
16.115785
20
-335.301540
30
0.0
11
16.115785
21
-338.224720
31
0.0
0
LINE
8
0
6
CONTINUOUS
10
16.115785
20
-404.731070
30
0.0
11
16.115785
21
-414.759180
31
0.0
0
LINE
8
0
6
CONTINUOUS
10
75.115785
20
-414.759190
30
0.0
11
75.115785
21
-404.731080
31
0.0
0
LINE
8
0
6
CONTINUOUS
10
75.115785
20
-404.731080
30
0.0
11
75.115785
21
-404.128790
31
0.0
0
LINE
8
0
6
CONTINUOUS
10
16.115785
20
-404.128780
30
0.0
11
16.115785
21
-404.731070
31
0.0
0
LINE
8
0
6
CONTINUOUS
10
16.115785
20
-352.350210
30
0.0
11
16.115785
21
-403.542480
31
0.0
0
LINE
8
0
6
CONTINUOUS
10
75.115785
20
-403.542490
30
0.0
11
75.115785
21
-352.350210
31
0.0
0
LINE
8
0
6
CONTINUOUS
10
16.115785
20
-345.012980
30
0.0
11
16.115785
21
-349.403350
31
0.0
0
LINE
8
0
6
CONTINUOUS
10
75.115785
20
-349.403360
30
0.0
11
75.115785
21
-345.012990
31
0.0
0
LINE
8
0
6
CONTINUOUS
10
18.149415
20
206.434210
30
0.0
11
18.149415
21
206.586530
31
0.0
0
LINE
8
0
6
CONTINUOUS
10
-13.834145
20
155.971370
30
0.0
11
-13.834145
21
155.776020
31
0.0
0
LINE
8
0
6
CONTINUOUS
10
-13.834145
20
206.586530
30
0.0
11
-13.834145
21
206.434210
31
0.0
0
LINE
8
0
6
CONTINUOUS
10
18.149415
20
155.971370
30
0.0
11
18.149415
21
206.434210
31
0.0
0
LINE
8
0
6
CONTINUOUS
10
-13.834145
20
206.434210
30
0.0
11
-13.834145
21
155.971370
31
0.0
0
LINE
8
0
6
CONTINUOUS
10
18.149415
20
155.776020
30
0.0
11
18.149415
21
155.971370
31
0.0
0
LINE
8
0
6
CONTINUOUS
10
15.654695
20
207.181280
30
0.0
11
13.159995
21
207.181280
31
0.0
0
LINE
8
0
6
CONTINUOUS
10
13.479825
20
206.586530
30
0.0
11
16.038505
21
206.586530
31
0.0
0
LINE
8
0
6
CONTINUOUS
10
17.765605
20
207.181280
30
0.0
11
17.189905
21
207.181280
31
0.0
0
LINE
8
0
6
CONTINUOUS
10
18.149415
20
206.586530
30
0.0
11
17.765605
21
207.181280
31
0.0
0
LINE
8
0
6
CONTINUOUS
10
17.573705
20
206.586530
30
0.0
11
18.149415
21
206.586530
31
0.0
0
LINE
8
0
6
CONTINUOUS
10
17.189905
20
207.181280
30
0.0
11
15.654695
21
207.181280
31
0.0
0
LINE
8
0
6
CONTINUOUS
10
16.038505
20
206.586530
30
0.0
11
17.573705
21
206.586530
31
0.0
0
LINE
8
0
6
CONTINUOUS
10
13.159995
20
207.181280
30
0.0
11
9.897675
21
207.181280
31
0.0
0
LINE
8
0
6
CONTINUOUS
10
10.089565
20
206.586530
30
0.0
11
13.479825
21
206.586530
31
0.0
0
LINE
8
0
6
CONTINUOUS
10
9.897675
20
207.181280
30
0.0
11
6.187585
21
207.181280
31
0.0
0
LINE
8
0
6
CONTINUOUS
10
6.251545
20
206.586530
30
0.0
11
10.089565
21
206.586530
31
0.0
0
LINE
8
0
6
CONTINUOUS
10
6.187585
20
207.181280
30
0.0
11
2.157645
21
207.181280
31
0.0
0
LINE
8
0
6
CONTINUOUS
10
2.157645
20
206.586530
30
0.0
11
6.251545
21
206.586530
31
0.0
0
LINE
8
0
6
CONTINUOUS
10
18.149415
20
155.776020
30
0.0
11
17.573705
21
155.776020
31
0.0
0
LINE
8
0
6
CONTINUOUS
10
17.765605
20
155.181310
30
0.0
11
18.149415
21
155.776020
31
0.0
0
LINE
8
0
6
CONTINUOUS
10
17.189905
20
155.181310
30
0.0
11
17.765605
21
155.181310
31
0.0
0
LINE
8
0
6
CONTINUOUS
10
17.573705
20
155.776020
30
0.0
11
16.038505
21
155.776020
31
0.0
0
LINE
8
0
6
CONTINUOUS
10
15.654695
20
155.181310
30
0.0
11
17.189905
21
155.181310
31
0.0
0
LINE
8
0
6
CONTINUOUS
10
16.038505
20
155.776020
30
0.0
11
13.479825
21
155.776020
31
0.0
0
LINE
8
0
6
CONTINUOUS
10
13.159995
20
155.181310
30
0.0
11
15.654695
21
155.181310
31
0.0
0
LINE
8
0
6
CONTINUOUS
10
13.479825
20
155.776020
30
0.0
11
10.089565
21
155.776020
31
0.0
0
LINE
8
0
6
CONTINUOUS
10
9.897675
20
155.181310
30
0.0
11
13.159995
21
155.181310
31
0.0
0
LINE
8
0
6
CONTINUOUS
10
10.089565
20
155.776020
30
0.0
11
6.251545
21
155.776020
31
0.0
0
LINE
8
0
6
CONTINUOUS
10
6.187585
20
155.181310
30
0.0
11
9.897675
21
155.181310
31
0.0
0
LINE
8
0
6
CONTINUOUS
10
6.251545
20
155.776020
30
0.0
11
2.157645
21
155.776020
31
0.0
0
LINE
8
0
6
CONTINUOUS
10
2.157645
20
155.181310
30
0.0
11
6.187585
21
155.181310
31
0.0
0
LINE
8
0
6
CONTINUOUS
10
-13.450335
20
155.181310
30
0.0
11
-12.874635
21
155.181310
31
0.0
0
LINE
8
0
6
CONTINUOUS
10
-13.834145
20
155.776020
30
0.0
11
-13.450335
21
155.181310
31
0.0
0
LINE
8
0
6
CONTINUOUS
10
-13.258435
20
155.776020
30
0.0
11
-13.834145
21
155.776020
31
0.0
0
LINE
8
0
6
CONTINUOUS
10
-12.874635
20
155.181310
30
0.0
11
-11.339415
21
155.181310
31
0.0
0
LINE
8
0
6
CONTINUOUS
10
-11.723225
20
155.776020
30
0.0
11
-13.258435
21
155.776020
31
0.0
0
LINE
8
0
6
CONTINUOUS
10
-11.339415
20
155.181310
30
0.0
11
-8.844695
21
155.181310
31
0.0
0
LINE
8
0
6
CONTINUOUS
10
-9.164535
20
155.776020
30
0.0
11
-11.723225
21
155.776020
31
0.0
0
LINE
8
0
6
CONTINUOUS
10
-8.844695
20
155.181310
30
0.0
11
-5.582375
21
155.181310
31
0.0
0
LINE
8
0
6
CONTINUOUS
10
-5.774275
20
155.776020
30
0.0
11
-9.164535
21
155.776020
31
0.0
0
LINE
8
0
6
CONTINUOUS
10
-5.582375
20
155.181310
30
0.0
11
-1.872285
21
155.181310
31
0.0
0
LINE
8
0
6
CONTINUOUS
10
-1.936245
20
155.776020
30
0.0
11
-5.774275
21
155.776020
31
0.0
0
LINE
8
0
6
CONTINUOUS
10
-1.872285
20
155.181310
30
0.0
11
2.157645
21
155.181310
31
0.0
0
LINE
8
0
6
CONTINUOUS
10
2.157645
20
155.776020
30
0.0
11
-1.936245
21
155.776020
31
0.0
0
LINE
8
0
6
CONTINUOUS
10
-13.834145
20
206.586530
30
0.0
11
-13.258435
21
206.586530
31
0.0
0
LINE
8
0
6
CONTINUOUS
10
-13.450335
20
207.181280
30
0.0
11
-13.834145
21
206.586530
31
0.0
0
LINE
8
0
6
CONTINUOUS
10
-12.874635
20
207.181280
30
0.0
11
-13.450335
21
207.181280
31
0.0
0
LINE
8
0
6
CONTINUOUS
10
-13.258435
20
206.586530
30
0.0
11
-11.723225
21
206.586530
31
0.0
0
LINE
8
0
6
CONTINUOUS
10
-11.339415
20
207.181280
30
0.0
11
-12.874635
21
207.181280
31
0.0
0
LINE
8
0
6
CONTINUOUS
10
-11.723225
20
206.586530
30
0.0
11
-9.164535
21
206.586530
31
0.0
0
LINE
8
0
6
CONTINUOUS
10
-8.844695
20
207.181280
30
0.0
11
-11.339415
21
207.181280
31
0.0
0
LINE
8
0
6
CONTINUOUS
10
-9.164535
20
206.586530
30
0.0
11
-5.774275
21
206.586530
31
0.0
0
LINE
8
0
6
CONTINUOUS
10
-5.582375
20
207.181280
30
0.0
11
-8.844695
21
207.181280
31
0.0
0
LINE
8
0
6
CONTINUOUS
10
-5.774275
20
206.586530
30
0.0
11
-1.936245
21
206.586530
31
0.0
0
LINE
8
0
6
CONTINUOUS
10
-1.872285
20
207.181280
30
0.0
11
-5.582375
21
207.181280
31
0.0
0
LINE
8
0
6
CONTINUOUS
10
-1.936245
20
206.586530
30
0.0
11
2.157645
21
206.586530
31
0.0
0
LINE
8
0
6
CONTINUOUS
10
2.157645
20
207.181280
30
0.0
11
-1.872285
21
207.181280
31
0.0
0
LINE
8
0
6
CONTINUOUS
10
-18.346145
20
202.437970
30
0.0
11
-18.866185
21
202.298620
31
0.0
0
LINE
8
0
6
CONTINUOUS
10
-18.866185
20
202.298620
30
0.0
11
-18.622605
21
201.390270
31
0.0
0
LINE
8
0
6
CONTINUOUS
10
-16.890025
20
202.828140
30
0.0
11
-18.346145
21
202.437970
31
0.0
0
LINE
8
0
6
CONTINUOUS
10
-14.705855
20
203.413390
30
0.0
11
-16.890025
21
202.828140
31
0.0
0
LINE
8
0
6
CONTINUOUS
10
-13.834145
20
203.646955
30
0.0
11
-14.705855
21
203.413390
31
0.0
0
LINE
8
0
6
CONTINUOUS
10
23.641765
20
160.181310
30
0.0
11
23.485185
21
160.765230
31
0.0
0
LINE
8
0
6
CONTINUOUS
10
23.121755
20
160.041960
30
0.0
11
23.641765
21
160.181310
31
0.0
0
LINE
8
0
6
CONTINUOUS
10
21.665655
20
159.651790
30
0.0
11
23.121755
21
160.041960
31
0.0
0
LINE
8
0
6
CONTINUOUS
10
19.481505
20
159.066540
30
0.0
11
21.665655
21
159.651790
31
0.0
0
LINE
8
0
6
CONTINUOUS
10
18.149415
20
158.709601
30
0.0
11
19.481505
21
159.066540
31
0.0
0
LINE
8
0
6
CONTINUOUS
10
23.485185
20
160.765230
30
0.0
11
18.149415
21
180.664278
31
0.0
0
LINE
8
0
6
CONTINUOUS
10
-18.622605
20
201.390270
30
0.0
11
-13.834145
21
183.532353
31
0.0
0
LINE
8
0
6
CONTINUOUS
10
-72.419000
20
347.778215
30
0.0
11
-72.659745
21
347.383960
31
0.0
0
LINE
8
0
6
CONTINUOUS
10
-72.659745
20
347.383960
30
0.0
11
-72.588375
21
347.274250
31
0.0
0
LINE
8
0
6
CONTINUOUS
10
-72.588375
20
347.274250
30
0.0
11
-72.342555
21
346.901320
31
0.0
0
LINE
8
0
6
CONTINUOUS
10
-69.688635
20
342.851940
30
0.0
11
-69.101595
21
341.957930
31
0.0
0
LINE
8
0
6
CONTINUOUS
10
-70.288955
20
343.767930
30
0.0
11
-69.688635
21
342.851940
31
0.0
0
LINE
8
0
6
CONTINUOUS
10
-70.894805
20
344.695510
30
0.0
11
-70.288955
21
343.767930
31
0.0
0
LINE
8
0
6
CONTINUOUS
10
-71.474005
20
345.574720
30
0.0
11
-70.894805
21
344.695510
31
0.0
0
LINE
8
0
6
CONTINUOUS
10
-71.957545
20
346.313250
30
0.0
11
-71.474005
21
345.574720
31
0.0
0
LINE
8
0
6
CONTINUOUS
10
-72.342555
20
346.901320
30
0.0
11
-71.957545
21
346.313250
31
0.0
0
LINE
8
0
6
CONTINUOUS
10
-69.101595
20
341.957930
30
0.0
11
-68.596845
21
341.186450
31
0.0
0
LINE
8
0
6
CONTINUOUS
10
-68.596845
20
341.186450
30
0.0
11
-68.232755
21
340.635300
31
0.0
0
LINE
8
0
6
CONTINUOUS
10
-68.232755
20
340.635300
30
0.0
11
-68.017535
21
340.307390
31
0.0
0
LINE
8
0
6
CONTINUOUS
10
-67.915565
20
340.149000
30
0.0
11
-67.459328
21
340.212517
31
0.0
0
LINE
8
0
6
CONTINUOUS
10
-68.017535
20
340.307390
30
0.0
11
-67.915565
21
340.149000
31
0.0
0
LINE
8
0
6
CONTINUOUS
10
-81.981327
20
362.364279
30
0.0
11
-82.221265
21
361.966630
31
0.0
0
LINE
8
0
6
CONTINUOUS
10
-82.221265
20
361.966630
30
0.0
11
-82.138335
21
361.841660
31
0.0
0
LINE
8
0
6
CONTINUOUS
10
-82.138335
20
361.841660
30
0.0
11
-81.902785
21
361.479260
31
0.0
0
LINE
8
0
6
CONTINUOUS
10
-81.902785
20
361.479260
30
0.0
11
-81.508565
21
360.879290
31
0.0
0
LINE
8
0
6
CONTINUOUS
10
-81.508565
20
360.879290
30
0.0
11
-81.034055
21
360.156330
31
0.0
0
LINE
8
0
6
CONTINUOUS
10
-81.034055
20
360.156330
30
0.0
11
-80.477765
21
359.307170
31
0.0
0
LINE
8
0
6
CONTINUOUS
10
-80.477765
20
359.307170
30
0.0
11
-79.846885
21
358.346330
31
0.0
0
LINE
8
0
6
CONTINUOUS
10
-77.556505
20
354.852070
30
0.0
11
-77.474905
21
354.728160
31
0.0
0
LINE
8
0
6
CONTINUOUS
10
-77.474905
20
354.728160
30
0.0
11
-77.017167
21
354.789330
31
0.0
0
LINE
8
0
6
CONTINUOUS
10
-77.794465
20
355.214000
30
0.0
11
-77.556505
21
354.852070
31
0.0
0
LINE
8
0
6
CONTINUOUS
10
-78.186575
20
355.814290
30
0.0
11
-77.794465
21
355.214000
31
0.0
0
LINE
8
0
6
CONTINUOUS
10
-78.660975
20
356.537250
30
0.0
11
-78.186575
21
355.814290
31
0.0
0
LINE
8
0
6
CONTINUOUS
10
-79.217425
20
357.386400
30
0.0
11
-78.660975
21
356.537250
31
0.0
0
LINE
8
0
6
CONTINUOUS
10
-79.846885
20
358.346330
30
0.0
11
-79.217425
21
357.386400
31
0.0
0
LINE
8
0
6
CONTINUOUS
10
-67.909635
20
340.143050
30
0.0
11
-67.453665
21
340.206530
31
0.0
0
LINE
8
0
6
CONTINUOUS
10
-96.168225
20
394.721150
30
0.0
11
-95.253995
21
393.326950
31
0.0
0
LINE
8
0
6
CONTINUOUS
10
-94.586781
20
395.758137
30
0.0
11
-96.168225
21
394.721150
31
0.0
0
LINE
8
0
6
CONTINUOUS
10
-95.253995
20
393.326950
30
0.0
11
-94.174225
21
391.680220
31
0.0
0
LINE
8
0
6
CONTINUOUS
10
-93.875859
20
394.230596
30
0.0
11
-95.253995
21
393.326950
31
0.0
0
LINE
8
0
6
CONTINUOUS
10
-94.008685
20
391.427840
30
0.0
11
-93.337164
21
391.868157
31
0.0
0
LINE
8
0
6
CONTINUOUS
10
-94.174225
20
391.680220
30
0.0
11
-94.008685
21
391.427840
31
0.0
0
LINE
8
0
6
CONTINUOUS
10
-93.257573
20
392.281269
30
0.0
11
-94.174225
21
391.680220
31
0.0
0
LINE
8
0
6
CONTINUOUS
10
-93.352955
20
390.457380
30
0.0
11
-92.318835
21
388.880230
31
0.0
0
LINE
8
0
6
CONTINUOUS
10
-91.340795
20
387.388690
30
0.0
11
-90.681961
21
387.820702
31
0.0
0
LINE
8
0
6
CONTINUOUS
10
-92.318835
20
388.880230
30
0.0
11
-91.340795
21
387.388690
31
0.0
0
LINE
8
0
6
CONTINUOUS
10
-90.976057
20
389.760714
30
0.0
11
-92.318835
21
388.880230
31
0.0
0
LINE
8
0
6
CONTINUOUS
10
-93.352955
20
390.457380
30
0.0
11
-92.694478
21
390.889158
31
0.0
0
LINE
8
0
6
CONTINUOUS
10
-93.409055
20
390.542980
30
0.0
11
-93.352955
21
390.457380
31
0.0
0
LINE
8
0
6
CONTINUOUS
10
-92.067465
20
391.422660
30
0.0
11
-93.409055
21
390.542980
31
0.0
0
LINE
8
0
6
CONTINUOUS
10
-89.556795
20
384.534680
30
0.0
11
-88.440805
21
382.832720
31
0.0
0
LINE
8
0
6
CONTINUOUS
10
-87.599135
20
381.549150
30
0.0
11
-86.882038
21
382.019351
31
0.0
0
LINE
8
0
6
CONTINUOUS
10
-88.440805
20
382.832720
30
0.0
11
-87.599135
21
381.549150
31
0.0
0
LINE
8
0
6
CONTINUOUS
10
-87.120796
20
383.698250
30
0.0
11
-88.440805
21
382.832720
31
0.0
0
LINE
8
0
6
CONTINUOUS
10
-87.599135
20
381.549150
30
0.0
11
-88.440805
21
382.832720
31
0.0
0
LINE
8
0
6
CONTINUOUS
10
-89.556795
20
384.534680
30
0.0
11
-89.831115
21
384.953080
31
0.0
0
LINE
8
0
6
CONTINUOUS
10
-88.440805
20
382.832720
30
0.0
11
-89.556795
21
384.534680
31
0.0
0
LINE
8
0
6
CONTINUOUS
10
-89.556795
20
384.534680
30
0.0
11
-88.838279
21
385.005811
31
0.0
0
LINE
8
0
6
CONTINUOUS
10
-89.831115
20
384.953080
30
0.0
11
-89.556795
21
384.534680
31
0.0
0
LINE
8
0
6
CONTINUOUS
10
-88.511993
20
385.818029
30
0.0
11
-89.831115
21
384.953080
31
0.0
0
LINE
8
0
6
CONTINUOUS
10
-85.017675
20
377.723460
30
0.0
11
-83.859915
21
375.957870
31
0.0
0
LINE
8
0
6
CONTINUOUS
10
-83.184705
20
374.928050
30
0.0
11
-82.519103
21
375.364500
31
0.0
0
LINE
8
0
6
CONTINUOUS
10
-83.859915
20
375.957870
30
0.0
11
-83.184715
21
374.928065
31
0.0
0
LINE
8
0
6
CONTINUOUS
10
-82.558461
20
376.811235
30
0.0
11
-83.859915
21
375.957870
31
0.0
0
LINE
8
0
6
CONTINUOUS
10
-85.017675
20
377.723460
30
0.0
11
-84.351868
21
378.160044
31
0.0
0
LINE
8
0
6
CONTINUOUS
10
-85.500155
20
378.459240
30
0.0
11
-85.017675
21
377.723460
31
0.0
0
LINE
8
0
6
CONTINUOUS
10
-84.211421
20
379.304289
30
0.0
11
-85.500155
21
378.459240
31
0.0
0
LINE
8
0
6
CONTINUOUS
10
-79.825965
20
369.729690
30
0.0
11
-78.668145
21
367.963940
31
0.0
0
LINE
8
0
6
CONTINUOUS
10
-78.184695
20
367.226640
30
0.0
11
-77.482769
21
367.686911
31
0.0
0
LINE
8
0
6
CONTINUOUS
10
-78.668145
20
367.963940
30
0.0
11
-78.184695
21
367.226640
31
0.0
0
LINE
8
0
6
CONTINUOUS
10
-77.409072
20
368.789540
30
0.0
11
-78.668145
21
367.963940
31
0.0
0
LINE
8
0
6
CONTINUOUS
10
-79.825965
20
369.729690
30
0.0
11
-79.124740
21
370.189500
31
0.0
0
LINE
8
0
6
CONTINUOUS
10
-80.500365
20
370.758290
30
0.0
11
-79.825965
21
369.729690
31
0.0
0
LINE
8
0
6
CONTINUOUS
10
-79.218266
20
371.598964
30
0.0
11
-80.500365
21
370.758290
31
0.0
0
LINE
8
0
6
CONTINUOUS
10
-74.127055
20
361.092150
30
0.0
11
-73.011425
21
359.390640
31
0.0
0
LINE
8
0
6
CONTINUOUS
10
-72.738405
20
358.974380
30
0.0
11
-72.059736
21
359.419400
31
0.0
0
LINE
8
0
6
CONTINUOUS
10
-73.011425
20
359.390640
30
0.0
11
-72.738405
21
358.974380
31
0.0
0
LINE
8
0
6
CONTINUOUS
10
-71.812173
20
360.177017
30
0.0
11
-73.011425
21
359.390640
31
0.0
0
LINE
8
0
6
CONTINUOUS
10
-74.127055
20
361.092150
30
0.0
11
-73.448446
21
361.537114
31
0.0
0
LINE
8
0
6
CONTINUOUS
10
-74.969625
20
362.377090
30
0.0
11
-74.127055
21
361.092150
31
0.0
0
LINE
8
0
6
CONTINUOUS
10
-73.792044
20
363.149235
30
0.0
11
-74.969625
21
362.377090
31
0.0
0
LINE
8
0
6
CONTINUOUS
10
-68.197945
20
351.945880
30
0.0
11
-67.164445
21
350.369800
31
0.0
0
LINE
8
0
6
CONTINUOUS
10
-67.109785
20
350.286480
30
0.0
11
-66.384029
21
350.762360
31
0.0
0
LINE
8
0
6
CONTINUOUS
10
-67.164445
20
350.369800
30
0.0
11
-67.109785
21
350.286480
31
0.0
0
LINE
8
0
6
CONTINUOUS
10
-65.927133
20
351.181135
30
0.0
11
-67.164445
21
350.369800
31
0.0
0
LINE
8
0
6
CONTINUOUS
10
-68.197945
20
351.945880
30
0.0
11
-67.471392
21
352.422297
31
0.0
0
LINE
8
0
6
CONTINUOUS
10
-69.176725
20
353.438640
30
0.0
11
-68.197945
21
351.945880
31
0.0
0
LINE
8
0
6
CONTINUOUS
10
-67.985476
20
354.219770
30
0.0
11
-69.176725
21
353.438640
31
0.0
0
LINE
8
0
6
CONTINUOUS
10
-61.742885
20
342.266620
30
0.0
11
-61.096452
21
342.690500
31
0.0
0
LINE
8
0
6
CONTINUOUS
10
-62.658185
20
343.662640
30
0.0
11
-61.742885
21
342.266620
31
0.0
0
LINE
8
0
6
CONTINUOUS
10
-62.658185
20
343.662640
30
0.0
11
-62.011173
21
344.086887
31
0.0
0
LINE
8
0
6
CONTINUOUS
10
-63.737285
20
345.308300
30
0.0
11
-62.658185
21
343.662640
31
0.0
0
LINE
8
0
6
CONTINUOUS
10
-63.737285
20
345.308300
30
0.0
11
-63.089512
21
345.733047
31
0.0
0
LINE
8
0
6
CONTINUOUS
10
-63.901095
20
345.558090
30
0.0
11
-63.737285
21
345.308300
31
0.0
0
LINE
8
0
6
CONTINUOUS
10
-63.262551
20
345.976784
30
0.0
11
-63.901095
21
345.558090
31
0.0
0
LINE
8
0
6
CONTINUOUS
10
-56.618195
20
334.298320
30
0.0
11
-55.899853
21
334.769353
31
0.0
0
LINE
8
0
6
CONTINUOUS
10
-57.380185
20
335.460430
30
0.0
11
-56.618195
21
334.298320
31
0.0
0
LINE
8
0
6
CONTINUOUS
10
-57.380185
20
335.460430
30
0.0
11
-56.662226
21
335.931197
31
0.0
0
LINE
8
0
6
CONTINUOUS
10
-58.522135
20
337.201920
30
0.0
11
-57.380185
21
335.460430
31
0.0
0
LINE
8
0
6
CONTINUOUS
10
-58.522135
20
337.201920
30
0.0
11
-57.804722
21
337.672345
31
0.0
0
LINE
8
0
6
CONTINUOUS
10
-58.902125
20
337.781450
30
0.0
11
-58.522135
21
337.201920
31
0.0
0
LINE
8
0
6
CONTINUOUS
10
-58.237262
20
338.217415
30
0.0
11
-58.902125
21
337.781450
31
0.0
0
LINE
8
0
6
CONTINUOUS
10
-51.758495
20
327.038650
30
0.0
11
-51.108682
21
327.464748
31
0.0
0
LINE
8
0
6
CONTINUOUS
10
-52.339335
20
327.924420
30
0.0
11
-51.758495
21
327.038650
31
0.0
0
LINE
8
0
6
CONTINUOUS
10
-52.339335
20
327.924420
30
0.0
11
-51.689503
21
328.350531
31
0.0
0
LINE
8
0
6
CONTINUOUS
10
-53.502415
20
329.698260
30
0.0
11
-52.339335
21
327.924420
31
0.0
0
LINE
8
0
6
CONTINUOUS
10
-53.502415
20
329.698260
30
0.0
11
-52.852619
21
330.124346
31
0.0
0
LINE
8
0
6
CONTINUOUS
10
-54.084645
20
330.586170
30
0.0
11
-53.502415
21
329.698260
31
0.0
0
LINE
8
0
6
CONTINUOUS
10
-53.439087
20
331.009477
30
0.0
11
-54.084645
21
330.586170
31
0.0
0
LINE
8
0
6
CONTINUOUS
10
-47.443935
20
320.447010
30
0.0
11
-46.787845
21
320.877209
31
0.0
0
LINE
8
0
6
CONTINUOUS
10
-47.823985
20
321.026530
30
0.0
11
-47.443935
21
320.447010
31
0.0
0
LINE
8
0
6
CONTINUOUS
10
-48.965965
20
322.768170
30
0.0
11
-49.727872
21
323.930080
31
0.0
0
LINE
8
0
6
CONTINUOUS
10
-47.823985
20
321.026530
30
0.0
11
-48.965965
21
322.768170
31
0.0
0
LINE
8
0
6
CONTINUOUS
10
-47.443935
20
320.447010
30
0.0
11
-47.823985
21
321.026530
31
0.0
0
LINE
8
0
6
CONTINUOUS
10
-47.823985
20
321.026530
30
0.0
11
-47.168152
21
321.456576
31
0.0
0
LINE
8
0
6
CONTINUOUS
10
-48.965965
20
322.768170
30
0.0
11
-47.823985
21
321.026530
31
0.0
0
LINE
8
0
6
CONTINUOUS
10
-48.965965
20
322.768170
30
0.0
11
-48.310772
21
323.197782
31
0.0
0
LINE
8
0
6
CONTINUOUS
10
-49.727905
20
323.930130
30
0.0
11
-48.965965
21
322.768170
31
0.0
0
LINE
8
0
6
CONTINUOUS
10
-49.087194
20
324.350246
30
0.0
11
-49.727905
21
323.930130
31
0.0
0
LINE
8
0
6
CONTINUOUS
10
-43.919435
20
314.975050
30
0.0
11
-43.216743
21
315.435821
31
0.0
0
LINE
8
0
6
CONTINUOUS
10
-44.085565
20
315.228350
30
0.0
11
-43.919435
21
314.975050
31
0.0
0
LINE
8
0
6
CONTINUOUS
10
-44.085565
20
315.228350
30
0.0
11
-43.382745
21
315.689208
31
0.0
0
LINE
8
0
6
CONTINUOUS
10
-45.165565
20
316.875530
30
0.0
11
-44.085565
21
315.228350
31
0.0
0
LINE
8
0
6
CONTINUOUS
10
-45.165565
20
316.875530
30
0.0
11
-44.463330
21
317.335988
31
0.0
0
LINE
8
0
6
CONTINUOUS
10
-46.079415
20
318.269120
30
0.0
11
-45.165565
21
316.875530
31
0.0
0
LINE
8
0
6
CONTINUOUS
10
-45.423410
20
318.699278
30
0.0
11
-46.079415
21
318.269120
31
0.0
0
LINE
8
0
6
CONTINUOUS
10
-96.752715
20
395.542680
30
0.0
11
-96.171175
21
394.655840
31
0.0
0
LINE
8
0
6
CONTINUOUS
10
-98.497305
20
398.203200
30
0.0
11
-97.915795
21
397.316360
31
0.0
0
LINE
8
0
6
CONTINUOUS
10
-96.873327
20
399.268082
30
0.0
11
-98.497305
21
398.203200
31
0.0
0
LINE
8
0
6
CONTINUOUS
10
-97.915795
20
397.316360
30
0.0
11
-96.752715
21
395.542680
31
0.0
0
LINE
8
0
6
CONTINUOUS
10
-93.904965
20
387.105330
30
0.0
11
-93.323435
21
386.218490
31
0.0
0
LINE
8
0
6
CONTINUOUS
10
-95.649575
20
389.765850
30
0.0
11
-95.068045
21
388.879010
31
0.0
0
LINE
8
0
6
CONTINUOUS
10
-93.967209
20
390.869018
30
0.0
11
-95.649575
21
389.765850
31
0.0
0
LINE
8
0
6
CONTINUOUS
10
-95.068045
20
388.879010
30
0.0
11
-93.904965
21
387.105330
31
0.0
0
LINE
8
0
6
CONTINUOUS
10
-93.568409
20
389.862355
30
0.0
11
-95.068045
21
388.879010
31
0.0
0
LINE
8
0
6
CONTINUOUS
10
-93.307861
20
386.228702
30
0.0
11
-92.674528
21
385.262790
31
0.0
0
LINE
8
0
6
CONTINUOUS
10
-92.674437
20
385.262651
30
0.0
11
-93.307861
21
386.228702
31
0.0
0
LINE
8
0
6
CONTINUOUS
10
-48.421275
20
317.663350
30
0.0
11
-47.062785
21
318.554118
31
0.0
0
LINE
8
0
6
CONTINUOUS
10
-49.404615
20
319.162830
30
0.0
11
-48.421275
21
317.663350
31
0.0
0
LINE
8
0
6
CONTINUOUS
10
-49.404615
20
319.162830
30
0.0
11
-48.190148
21
319.959185
31
0.0
0
LINE
8
0
6
CONTINUOUS
10
-50.434175
20
320.733110
30
0.0
11
-49.404615
21
319.162830
31
0.0
0
LINE
8
0
6
CONTINUOUS
10
-50.434175
20
320.733110
30
0.0
11
-49.590478
21
321.286326
31
0.0
0
LINE
8
0
6
CONTINUOUS
10
-50.480415
20
320.803600
30
0.0
11
-50.434175
21
320.733110
31
0.0
0
LINE
8
0
6
CONTINUOUS
10
-49.870503
20
321.203535
30
0.0
11
-50.480415
21
320.803600
31
0.0
0
LINE
8
0
6
CONTINUOUS
10
-52.022995
20
323.290630
30
0.0
11
-50.919665
21
321.608050
31
0.0
0
LINE
8
0
6
CONTINUOUS
10
-52.022995
20
323.290630
30
0.0
11
-50.848753
21
324.060611
31
0.0
0
LINE
8
0
6
CONTINUOUS
10
-52.893345
20
324.618000
30
0.0
11
-52.022995
21
323.290630
31
0.0
0
LINE
8
0
6
CONTINUOUS
10
-52.092145
20
325.143367
30
0.0
11
-52.893345
21
324.618000
31
0.0
0
LINE
8
0
6
CONTINUOUS
10
-50.686715
20
321.252820
30
0.0
11
-49.513360
21
322.022217
31
0.0
0
LINE
8
0
6
CONTINUOUS
10
-50.919665
20
321.608050
30
0.0
11
-50.686715
21
321.252820
31
0.0
0
LINE
8
0
6
CONTINUOUS
10
-49.559361
20
322.500036
30
0.0
11
-50.919665
21
321.608050
31
0.0
0
LINE
8
0
6
CONTINUOUS
10
-56.687755
20
330.389940
30
0.0
11
-55.528515
21
328.622050
31
0.0
0
LINE
8
0
6
CONTINUOUS
10
-56.687755
20
330.389940
30
0.0
11
-55.496659
21
331.170971
31
0.0
0
LINE
8
0
6
CONTINUOUS
10
-57.349065
20
331.398540
30
0.0
11
-56.687755
21
330.389940
31
0.0
0
LINE
8
0
6
CONTINUOUS
10
-56.531311
20
331.934744
30
0.0
11
-57.349065
21
331.398540
31
0.0
0
LINE
8
0
6
CONTINUOUS
10
-55.030565
20
327.862620
30
0.0
11
-53.855745
21
328.632981
31
0.0
0
LINE
8
0
6
CONTINUOUS
10
-55.528515
20
328.622050
30
0.0
11
-55.030565
21
327.862620
31
0.0
0
LINE
8
0
6
CONTINUOUS
10
-54.158914
20
329.520135
30
0.0
11
-55.528515
21
328.622050
31
0.0
0
LINE
8
0
6
CONTINUOUS
10
-62.137655
20
338.694230
30
0.0
11
-60.989655
21
336.943590
31
0.0
0
LINE
8
0
6
CONTINUOUS
10
-62.137655
20
338.694230
30
0.0
11
-60.930938
21
339.485502
31
0.0
0
LINE
8
0
6
CONTINUOUS
10
-62.549905
20
339.323040
30
0.0
11
-62.137655
21
338.694230
31
0.0
0
LINE
8
0
6
CONTINUOUS
10
-61.717325
20
339.868965
30
0.0
11
-62.549905
21
339.323040
31
0.0
0
LINE
8
0
6
CONTINUOUS
10
-60.989655
20
336.943590
30
0.0
11
-62.137655
21
338.694230
31
0.0
0
LINE
8
0
6
CONTINUOUS
10
-60.253935
20
335.821460
30
0.0
11
-60.989655
21
336.943590
31
0.0
0
LINE
8
0
6
CONTINUOUS
10
-62.137655
20
338.694230
30
0.0
11
-62.549905
21
339.323040
31
0.0
0
LINE
8
0
6
CONTINUOUS
10
-60.253935
20
335.821460
30
0.0
11
-59.060916
21
336.603751
31
0.0
0
LINE
8
0
6
CONTINUOUS
10
-60.989655
20
336.943590
30
0.0
11
-60.253935
21
335.821460
31
0.0
0
LINE
8
0
6
CONTINUOUS
10
-59.610436
20
337.847952
30
0.0
11
-60.989655
21
336.943590
31
0.0
0
LINE
8
0
6
CONTINUOUS
10
-68.049635
20
347.718730
30
0.0
11
-66.980275
21
346.087880
31
0.0
0
LINE
8
0
6
CONTINUOUS
10
-68.049635
20
347.718730
30
0.0
11
-66.826424
21
348.520818
31
0.0
0
LINE
8
0
6
CONTINUOUS
10
-68.188145
20
347.929920
30
0.0
11
-68.049635
21
347.718730
31
0.0
0
LINE
8
0
6
CONTINUOUS
10
-67.336731
20
348.488214
30
0.0
11
-68.188145
21
347.929920
31
0.0
0
LINE
8
0
6
CONTINUOUS
10
-66.980275
20
346.087880
30
0.0
11
-68.049635
21
347.718730
31
0.0
0
LINE
8
0
6
CONTINUOUS
10
-66.049455
20
344.668350
30
0.0
11
-66.980275
21
346.087880
31
0.0
0
LINE
8
0
6
CONTINUOUS
10
-68.049635
20
347.718730
30
0.0
11
-68.188145
21
347.929920
31
0.0
0
LINE
8
0
6
CONTINUOUS
10
-66.049455
20
344.668350
30
0.0
11
-64.835855
21
345.464139
31
0.0
0
LINE
8
0
6
CONTINUOUS
10
-66.980275
20
346.087880
30
0.0
11
-66.049455
21
344.668350
31
0.0
0
LINE
8
0
6
CONTINUOUS
10
-65.593812
20
346.997017
30
0.0
11
-66.980275
21
346.087880
31
0.0
0
LINE
8
0
6
CONTINUOUS
10
-74.042995
20
356.863780
30
0.0
11
-73.112175
21
355.444260
31
0.0
0
LINE
8
0
6
CONTINUOUS
10
-72.811078
20
357.671578
30
0.0
11
-74.042995
21
356.863780
31
0.0
0
LINE
8
0
6
CONTINUOUS
10
-73.112175
20
355.444260
30
0.0
11
-72.042835
21
353.813550
31
0.0
0
LINE
8
0
6
CONTINUOUS
10
-71.703138
20
356.368198
30
0.0
11
-73.112175
21
355.444260
31
0.0
0
LINE
8
0
6
CONTINUOUS
10
-71.904305
20
353.602220
30
0.0
11
-71.044067
21
354.166298
31
0.0
0
LINE
8
0
6
CONTINUOUS
10
-72.042835
20
353.813550
30
0.0
11
-71.904305
21
353.602220
31
0.0
0
LINE
8
0
6
CONTINUOUS
10
-70.808719
20
354.622762
30
0.0
11
-72.042835
21
353.813550
31
0.0
0
LINE
8
0
6
CONTINUOUS
10
-79.841395
20
365.708850
30
0.0
11
-79.105675
21
364.586870
31
0.0
0
LINE
8
0
6
CONTINUOUS
10
-78.485025
20
366.598254
30
0.0
11
-79.841395
21
365.708850
31
0.0
0
LINE
8
0
6
CONTINUOUS
10
-79.105675
20
364.586870
30
0.0
11
-77.957695
21
362.836070
31
0.0
0
LINE
8
0
6
CONTINUOUS
10
-77.581323
20
365.586424
30
0.0
11
-79.105675
21
364.586870
31
0.0
0
LINE
8
0
6
CONTINUOUS
10
-77.545445
20
362.207410
30
0.0
11
-76.667148
21
362.783311
31
0.0
0
LINE
8
0
6
CONTINUOUS
10
-77.957695
20
362.836070
30
0.0
11
-77.545445
21
362.207410
31
0.0
0
LINE
8
0
6
CONTINUOUS
10
-76.672418
20
363.678859
30
0.0
11
-77.957695
21
362.836070
31
0.0
0
LINE
8
0
6
CONTINUOUS
10
-85.064425
20
373.667830
30
0.0
11
-84.566505
21
372.908550
31
0.0
0
LINE
8
0
6
CONTINUOUS
10
-83.715039
20
374.552652
30
0.0
11
-85.064425
21
373.667830
31
0.0
0
LINE
8
0
6
CONTINUOUS
10
-84.566505
20
372.908550
30
0.0
11
-83.407255
21
371.140520
31
0.0
0
LINE
8
0
6
CONTINUOUS
10
-83.002147
20
373.934303
30
0.0
11
-84.566505
21
372.908550
31
0.0
0
LINE
8
0
6
CONTINUOUS
10
-82.745945
20
370.132060
30
0.0
11
-81.776566
21
370.767706
31
0.0
0
LINE
8
0
6
CONTINUOUS
10
-83.407255
20
371.140520
30
0.0
11
-82.745945
21
370.132060
31
0.0
0
LINE
8
0
6
CONTINUOUS
10
-82.030236
20
372.043465
30
0.0
11
-83.407255
21
371.140520
31
0.0
0
LINE
8
0
6
CONTINUOUS
10
-89.395265
20
380.286330
30
0.0
11
-89.162305
21
379.931110
31
0.0
0
LINE
8
0
6
CONTINUOUS
10
-87.989394
20
381.208160
30
0.0
11
-89.395265
21
380.286330
31
0.0
0
LINE
8
0
6
CONTINUOUS
10
-89.162305
20
379.931110
30
0.0
11
-88.058995
21
378.248370
31
0.0
0
LINE
8
0
6
CONTINUOUS
10
-87.556287
20
380.984178
30
0.0
11
-89.162305
21
379.931110
31
0.0
0
LINE
8
0
6
CONTINUOUS
10
-87.188655
20
376.921010
30
0.0
11
-86.205161
21
377.565906
31
0.0
0
LINE
8
0
6
CONTINUOUS
10
-88.058995
20
378.248370
30
0.0
11
-87.188655
21
376.921010
31
0.0
0
LINE
8
0
6
CONTINUOUS
10
-86.664147
20
379.163003
30
0.0
11
-88.058995
21
378.248370
31
0.0
0
LINE
8
0
6
CONTINUOUS
10
-90.618545
20
382.120280
30
0.0
11
-89.806290
21
382.652896
31
0.0
0
LINE
8
0
6
CONTINUOUS
10
-90.664815
20
382.190780
30
0.0
11
-90.618545
21
382.120280
31
0.0
0
LINE
8
0
6
CONTINUOUS
10
-91.694405
20
383.761060
30
0.0
11
-92.677715
21
385.260700
31
0.0
0
LINE
8
0
6
CONTINUOUS
10
-90.664815
20
382.190780
30
0.0
11
-91.694405
21
383.761060
31
0.0
0
LINE
8
0
6
CONTINUOUS
10
-90.618545
20
382.120280
30
0.0
11
-90.664815
21
382.190780
31
0.0
0
LINE
8
0
6
CONTINUOUS
10
-92.677715
20
385.260700
30
0.0
11
-91.694405
21
383.761060
31
0.0
0
LINE
8
0
6
CONTINUOUS
10
-91.042735
20
386.332763
30
0.0
11
-92.677715
21
385.260700
31
0.0
0
LINE
8
0
6
CONTINUOUS
10
-90.664815
20
382.190780
30
0.0
11
-89.654055
21
382.853558
31
0.0
0
LINE
8
0
6
CONTINUOUS
10
-91.694405
20
383.761060
30
0.0
11
-90.664815
21
382.190780
31
0.0
0
LINE
8
0
6
CONTINUOUS
10
-90.272923
20
384.693128
30
0.0
11
-91.694405
21
383.761060
31
0.0
0
LINE
8
0
6
CONTINUOUS
10
-92.931855
20
385.672530
30
0.0
11
-92.607085
21
385.177230
31
0.0
0
LINE
8
0
6
CONTINUOUS
10
-94.866225
20
388.622510
30
0.0
11
-94.061445
21
387.395100
31
0.0
0
LINE
8
0
6
CONTINUOUS
10
-93.221851
20
389.700766
30
0.0
11
-94.866225
21
388.622510
31
0.0
0
LINE
8
0
6
CONTINUOUS
10
-92.931855
20
385.672530
30
0.0
11
-91.895252
21
386.352234
31
0.0
0
LINE
8
0
6
CONTINUOUS
10
-94.061445
20
387.395100
30
0.0
11
-92.931855
21
385.672530
31
0.0
0
LINE
8
0
6
CONTINUOUS
10
-92.610647
20
388.346420
30
0.0
11
-94.061445
21
387.395100
31
0.0
0
LINE
8
0
6
CONTINUOUS
10
-90.401015
20
378.702010
30
0.0
11
-89.819455
21
377.815020
31
0.0
0
LINE
8
0
6
CONTINUOUS
10
-92.145605
20
381.362530
30
0.0
11
-91.564075
21
380.475690
31
0.0
0
LINE
8
0
6
CONTINUOUS
10
-90.796218
20
382.247351
30
0.0
11
-92.145605
21
381.362530
31
0.0
0
LINE
8
0
6
CONTINUOUS
10
-91.564075
20
380.475690
30
0.0
11
-90.401015
21
378.702010
31
0.0
0
LINE
8
0
6
CONTINUOUS
10
-90.355235
20
381.268327
30
0.0
11
-91.564075
21
380.475690
31
0.0
0
LINE
8
0
6
CONTINUOUS
10
-56.976455
20
324.949720
30
0.0
11
-56.252252
21
325.424586
31
0.0
0
LINE
8
0
6
CONTINUOUS
10
-57.557975
20
325.836560
30
0.0
11
-56.976455
21
324.949720
31
0.0
0
LINE
8
0
6
CONTINUOUS
10
-57.557975
20
325.836560
30
0.0
11
-56.865016
21
326.290954
31
0.0
0
LINE
8
0
6
CONTINUOUS
10
-58.721055
20
327.610400
30
0.0
11
-57.557975
21
325.836560
31
0.0
0
LINE
8
0
6
CONTINUOUS
10
-59.302585
20
328.497240
30
0.0
11
-58.721055
21
327.610400
31
0.0
0
LINE
8
0
6
CONTINUOUS
10
-56.976455
20
324.949720
30
0.0
11
-57.557975
21
325.836560
31
0.0
0
LINE
8
0
6
CONTINUOUS
10
-58.721055
20
327.610400
30
0.0
11
-59.302585
21
328.497240
31
0.0
0
LINE
8
0
6
CONTINUOUS
10
-57.557975
20
325.836560
30
0.0
11
-58.721055
21
327.610400
31
0.0
0
LINE
8
0
6
CONTINUOUS
10
-58.436515
20
327.464370
30
0.0
11
-57.421387
21
328.130016
31
0.0
0
LINE
8
0
6
CONTINUOUS
10
-59.397725
20
328.930280
30
0.0
11
-58.436515
21
327.464370
31
0.0
0
LINE
8
0
6
CONTINUOUS
10
-59.397725
20
328.930280
30
0.0
11
-58.485655
21
329.528348
31
0.0
0
LINE
8
0
6
CONTINUOUS
10
-60.445435
20
330.528180
30
0.0
11
-59.397725
21
328.930280
31
0.0
0
LINE
8
0
6
CONTINUOUS
10
-60.445435
20
330.528180
30
0.0
11
-59.810367
21
330.944597
31
0.0
0
LINE
8
0
6
CONTINUOUS
10
-60.531955
20
330.660020
30
0.0
11
-60.445435
21
330.528180
31
0.0
0
LINE
8
0
6
CONTINUOUS
10
-60.049798
20
330.976182
30
0.0
11
-60.531955
21
330.660020
31
0.0
0
LINE
8
0
6
CONTINUOUS
10
-58.436515
20
327.464370
30
0.0
11
-59.397725
21
328.930280
31
0.0
0
LINE
8
0
6
CONTINUOUS
10
-60.445435
20
330.528180
30
0.0
11
-60.531955
21
330.660020
31
0.0
0
LINE
8
0
6
CONTINUOUS
10
-59.397725
20
328.930280
30
0.0
11
-60.445435
21
330.528180
31
0.0
0
LINE
8
0
6
CONTINUOUS
10
-63.940515
20
335.862500
30
0.0
11
-62.790535
21
334.108810
31
0.0
0
LINE
8
0
6
CONTINUOUS
10
-63.940515
20
335.862500
30
0.0
11
-63.007687
21
336.474180
31
0.0
0
LINE
8
0
6
CONTINUOUS
10
-64.666145
20
336.969070
30
0.0
11
-63.940515
21
335.862500
31
0.0
0
LINE
8
0
6
CONTINUOUS
10
-64.014042
20
337.396671
30
0.0
11
-64.666145
21
336.969070
31
0.0
0
LINE
8
0
6
CONTINUOUS
10
-62.790535
20
334.108810
30
0.0
11
-63.940515
21
335.862500
31
0.0
0
LINE
8
0
6
CONTINUOUS
10
-62.366175
20
333.461530
30
0.0
11
-62.790535
21
334.108810
31
0.0
0
LINE
8
0
6
CONTINUOUS
10
-63.940515
20
335.862500
30
0.0
11
-64.666145
21
336.969070
31
0.0
0
LINE
8
0
6
CONTINUOUS
10
-62.366175
20
333.461530
30
0.0
11
-61.437590
21
334.070425
31
0.0
0
LINE
8
0
6
CONTINUOUS
10
-62.790535
20
334.108810
30
0.0
11
-62.366175
21
333.461530
31
0.0
0
LINE
8
0
6
CONTINUOUS
10
-61.732596
20
334.802505
30
0.0
11
-62.790535
21
334.108810
31
0.0
0
LINE
8
0
6
CONTINUOUS
10
-70.218875
20
345.439070
30
0.0
11
-69.107885
21
343.744740
31
0.0
0
LINE
8
0
6
CONTINUOUS
10
-70.218875
20
345.439070
30
0.0
11
-69.274328
21
346.058415
31
0.0
0
LINE
8
0
6
CONTINUOUS
10
-70.476405
20
345.831830
30
0.0
11
-70.218875
21
345.439070
31
0.0
0
LINE
8
0
6
CONTINUOUS
10
-69.813464
20
346.266525
30
0.0
11
-70.476405
21
345.831830
31
0.0
0
LINE
8
0
6
CONTINUOUS
10
-69.107885
20
343.744740
30
0.0
11
-70.218875
21
345.439070
31
0.0
0
LINE
8
0
6
CONTINUOUS
10
-68.254405
20
342.443010
30
0.0
11
-69.107885
21
343.744740
31
0.0
0
LINE
8
0
6
CONTINUOUS
10
-70.218875
20
345.439070
30
0.0
11
-70.476405
21
345.831830
31
0.0
0
LINE
8
0
6
CONTINUOUS
10
-68.254405
20
342.443010
30
0.0
11
-67.318183
21
343.056913
31
0.0
0
LINE
8
0
6
CONTINUOUS
10
-69.107885
20
343.744740
30
0.0
11
-68.254405
21
342.443010
31
0.0
0
LINE
8
0
6
CONTINUOUS
10
-68.296923
20
344.276489
30
0.0
11
-69.107885
21
343.744740
31
0.0
0
LINE
8
0
6
CONTINUOUS
10
-76.965325
20
355.727160
30
0.0
11
-76.111845
21
354.425580
31
0.0
0
LINE
8
0
6
CONTINUOUS
10
-76.000033
20
356.360104
30
0.0
11
-76.965325
21
355.727160
31
0.0
0
LINE
8
0
6
CONTINUOUS
10
-76.111845
20
354.425580
30
0.0
11
-75.000815
21
352.731090
31
0.0
0
LINE
8
0
6
CONTINUOUS
10
-75.298099
20
354.959156
30
0.0
11
-76.111845
21
354.425580
31
0.0
0
LINE
8
0
6
CONTINUOUS
10
-74.743295
20
352.338330
30
0.0
11
-74.064989
21
352.783110
31
0.0
0
LINE
8
0
6
CONTINUOUS
10
-75.000815
20
352.731090
30
0.0
11
-74.743295
21
352.338330
31
0.0
0
LINE
8
0
6
CONTINUOUS
10
-74.041165
20
353.360358
30
0.0
11
-75.000815
21
352.731090
31
0.0
0
LINE
8
0
6
CONTINUOUS
10
-82.855615
20
364.707260
30
0.0
11
-82.431245
21
364.059980
31
0.0
0
LINE
8
0
6
CONTINUOUS
10
-81.860249
20
365.359927
30
0.0
11
-82.855615
21
364.707260
31
0.0
0
LINE
8
0
6
CONTINUOUS
10
-82.431245
20
364.059980
30
0.0
11
-81.281275
21
362.306290
31
0.0
0
LINE
8
0
6
CONTINUOUS
10
-81.309215
20
364.795722
30
0.0
11
-82.431245
21
364.059980
31
0.0
0
LINE
8
0
6
CONTINUOUS
10
-80.555635
20
361.199570
30
0.0
11
-79.853025
21
361.660287
31
0.0
0
LINE
8
0
6
CONTINUOUS
10
-81.281275
20
362.306290
30
0.0
11
-80.555635
21
361.199570
31
0.0
0
LINE
8
0
6
CONTINUOUS
10
-80.296237
20
362.952181
30
0.0
11
-81.281275
21
362.306290
31
0.0
0
LINE
8
0
6
CONTINUOUS
10
-84.691935
20
367.507250
30
0.0
11
-84.123060
21
367.880275
31
0.0
0
LINE
8
0
6
CONTINUOUS
10
-84.778495
20
367.639240
30
0.0
11
-84.691935
21
367.507250
31
0.0
0
LINE
8
0
6
CONTINUOUS
10
-85.826175
20
369.237140
30
0.0
11
-86.787385
21
370.702900
31
0.0
0
LINE
8
0
6
CONTINUOUS
10
-84.778495
20
367.639240
30
0.0
11
-85.826175
21
369.237140
31
0.0
0
LINE
8
0
6
CONTINUOUS
10
-84.691935
20
367.507250
30
0.0
11
-84.778495
21
367.639240
31
0.0
0
LINE
8
0
6
CONTINUOUS
10
-86.787385
20
370.702900
30
0.0
11
-85.826175
21
369.237140
31
0.0
0
LINE
8
0
6
CONTINUOUS
10
-86.028469
20
371.200537
30
0.0
11
-86.787385
21
370.702900
31
0.0
0
LINE
8
0
6
CONTINUOUS
10
-84.778495
20
367.639240
30
0.0
11
-84.068211
21
368.104988
31
0.0
0
LINE
8
0
6
CONTINUOUS
10
-85.826175
20
369.237140
30
0.0
11
-84.778495
21
367.639240
31
0.0
0
LINE
8
0
6
CONTINUOUS
10
-84.829222
20
369.890845
30
0.0
11
-85.826175
21
369.237140
31
0.0
0
LINE
8
0
6
CONTINUOUS
10
-51.693815
20
317.712630
30
0.0
11
-51.473401
21
317.857160
31
0.0
0
LINE
8
0
6
CONTINUOUS
10
-52.275335
20
318.599470
30
0.0
11
-51.693815
21
317.712630
31
0.0
0
LINE
8
0
6
CONTINUOUS
10
-52.275335
20
318.599470
30
0.0
11
-51.893627
21
318.849764
31
0.0
0
LINE
8
0
6
CONTINUOUS
10
-53.438415
20
320.373310
30
0.0
11
-52.275335
21
318.599470
31
0.0
0
LINE
8
0
6
CONTINUOUS
10
-53.438415
20
320.373310
30
0.0
11
-52.862401
21
320.751013
31
0.0
0
LINE
8
0
6
CONTINUOUS
10
-54.019955
20
321.260150
30
0.0
11
-53.438415
21
320.373310
31
0.0
0
LINE
8
0
6
CONTINUOUS
10
-53.410883
20
321.659530
30
0.0
11
-54.019955
21
321.260150
31
0.0
0
LINE
8
0
6
CONTINUOUS
10
-51.693815
20
317.712630
30
0.0
11
-52.275335
21
318.599470
31
0.0
0
LINE
8
0
6
CONTINUOUS
10
-53.438415
20
320.373310
30
0.0
11
-54.019955
21
321.260150
31
0.0
0
LINE
8
0
6
CONTINUOUS
10
-52.275335
20
318.599470
30
0.0
11
-53.438415
21
320.373310
31
0.0
0
LINE
8
0
6
CONTINUOUS
10
-52.076705
20
319.735180
30
0.0
11
-51.336632
21
320.220457
31
0.0
0
LINE
8
0
6
CONTINUOUS
10
-52.940615
20
321.052630
30
0.0
11
-52.076705
21
319.735180
31
0.0
0
LINE
8
0
6
CONTINUOUS
10
-52.940615
20
321.052630
30
0.0
11
-52.086746
21
321.612526
31
0.0
0
LINE
8
0
6
CONTINUOUS
10
-54.046955
20
322.739790
30
0.0
11
-52.940615
21
321.052630
31
0.0
0
LINE
8
0
6
CONTINUOUS
10
-54.046955
20
322.739790
30
0.0
11
-53.417808
21
323.152344
31
0.0
0
LINE
8
0
6
CONTINUOUS
10
-54.289385
20
323.109510
30
0.0
11
-54.046955
21
322.739790
31
0.0
0
LINE
8
0
6
CONTINUOUS
10
-53.912590
20
323.356587
30
0.0
11
-54.289385
21
323.109510
31
0.0
0
LINE
8
0
6
CONTINUOUS
10
-52.076705
20
319.735180
30
0.0
11
-52.940615
21
321.052630
31
0.0
0
LINE
8
0
6
CONTINUOUS
10
-54.046955
20
322.739790
30
0.0
11
-54.289385
21
323.109510
31
0.0
0
LINE
8
0
6
CONTINUOUS
10
-52.940615
20
321.052630
30
0.0
11
-54.046955
21
322.739790
31
0.0
0
LINE
8
0
6
CONTINUOUS
10
-55.819625
20
325.981980
30
0.0
11
-54.756825
21
324.361190
31
0.0
0
LINE
8
0
6
CONTINUOUS
10
-55.819625
20
325.981980
30
0.0
11
-54.755140
21
326.679990
31
0.0
0
LINE
8
0
6
CONTINUOUS
10
-56.760145
20
327.416310
30
0.0
11
-55.819625
21
325.981980
31
0.0
0
LINE
8
0
6
CONTINUOUS
10
-56.007599
20
327.909773
30
0.0
11
-56.760145
21
327.416310
31
0.0
0
LINE
8
0
6
CONTINUOUS
10
-54.634535
20
324.174730
30
0.0
11
-53.589023
21
324.860298
31
0.0
0
LINE
8
0
6
CONTINUOUS
10
-54.756825
20
324.361190
30
0.0
11
-54.634535
21
324.174730
31
0.0
0
LINE
8
0
6
CONTINUOUS
10
-53.554852
20
325.149352
30
0.0
11
-54.756825
21
324.361190
31
0.0
0
LINE
8
0
6
CONTINUOUS
10
-60.476535
20
333.084030
30
0.0
11
-59.319905
21
331.320110
31
0.0
0
LINE
8
0
6
CONTINUOUS
10
-60.476535
20
333.084030
30
0.0
11
-59.400190
21
333.789816
31
0.0
0
LINE
8
0
6
CONTINUOUS
10
-61.160745
20
334.127580
30
0.0
11
-60.476535
21
333.084030
31
0.0
0
LINE
8
0
6
CONTINUOUS
10
-60.398989
20
334.627082
30
0.0
11
-61.160745
21
334.127580
31
0.0
0
LINE
8
0
6
CONTINUOUS
10
-58.847475
20
330.599750
30
0.0
11
-57.780071
21
331.299676
31
0.0
0
LINE
8
0
6
CONTINUOUS
10
-59.319905
20
331.320110
30
0.0
11
-58.847475
21
330.599750
31
0.0
0
LINE
8
0
6
CONTINUOUS
10
-58.100222
20
332.119889
30
0.0
11
-59.319905
21
331.320110
31
0.0
0
LINE
8
0
6
CONTINUOUS
10
-66.224355
20
341.849290
30
0.0
11
-65.086835
21
340.114520
31
0.0
0
LINE
8
0
6
CONTINUOUS
10
-66.224355
20
341.849290
30
0.0
11
-65.149942
21
342.553811
31
0.0
0
LINE
8
0
6
CONTINUOUS
10
-66.583165
20
342.396470
30
0.0
11
-66.224355
21
341.849290
31
0.0
0
LINE
8
0
6
CONTINUOUS
10
-65.823034
20
342.894906
30
0.0
11
-66.583165
21
342.396470
31
0.0
0
LINE
8
0
6
CONTINUOUS
10
-65.086835
20
340.114520
30
0.0
11
-66.224355
21
341.849290
31
0.0
0
LINE
8
0
6
CONTINUOUS
10
-64.308115
20
338.926930
30
0.0
11
-65.086835
21
340.114520
31
0.0
0
LINE
8
0
6
CONTINUOUS
10
-66.224355
20
341.849290
30
0.0
11
-66.583165
21
342.396470
31
0.0
0
LINE
8
0
6
CONTINUOUS
10
-64.308115
20
338.926930
30
0.0
11
-63.228092
21
339.635129
31
0.0
0
LINE
8
0
6
CONTINUOUS
10
-65.086835
20
340.114520
30
0.0
11
-64.308115
21
338.926930
31
0.0
0
LINE
8
0
6
CONTINUOUS
10
-63.852058
20
340.924167
30
0.0
11
-65.086835
21
340.114520
31
0.0
0
LINE
8
0
6
CONTINUOUS
10
-72.476945
20
351.368790
30
0.0
11
-71.469695
21
349.832690
31
0.0
0
LINE
8
0
6
CONTINUOUS
10
-71.308637
20
352.134878
30
0.0
11
-72.476945
21
351.368790
31
0.0
0
LINE
8
0
6
CONTINUOUS
10
-70.462465
20
348.296580
30
0.0
11
-69.309483
21
349.052618
31
0.0
0
LINE
8
0
6
CONTINUOUS
10
-71.469695
20
349.832690
30
0.0
11
-70.462465
21
348.296580
31
0.0
0
LINE
8
0
6
CONTINUOUS
10
-70.138322
20
350.705704
30
0.0
11
-71.469695
21
349.832690
31
0.0
0
LINE
8
0
6
CONTINUOUS
10
-78.614815
20
360.749280
30
0.0
11
-77.836105
21
359.561690
31
0.0
0
LINE
8
0
6
CONTINUOUS
10
-77.494618
20
361.483819
30
0.0
11
-78.614815
21
360.749280
31
0.0
0
LINE
8
0
6
CONTINUOUS
10
-77.836105
20
359.561690
30
0.0
11
-76.698565
21
357.826920
31
0.0
0
LINE
8
0
6
CONTINUOUS
10
-76.566022
20
360.394513
30
0.0
11
-77.836105
21
359.561690
31
0.0
0
LINE
8
0
6
CONTINUOUS
10
-76.339755
20
357.279740
30
0.0
11
-75.553730
21
357.795156
31
0.0
0
LINE
8
0
6
CONTINUOUS
10
-76.698565
20
357.826920
30
0.0
11
-76.339755
21
357.279740
31
0.0
0
LINE
8
0
6
CONTINUOUS
10
-75.595577
20
358.550177
30
0.0
11
-76.698565
21
357.826920
31
0.0
0
LINE
8
0
6
CONTINUOUS
10
-84.076435
20
369.075850
30
0.0
11
-83.604045
21
368.355330
31
0.0
0
LINE
8
0
6
CONTINUOUS
10
-82.933064
20
369.825560
30
0.0
11
-84.076435
21
369.075850
31
0.0
0
LINE
8
0
6
CONTINUOUS
10
-83.604045
20
368.355330
30
0.0
11
-82.447405
21
366.591420
31
0.0
0
LINE
8
0
6
CONTINUOUS
10
-82.312039
20
369.202527
30
0.0
11
-83.604045
21
368.355330
31
0.0
0
LINE
8
0
6
CONTINUOUS
10
-81.763185
20
365.548020
30
0.0
11
-80.939778
21
366.087947
31
0.0
0
LINE
8
0
6
CONTINUOUS
10
-82.447405
20
366.591420
30
0.0
11
-81.763185
21
365.548020
31
0.0
0
LINE
8
0
6
CONTINUOUS
10
-81.305577
20
367.340142
30
0.0
11
-82.447405
21
366.591420
31
0.0
0
LINE
8
0
6
CONTINUOUS
10
-88.289705
20
375.500560
30
0.0
11
-88.167445
21
375.314100
31
0.0
0
LINE
8
0
6
CONTINUOUS
10
-87.123256
20
376.265431
30
0.0
11
-88.289705
21
375.500560
31
0.0
0
LINE
8
0
6
CONTINUOUS
10
-88.167445
20
375.314100
30
0.0
11
-87.104675
21
373.693310
31
0.0
0
LINE
8
0
6
CONTINUOUS
10
-86.855617
20
376.174297
30
0.0
11
-88.167445
21
375.314100
31
0.0
0
LINE
8
0
6
CONTINUOUS
10
-86.164105
20
372.258990
30
0.0
11
-85.322438
21
372.810872
31
0.0
0
LINE
8
0
6
CONTINUOUS
10
-87.104675
20
373.693310
30
0.0
11
-86.164105
21
372.258990
31
0.0
0
LINE
8
0
6
CONTINUOUS
10
-85.945657
20
374.453302
30
0.0
11
-87.104675
21
373.693310
31
0.0
0
LINE
8
0
6
CONTINUOUS
10
-88.882875
20
376.403120
30
0.0
11
-88.186869
21
376.859493
31
0.0
0
LINE
8
0
6
CONTINUOUS
10
-89.125295
20
376.772840
30
0.0
11
-88.882875
21
376.403120
31
0.0
0
LINE
8
0
6
CONTINUOUS
10
-91.095575
20
379.777600
30
0.0
11
-90.231655
21
378.460010
31
0.0
0
LINE
8
0
6
CONTINUOUS
10
-89.758933
20
380.654035
30
0.0
11
-91.095575
21
379.777600
31
0.0
0
LINE
8
0
6
CONTINUOUS
10
-89.125295
20
376.772840
30
0.0
11
-88.268133
21
377.334886
31
0.0
0
LINE
8
0
6
CONTINUOUS
10
-90.231655
20
378.460010
30
0.0
11
-89.125295
21
376.772840
31
0.0
0
LINE
8
0
6
CONTINUOUS
10
-89.054151
20
379.232126
30
0.0
11
-90.231655
21
378.460010
31
0.0
0
LINE
8
0
6
CONTINUOUS
10
-87.800895
20
372.242200
30
0.0
11
-88.382425
21
373.129200
31
0.0
0
LINE
8
0
6
CONTINUOUS
10
-86.637815
20
370.468520
30
0.0
11
-87.800895
21
372.242200
31
0.0
0
LINE
8
0
6
CONTINUOUS
10
-88.382425
20
373.129200
30
0.0
11
-87.800895
21
372.242200
31
0.0
0
LINE
8
0
6
CONTINUOUS
10
-87.226180
20
373.887351
30
0.0
11
-88.382425
21
373.129200
31
0.0
0
LINE
8
0
6
CONTINUOUS
10
-87.800895
20
372.242200
30
0.0
11
-86.637815
21
370.468520
31
0.0
0
LINE
8
0
6
CONTINUOUS
10
-86.770964
20
372.917549
30
0.0
11
-87.800895
21
372.242200
31
0.0
0
LINE
8
0
6
CONTINUOUS
10
-97.846155
20
397.370530
30
0.0
11
-97.085635
21
396.210710
31
0.0
0
LINE
8
0
6
CONTINUOUS
10
-96.280024
20
398.397475
30
0.0
11
-97.846155
21
397.370530
31
0.0
0
LINE
8
0
6
CONTINUOUS
10
-97.085635
20
396.210710
30
0.0
11
-96.126727
21
394.748361
31
0.0
0
LINE
8
0
6
CONTINUOUS
10
-95.756345
20
397.082353
30
0.0
11
-97.085635
21
396.210710
31
0.0
0
LINE
8
0
6
CONTINUOUS
10
-45.881605
20
296.324350
30
0.0
11
-44.303915
21
291.542550
31
0.0
0
LINE
8
0
6
CONTINUOUS
10
-47.164675
20
301.191940
30
0.0
11
-45.881605
21
296.324350
31
0.0
0
LINE
8
0
6
CONTINUOUS
10
-42.301545
20
286.893200
30
0.0
11
-41.663121
21
287.085643
31
0.0
0
LINE
8
0
6
CONTINUOUS
10
-47.383714
20
306.378100
30
0.0
11
-48.020535
21
306.186140
31
0.0
0
LINE
8
0
6
CONTINUOUS
10
-48.184935
20
305.336230
30
0.0
11
-47.164675
21
301.191940
31
0.0
0
LINE
8
0
6
CONTINUOUS
10
-44.303915
20
291.542550
30
0.0
11
-42.852675
21
287.372320
31
0.0
0
LINE
8
0
6
CONTINUOUS
10
-44.829265
20
300.118940
30
0.0
11
-46.551045
21
303.914110
31
0.0
0
LINE
8
0
6
CONTINUOUS
10
-41.734475
20
288.680610
30
0.0
11
-41.094885
21
291.052820
31
0.0
0
LINE
8
0
6
CONTINUOUS
10
-42.016695
20
288.761250
30
0.0
11
-41.372975
21
291.041220
31
0.0
0
LINE
8
0
6
CONTINUOUS
10
-42.594825
20
286.954920
30
0.0
11
-42.301545
21
286.893200
31
0.0
0
LINE
8
0
6
CONTINUOUS
10
-42.301545
20
286.893200
30
0.0
11
-42.126085
21
287.331580
31
0.0
0
LINE
8
0
6
CONTINUOUS
10
-42.811195
20
287.253150
30
0.0
11
-42.594825
21
286.954920
31
0.0
0
LINE
8
0
6
CONTINUOUS
10
-42.594825
20
286.954920
30
0.0
11
-42.418295
21
287.394980
31
0.0
0
LINE
8
0
6
CONTINUOUS
10
-41.153765
20
293.731730
30
0.0
11
-41.372975
21
291.041220
31
0.0
0
LINE
8
0
6
CONTINUOUS
10
-44.526855
20
302.365040
30
0.0
11
-42.233615
21
299.030070
31
0.0
0
LINE
8
0
6
CONTINUOUS
10
-46.592075
20
304.876330
30
0.0
11
-47.763055
21
305.941700
31
0.0
0
LINE
8
0
6
CONTINUOUS
10
-47.952615
20
305.680920
30
0.0
11
-46.753545
21
304.615860
31
0.0
0
LINE
8
0
6
CONTINUOUS
10
-48.221545
20
305.929340
30
0.0
11
-48.215145
21
305.458910
31
0.0
0
LINE
8
0
6
CONTINUOUS
10
-48.020535
20
306.186140
30
0.0
11
-48.221545
21
305.929340
31
0.0
0
LINE
8
0
6
CONTINUOUS
10
-47.763055
20
305.941700
30
0.0
11
-48.020535
21
306.186140
31
0.0
0
LINE
8
0
6
CONTINUOUS
10
-48.221545
20
305.929340
30
0.0
11
-47.952615
21
305.680920
31
0.0
0
LINE
8
0
6
CONTINUOUS
10
-46.753545
20
304.615860
30
0.0
11
-44.526855
21
302.365040
31
0.0
0
LINE
8
0
6
CONTINUOUS
10
-41.262575
20
296.606940
30
0.0
11
-41.153765
21
293.731730
31
0.0
0
LINE
8
0
6
CONTINUOUS
10
-42.126085
20
287.331580
30
0.0
11
-41.734475
21
288.680610
31
0.0
0
LINE
8
0
6
CONTINUOUS
10
-42.418295
20
287.394980
30
0.0
11
-42.016695
21
288.761250
31
0.0
0
LINE
8
0
6
CONTINUOUS
10
-42.852675
20
287.372320
30
0.0
11
-42.811195
21
287.253150
31
0.0
0
LINE
8
0
6
CONTINUOUS
10
-48.215145
20
305.458910
30
0.0
11
-48.184935
21
305.336230
31
0.0
0
LINE
8
0
6
CONTINUOUS
10
-36.479815
20
309.587170
30
0.0
11
-39.023925
21
313.443530
31
0.0
0
LINE
8
0
6
CONTINUOUS
10
-39.023925
20
313.443530
30
0.0
11
-41.700505
21
317.622150
31
0.0
0
LINE
8
0
6
CONTINUOUS
10
-98.633265
20
404.961620
30
0.0
11
-97.768645
21
401.938710
31
0.0
0
LINE
8
0
6
CONTINUOUS
10
-98.326765
20
404.494250
30
0.0
11
-98.633265
21
404.961620
31
0.0
0
LINE
8
0
6
CONTINUOUS
10
-86.146805
20
385.579300
30
0.0
11
-89.206875
21
390.276870
31
0.0
0
LINE
8
0
6
CONTINUOUS
10
-82.405925
20
379.881060
30
0.0
11
-86.146805
21
385.579300
31
0.0
0
LINE
8
0
6
CONTINUOUS
10
-78.588935
20
374.054790
30
0.0
11
-82.166543
21
379.515666
31
0.0
0
LINE
8
0
6
CONTINUOUS
10
-74.048855
20
367.072220
30
0.0
11
-78.588935
21
374.054790
31
0.0
0
LINE
8
0
6
CONTINUOUS
10
-70.121455
20
361.081620
30
0.0
11
-73.312477
21
365.948997
31
0.0
0
LINE
8
0
6
CONTINUOUS
10
-65.768025
20
354.453200
30
0.0
11
-70.121455
21
361.081620
31
0.0
0
LINE
8
0
6
CONTINUOUS
10
-55.535725
20
324.506450
30
0.0
11
-54.243499
21
323.139625
31
0.0
0
LINE
8
0
6
CONTINUOUS
10
-88.438678
20
376.694381
30
0.0
11
-88.009991
21
375.683990
31
0.0
0
LINE
8
0
6
CONTINUOUS
10
-34.944655
20
296.256600
30
0.0
11
-34.623285
21
297.659230
31
0.0
0
LINE
8
0
6
CONTINUOUS
10
-36.336905
20
291.717190
30
0.0
11
-35.628045
21
293.447530
31
0.0
0
LINE
8
0
6
CONTINUOUS
10
-35.628045
20
293.447530
30
0.0
11
-34.944655
21
296.256600
31
0.0
0
LINE
8
0
6
CONTINUOUS
10
-33.739235
20
302.800980
30
0.0
11
-33.986555
21
304.319990
31
0.0
0
LINE
8
0
6
CONTINUOUS
10
-48.092245
20
308.693770
30
0.0
11
-47.507675
21
306.881640
31
0.0
0
LINE
8
0
6
CONTINUOUS
10
-34.289085
20
305.738600
30
0.0
11
-34.794125
21
306.937790
31
0.0
0
LINE
8
0
6
CONTINUOUS
10
-49.304975
20
312.303540
30
0.0
11
-48.689715
21
310.501940
31
0.0
0
LINE
8
0
6
CONTINUOUS
10
-39.602825
20
283.895000
30
0.0
11
-38.794195
21
285.797390
31
0.0
0
LINE
8
0
6
CONTINUOUS
10
-41.663121
20
287.085643
30
0.0
11
-41.504255
21
286.629140
31
0.0
0
LINE
8
0
6
CONTINUOUS
10
-40.366575
20
282.694280
30
0.0
11
-40.165915
21
282.949560
31
0.0
0
LINE
8
0
6
CONTINUOUS
10
-41.504255
20
286.629140
30
0.0
11
-40.366575
21
282.694280
31
0.0
0
LINE
8
0
6
CONTINUOUS
10
-40.165915
20
282.949560
30
0.0
11
-39.602825
21
283.895000
31
0.0
0
LINE
8
0
6
CONTINUOUS
10
-34.623285
20
297.659230
30
0.0
11
-34.301915
21
299.061810
31
0.0
0
LINE
8
0
6
CONTINUOUS
10
-52.798425
20
334.581990
30
0.0
11
-57.325355
21
341.465070
31
0.0
0
LINE
8
0
6
CONTINUOUS
10
-48.733945
20
328.365860
30
0.0
11
-52.791152
21
334.570866
31
0.0
0
LINE
8
0
6
CONTINUOUS
10
-96.236715
20
401.008070
30
0.0
11
-97.690195
21
403.272020
31
0.0
0
LINE
8
0
6
CONTINUOUS
10
-89.206875
20
390.276870
30
0.0
11
-92.022605
21
394.571000
31
0.0
0
LINE
8
0
6
CONTINUOUS
10
-92.022605
20
394.571000
30
0.0
11
-94.392425
21
398.202130
31
0.0
0
LINE
8
0
6
CONTINUOUS
10
-94.392425
20
398.202130
30
0.0
11
-96.236715
21
401.008070
31
0.0
0
LINE
8
0
6
CONTINUOUS
10
-97.690195
20
403.272020
30
0.0
11
-98.326765
21
404.494250
31
0.0
0
LINE
8
0
6
CONTINUOUS
10
-97.768645
20
401.938710
30
0.0
11
-96.874346
21
399.267414
31
0.0
0
LINE
8
0
6
CONTINUOUS
10
-41.700505
20
317.622150
30
0.0
11
-45.163065
21
322.844310
31
0.0
0
LINE
8
0
6
CONTINUOUS
10
-45.163065
20
322.844310
30
0.0
11
-48.733945
21
328.365860
31
0.0
0
LINE
8
0
6
CONTINUOUS
10
-57.325355
20
341.465070
30
0.0
11
-61.378105
21
347.715380
31
0.0
0
LINE
8
0
6
CONTINUOUS
10
-61.378105
20
347.715380
30
0.0
11
-65.768025
21
354.453200
31
0.0
0
LINE
8
0
6
CONTINUOUS
10
-51.476502
20
317.855126
30
0.0
11
-51.363875
21
317.633740
31
0.0
0
LINE
8
0
6
CONTINUOUS
10
-33.986555
20
304.319990
30
0.0
11
-34.289085
21
305.738600
31
0.0
0
LINE
8
0
6
CONTINUOUS
10
-48.689715
20
310.501940
30
0.0
11
-48.092245
21
308.693770
31
0.0
0
LINE
8
0
6
CONTINUOUS
10
-56.252742
20
325.424266
30
0.0
11
-55.535725
21
324.506450
31
0.0
0
LINE
8
0
6
CONTINUOUS
10
-33.980555
20
300.464400
30
0.0
11
-33.739235
21
302.800980
31
0.0
0
LINE
8
0
6
CONTINUOUS
10
-47.507675
20
306.881640
30
0.0
11
-47.383714
21
306.378100
31
0.0
0
LINE
8
0
6
CONTINUOUS
10
-47.181226
20
306.439137
30
0.0
11
-47.237385
21
306.624980
31
0.0
0
LINE
8
0
6
CONTINUOUS
10
-41.052175
20
299.392930
30
0.0
11
-43.587735
21
303.014450
31
0.0
0
LINE
8
0
6
CONTINUOUS
10
-55.652685
20
324.832990
30
0.0
11
-54.285305
21
323.112212
31
0.0
0
LINE
8
0
6
CONTINUOUS
10
-51.764495
20
319.939901
30
0.0
11
-51.531255
21
319.646380
31
0.0
0
LINE
8
0
6
CONTINUOUS
10
-51.363875
20
317.633740
30
0.0
11
-50.697705
21
315.848460
31
0.0
0
LINE
8
0
6
CONTINUOUS
10
-50.697705
20
315.848460
30
0.0
11
-50.005245
21
314.074780
31
0.0
0
LINE
8
0
6
CONTINUOUS
10
-50.005245
20
314.074780
30
0.0
11
-49.304975
21
312.303540
31
0.0
0
LINE
8
0
6
CONTINUOUS
10
-34.794125
20
306.937790
30
0.0
11
-35.472975
21
308.042680
31
0.0
0
LINE
8
0
6
CONTINUOUS
10
-37.602835
20
288.553350
30
0.0
11
-36.336905
21
291.717190
31
0.0
0
LINE
8
0
6
CONTINUOUS
10
-38.794195
20
285.797390
30
0.0
11
-37.602835
21
288.553350
31
0.0
0
LINE
8
0
6
CONTINUOUS
10
-34.301915
20
299.061810
30
0.0
11
-33.980555
21
300.464400
31
0.0
0
LINE
8
0
6
CONTINUOUS
10
-49.253205
20
367.055890
30
0.0
11
-49.905135
21
368.050160
31
0.0
0
LINE
8
0
6
CONTINUOUS
10
-74.038835
20
367.997970
30
0.0
11
-69.698745
21
361.381150
31
0.0
0
LINE
8
0
6
CONTINUOUS
10
-36.481595
20
347.131730
30
0.0
11
-43.234035
21
357.876360
31
0.0
0
LINE
8
0
6
CONTINUOUS
10
-85.270095
20
416.023940
30
0.0
11
-85.740025
21
416.070170
31
0.0
0
LINE
8
0
6
CONTINUOUS
10
-50.960925
20
369.660260
30
0.0
11
-51.442845
21
370.395130
31
0.0
0
LINE
8
0
6
CONTINUOUS
10
-51.844195
20
371.007310
30
0.0
11
-52.190985
21
371.536180
31
0.0
0
LINE
8
0
6
CONTINUOUS
10
-44.226855
20
359.390330
30
0.0
11
-44.628215
21
360.002520
31
0.0
0
LINE
8
0
6
CONTINUOUS
10
-43.633205
20
358.485030
30
0.0
11
-43.756605
21
358.673320
31
0.0
0
LINE
8
0
6
CONTINUOUS
10
-48.035455
20
365.198750
30
0.0
11
-48.661855
21
366.154100
31
0.0
0
LINE
8
0
6
CONTINUOUS
10
-49.905135
20
368.050160
30
0.0
11
-50.454185
21
368.887410
31
0.0
0
LINE
8
0
6
CONTINUOUS
10
-48.661855
20
366.154100
30
0.0
11
-49.253205
21
367.055890
31
0.0
0
LINE
8
0
6
CONTINUOUS
10
-87.122465
20
415.590590
30
0.0
11
-87.643365
21
415.264660
31
0.0
0
LINE
8
0
6
CONTINUOUS
10
-92.022525
20
394.571000
30
0.0
11
-91.178394
21
393.283663
31
0.0
0
LINE
8
0
6
CONTINUOUS
10
-90.909704
20
392.873897
30
0.0
11
-89.206785
21
390.276870
31
0.0
0
LINE
8
0
6
CONTINUOUS
10
-94.392325
20
398.202130
30
0.0
11
-92.022525
21
394.571000
31
0.0
0
LINE
8
0
6
CONTINUOUS
10
-96.236655
20
401.008070
30
0.0
11
-94.392325
21
398.202130
31
0.0
0
LINE
8
0
6
CONTINUOUS
10
-97.690095
20
403.272020
30
0.0
11
-96.236655
21
401.008070
31
0.0
0
LINE
8
0
6
CONTINUOUS
10
-98.326695
20
404.494250
30
0.0
11
-97.690095
21
403.272020
31
0.0
0
LINE
8
0
6
CONTINUOUS
10
-98.633165
20
404.961780
30
0.0
11
-98.326695
21
404.494250
31
0.0
0
LINE
8
0
6
CONTINUOUS
10
-98.425875
20
405.896220
30
0.0
11
-98.633165
21
404.961780
31
0.0
0
LINE
8
0
6
CONTINUOUS
10
-98.166585
20
408.682170
30
0.0
11
-99.078795
21
407.642900
31
0.0
0
LINE
8
0
6
CONTINUOUS
10
-89.412245
20
391.504130
30
0.0
11
-86.116115
21
386.485980
31
0.0
0
LINE
8
0
6
CONTINUOUS
10
-85.862705
20
387.467270
30
0.0
11
-89.237945
21
392.611310
31
0.0
0
LINE
8
0
6
CONTINUOUS
10
-86.116115
20
386.485980
30
0.0
11
-82.431845
21
380.798720
31
0.0
0
LINE
8
0
6
CONTINUOUS
10
-82.128765
20
381.760330
30
0.0
11
-85.862705
21
387.467270
31
0.0
0
LINE
8
0
6
CONTINUOUS
10
-82.431845
20
380.798720
30
0.0
11
-78.533225
21
374.842760
31
0.0
0
LINE
8
0
6
CONTINUOUS
10
-78.533225
20
374.842760
30
0.0
11
-74.038835
21
367.997970
31
0.0
0
LINE
8
0
6
CONTINUOUS
10
-69.698745
20
361.381150
30
0.0
11
-65.364735
21
354.689860
31
0.0
0
LINE
8
0
6
CONTINUOUS
10
-82.128765
20
381.760330
30
0.0
11
-78.109365
21
375.428390
31
0.0
0
LINE
8
0
6
CONTINUOUS
10
-78.109365
20
375.428390
30
0.0
11
-73.703335
21
368.573990
31
0.0
0
LINE
8
0
6
CONTINUOUS
10
-73.703335
20
368.573990
30
0.0
11
-69.237265
21
361.795580
31
0.0
0
LINE
8
0
6
CONTINUOUS
10
-69.237265
20
361.795580
30
0.0
11
-64.671675
21
354.903340
31
0.0
0
LINE
8
0
6
CONTINUOUS
10
-43.395915
20
358.123090
30
0.0
11
-43.514555
21
358.304060
31
0.0
0
LINE
8
0
6
CONTINUOUS
10
-45.162985
20
322.844310
30
0.0
11
-41.700425
21
317.622150
31
0.0
0
LINE
8
0
6
CONTINUOUS
10
-48.733865
20
328.365860
30
0.0
11
-45.162985
21
322.844310
31
0.0
0
LINE
8
0
6
CONTINUOUS
10
-52.798335
20
334.581990
30
0.0
11
-48.733865
21
328.365860
31
0.0
0
LINE
8
0
6
CONTINUOUS
10
-57.325275
20
341.465070
30
0.0
11
-52.798335
21
334.581990
31
0.0
0
LINE
8
0
6
CONTINUOUS
10
-61.378035
20
347.715380
30
0.0
11
-57.325275
21
341.465070
31
0.0
0
LINE
8
0
6
CONTINUOUS
10
-65.767925
20
354.453200
30
0.0
11
-61.385404
21
347.726690
31
0.0
0
LINE
8
0
6
CONTINUOUS
10
-40.841375
20
317.134020
30
0.0
11
-37.848555
21
312.628250
31
0.0
0
LINE
8
0
6
CONTINUOUS
10
-37.848555
20
312.628250
30
0.0
11
-35.467695
21
308.891830
31
0.0
0
LINE
8
0
6
CONTINUOUS
10
-35.467695
20
308.891830
30
0.0
11
-34.433505
21
307.308580
31
0.0
0
LINE
8
0
6
CONTINUOUS
10
-39.724665
20
316.790390
30
0.0
11
-36.536355
21
312.243580
31
0.0
0
LINE
8
0
6
CONTINUOUS
10
-36.536355
20
312.243580
30
0.0
11
-34.207315
21
308.413160
31
0.0
0
LINE
8
0
6
CONTINUOUS
10
-47.408805
20
364.243090
30
0.0
11
-48.035455
21
365.198750
31
0.0
0
LINE
8
0
6
CONTINUOUS
10
-52.437415
20
371.912000
30
0.0
11
-52.674495
21
372.273480
31
0.0
0
LINE
8
0
6
CONTINUOUS
10
-75.392195
20
403.714520
30
0.0
11
-85.015845
21
415.707170
31
0.0
0
LINE
8
0
6
CONTINUOUS
10
-16.455825
20
311.149060
30
0.0
11
-23.621935
21
324.753490
31
0.0
0
LINE
8
0
6
CONTINUOUS
10
-46.817335
20
363.340990
30
0.0
11
-47.408805
21
364.243090
31
0.0
0
LINE
8
0
6
CONTINUOUS
10
-45.616795
20
361.510090
30
0.0
11
-46.165095
21
362.346420
31
0.0
0
LINE
8
0
6
CONTINUOUS
10
-52.674495
20
372.273480
30
0.0
11
-52.782375
21
372.437970
31
0.0
0
LINE
8
0
6
CONTINUOUS
10
-52.836885
20
372.521130
30
0.0
11
-59.997345
21
382.998280
31
0.0
0
LINE
8
0
6
CONTINUOUS
10
-59.997345
20
382.998280
30
0.0
11
-67.558695
21
393.408130
31
0.0
0
LINE
8
0
6
CONTINUOUS
10
-67.558695
20
393.408130
30
0.0
11
-75.392195
21
403.714520
31
0.0
0
LINE
8
0
6
CONTINUOUS
10
-89.237945
20
392.611310
30
0.0
11
-92.157225
21
396.785960
31
0.0
0
LINE
8
0
6
CONTINUOUS
10
-92.175765
20
395.703960
30
0.0
11
-89.412245
21
391.504130
31
0.0
0
LINE
8
0
6
CONTINUOUS
10
-92.157225
20
396.785960
30
0.0
11
-94.582455
21
400.685350
31
0.0
0
LINE
8
0
6
CONTINUOUS
10
-94.708075
20
399.643480
30
0.0
11
-92.175765
21
395.703960
31
0.0
0
LINE
8
0
6
CONTINUOUS
10
-94.582455
20
400.685350
30
0.0
11
-96.559265
21
403.624040
31
0.0
0
LINE
8
0
6
CONTINUOUS
10
-96.525275
20
402.356950
30
0.0
11
-94.708075
21
399.643480
31
0.0
0
LINE
8
0
6
CONTINUOUS
10
-96.559265
20
403.624040
30
0.0
11
-98.042805
21
405.929950
31
0.0
0
LINE
8
0
6
CONTINUOUS
10
-97.940115
20
404.469830
30
0.0
11
-96.525275
21
402.356950
31
0.0
0
LINE
8
0
6
CONTINUOUS
10
-98.042805
20
405.929950
30
0.0
11
-98.814405
21
407.099230
31
0.0
0
LINE
8
0
6
CONTINUOUS
10
-98.708235
20
405.732500
30
0.0
11
-97.940115
21
404.469830
31
0.0
0
LINE
8
0
6
CONTINUOUS
10
-98.814405
20
407.099230
30
0.0
11
-99.078795
21
407.642900
31
0.0
0
LINE
8
0
6
CONTINUOUS
10
-99.157875
20
406.214680
30
0.0
11
-98.708235
21
405.732500
31
0.0
0
LINE
8
0
6
CONTINUOUS
10
-99.078795
20
407.642900
30
0.0
11
-99.157875
21
406.214680
31
0.0
0
LINE
8
0
6
CONTINUOUS
10
-39.724665
20
316.790390
30
0.0
11
-43.170655
21
322.099840
31
0.0
0
LINE
8
0
6
CONTINUOUS
10
-44.269615
20
322.394940
30
0.0
11
-40.841375
21
317.134020
31
0.0
0
LINE
8
0
6
CONTINUOUS
10
-43.170655
20
322.099840
30
0.0
11
-46.859935
21
327.812120
31
0.0
0
LINE
8
0
6
CONTINUOUS
10
-47.875905
20
327.917400
30
0.0
11
-44.269615
21
322.394940
31
0.0
0
LINE
8
0
6
CONTINUOUS
10
-46.859935
20
327.812120
30
0.0
11
-51.201085
21
334.393540
31
0.0
0
LINE
8
0
6
CONTINUOUS
10
-52.254475
20
334.634930
30
0.0
11
-47.875905
21
327.917400
31
0.0
0
LINE
8
0
6
CONTINUOUS
10
-51.201085
20
334.393540
30
0.0
11
-55.464955
21
340.980910
31
0.0
0
LINE
8
0
6
CONTINUOUS
10
-56.523055
20
341.123580
30
0.0
11
-52.254475
21
334.634930
31
0.0
0
LINE
8
0
6
CONTINUOUS
10
-55.464955
20
340.980910
30
0.0
11
-60.009375
21
347.783430
31
0.0
0
LINE
8
0
6
CONTINUOUS
10
-60.824025
20
347.672960
30
0.0
11
-56.523055
21
341.123580
31
0.0
0
LINE
8
0
6
CONTINUOUS
10
-60.009375
20
347.783430
30
0.0
11
-64.671675
21
354.903340
31
0.0
0
LINE
8
0
6
CONTINUOUS
10
-65.364735
20
354.689860
30
0.0
11
-60.824025
21
347.672960
31
0.0
0
LINE
8
0
6
CONTINUOUS
10
-19.121175
20
313.794780
30
0.0
11
-18.390535
21
312.679820
31
0.0
0
LINE
8
0
6
CONTINUOUS
10
-21.071025
20
316.767960
30
0.0
11
-20.096105
21
315.281300
31
0.0
0
LINE
8
0
6
CONTINUOUS
10
-23.636295
20
320.680010
30
0.0
11
-21.071025
21
316.767960
31
0.0
0
LINE
8
0
6
CONTINUOUS
10
-43.061275
20
348.396530
30
0.0
11
-38.716805
21
341.771160
31
0.0
0
LINE
8
0
6
CONTINUOUS
10
-38.716805
20
341.771160
30
0.0
11
-34.678775
21
335.612720
31
0.0
0
LINE
8
0
6
CONTINUOUS
10
-34.678775
20
335.612720
30
0.0
11
-30.844735
21
329.766460
31
0.0
0
LINE
8
0
6
CONTINUOUS
10
-30.844735
20
329.766460
30
0.0
11
-27.368595
21
324.465870
31
0.0
0
LINE
8
0
6
CONTINUOUS
10
-86.175205
20
416.053850
30
0.0
11
-87.122465
21
415.590590
31
0.0
0
LINE
8
0
6
CONTINUOUS
10
-85.740025
20
416.070170
30
0.0
11
-86.175205
21
416.053850
31
0.0
0
LINE
8
0
6
CONTINUOUS
10
-86.175205
20
416.053850
30
0.0
11
-85.814825
21
415.506970
31
0.0
0
LINE
8
0
6
CONTINUOUS
10
-85.814825
20
415.506970
30
0.0
11
-84.917425
21
414.137340
31
0.0
0
LINE
8
0
6
CONTINUOUS
10
-9.917165
20
280.485702
30
0.0
11
-11.707065
21
287.458080
31
0.0
0
LINE
8
0
6
CONTINUOUS
10
-39.584055
20
279.962730
30
0.0
11
-18.809115
21
208.431430
31
0.0
0
LINE
8
0
6
CONTINUOUS
10
-18.422325
20
207.962000
30
0.0
11
-17.748745
21
208.141140
31
0.0
0
LINE
8
0
6
CONTINUOUS
10
-18.664215
20
207.898600
30
0.0
11
-18.422325
21
207.962000
31
0.0
0
LINE
8
0
6
CONTINUOUS
10
-18.809115
20
208.431430
30
0.0
11
-18.664215
21
207.898600
31
0.0
0
LINE
8
0
6
CONTINUOUS
10
-17.748745
20
208.141140
30
0.0
11
-16.552275
21
208.460580
31
0.0
0
LINE
8
0
6
CONTINUOUS
10
-14.952295
20
208.888210
30
0.0
11
-13.009015
21
209.408070
31
0.0
0
LINE
8
0
6
CONTINUOUS
10
-16.552275
20
208.460580
30
0.0
11
-14.952295
21
208.888210
31
0.0
0
LINE
8
0
6
CONTINUOUS
10
-35.472915
20
308.042830
30
0.0
11
-34.794055
21
306.937940
31
0.0
0
LINE
8
0
6
CONTINUOUS
10
-35.627975
20
293.447610
30
0.0
11
-36.336835
21
291.717190
31
0.0
0
LINE
8
0
6
CONTINUOUS
10
-37.602765
20
288.553430
30
0.0
11
-38.794105
21
285.797390
31
0.0
0
LINE
8
0
6
CONTINUOUS
10
-34.301845
20
299.061810
30
0.0
11
-34.623215
21
297.659230
31
0.0
0
LINE
8
0
6
CONTINUOUS
10
-34.623215
20
297.659230
30
0.0
11
-34.944605
21
296.256600
31
0.0
0
LINE
8
0
6
CONTINUOUS
10
-39.602745
20
283.895070
30
0.0
11
-40.165825
21
282.949560
31
0.0
0
LINE
8
0
6
CONTINUOUS
10
-40.366505
20
282.694360
30
0.0
11
-39.627565
21
282.255360
31
0.0
0
LINE
8
0
6
CONTINUOUS
10
-40.165825
20
282.949560
30
0.0
11
-40.366505
21
282.694360
31
0.0
0
LINE
8
0
6
CONTINUOUS
10
-38.794105
20
285.797390
30
0.0
11
-39.602745
21
283.895070
31
0.0
0
LINE
8
0
6
CONTINUOUS
10
-36.336835
20
291.717190
30
0.0
11
-37.602765
21
288.553430
31
0.0
0
LINE
8
0
6
CONTINUOUS
10
-15.567635
20
303.115620
30
0.0
11
-16.115045
21
305.345380
31
0.0
0
LINE
8
0
6
CONTINUOUS
10
-34.944605
20
296.256600
30
0.0
11
-35.627975
21
293.447610
31
0.0
0
LINE
8
0
6
CONTINUOUS
10
-16.330775
20
308.572310
30
0.0
11
-16.402675
21
309.648060
31
0.0
0
LINE
8
0
6
CONTINUOUS
10
-16.402675
20
309.648060
30
0.0
11
-16.309195
21
310.184860
31
0.0
0
LINE
8
0
6
CONTINUOUS
10
-32.901975
20
303.794780
30
0.0
11
-32.578915
21
302.239460
31
0.0
0
LINE
8
0
6
CONTINUOUS
10
-30.807585
20
302.532580
30
0.0
11
-31.253415
21
303.999560
31
0.0
0
LINE
8
0
6
CONTINUOUS
10
-33.986465
20
304.319990
30
0.0
11
-33.739175
21
302.801130
31
0.0
0
LINE
8
0
6
CONTINUOUS
10
-18.374185
20
310.746230
30
0.0
11
-18.241725
21
308.605270
31
0.0
0
LINE
8
0
6
CONTINUOUS
10
-33.830555
20
306.286240
30
0.0
11
-33.363065
21
305.239940
31
0.0
0
LINE
8
0
6
CONTINUOUS
10
-31.830015
20
304.912800
30
0.0
11
-32.467485
21
305.966110
31
0.0
0
LINE
8
0
6
CONTINUOUS
10
-33.363065
20
305.239940
30
0.0
11
-32.901975
21
303.794780
31
0.0
0
LINE
8
0
6
CONTINUOUS
10
-34.794055
20
306.937940
30
0.0
11
-34.289025
21
305.738750
31
0.0
0
LINE
8
0
6
CONTINUOUS
10
-17.210895
20
310.880360
30
0.0
11
-16.966845
21
309.030530
31
0.0
0
LINE
8
0
6
CONTINUOUS
10
-34.207315
20
308.413160
30
0.0
11
-33.058665
21
306.735760
31
0.0
0
LINE
8
0
6
CONTINUOUS
10
-20.096105
20
315.281300
30
0.0
11
-19.121175
21
313.794780
31
0.0
0
LINE
8
0
6
CONTINUOUS
10
-34.433505
20
307.308580
30
0.0
11
-33.830555
21
306.286240
31
0.0
0
LINE
8
0
6
CONTINUOUS
10
-32.467485
20
305.966110
30
0.0
11
-33.058665
21
306.735760
31
0.0
0
LINE
8
0
6
CONTINUOUS
10
-43.514555
20
358.304060
30
0.0
11
-43.633205
21
358.485030
31
0.0
0
LINE
8
0
6
CONTINUOUS
10
-18.390535
20
312.679820
30
0.0
11
-17.659895
21
311.564860
31
0.0
0
LINE
8
0
6
CONTINUOUS
10
-34.289025
20
305.738750
30
0.0
11
-33.986465
21
304.319990
31
0.0
0
LINE
8
0
6
CONTINUOUS
10
-34.289025
20
305.738750
30
0.0
11
-32.974875
21
304.656450
31
0.0
0
LINE
8
0
6
CONTINUOUS
10
-97.697385
20
408.975750
30
0.0
11
-98.166585
21
408.682170
31
0.0
0
LINE
8
0
6
CONTINUOUS
10
-87.643365
20
415.264660
30
0.0
11
-97.697385
21
408.975750
31
0.0
0
LINE
8
0
6
CONTINUOUS
10
-18.374185
20
310.746230
30
0.0
11
-17.913695
21
310.044630
31
0.0
0
LINE
8
0
6
CONTINUOUS
10
-17.210895
20
310.880360
30
0.0
11
-17.659895
21
311.564860
31
0.0
0
LINE
8
0
6
CONTINUOUS
10
-23.621935
20
324.753490
30
0.0
11
-29.950015
21
336.046830
31
0.0
0
LINE
8
0
6
CONTINUOUS
10
-29.950015
20
336.046830
30
0.0
11
-36.481595
21
347.131730
31
0.0
0
LINE
8
0
6
CONTINUOUS
10
-31.830015
20
304.912800
30
0.0
11
-31.253415
21
303.999560
31
0.0
0
LINE
8
0
6
CONTINUOUS
10
-16.309195
20
310.184860
30
0.0
11
-16.266505
21
310.789720
31
0.0
0
LINE
8
0
6
CONTINUOUS
10
-16.115045
20
305.345380
30
0.0
11
-16.186965
21
306.420970
31
0.0
0
LINE
8
0
6
CONTINUOUS
10
-16.186965
20
306.420970
30
0.0
11
-16.258865
21
307.496720
31
0.0
0
LINE
8
0
6
CONTINUOUS
10
-16.258865
20
307.496720
30
0.0
11
-16.330775
21
308.572310
31
0.0
0
LINE
8
0
6
CONTINUOUS
10
-16.966845
20
309.030530
30
0.0
11
-17.913695
21
310.044630
31
0.0
0
LINE
8
0
6
CONTINUOUS
10
-19.444055
20
309.927750
30
0.0
11
-18.569745
21
307.165760
31
0.0
0
LINE
8
0
6
CONTINUOUS
10
-18.241725
20
308.605270
30
0.0
11
-19.444055
21
309.927750
31
0.0
0
LINE
8
0
6
CONTINUOUS
10
-32.578915
20
302.239460
30
0.0
11
-32.610235
21
300.789720
31
0.0
0
LINE
8
0
6
CONTINUOUS
10
-30.361735
20
301.065600
30
0.0
11
-30.807585
21
302.532580
31
0.0
0
LINE
8
0
6
CONTINUOUS
10
-33.739175
20
302.801130
30
0.0
11
-33.980465
21
300.464400
31
0.0
0
LINE
8
0
6
CONTINUOUS
10
-18.897755
20
305.726390
30
0.0
11
-17.581775
21
305.534900
31
0.0
0
LINE
8
0
6
CONTINUOUS
10
-34.959615
20
292.113380
30
0.0
11
-35.768165
21
290.368460
31
0.0
0
LINE
8
0
6
CONTINUOUS
10
-37.089685
20
286.793710
30
0.0
11
-38.286365
21
284.223590
31
0.0
0
LINE
8
0
6
CONTINUOUS
10
-11.707065
20
287.458080
30
0.0
11
-15.020205
21
300.885850
31
0.0
0
LINE
8
0
6
CONTINUOUS
10
-39.199185
20
282.594490
30
0.0
11
-39.719995
21
281.644170
31
0.0
0
LINE
8
0
6
CONTINUOUS
10
-39.827895
20
281.200520
30
0.0
11
-39.584055
21
279.962730
31
0.0
0
LINE
8
0
6
CONTINUOUS
10
-39.719995
20
281.644170
30
0.0
11
-39.827895
21
281.200520
31
0.0
0
LINE
8
0
6
CONTINUOUS
10
-38.286365
20
284.223590
30
0.0
11
-39.199185
21
282.594490
31
0.0
0
LINE
8
0
6
CONTINUOUS
10
-35.768165
20
290.368460
30
0.0
11
-37.089685
21
286.793710
31
0.0
0
LINE
8
0
6
CONTINUOUS
10
-33.999555
20
294.909630
30
0.0
11
-34.959615
21
292.113380
31
0.0
0
LINE
8
0
6
CONTINUOUS
10
-33.245935
20
297.499620
30
0.0
11
-33.999555
21
294.909630
31
0.0
0
LINE
8
0
6
CONTINUOUS
10
-15.020205
20
300.885850
30
0.0
11
-15.567635
21
303.115620
31
0.0
0
LINE
8
0
6
CONTINUOUS
10
-32.610235
20
300.789720
30
0.0
11
-32.734495
21
299.451060
31
0.0
0
LINE
8
0
6
CONTINUOUS
10
-29.582975
20
299.478530
30
0.0
11
-30.361735
21
301.065600
31
0.0
0
LINE
8
0
6
CONTINUOUS
10
-32.734495
20
299.451060
30
0.0
11
-33.245935
21
297.499620
31
0.0
0
LINE
8
0
6
CONTINUOUS
10
-28.804235
20
297.891620
30
0.0
11
-29.582975
21
299.478530
31
0.0
0
LINE
8
0
6
CONTINUOUS
10
-33.980465
20
300.464400
30
0.0
11
-34.301845
21
299.061810
31
0.0
0
LINE
8
0
6
CONTINUOUS
10
-74.048755
20
367.072220
30
0.0
11
-70.121375
21
361.081620
31
0.0
0
LINE
8
0
6
CONTINUOUS
10
-89.206785
20
390.276870
30
0.0
11
-86.146705
21
385.579300
31
0.0
0
LINE
8
0
6
CONTINUOUS
10
-86.146705
20
385.579300
30
0.0
11
-82.405825
21
379.881060
31
0.0
0
LINE
8
0
6
CONTINUOUS
10
-82.405825
20
379.881060
30
0.0
11
-78.588875
21
374.054790
31
0.0
0
LINE
8
0
6
CONTINUOUS
10
-78.588875
20
374.054790
30
0.0
11
-74.048755
21
367.072220
31
0.0
0
LINE
8
0
6
CONTINUOUS
10
-70.121375
20
361.081620
30
0.0
11
-65.767925
21
354.453200
31
0.0
0
LINE
8
0
6
CONTINUOUS
10
-41.700425
20
317.622150
30
0.0
11
-39.023845
21
313.443530
31
0.0
0
LINE
8
0
6
CONTINUOUS
10
-39.023845
20
313.443530
30
0.0
11
-36.479735
21
309.587170
31
0.0
0
LINE
8
0
6
CONTINUOUS
10
-36.479735
20
309.587170
30
0.0
11
-35.472915
21
308.042830
31
0.0
0
LINE
8
0
6
CONTINUOUS
10
-35.768165
20
290.368460
30
0.0
11
-34.959615
21
292.113380
31
0.0
0
LINE
8
0
6
CONTINUOUS
10
-34.816235
20
293.368800
30
0.0
11
-35.574945
21
291.631130
31
0.0
0
LINE
8
0
6
CONTINUOUS
10
-38.286365
20
284.223590
30
0.0
11
-37.089685
21
286.793710
31
0.0
0
LINE
8
0
6
CONTINUOUS
10
-37.026775
20
288.051110
30
0.0
11
-38.070605
21
285.318490
31
0.0
0
LINE
8
0
6
CONTINUOUS
10
-33.245935
20
297.499620
30
0.0
11
-32.734495
21
299.451060
31
0.0
0
LINE
8
0
6
CONTINUOUS
10
-33.043455
20
299.845660
30
0.0
11
-33.386505
21
298.128740
31
0.0
0
LINE
8
0
6
CONTINUOUS
10
-33.999555
20
294.909630
30
0.0
11
-33.245935
21
297.499620
31
0.0
0
LINE
8
0
6
CONTINUOUS
10
-33.386505
20
298.128740
30
0.0
11
-33.982595
21
296.167260
31
0.0
0
LINE
8
0
6
CONTINUOUS
10
-39.719995
20
281.644170
30
0.0
11
-39.199185
21
282.594490
31
0.0
0
LINE
8
0
6
CONTINUOUS
10
-38.931325
20
283.552740
30
0.0
11
-39.473275
21
282.604870
31
0.0
0
LINE
8
0
6
CONTINUOUS
10
-39.827895
20
281.200520
30
0.0
11
-39.719995
21
281.644170
31
0.0
0
LINE
8
0
6
CONTINUOUS
10
-39.627565
20
282.255360
30
0.0
11
-39.827895
21
281.200520
31
0.0
0
LINE
8
0
6
CONTINUOUS
10
-39.473275
20
282.604870
30
0.0
11
-39.627565
21
282.255360
31
0.0
0
LINE
8
0
6
CONTINUOUS
10
-39.199185
20
282.594490
30
0.0
11
-38.286365
21
284.223590
31
0.0
0
LINE
8
0
6
CONTINUOUS
10
-38.070605
20
285.318490
30
0.0
11
-38.931325
21
283.552740
31
0.0
0
LINE
8
0
6
CONTINUOUS
10
-37.089685
20
286.793710
30
0.0
11
-35.768165
21
290.368460
31
0.0
0
LINE
8
0
6
CONTINUOUS
10
-35.574945
20
291.631130
30
0.0
11
-37.026775
21
288.051110
31
0.0
0
LINE
8
0
6
CONTINUOUS
10
-34.959615
20
292.113380
30
0.0
11
-33.999555
21
294.909630
31
0.0
0
LINE
8
0
6
CONTINUOUS
10
-33.982595
20
296.167260
30
0.0
11
-34.816235
21
293.368800
31
0.0
0
LINE
8
0
6
CONTINUOUS
10
-32.642435
20
303.092270
30
0.0
11
-32.803945
21
301.210860
31
0.0
0
LINE
8
0
6
CONTINUOUS
10
-32.610235
20
300.789720
30
0.0
11
-32.578915
21
302.239460
31
0.0
0
LINE
8
0
6
CONTINUOUS
10
-32.734495
20
299.451060
30
0.0
11
-32.610235
21
300.789720
31
0.0
0
LINE
8
0
6
CONTINUOUS
10
-32.803945
20
301.210860
30
0.0
11
-33.043455
21
299.845660
31
0.0
0
LINE
8
0
6
CONTINUOUS
10
-9.917165
20
210.235751
30
0.0
11
-10.785125
21
210.003320
31
0.0
0
LINE
8
0
6
CONTINUOUS
10
-10.785125
20
210.003320
30
0.0
11
-13.009015
21
209.408070
31
0.0
0
LINE
8
0
6
CONTINUOUS
10
-15.619745
20
208.714100
30
0.0
11
-15.537105
21
208.405720
31
0.0
0
LINE
8
0
6
CONTINUOUS
10
-47.879975
20
364.961620
30
0.0
11
-47.850575
21
364.916760
31
0.0
0
LINE
8
0
6
CONTINUOUS
10
-48.349025
20
365.676960
30
0.0
11
-52.437415
21
371.912000
31
0.0
0
LINE
8
0
6
CONTINUOUS
10
-47.784875
20
364.816510
30
0.0
11
-43.395915
21
358.123090
31
0.0
0
LINE
8
0
6
CONTINUOUS
10
-47.736855
20
364.743270
30
0.0
11
-43.270335
21
357.931590
31
0.0
0
LINE
8
0
6
CONTINUOUS
10
-48.322655
20
365.636670
30
0.0
11
-52.437415
21
371.912000
31
0.0
0
LINE
8
0
6
CONTINUOUS
10
-47.744345
20
364.754710
30
0.0
11
-43.395915
21
358.123090
31
0.0
0
LINE
8
0
6
CONTINUOUS
10
-48.287015
20
365.582350
30
0.0
11
-51.844195
21
371.007310
31
0.0
0
LINE
8
0
6
CONTINUOUS
10
-47.718555
20
364.715350
30
0.0
11
-43.270335
21
357.931590
31
0.0
0
LINE
8
0
6
CONTINUOUS
10
-83.216815
20
365.686420
30
0.0
11
-84.407245
21
367.499770
31
0.0
0
LINE
8
0
6
CONTINUOUS
10
-61.710105
20
332.887950
30
0.0
11
-62.170716
21
333.589680
31
0.0
0
LINE
8
0
6
CONTINUOUS
10
-64.467725
20
335.650100
30
0.0
11
-62.511185
21
332.670060
31
0.0
0
LINE
8
0
6
CONTINUOUS
10
-60.896925
20
330.208050
30
0.0
11
-60.074395
21
330.393450
31
0.0
0
LINE
8
0
6
CONTINUOUS
10
-61.337695
20
330.878070
30
0.0
11
-60.896925
21
330.208050
31
0.0
0
LINE
8
0
6
CONTINUOUS
10
-69.996255
20
344.078140
30
0.0
11
-67.060745
21
339.605180
31
0.0
0
LINE
8
0
6
CONTINUOUS
10
-70.283630
20
345.958162
30
0.0
11
-72.464035
21
349.286730
31
0.0
0
LINE
8
0
6
CONTINUOUS
10
-84.853395
20
368.179090
30
0.0
11
-85.351535
21
367.498550
31
0.0
0
LINE
8
0
6
CONTINUOUS
10
-82.659612
20
364.835714
30
0.0
11
-83.216815
21
365.686420
31
0.0
0
LINE
8
0
6
CONTINUOUS
10
-83.736165
20
365.038680
30
0.0
11
-81.781965
21
362.055130
31
0.0
0
LINE
8
0
6
CONTINUOUS
10
-78.609305
20
358.655470
30
0.0
11
-80.360861
21
361.327288
31
0.0
0
LINE
8
0
6
CONTINUOUS
10
-81.781965
20
362.055130
30
0.0
11
-79.189235
21
358.099590
31
0.0
0
LINE
8
0
6
CONTINUOUS
10
-72.464035
20
349.286730
30
0.0
11
-74.548784
21
352.465875
31
0.0
0
LINE
8
0
6
CONTINUOUS
10
-76.253805
20
353.626330
30
0.0
11
-73.124265
21
348.853990
31
0.0
0
LINE
8
0
6
CONTINUOUS
10
-76.771333
20
355.854200
30
0.0
11
-78.609305
21
358.655470
31
0.0
0
LINE
8
0
6
CONTINUOUS
10
-75.740515
20
356.876910
30
0.0
11
-76.105517
21
357.433224
31
0.0
0
LINE
8
0
6
CONTINUOUS
10
-78.381506
20
360.902148
30
0.0
11
-79.928885
21
363.260570
31
0.0
0
LINE
8
0
6
CONTINUOUS
10
-80.353865
20
362.665020
30
0.0
11
-76.235095
21
356.388020
31
0.0
0
LINE
8
0
6
CONTINUOUS
10
-88.054181
20
375.654999
30
0.0
11
-88.093935
21
375.715560
31
0.0
0
LINE
8
0
6
CONTINUOUS
10
-88.380305
20
374.908520
30
0.0
11
-86.731595
21
372.397690
31
0.0
0
LINE
8
0
6
CONTINUOUS
10
-56.523238
20
327.571634
30
0.0
11
-58.612210
21
330.753975
31
0.0
0
LINE
8
0
6
CONTINUOUS
10
-59.700555
20
331.169660
30
0.0
11
-56.956355
21
326.989670
31
0.0
0
LINE
8
0
6
CONTINUOUS
10
-66.810865
20
343.252490
30
0.0
11
-70.219461
21
348.455879
31
0.0
0
LINE
8
0
6
CONTINUOUS
10
-71.844795
20
349.693070
30
0.0
11
-67.456595
21
342.993550
31
0.0
0
LINE
8
0
6
CONTINUOUS
10
-60.925685
20
334.281651
30
0.0
11
-62.622325
21
336.869130
31
0.0
0
LINE
8
0
6
CONTINUOUS
10
-63.337655
20
336.717000
30
0.0
11
-59.716846
21
331.194507
31
0.0
0
LINE
8
0
6
CONTINUOUS
10
-55.309615
20
324.475330
30
0.0
11
-54.691405
21
323.535380
31
0.0
0
LINE
8
0
6
CONTINUOUS
10
-88.722235
20
376.672290
30
0.0
11
-88.997985
21
375.849080
31
0.0
0
LINE
8
0
6
CONTINUOUS
10
-88.093935
20
375.715560
30
0.0
11
-88.646992
21
376.557716
31
0.0
0
LINE
8
0
6
CONTINUOUS
10
-88.997985
20
375.849080
30
0.0
11
-88.380305
21
374.908520
31
0.0
0
LINE
8
0
6
CONTINUOUS
10
-83.841960
20
369.229490
30
0.0
11
-85.927727
21
372.413969
31
0.0
0
LINE
8
0
6
CONTINUOUS
10
-86.731595
20
372.397690
30
0.0
11
-83.990625
21
368.212810
31
0.0
0
LINE
8
0
6
CONTINUOUS
10
-79.928885
20
363.260570
30
0.0
11
-81.529110
21
365.701391
31
0.0
0
LINE
8
0
6
CONTINUOUS
10
-83.990625
20
368.212810
30
0.0
11
-80.353865
21
362.665020
31
0.0
0
LINE
8
0
6
CONTINUOUS
10
-56.956355
20
326.989670
30
0.0
11
-55.309615
21
324.475330
31
0.0
0
LINE
8
0
6
CONTINUOUS
10
-72.233286
20
351.528551
30
0.0
11
-75.740515
21
356.876910
31
0.0
0
LINE
8
0
6
CONTINUOUS
10
-76.235095
20
356.388020
30
0.0
11
-71.844795
21
349.693070
31
0.0
0
LINE
8
0
6
CONTINUOUS
10
-62.622325
20
336.869130
30
0.0
11
-64.073493
21
339.080719
31
0.0
0
LINE
8
0
6
CONTINUOUS
10
-66.349622
20
342.549553
30
0.0
11
-66.810865
21
343.252490
31
0.0
0
LINE
8
0
6
CONTINUOUS
10
-67.456595
20
342.993550
30
0.0
11
-63.337655
21
336.717000
31
0.0
0
LINE
8
0
6
CONTINUOUS
10
-81.027285
20
367.414020
30
0.0
11
-75.756175
21
359.380870
31
0.0
0
LINE
8
0
6
CONTINUOUS
10
-91.299375
20
383.082960
30
0.0
11
-89.189405
21
379.869610
31
0.0
0
LINE
8
0
6
CONTINUOUS
10
-54.595575
20
327.106700
30
0.0
11
-51.083595
21
321.757280
31
0.0
0
LINE
8
0
6
CONTINUOUS
10
-70.137545
20
350.812760
30
0.0
11
-64.521605
21
342.238850
31
0.0
0
LINE
8
0
6
CONTINUOUS
10
-59.250265
20
334.206160
30
0.0
11
-54.595575
21
327.106700
31
0.0
0
LINE
8
0
6
CONTINUOUS
10
-92.089895
20
384.286730
30
0.0
11
-91.299375
21
383.082960
31
0.0
0
LINE
8
0
6
CONTINUOUS
10
-89.189405
20
379.869610
30
0.0
11
-85.681525
21
374.513930
31
0.0
0
LINE
8
0
6
CONTINUOUS
10
-85.681525
20
374.513930
30
0.0
11
-81.027285
21
367.414020
31
0.0
0
LINE
8
0
6
CONTINUOUS
10
-51.083595
20
321.757280
30
0.0
11
-50.465403
21
320.813444
31
0.0
0
LINE
8
0
6
CONTINUOUS
10
-75.756175
20
359.380870
30
0.0
11
-70.137545
21
350.812760
31
0.0
0
LINE
8
0
6
CONTINUOUS
10
-64.521605
20
342.238850
30
0.0
11
-59.250265
21
334.206160
31
0.0
0
LINE
8
0
6
CONTINUOUS
10
-81.895325
20
372.445750
30
0.0
11
-75.380715
21
362.517620
31
0.0
0
LINE
8
0
6
CONTINUOUS
10
-94.590615
20
391.811140
30
0.0
11
-91.982885
21
387.839740
31
0.0
0
LINE
8
0
6
CONTINUOUS
10
-49.228265
20
322.629930
30
0.0
11
-44.887805
21
316.018450
31
0.0
0
LINE
8
0
6
CONTINUOUS
10
-68.436655
20
351.928180
30
0.0
11
-61.495885
21
341.331710
31
0.0
0
LINE
8
0
6
CONTINUOUS
10
-54.981005
20
331.404190
30
0.0
11
-49.228265
21
322.629930
31
0.0
0
LINE
8
0
6
CONTINUOUS
10
-95.567595
20
393.298870
30
0.0
11
-94.590615
21
391.811140
31
0.0
0
LINE
8
0
6
CONTINUOUS
10
-91.982885
20
387.839740
30
0.0
11
-87.647485
21
381.220630
31
0.0
0
LINE
8
0
6
CONTINUOUS
10
-87.647485
20
381.220630
30
0.0
11
-81.895325
21
372.445750
31
0.0
0
LINE
8
0
6
CONTINUOUS
10
-75.380715
20
362.517620
30
0.0
11
-68.436655
21
351.928180
31
0.0
0
LINE
8
0
6
CONTINUOUS
10
-61.495885
20
341.331710
30
0.0
11
-54.981005
21
331.404190
31
0.0
0
LINE
8
0
6
CONTINUOUS
10
-16.624385
20
311.335370
30
0.0
11
-16.505085
21
311.153490
31
0.0
0
LINE
8
0
6
CONTINUOUS
10
-17.492805
20
312.660600
30
0.0
11
-17.058595
21
311.997910
31
0.0
0
LINE
8
0
6
CONTINUOUS
10
-18.974325
20
314.921190
30
0.0
11
-18.233575
21
313.790970
31
0.0
0
LINE
8
0
6
CONTINUOUS
10
-20.866335
20
317.805250
30
0.0
11
-19.920335
21
316.363300
31
0.0
0
LINE
8
0
6
CONTINUOUS
10
-23.421535
20
321.703110
30
0.0
11
-20.866335
21
317.805250
31
0.0
0
LINE
8
0
6
CONTINUOUS
10
-26.385885
20
326.224290
30
0.0
11
-23.421535
21
321.703110
31
0.0
0
LINE
8
0
6
CONTINUOUS
10
-50.767695
20
363.407060
30
0.0
11
-46.320435
21
356.624680
31
0.0
0
LINE
8
0
6
CONTINUOUS
10
-46.320435
20
356.624680
30
0.0
11
-42.078615
21
350.155410
31
0.0
0
LINE
8
0
6
CONTINUOUS
10
-42.078615
20
350.155410
30
0.0
11
-37.581395
21
343.295520
31
0.0
0
LINE
8
0
6
CONTINUOUS
10
-37.581395
20
343.295520
30
0.0
11
-33.593455
21
337.215500
31
0.0
0
LINE
8
0
6
CONTINUOUS
10
-33.593455
20
337.215500
30
0.0
11
-29.810725
21
331.447070
31
0.0
0
LINE
8
0
6
CONTINUOUS
10
-29.810725
20
331.447070
30
0.0
11
-26.385885
21
326.224290
31
0.0
0
LINE
8
0
6
CONTINUOUS
10
-55.214915
20
370.189130
30
0.0
11
-50.767695
21
363.407060
31
0.0
0
LINE
8
0
6
CONTINUOUS
10
-63.955255
20
383.518300
30
0.0
11
-59.456745
21
376.658400
31
0.0
0
LINE
8
0
6
CONTINUOUS
10
-67.941985
20
389.598920
30
0.0
11
-63.955255
21
383.518300
31
0.0
0
LINE
8
0
6
CONTINUOUS
10
-71.724725
20
395.367510
30
0.0
11
-67.941985
21
389.598920
31
0.0
0
LINE
8
0
6
CONTINUOUS
10
-75.148245
20
400.589980
30
0.0
11
-71.724725
21
395.367510
31
0.0
0
LINE
8
0
6
CONTINUOUS
10
-85.015845
20
415.707170
30
0.0
11
-85.270095
21
416.023940
31
0.0
0
LINE
8
0
6
CONTINUOUS
10
-85.270095
20
416.023940
30
0.0
11
-84.911015
21
415.479050
31
0.0
0
LINE
8
0
6
CONTINUOUS
10
-84.911015
20
415.479050
30
0.0
11
-84.042555
21
414.153370
31
0.0
0
LINE
8
0
6
CONTINUOUS
10
-84.042555
20
414.153370
30
0.0
11
-82.559785
21
411.893080
31
0.0
0
LINE
8
0
6
CONTINUOUS
10
-82.559785
20
411.893080
30
0.0
11
-80.669035
21
409.008710
31
0.0
0
LINE
8
0
6
CONTINUOUS
10
-80.669035
20
409.008710
30
0.0
11
-78.113795
21
405.110700
31
0.0
0
LINE
8
0
6
CONTINUOUS
10
-78.113795
20
405.110700
30
0.0
11
-75.148245
21
400.589980
31
0.0
0
LINE
8
0
6
CONTINUOUS
10
-59.456745
20
376.658400
30
0.0
11
-55.214915
21
370.189130
31
0.0
0
LINE
8
0
6
CONTINUOUS
10
-19.920335
20
316.363300
30
0.0
11
-18.974325
21
314.921190
31
0.0
0
LINE
8
0
6
CONTINUOUS
10
-18.233575
20
313.790970
30
0.0
11
-17.492805
21
312.660600
31
0.0
0
LINE
8
0
6
CONTINUOUS
10
-17.058595
20
311.997910
30
0.0
11
-16.624385
21
311.335370
31
0.0
0
LINE
8
0
6
CONTINUOUS
10
-16.385795
20
310.971600
30
0.0
11
-16.266505
21
310.789720
31
0.0
0
LINE
8
0
6
CONTINUOUS
10
-16.266505
20
310.789720
30
0.0
11
-16.455825
21
311.149060
31
0.0
0
LINE
8
0
6
CONTINUOUS
10
-16.505085
20
311.153490
30
0.0
11
-16.385795
21
310.971600
31
0.0
0
LINE
8
0
6
CONTINUOUS
10
-83.736165
20
365.038680
30
0.0
11
-84.911225
21
366.827930
31
0.0
0
LINE
8
0
6
CONTINUOUS
10
-76.253805
20
353.626330
30
0.0
11
-79.189235
21
358.099590
31
0.0
0
LINE
8
0
6
CONTINUOUS
10
-69.996255
20
344.078140
30
0.0
11
-73.124265
21
348.853990
31
0.0
0
LINE
8
0
6
CONTINUOUS
10
-84.911225
20
366.827930
30
0.0
11
-85.351535
21
367.498550
31
0.0
0
LINE
8
0
6
CONTINUOUS
10
-64.467725
20
335.650100
30
0.0
11
-67.060745
21
339.605180
31
0.0
0
LINE
8
0
6
CONTINUOUS
10
-61.337695
20
330.878070
30
0.0
11
-62.511185
21
332.670060
31
0.0
0
LINE
8
0
6
CONTINUOUS
10
-14.718575
20
208.752750
30
0.0
11
-16.974505
21
208.148350
31
0.0
0
LINE
8
0
6
CONTINUOUS
10
-9.917165
20
210.039330
30
0.0
11
-11.127025
21
209.715120
31
0.0
0
LINE
8
0
6
CONTINUOUS
10
-11.127025
20
209.715120
30
0.0
11
-14.718575
21
208.752750
31
0.0
0
LINE
8
0
6
CONTINUOUS
10
-16.974505
20
208.148350
30
0.0
11
-17.551145
21
207.993770
31
0.0
0
LINE
8
0
6
CONTINUOUS
10
-17.551145
20
207.993770
30
0.0
11
-17.323255
21
207.298580
31
0.0
0
LINE
8
0
6
CONTINUOUS
10
42.568285
20
-475.295730
30
0.0
11
39.850475
21
-475.295730
31
0.0
0
LINE
8
0
6
CONTINUOUS
10
39.212995
20
-494.449410
30
0.0
11
41.703315
21
-494.449420
31
0.0
0
LINE
8
0
6
CONTINUOUS
10
43.756665
20
-475.295730
30
0.0
11
42.568285
21
-475.295730
31
0.0
0
LINE
8
0
6
CONTINUOUS
10
42.792245
20
-494.449400
30
0.0
11
43.756665
21
-475.295730
31
0.0
0
LINE
8
0
6
CONTINUOUS
10
41.703315
20
-494.449420
30
0.0
11
42.792245
21
-494.449400
31
0.0
0
LINE
8
0
6
CONTINUOUS
10
39.850475
20
-475.295730
30
0.0
11
35.928455
21
-475.295730
31
0.0
0
LINE
8
0
6
CONTINUOUS
10
39.212995
20
-494.449410
30
0.0
11
39.850475
21
-475.295730
31
0.0
0
LINE
8
0
6
CONTINUOUS
10
35.619235
20
-494.449430
30
0.0
11
39.212995
21
-494.449410
31
0.0
0
LINE
8
0
6
CONTINUOUS
10
27.503585
20
-496.795860
30
0.0
11
31.505735
21
-496.795810
31
0.0
0
LINE
8
0
6
CONTINUOUS
10
24.222325
20
-496.795850
30
0.0
11
27.503585
21
-496.795860
31
0.0
0
LINE
8
0
6
CONTINUOUS
10
41.703295
20
-496.795860
30
0.0
11
39.212985
21
-496.795790
31
0.0
0
LINE
8
0
6
CONTINUOUS
10
24.222325
20
-496.795850
30
0.0
11
22.773382
21
-496.795808
31
0.0
0
LINE
8
0
6
CONTINUOUS
10
42.792225
20
-496.795790
30
0.0
11
42.792225
21
-496.037670
31
0.0
0
LINE
8
0
6
CONTINUOUS
10
41.703295
20
-496.795860
30
0.0
11
42.792225
21
-496.795790
31
0.0
0
LINE
8
0
6
CONTINUOUS
10
39.212985
20
-496.795790
30
0.0
11
39.212985
21
-496.037670
31
0.0
0
LINE
8
0
6
CONTINUOUS
10
39.212985
20
-496.795790
30
0.0
11
35.619205
21
-496.795850
31
0.0
0
LINE
8
0
6
CONTINUOUS
10
35.619205
20
-496.795850
30
0.0
11
35.619215
21
-496.037710
31
0.0
0
LINE
8
0
6
CONTINUOUS
10
31.505735
20
-496.795810
30
0.0
11
35.619205
21
-496.795850
31
0.0
0
LINE
8
0
6
CONTINUOUS
10
31.505735
20
-496.037660
30
0.0
11
31.505735
21
-496.795810
31
0.0
0
LINE
8
0
6
CONTINUOUS
10
39.087025
20
-510.505810
30
0.0
11
39.087025
21
-496.795850
31
0.0
0
LINE
8
0
6
CONTINUOUS
10
32.126615
20
-510.505810
30
0.0
11
32.126615
21
-496.795850
31
0.0
0
LINE
8
0
6
CONTINUOUS
10
25.166205
20
-496.795805
30
0.0
11
25.166205
21
-510.505810
31
0.0
0
LINE
8
0
6
CONTINUOUS
10
39.087025
20
-527.390270
30
0.0
11
39.087025
21
-510.505810
31
0.0
0
LINE
8
0
6
CONTINUOUS
10
32.126615
20
-527.390270
30
0.0
11
32.126615
21
-510.505810
31
0.0
0
LINE
8
0
6
CONTINUOUS
10
25.166205
20
-510.505810
30
0.0
11
25.166205
21
-527.390270
31
0.0
0
LINE
8
0
6
CONTINUOUS
10
39.087025
20
-544.079880
30
0.0
11
39.087025
21
-527.390270
31
0.0
0
LINE
8
0
6
CONTINUOUS
10
32.126615
20
-544.079880
30
0.0
11
32.126615
21
-527.390270
31
0.0
0
LINE
8
0
6
CONTINUOUS
10
25.166205
20
-527.390270
30
0.0
11
25.166205
21
-544.079880
31
0.0
0
LINE
8
0
6
CONTINUOUS
10
39.087025
20
-560.528640
30
0.0
11
39.087025
21
-544.079880
31
0.0
0
LINE
8
0
6
CONTINUOUS
10
32.126615
20
-560.528640
30
0.0
11
32.126615
21
-544.079880
31
0.0
0
LINE
8
0
6
CONTINUOUS
10
25.166205
20
-544.079880
30
0.0
11
25.166205
21
-560.528640
31
0.0
0
LINE
8
0
6
CONTINUOUS
10
39.087025
20
-576.690670
30
0.0
11
39.087025
21
-560.528640
31
0.0
0
LINE
8
0
6
CONTINUOUS
10
32.126615
20
-576.690670
30
0.0
11
32.126615
21
-560.528640
31
0.0
0
LINE
8
0
6
CONTINUOUS
10
25.166205
20
-560.528640
30
0.0
11
25.166205
21
-576.690670
31
0.0
0
LINE
8
0
6
CONTINUOUS
10
39.087025
20
-592.519990
30
0.0
11
39.087025
21
-576.690670
31
0.0
0
LINE
8
0
6
CONTINUOUS
10
32.126615
20
-592.519990
30
0.0
11
32.126615
21
-576.690670
31
0.0
0
LINE
8
0
6
CONTINUOUS
10
25.166205
20
-576.690670
30
0.0
11
25.166205
21
-592.519990
31
0.0
0
LINE
8
0
6
CONTINUOUS
10
39.087025
20
-607.970660
30
0.0
11
39.087025
21
-592.519990
31
0.0
0
LINE
8
0
6
CONTINUOUS
10
32.126615
20
-607.970660
30
0.0
11
32.126615
21
-592.519990
31
0.0
0
LINE
8
0
6
CONTINUOUS
10
25.166205
20
-592.519990
30
0.0
11
25.166205
21
-607.970660
31
0.0
0
LINE
8
0
6
CONTINUOUS
10
39.087025
20
-622.996710
30
0.0
11
39.087025
21
-607.970660
31
0.0
0
LINE
8
0
6
CONTINUOUS
10
32.126615
20
-622.996710
30
0.0
11
32.126615
21
-607.970660
31
0.0
0
LINE
8
0
6
CONTINUOUS
10
25.166205
20
-607.970660
30
0.0
11
25.166205
21
-622.996710
31
0.0
0
LINE
8
0
6
CONTINUOUS
10
39.087035
20
-637.523210
30
0.0
11
39.087025
21
-622.996710
31
0.0
0
LINE
8
0
6
CONTINUOUS
10
32.126635
20
-637.487430
30
0.0
11
32.126615
21
-622.996710
31
0.0
0
LINE
8
0
6
CONTINUOUS
10
25.166205
20
-622.996710
30
0.0
11
25.166215
21
-637.516460
31
0.0
0
LINE
8
0
6
CONTINUOUS
10
39.071175
20
-653.916780
30
0.0
11
39.087035
21
-637.523210
31
0.0
0
LINE
8
0
6
CONTINUOUS
10
32.110935
20
-653.753490
30
0.0
11
32.126635
21
-637.487430
31
0.0
0
LINE
8
0
6
CONTINUOUS
10
25.166215
20
-637.516460
30
0.0
11
25.150385
21
-653.885980
31
0.0
0
LINE
8
0
6
CONTINUOUS
10
39.019115
20
-668.967820
30
0.0
11
39.071175
21
-653.916780
31
0.0
0
LINE
8
0
6
CONTINUOUS
10
32.059665
20
-668.589060
30
0.0
11
32.110935
21
-653.753490
31
0.0
0
LINE
8
0
6
CONTINUOUS
10
25.150385
20
-653.885980
30
0.0
11
25.098475
21
-668.896370
31
0.0
0
LINE
8
0
6
CONTINUOUS
10
38.924285
20
-682.813640
30
0.0
11
39.019115
21
-668.967820
31
0.0
0
LINE
8
0
6
CONTINUOUS
10
31.966845
20
-682.152790
30
0.0
11
32.059665
21
-668.589060
31
0.0
0
LINE
8
0
6
CONTINUOUS
10
25.098475
20
-668.896370
30
0.0
11
25.004015
21
-682.688940
31
0.0
0
LINE
8
0
6
CONTINUOUS
10
38.780315
20
-695.573270
30
0.0
11
38.924285
21
-682.813640
31
0.0
0
LINE
8
0
6
CONTINUOUS
10
31.826915
20
-694.562840
30
0.0
11
31.966845
21
-682.152790
31
0.0
0
LINE
8
0
6
CONTINUOUS
10
25.004015
20
-682.688940
30
0.0
11
24.860815
21
-695.382610
31
0.0
0
LINE
8
0
6
CONTINUOUS
10
38.555565
20
-709.943200
30
0.0
11
38.767625
21
-697.403490
31
0.0
0
LINE
8
0
6
CONTINUOUS
10
38.580915
20
-707.374120
30
0.0
11
38.780315
21
-695.573270
31
0.0
0
LINE
8
0
6
CONTINUOUS
10
31.634505
20
-705.955730
30
0.0
11
31.826915
21
-694.562840
31
0.0
0
LINE
8
0
6
CONTINUOUS
10
24.860815
20
-695.382610
30
0.0
11
24.662735
21
-707.106480
31
0.0
0
LINE
8
0
6
CONTINUOUS
10
38.274975
20
-721.727070
30
0.0
11
38.555565
21
-709.943200
31
0.0
0
LINE
8
0
6
CONTINUOUS
10
38.319595
20
-718.354340
30
0.0
11
38.580915
21
-707.374120
31
0.0
0
LINE
8
0
6
CONTINUOUS
10
31.383825
20
-716.492270
30
0.0
11
31.634505
21
-705.955730
31
0.0
0
LINE
8
0
6
CONTINUOUS
10
24.662735
20
-707.106480
30
0.0
11
24.403415
21
-718.002970
31
0.0
0
LINE
8
0
6
CONTINUOUS
10
37.918785
20
-732.841420
30
0.0
11
38.274975
21
-721.727070
31
0.0
0
LINE
8
0
6
CONTINUOUS
10
37.989335
20
-728.661000
30
0.0
11
38.319595
21
-718.354340
31
0.0
0
LINE
8
0
6
CONTINUOUS
10
31.067885
20
-726.353070
30
0.0
11
31.383825
21
-716.492270
31
0.0
0
LINE
8
0
6
CONTINUOUS
10
24.403415
20
-718.002970
30
0.0
11
24.075875
21
-728.225520
31
0.0
0
LINE
8
0
6
CONTINUOUS
10
37.480835
20
-743.370740
30
0.0
11
37.918785
21
-732.841420
31
0.0
0
LINE
8
0
6
CONTINUOUS
10
37.582405
20
-738.442760
30
0.0
11
37.989335
21
-728.661000
31
0.0
0
LINE
8
0
6
CONTINUOUS
10
30.678075
20
-735.722080
30
0.0
11
31.067885
21
-726.353070
31
0.0
0
LINE
8
0
6
CONTINUOUS
10
36.955595
20
-753.409040
30
0.0
11
37.480835
21
-743.370740
31
0.0
0
LINE
8
0
6
CONTINUOUS
10
37.090515
20
-747.840500
30
0.0
11
37.582405
21
-738.442760
31
0.0
0
LINE
8
0
6
CONTINUOUS
10
30.204585
20
-744.766200
30
0.0
11
30.678075
21
-735.722080
31
0.0
0
LINE
8
0
6
CONTINUOUS
10
36.331135
20
-763.158460
30
0.0
11
36.955595
21
-753.409040
31
0.0
0
LINE
8
0
6
CONTINUOUS
10
36.510985
20
-756.900860
30
0.0
11
37.090515
21
-747.840500
31
0.0
0
LINE
8
0
6
CONTINUOUS
10
29.649625
20
-753.449780
30
0.0
11
30.204585
21
-744.766200
31
0.0
0
LINE
8
0
6
CONTINUOUS
10
35.452255
20
-773.467520
30
0.0
11
36.331135
21
-763.158460
31
0.0
0
LINE
8
0
6
CONTINUOUS
10
35.697095
20
-766.455460
30
0.0
11
36.510985
21
-756.900860
31
0.0
0
LINE
8
0
6
CONTINUOUS
10
28.870965
20
-762.595520
30
0.0
11
29.649625
21
-753.449780
31
0.0
0
LINE
8
0
6
CONTINUOUS
10
34.443855
20
-781.457670
30
0.0
11
35.452255
21
-773.467520
31
0.0
0
LINE
8
0
6
CONTINUOUS
10
34.755875
20
-773.902280
30
0.0
11
35.697095
21
-766.455460
31
0.0
0
LINE
8
0
6
CONTINUOUS
10
27.966115
20
-769.748000
30
0.0
11
28.870965
21
-762.595520
31
0.0
0
LINE
8
0
6
CONTINUOUS
10
33.340225
20
-787.075770
30
0.0
11
34.443855
21
-781.457670
31
0.0
0
LINE
8
0
6
CONTINUOUS
10
33.708645
20
-779.227520
30
0.0
11
34.755875
21
-773.902280
31
0.0
0
LINE
8
0
6
CONTINUOUS
10
27.752415
20
-770.834006
30
0.0
11
27.966115
21
-769.748000
31
0.0
0
LINE
8
0
6
CONTINUOUS
10
32.166725
20
-790.341490
30
0.0
11
33.340225
21
-787.075770
31
0.0
0
LINE
8
0
6
CONTINUOUS
10
32.584535
20
-782.353060
30
0.0
11
33.708645
21
-779.227520
31
0.0
0
LINE
8
0
6
CONTINUOUS
10
30.948925
20
-791.247480
30
0.0
11
32.166725
21
-790.341490
31
0.0
0
LINE
8
0
6
CONTINUOUS
10
31.412525
20
-783.223990
30
0.0
11
32.584535
21
-782.353060
31
0.0
0
LINE
8
0
6
CONTINUOUS
10
23.778345
20
-794.861680
30
0.0
11
30.948925
21
-791.247480
31
0.0
0
LINE
8
0
6
CONTINUOUS
10
29.712595
20
-789.769210
30
0.0
11
30.948925
21
-791.247480
31
0.0
0
LINE
8
0
6
CONTINUOUS
10
31.412525
20
-783.223990
30
0.0
11
30.221365
21
-781.800080
31
0.0
0
LINE
8
0
6
CONTINUOUS
10
17.071365
20
-790.452460
30
0.0
11
23.778345
21
-794.861680
31
0.0
0
LINE
8
0
6
CONTINUOUS
10
15.839695
20
-788.979800
30
0.0
11
17.071365
21
-790.452460
31
0.0
0
LINE
8
0
6
CONTINUOUS
10
23.778345
20
-794.861680
30
0.0
11
22.521755
21
-793.359070
31
0.0
0
LINE
8
0
6
CONTINUOUS
10
28.483635
20
-785.869060
30
0.0
11
29.712595
21
-789.769210
31
0.0
0
LINE
8
0
6
CONTINUOUS
10
30.221365
20
-781.800080
30
0.0
11
29.039665
21
-778.051570
31
0.0
0
LINE
8
0
6
CONTINUOUS
10
14.615865
20
-785.096130
30
0.0
11
15.839695
21
-788.979800
31
0.0
0
LINE
8
0
6
CONTINUOUS
10
22.521755
20
-793.359070
30
0.0
11
21.271735
21
-789.391330
31
0.0
0
LINE
8
0
6
CONTINUOUS
10
27.288035
20
-779.496540
30
0.0
11
28.483635
21
-785.869060
31
0.0
0
LINE
8
0
6
CONTINUOUS
10
29.039665
20
-778.051570
30
0.0
11
27.895995
21
-771.959340
31
0.0
0
LINE
8
0
6
CONTINUOUS
10
13.426145
20
-778.755300
30
0.0
11
14.615865
21
-785.096130
31
0.0
0
LINE
8
0
6
CONTINUOUS
10
21.271735
20
-789.391330
30
0.0
11
20.053105
21
-782.894520
31
0.0
0
LINE
8
0
6
CONTINUOUS
10
26.151835
20
-770.584980
30
0.0
11
27.288035
21
-779.496540
31
0.0
0
LINE
8
0
6
CONTINUOUS
10
27.895995
20
-771.959340
30
0.0
11
26.818805
21
-763.516690
31
0.0
0
LINE
8
0
6
CONTINUOUS
10
12.296855
20
-769.898640
30
0.0
11
13.426145
21
-778.755300
31
0.0
0
LINE
8
0
6
CONTINUOUS
10
20.053105
20
-782.894520
30
0.0
11
18.890865
21
-773.775940
31
0.0
0
LINE
8
0
6
CONTINUOUS
10
25.108825
20
-759.137650
30
0.0
11
26.151835
21
-770.584980
31
0.0
0
LINE
8
0
6
CONTINUOUS
10
26.818805
20
-763.516690
30
0.0
11
25.830685
21
-752.663990
31
0.0
0
LINE
8
0
6
CONTINUOUS
10
11.260225
20
-758.520390
30
0.0
11
12.296855
21
-769.898640
31
0.0
0
LINE
8
0
6
CONTINUOUS
10
18.890865
20
-773.775940
30
0.0
11
17.823595
21
-762.065850
31
0.0
0
LINE
8
0
6
CONTINUOUS
10
24.474005
20
-750.347060
30
0.0
11
25.108825
21
-759.137650
31
0.0
0
LINE
8
0
6
CONTINUOUS
10
25.830685
20
-752.663990
30
0.0
11
25.233245
21
-744.383240
31
0.0
0
LINE
8
0
6
CONTINUOUS
10
10.629355
20
-749.783780
30
0.0
11
11.260225
21
-758.520390
31
0.0
0
LINE
8
0
6
CONTINUOUS
10
17.823595
20
-762.065850
30
0.0
11
17.172065
21
-753.047290
31
0.0
0
LINE
8
0
6
CONTINUOUS
10
23.907285
20
-741.149790
30
0.0
11
24.474005
21
-750.347060
31
0.0
0
LINE
8
0
6
CONTINUOUS
10
25.233245
20
-744.383240
30
0.0
11
24.695615
21
-735.660710
31
0.0
0
LINE
8
0
6
CONTINUOUS
10
10.065395
20
-740.631330
30
0.0
11
10.629355
21
-749.783780
31
0.0
0
LINE
8
0
6
CONTINUOUS
10
17.172065
20
-753.047290
30
0.0
11
16.592175
21
-743.635100
31
0.0
0
LINE
8
0
6
CONTINUOUS
10
23.403845
20
-731.350780
30
0.0
11
23.907285
21
-741.149790
31
0.0
0
LINE
8
0
6
CONTINUOUS
10
24.695615
20
-735.660710
30
0.0
11
24.221965
21
-726.444470
31
0.0
0
LINE
8
0
6
CONTINUOUS
10
9.564755
20
-730.887380
30
0.0
11
10.065395
21
-740.631330
31
0.0
0
LINE
8
0
6
CONTINUOUS
10
16.592175
20
-743.635100
30
0.0
11
16.075235
21
-733.572160
31
0.0
0
LINE
8
0
6
CONTINUOUS
10
22.965155
20
-720.841710
30
0.0
11
23.403845
21
-731.350780
31
0.0
0
LINE
8
0
6
CONTINUOUS
10
24.221965
20
-726.444470
30
0.0
11
23.811615
21
-716.616210
31
0.0
0
LINE
8
0
6
CONTINUOUS
10
9.128755
20
-720.442580
30
0.0
11
9.564755
21
-730.887380
31
0.0
0
LINE
8
0
6
CONTINUOUS
10
16.075235
20
-733.572160
30
0.0
11
15.623735
21
-722.754900
31
0.0
0
LINE
8
0
6
CONTINUOUS
10
22.592725
20
-709.523850
30
0.0
11
22.965155
21
-720.841710
31
0.0
0
LINE
8
0
6
CONTINUOUS
10
23.811615
20
-716.616210
30
0.0
11
23.463885
21
-706.049580
31
0.0
0
LINE
8
0
6
CONTINUOUS
10
8.758645
20
-709.195710
30
0.0
11
9.128755
21
-720.442580
31
0.0
0
LINE
8
0
6
CONTINUOUS
10
15.623735
20
-722.754900
30
0.0
11
15.240105
21
-711.096950
31
0.0
0
LINE
8
0
6
CONTINUOUS
10
22.287685
20
-697.305680
30
0.0
11
22.592725
21
-709.523850
31
0.0
0
LINE
8
0
6
CONTINUOUS
10
23.463885
20
-706.049580
30
0.0
11
23.178395
21
-694.612430
31
0.0
0
LINE
8
0
6
CONTINUOUS
10
8.455455
20
-697.051280
30
0.0
11
8.758645
21
-709.195710
31
0.0
0
LINE
8
0
6
CONTINUOUS
10
15.240105
20
-711.096950
30
0.0
11
14.926225
21
-698.525090
31
0.0
0
LINE
8
0
6
CONTINUOUS
10
22.050645
20
-684.097330
30
0.0
11
22.287685
21
-697.305680
31
0.0
0
LINE
8
0
6
CONTINUOUS
10
23.178395
20
-694.612430
30
0.0
11
22.955205
21
-682.171060
31
0.0
0
LINE
8
0
6
CONTINUOUS
10
8.219725
20
-683.915410
30
0.0
11
8.455455
21
-697.051280
31
0.0
0
LINE
8
0
6
CONTINUOUS
10
14.926225
20
-698.525090
30
0.0
11
14.682905
21
-684.969480
31
0.0
0
LINE
8
0
6
CONTINUOUS
10
21.881675
20
-669.805150
30
0.0
11
22.050645
21
-684.097330
31
0.0
0
LINE
8
0
6
CONTINUOUS
10
22.955205
20
-682.171060
30
0.0
11
22.794805
21
-668.595050
31
0.0
0
LINE
8
0
6
CONTINUOUS
10
8.051555
20
-669.690860
30
0.0
11
8.219725
21
-683.915410
31
0.0
0
LINE
8
0
6
CONTINUOUS
10
14.682905
20
-684.969480
30
0.0
11
14.510045
21
-670.353090
31
0.0
0
LINE
8
0
6
CONTINUOUS
10
21.780525
20
-654.328170
30
0.0
11
21.881675
21
-669.805150
31
0.0
0
LINE
8
0
6
CONTINUOUS
10
22.794805
20
-668.595050
30
0.0
11
22.697965
21
-653.759940
31
0.0
0
LINE
8
0
6
CONTINUOUS
10
7.950825
20
-654.274500
30
0.0
11
8.051555
21
-669.690860
31
0.0
0
LINE
8
0
6
CONTINUOUS
10
14.510045
20
-670.353090
30
0.0
11
14.406955
21
-654.585480
31
0.0
0
LINE
8
0
6
CONTINUOUS
10
21.746945
20
-637.627300
30
0.0
11
21.780525
21
-654.328170
31
0.0
0
LINE
8
0
6
CONTINUOUS
10
22.697965
20
-653.759940
30
0.0
11
22.665465
21
-637.493650
31
0.0
0
LINE
8
0
6
CONTINUOUS
10
7.917325
20
-637.610840
30
0.0
11
7.950825
21
-654.274500
31
0.0
0
LINE
8
0
6
CONTINUOUS
10
14.406955
20
-654.585480
30
0.0
11
14.372875
21
-637.685890
31
0.0
0
LINE
8
0
6
CONTINUOUS
10
21.763385
20
-607.737390
30
0.0
11
21.746945
21
-637.627300
31
0.0
0
LINE
8
0
6
CONTINUOUS
10
22.665465
20
-637.493650
30
0.0
11
22.681905
21
-607.738000
31
0.0
0
LINE
8
0
6
CONTINUOUS
10
7.933765
20
-607.728120
30
0.0
11
7.917325
21
-637.610840
31
0.0
0
LINE
8
0
6
CONTINUOUS
10
14.372875
20
-637.685890
30
0.0
11
14.389305
21
-607.732430
31
0.0
0
LINE
8
0
6
CONTINUOUS
10
21.808005
20
-551.284890
30
0.0
11
21.763385
21
-607.737390
31
0.0
0
LINE
8
0
6
CONTINUOUS
10
22.681905
20
-607.738000
30
0.0
11
22.726535
21
-551.285630
31
0.0
0
LINE
8
0
6
CONTINUOUS
10
7.978405
20
-551.273460
30
0.0
11
7.933765
21
-607.728120
31
0.0
0
LINE
8
0
6
CONTINUOUS
10
14.389305
20
-607.732430
30
0.0
11
14.433935
21
-551.278800
31
0.0
0
LINE
8
0
6
CONTINUOUS
10
21.873765
20
-474.784290
30
0.0
11
21.808005
21
-551.284890
31
0.0
0
LINE
8
0
6
CONTINUOUS
10
22.726535
20
-551.285630
30
0.0
11
22.792305
21
-474.785100
31
0.0
0
LINE
8
0
6
CONTINUOUS
10
8.044165
20
-474.772210
30
0.0
11
7.978405
21
-551.273460
31
0.0
0
LINE
8
0
6
CONTINUOUS
10
14.433935
20
-551.278800
30
0.0
11
14.499705
21
-474.777850
31
0.0
0
LINE
8
0
6
CONTINUOUS
10
22.792305
20
-474.785100
30
0.0
11
22.845088
21
-415.318680
31
0.0
0
LINE
8
0
6
CONTINUOUS
10
22.920170
20
-331.330860
30
0.0
11
22.959065
21
-287.988950
31
0.0
0
LINE
8
0
6
CONTINUOUS
10
22.127445
20
-190.866530
30
0.0
11
22.040535
21
-287.988130
31
0.0
0
LINE
8
0
6
CONTINUOUS
10
22.959065
20
-287.988950
30
0.0
11
23.045965
21
-190.867350
31
0.0
0
LINE
8
0
6
CONTINUOUS
10
22.207305
20
-100.045150
30
0.0
11
22.127445
21
-190.866530
31
0.0
0
LINE
8
0
6
CONTINUOUS
10
23.045965
20
-190.867350
30
0.0
11
23.125825
21
-100.045950
31
0.0
0
LINE
8
0
6
CONTINUOUS
10
22.273065
20
-22.110750
30
0.0
11
22.207305
21
-100.045150
31
0.0
0
LINE
8
0
6
CONTINUOUS
10
23.125825
20
-100.045950
30
0.0
11
23.191595
21
-22.111440
31
0.0
0
LINE
8
0
6
CONTINUOUS
10
22.317695
20
36.350170
30
0.0
11
22.273065
21
-22.110750
31
0.0
0
LINE
8
0
6
CONTINUOUS
10
23.191595
20
-22.111440
30
0.0
11
23.236225
21
36.349640
31
0.0
0
LINE
8
0
6
CONTINUOUS
10
22.333975
20
68.799510
30
0.0
11
22.317695
21
36.350170
31
0.0
0
LINE
8
0
6
CONTINUOUS
10
23.236225
20
36.349640
30
0.0
11
23.252475
21
68.806150
31
0.0
0
LINE
8
0
6
CONTINUOUS
10
22.065685
20
86.743930
30
0.0
11
22.333975
21
68.799510
31
0.0
0
LINE
8
0
6
CONTINUOUS
10
23.252475
20
68.806150
30
0.0
11
22.983795
21
86.771700
31
0.0
0
LINE
8
0
6
CONTINUOUS
10
21.314595
20
103.243870
30
0.0
11
22.065685
21
86.743930
31
0.0
0
LINE
8
0
6
CONTINUOUS
10
22.983795
20
86.771700
30
0.0
11
22.231415
21
103.299790
31
0.0
0
LINE
8
0
6
CONTINUOUS
10
20.162425
20
118.296430
30
0.0
11
21.314595
21
103.243870
31
0.0
0
LINE
8
0
6
CONTINUOUS
10
22.231415
20
103.299790
30
0.0
11
21.077075
21
118.380740
31
0.0
0
LINE
8
0
6
CONTINUOUS
10
18.690965
20
131.945570
30
0.0
11
20.162425
21
118.296430
31
0.0
0
LINE
8
0
6
CONTINUOUS
10
21.077075
20
118.380740
30
0.0
11
19.602575
21
132.058030
31
0.0
0
LINE
8
0
6
CONTINUOUS
10
16.982355
20
144.234470
30
0.0
11
18.690965
21
131.945570
31
0.0
0
LINE
8
0
6
CONTINUOUS
10
19.602575
20
132.058030
30
0.0
11
17.890125
21
144.374620
31
0.0
0
LINE
8
0
6
CONTINUOUS
10
15.119215
20
155.205460
30
0.0
11
16.982355
21
144.234470
31
0.0
0
LINE
8
0
6
CONTINUOUS
10
17.890125
20
144.374620
30
0.0
11
16.054899
21
155.181310
31
0.0
0
LINE
8
0
6
CONTINUOUS
10
14.579575
20
-384.818100
30
0.0
11
16.115785
21
-384.821529
31
0.0
0
LINE
8
0
6
CONTINUOUS
10
22.001644
20
-331.330860
30
0.0
11
22.040535
21
-287.988130
31
0.0
0
LINE
8
0
6
CONTINUOUS
10
8.124035
20
-384.823860
30
0.0
11
14.579575
21
-384.818100
31
0.0
0
LINE
8
0
6
CONTINUOUS
10
8.151838
20
-353.837573
30
0.0
11
8.124047
21
-384.810700
31
0.0
0
LINE
8
0
6
CONTINUOUS
10
14.579575
20
-384.818100
30
0.0
11
14.608711
21
-352.350210
31
0.0
0
LINE
8
0
6
CONTINUOUS
10
16.115785
20
-384.819129
30
0.0
11
14.579575
21
-384.818100
31
0.0
0
LINE
8
0
6
CONTINUOUS
10
21.873765
20
-474.784290
30
0.0
11
21.926560
21
-415.318680
31
0.0
0
LINE
8
0
6
CONTINUOUS
10
8.124025
20
-384.810700
30
0.0
11
8.044165
21
-474.772210
31
0.0
0
LINE
8
0
6
CONTINUOUS
10
14.579575
20
-384.818100
30
0.0
11
8.124047
21
-384.810700
31
0.0
0
LINE
8
0
6
CONTINUOUS
10
14.499705
20
-474.777850
30
0.0
11
14.579575
21
-384.818100
31
0.0
0
LINE
8
0
6
CONTINUOUS
10
-17.323255
20
207.298580
30
0.0
11
-15.879091
21
203.099037
31
0.0
0
LINE
8
0
6
CONTINUOUS
10
23.490475
20
-475.295740
30
0.0
11
22.791866
21
-475.295734
31
0.0
0
LINE
8
0
6
CONTINUOUS
10
22.775399
20
-494.449406
30
0.0
11
24.222325
21
-494.449420
31
0.0
0
LINE
8
0
6
CONTINUOUS
10
35.928455
20
-475.295730
30
0.0
11
31.439205
21
-475.295720
31
0.0
0
LINE
8
0
6
CONTINUOUS
10
35.619235
20
-494.449430
30
0.0
11
35.928455
21
-475.295730
31
0.0
0
LINE
8
0
6
CONTINUOUS
10
31.505745
20
-494.449390
30
0.0
11
35.619235
21
-494.449430
31
0.0
0
LINE
8
0
6
CONTINUOUS
10
31.439205
20
-475.295720
30
0.0
11
27.071495
21
-475.295740
31
0.0
0
LINE
8
0
6
CONTINUOUS
10
27.503615
20
-494.449420
30
0.0
11
31.505745
21
-494.449390
31
0.0
0
LINE
8
0
6
CONTINUOUS
10
27.071495
20
-475.295740
30
0.0
11
23.490475
21
-475.295740
31
0.0
0
LINE
8
0
6
CONTINUOUS
10
24.222325
20
-494.449420
30
0.0
11
27.503615
21
-494.449420
31
0.0
0
LINE
8
0
6
CONTINUOUS
10
39.212985
20
-495.121650
30
0.0
11
35.619235
21
-495.121680
31
0.0
0
LINE
8
0
6
CONTINUOUS
10
39.212985
20
-495.121650
30
0.0
11
39.212985
21
-496.037670
31
0.0
0
LINE
8
0
6
CONTINUOUS
10
41.703315
20
-495.121670
30
0.0
11
39.212985
21
-495.121650
31
0.0
0
LINE
8
0
6
CONTINUOUS
10
35.619215
20
-496.037710
30
0.0
11
35.619235
21
-495.121680
31
0.0
0
LINE
8
0
6
CONTINUOUS
10
35.619235
20
-495.121680
30
0.0
11
31.505745
21
-495.121640
31
0.0
0
LINE
8
0
6
CONTINUOUS
10
31.505735
20
-496.037660
30
0.0
11
31.505745
21
-495.121640
31
0.0
0
LINE
8
0
6
CONTINUOUS
10
31.505745
20
-495.121640
30
0.0
11
27.503605
21
-495.121670
31
0.0
0
LINE
8
0
6
CONTINUOUS
10
24.222325
20
-495.121670
30
0.0
11
22.774821
21
-495.121656
31
0.0
0
LINE
8
0
6
CONTINUOUS
10
42.792225
20
-496.037670
30
0.0
11
42.792235
21
-495.121650
31
0.0
0
LINE
8
0
6
CONTINUOUS
10
42.792235
20
-495.121650
30
0.0
11
41.703315
21
-495.121670
31
0.0
0
LINE
8
0
6
CONTINUOUS
10
27.503605
20
-495.121670
30
0.0
11
24.222325
21
-495.121670
31
0.0
0
LINE
8
0
6
CONTINUOUS
10
23.860835
20
-473.796410
30
0.0
11
27.290125
21
-473.796430
31
0.0
0
LINE
8
0
6
CONTINUOUS
10
42.130265
20
-473.796420
30
0.0
11
43.268285
21
-473.796410
31
0.0
0
LINE
8
0
6
CONTINUOUS
10
42.764385
20
-473.796390
30
0.0
11
32.224345
21
-473.796400
31
0.0
0
LINE
8
0
6
CONTINUOUS
10
24.222325
20
-494.449420
30
0.0
11
22.775399
21
-494.449406
31
0.0
0
LINE
8
0
6
CONTINUOUS
10
27.503615
20
-494.449420
30
0.0
11
24.222325
21
-494.449420
31
0.0
0
LINE
8
0
6
CONTINUOUS
10
31.505745
20
-495.121640
30
0.0
11
35.619235
21
-495.121680
31
0.0
0
LINE
8
0
6
CONTINUOUS
10
23.860835
20
-473.796410
30
0.0
11
22.793183
21
-473.796410
31
0.0
0
LINE
8
0
6
CONTINUOUS
10
22.791866
20
-475.295734
30
0.0
11
23.490475
21
-475.295740
31
0.0
0
LINE
8
0
6
CONTINUOUS
10
27.290125
20
-473.796430
30
0.0
11
23.860835
21
-473.796410
31
0.0
0
LINE
8
0
6
CONTINUOUS
10
23.490475
20
-475.295740
30
0.0
11
27.071495
21
-475.295740
31
0.0
0
LINE
8
0
6
CONTINUOUS
10
31.517515
20
-494.780080
30
0.0
11
35.564805
21
-494.780140
31
0.0
0
LINE
8
0
6
CONTINUOUS
10
35.619235
20
-494.449430
30
0.0
11
31.505745
21
-494.449390
31
0.0
0
LINE
8
0
6
CONTINUOUS
10
42.621975
20
-494.780110
30
0.0
11
42.792245
21
-494.449400
31
0.0
0
LINE
8
0
6
CONTINUOUS
10
42.792245
20
-494.449400
30
0.0
11
41.703315
21
-494.449420
31
0.0
0
LINE
8
0
6
CONTINUOUS
10
41.703315
20
-494.449420
30
0.0
11
39.212995
21
-494.449410
31
0.0
0
LINE
8
0
6
CONTINUOUS
10
39.212995
20
-494.449410
30
0.0
11
35.619235
21
-494.449430
31
0.0
0
LINE
8
0
6
CONTINUOUS
10
31.505745
20
-494.449390
30
0.0
11
27.503615
21
-494.449420
31
0.0
0
LINE
8
0
6
CONTINUOUS
10
22.774821
20
-495.121656
30
0.0
11
24.222325
21
-495.121670
31
0.0
0
LINE
8
0
6
CONTINUOUS
10
24.351085
20
-494.780130
30
0.0
11
22.775115
21
-494.780107
31
0.0
0
LINE
8
0
6
CONTINUOUS
10
27.503605
20
-495.121670
30
0.0
11
31.505745
21
-495.121640
31
0.0
0
LINE
8
0
6
CONTINUOUS
10
31.517515
20
-494.780080
30
0.0
11
27.579665
21
-494.780120
31
0.0
0
LINE
8
0
6
CONTINUOUS
10
24.222325
20
-495.121670
30
0.0
11
27.503605
21
-495.121670
31
0.0
0
LINE
8
0
6
CONTINUOUS
10
27.579665
20
-494.780120
30
0.0
11
24.351085
21
-494.780130
31
0.0
0
LINE
8
0
6
CONTINUOUS
10
35.619235
20
-495.121680
30
0.0
11
39.212985
21
-495.121650
31
0.0
0
LINE
8
0
6
CONTINUOUS
10
39.099995
20
-494.780090
30
0.0
11
35.564805
21
-494.780140
31
0.0
0
LINE
8
0
6
CONTINUOUS
10
42.792235
20
-495.121650
30
0.0
11
42.621975
21
-494.780110
31
0.0
0
LINE
8
0
6
CONTINUOUS
10
41.703315
20
-495.121670
30
0.0
11
42.792235
21
-495.121650
31
0.0
0
LINE
8
0
6
CONTINUOUS
10
42.621975
20
-494.780110
30
0.0
11
41.550045
21
-494.780120
31
0.0
0
LINE
8
0
6
CONTINUOUS
10
39.212985
20
-495.121650
30
0.0
11
41.703315
21
-495.121670
31
0.0
0
LINE
8
0
6
CONTINUOUS
10
41.550045
20
-494.780120
30
0.0
11
39.099995
21
-494.780090
31
0.0
0
LINE
8
0
6
CONTINUOUS
10
35.771785
20
-473.796410
30
0.0
11
31.472765
21
-473.796370
31
0.0
0
LINE
8
0
6
CONTINUOUS
10
31.439205
20
-475.295720
30
0.0
11
35.928455
21
-475.295730
31
0.0
0
LINE
8
0
6
CONTINUOUS
10
42.130265
20
-473.796420
30
0.0
11
39.527605
21
-473.796410
31
0.0
0
LINE
8
0
6
CONTINUOUS
10
39.850475
20
-475.295730
30
0.0
11
42.568285
21
-475.295730
31
0.0
0
LINE
8
0
6
CONTINUOUS
10
43.268285
20
-473.796410
30
0.0
11
42.130265
21
-473.796420
31
0.0
0
LINE
8
0
6
CONTINUOUS
10
43.756665
20
-475.295730
30
0.0
11
43.268285
21
-473.796410
31
0.0
0
LINE
8
0
6
CONTINUOUS
10
42.568285
20
-475.295730
30
0.0
11
43.756665
21
-475.295730
31
0.0
0
LINE
8
0
6
CONTINUOUS
10
39.527605
20
-473.796410
30
0.0
11
35.771785
21
-473.796410
31
0.0
0
LINE
8
0
6
CONTINUOUS
10
35.928455
20
-475.295730
30
0.0
11
39.850475
21
-475.295730
31
0.0
0
LINE
8
0
6
CONTINUOUS
10
31.472765
20
-473.796370
30
0.0
11
27.290125
21
-473.796430
31
0.0
0
LINE
8
0
6
CONTINUOUS
10
27.071495
20
-475.295740
30
0.0
11
31.439205
21
-475.295720
31
0.0
0
LINE
8
0
6
CONTINUOUS
10
-93.453732
20
389.548699
30
0.0
11
-93.568409
21
389.862355
31
0.0
0
LINE
8
0
6
CONTINUOUS
10
-93.257573
20
392.281269
30
0.0
11
-93.875859
21
394.230596
31
0.0
0
LINE
8
0
6
CONTINUOUS
10
-72.160377
20
356.889874
30
0.0
11
-72.811078
21
357.671578
31
0.0
0
LINE
8
0
6
CONTINUOUS
10
-56.252252
20
325.424586
30
0.0
11
-56.865016
21
326.290954
31
0.0
0
LINE
8
0
6
CONTINUOUS
10
-54.210245
20
325.979732
30
0.0
11
-54.755140
21
326.679990
31
0.0
0
LINE
8
0
6
CONTINUOUS
10
-57.780071
20
331.299676
30
0.0
11
-57.936256
21
331.666952
31
0.0
0
LINE
8
0
6
CONTINUOUS
10
-85.945657
20
374.453302
30
0.0
11
-86.370451
21
375.229507
31
0.0
0
LINE
8
0
6
CONTINUOUS
10
-52.086746
20
321.612526
30
0.0
11
-53.417808
21
323.152344
31
0.0
0
LINE
8
0
6
CONTINUOUS
10
-77.494618
20
361.483819
30
0.0
11
-76.566022
21
360.394513
31
0.0
0
LINE
8
0
6
CONTINUOUS
10
-81.305577
20
367.340142
30
0.0
11
-82.312039
21
369.202527
31
0.0
0
LINE
8
0
6
CONTINUOUS
10
-82.933064
20
369.825560
30
0.0
11
-82.637498
21
369.512240
31
0.0
0
LINE
8
0
6
CONTINUOUS
10
-51.893627
20
318.849764
30
0.0
11
-52.862401
21
320.751013
31
0.0
0
LINE
8
0
6
CONTINUOUS
10
-95.187989
20
395.363847
30
0.0
11
-95.756345
21
397.082353
31
0.0
0
LINE
8
0
6
CONTINUOUS
10
-89.054151
20
379.232126
30
0.0
11
-89.758908
21
380.653985
31
0.0
0
LINE
8
0
6
CONTINUOUS
10
-88.186869
20
376.859493
30
0.0
11
-88.268133
21
377.334886
31
0.0
0
LINE
8
0
6
CONTINUOUS
10
-90.795008
20
382.248130
30
0.0
11
-90.355235
21
381.268327
31
0.0
0
LINE
8
0
6
CONTINUOUS
10
-65.823034
20
342.894906
30
0.0
11
-65.639240
21
342.800470
31
0.0
0
LINE
8
0
6
CONTINUOUS
10
-60.023634
20
330.970762
30
0.0
11
-59.900936
21
330.961096
31
0.0
0
LINE
8
0
6
CONTINUOUS
10
-59.900936
20
330.961096
30
0.0
11
-59.810367
21
330.944597
31
0.0
0
LINE
8
0
6
CONTINUOUS
10
-58.485655
20
329.528348
30
0.0
11
-59.810367
21
330.944597
31
0.0
0
LINE
8
0
6
CONTINUOUS
10
-59.060916
20
336.603751
30
0.0
11
-59.271810
21
337.058408
31
0.0
0
LINE
8
0
6
CONTINUOUS
10
-49.590478
20
321.286326
30
0.0
11
-48.190148
21
319.959185
31
0.0
0
LINE
8
0
6
CONTINUOUS
10
-78.485025
20
366.598254
30
0.0
11
-78.351783
21
366.449268
31
0.0
0
LINE
8
0
6
CONTINUOUS
10
-90.272923
20
384.693128
30
0.0
11
-90.341561
21
384.828252
31
0.0
0
LINE
8
0
6
CONTINUOUS
10
-64.835855
20
345.464139
30
0.0
11
-65.491391
21
346.776316
31
0.0
0
LINE
8
0
6
CONTINUOUS
10
-93.031929
20
389.251304
30
0.0
11
-92.610647
21
388.346420
31
0.0
0
LINE
8
0
6
CONTINUOUS
10
-91.839385
20
385.946242
30
0.0
11
-91.895252
21
386.352234
31
0.0
0
LINE
8
0
6
CONTINUOUS
10
-90.341561
20
384.828252
30
0.0
11
-91.042674
21
386.332632
31
0.0
0
LINE
8
0
6
CONTINUOUS
10
-89.806290
20
382.652896
30
0.0
11
-89.673944
21
382.830260
31
0.0
0
LINE
8
0
6
CONTINUOUS
10
-65.593812
20
346.997017
30
0.0
11
-66.826424
21
348.520818
31
0.0
0
LINE
8
0
6
CONTINUOUS
10
-76.667148
20
362.783311
30
0.0
11
-76.672418
21
363.678859
31
0.0
0
LINE
8
0
6
CONTINUOUS
10
-78.351783
20
366.449268
30
0.0
11
-77.581323
21
365.586424
31
0.0
0
LINE
8
0
6
CONTINUOUS
10
-81.776566
20
370.767706
30
0.0
11
-81.977985
21
371.786724
31
0.0
0
LINE
8
0
6
CONTINUOUS
10
-81.977985
20
371.786724
30
0.0
11
-82.030236
21
372.043465
31
0.0
0
LINE
8
0
6
CONTINUOUS
10
-53.855745
20
328.632981
30
0.0
11
-54.158914
21
329.520135
31
0.0
0
LINE
8
0
6
CONTINUOUS
10
-56.531311
20
331.934744
30
0.0
11
-55.496659
21
331.170971
31
0.0
0
LINE
8
0
6
CONTINUOUS
10
-64.014042
20
337.396671
30
0.0
11
-63.007687
21
336.474180
31
0.0
0
LINE
8
0
6
CONTINUOUS
10
-69.813464
20
346.266525
30
0.0
11
-69.274328
21
346.058415
31
0.0
0
LINE
8
0
6
CONTINUOUS
10
-93.221851
20
389.700766
30
0.0
11
-93.031929
21
389.251304
31
0.0
0
LINE
8
0
6
CONTINUOUS
10
-86.205161
20
377.565906
30
0.0
11
-86.664147
21
379.163003
31
0.0
0
LINE
8
0
6
CONTINUOUS
10
-86.664147
20
379.163003
30
0.0
11
-87.556287
21
380.984178
31
0.0
0
LINE
8
0
6
CONTINUOUS
10
-71.044067
20
354.166298
30
0.0
11
-70.808719
21
354.622762
31
0.0
0
LINE
8
0
6
CONTINUOUS
10
-71.703138
20
356.368198
30
0.0
11
-72.160377
21
356.889874
31
0.0
0
LINE
8
0
6
CONTINUOUS
10
-59.271810
20
337.058408
30
0.0
11
-59.610436
21
337.847952
31
0.0
0
LINE
8
0
6
CONTINUOUS
10
-59.610436
20
337.847952
30
0.0
11
-60.930938
21
339.485502
31
0.0
0
ENDSEC
0
EOF
